  0
SECTION
  2
HEADER
  9
$ACADVER
  1
AC1009
  9
$INSBASE
 10
0.0
 20
0.0
 30
0.0
  9
$EXTMIN
 10
124.2169668534968
 20
159.12898002310089
 30
-0.0015258207003583
  9
$EXTMAX
 10
751.61812778413048
 20
581.71547390293563
 30
0.0000000349246037
  9
$LIMMIN
 10
0.0
 20
0.0
  9
$LIMMAX
 10
853.5
 20
555.00000000000011
  9
$ORTHOMODE
 70
     0
  9
$REGENMODE
 70
     1
  9
$FILLMODE
 70
     1
  9
$QTEXTMODE
 70
     0
  9
$MIRRTEXT
 70
     1
  9
$DRAGMODE
 70
     2
  9
$LTSCALE
 40
3.0
  9
$OSMODE
 70
   551
  9
$ATTMODE
 70
     1
  9
$TEXTSIZE
 40
2.5
  9
$TRACEWID
 40
1.0
  9
$TEXTSTYLE
  7
STANDARD
  9
$CLAYER
  8
AM_0
  9
$CELTYPE
  6
BYLAYER
  9
$CECOLOR
 62
   256
  9
$DIMSCALE
 40
3.0
  9
$DIMASZ
 40
2.5
  9
$DIMEXO
 40
1.0
  9
$DIMDLI
 40
7.0
  9
$DIMRND
 40
0.0
  9
$DIMDLE
 40
0.0
  9
$DIMEXE
 40
1.0
  9
$DIMTP
 40
0.1
  9
$DIMTM
 40
0.1000000001
  9
$DIMTXT
 40
2.5
  9
$DIMCEN
 40
0.0
  9
$DIMTSZ
 40
0.0
  9
$DIMTOL
 70
     0
  9
$DIMLIM
 70
     0
  9
$DIMTIH
 70
     0
  9
$DIMTOH
 70
     0
  9
$DIMSE1
 70
     0
  9
$DIMSE2
 70
     0
  9
$DIMTAD
 70
     3
  9
$DIMZIN
 70
     8
  9
$DIMBLK
  1

  9
$DIMASO
 70
     1
  9
$DIMSHO
 70
     1
  9
$DIMPOST
  1

  9
$DIMAPOST
  1
"
  9
$DIMALT
 70
     0
  9
$DIMALTD
 70
     2
  9
$DIMALTF
 40
0.0393701
  9
$DIMLFAC
 40
1.0
  9
$DIMTOFL
 70
     1
  9
$DIMTVP
 40
0.0
  9
$DIMTIX
 70
     0
  9
$DIMSOXD
 70
     0
  9
$DIMSAH
 70
     0
  9
$DIMBLK1
  1

  9
$DIMBLK2
  1

  9
$DIMSTYLE
  2
AM_JIS
  9
$DIMCLRD
 70
   256
  9
$DIMCLRE
 70
   256
  9
$DIMCLRT
 70
     4
  9
$DIMTFAC
 40
0.71
  9
$DIMGAP
 40
1.0
  9
$LUNITS
 70
     2
  9
$LUPREC
 70
     2
  9
$SKETCHINC
 40
1.0
  9
$FILLETRAD
 40
11.0
  9
$AUNITS
 70
     0
  9
$AUPREC
 70
     3
  9
$MENU
  1
.
  9
$ELEVATION
 40
0.0
  9
$PELEVATION
 40
0.0
  9
$THICKNESS
 40
0.0
  9
$LIMCHECK
 70
     0
  9
$BLIPMODE
 70
     0
  9
$CHAMFERA
 40
7.5
  9
$CHAMFERB
 40
7.5
  9
$SKPOLY
 70
     0
  9
$TDCREATE
 40
2452753.643349607
  9
$TDUPDATE
 40
2458543.487982315
  9
$TDINDWG
 40
0.4467926157
  9
$TDUSRTIMER
 40
0.446792419
  9
$USRTIMER
 70
     1
  9
$ANGBASE
 50
0.0
  9
$ANGDIR
 70
     0
  9
$PDMODE
 70
     0
  9
$PDSIZE
 40
0.0
  9
$PLINEWID
 40
0.0
  9
$COORDS
 70
     1
  9
$SPLFRAME
 70
     0
  9
$SPLINETYPE
 70
     6
  9
$SPLINESEGS
 70
     8
  9
$ATTDIA
 70
     1
  9
$ATTREQ
 70
     1
  9
$HANDLING
 70
     1
  9
$HANDSEED
  5
189B1
  9
$SURFTAB1
 70
     6
  9
$SURFTAB2
 70
     6
  9
$SURFTYPE
 70
     6
  9
$SURFU
 70
     6
  9
$SURFV
 70
     6
  9
$UCSNAME
  2

  9
$UCSORG
 10
0.0
 20
0.0
 30
0.0
  9
$UCSXDIR
 10
1.0
 20
0.0
 30
0.0
  9
$UCSYDIR
 10
0.0
 20
1.0
 30
0.0
  9
$PUCSNAME
  2

  9
$PUCSORG
 10
0.0
 20
0.0
 30
0.0
  9
$PUCSXDIR
 10
1.0
 20
0.0
 30
0.0
  9
$PUCSYDIR
 10
0.0
 20
1.0
 30
0.0
  9
$USERI1
 70
     0
  9
$USERI2
 70
     0
  9
$USERI3
 70
     0
  9
$USERI4
 70
     0
  9
$USERI5
 70
     0
  9
$USERR1
 40
0.0
  9
$USERR2
 40
0.0
  9
$USERR3
 40
0.0
  9
$USERR4
 40
0.0
  9
$USERR5
 40
0.0
  9
$WORLDVIEW
 70
     1
  9
$SHADEDGE
 70
     3
  9
$SHADEDIF
 70
    70
  9
$TILEMODE
 70
     1
  9
$MAXACTVP
 70
    48
  9
$PLIMCHECK
 70
     0
  9
$PEXTMIN
 10
1.0000000000000000E+020
 20
1.0000000000000000E+020
 30
1.0000000000000000E+020
  9
$PEXTMAX
 10
-1.0000000000000000E+020
 20
-1.0000000000000000E+020
 30
-1.0000000000000000E+020
  9
$PLIMMIN
 10
0.0
 20
0.0
  9
$PLIMMAX
 10
420.0
 20
297.0
  9
$UNITMODE
 70
     0
  9
$VISRETAIN
 70
     1
  9
$PLINEGEN
 70
     0
  9
$PSLTSCALE
 70
     1
  0
ENDSEC
  0
SECTION
  2
TABLES
  0
TABLE
  2
VPORT
 70
     1
  0
VPORT
  2
*ACTIVE
 70
     0
 10
0.0
 20
0.0
 11
1.0
 21
1.0
 12
437.91754731881377
 22
370.42222696301832
 13
0.0
 23
0.0
 14
7.5
 24
7.5
 15
30.0
 25
30.0
 16
0.0
 26
0.0
 36
1.0
 17
0.0
 27
0.0
 37
0.0
 40
425.48754532523412
 41
1.757159221076747
 42
50.0
 43
0.0
 44
0.0
 50
0.0
 51
0.0
 71
    16
 72
   100
 73
     1
 74
     1
 75
     0
 76
     0
 77
     0
 78
     0
  0
ENDTAB
  0
TABLE
  2
LTYPE
 70
    21
  0
LTYPE
  2
CONTINUOUS
 70
     0
  3
Solid line
 72
    65
 73
     0
 40
0.0
  0
LTYPE
  2
PHANTOM2
 70
     0
  3
Phantom (.5x) ___ _ _ ___ _ _ ___ _ _ ___ _ _
 72
    65
 73
     6
 40
31.75
 49
15.875
 49
-3.174999999999998
 49
3.174999999999998
 49
-3.174999999999998
 49
3.174999999999998
 49
-3.174999999999998
  0
LTYPE
  2
CENTER
 70
     0
  3
Center ____ _ ____ _ ____ _ ____ _ ____ _ ____
 72
    65
 73
     4
 40
50.799999999999997
 49
31.75
 49
-6.3499999999999979
 49
6.3499999999999979
 49
-6.3499999999999979
  0
LTYPE
  2
ACANSTGBM
 70
     0
  3
__ . . __ . .
 72
    65
 73
     6
 40
9.0
 49
4.0
 49
-1.0
 49
1.0
 49
-1.0
 49
1.0
 49
-1.0
  0
LTYPE
  2
ACANSTGLM
 70
     0
  3
_ _ _ _ _
 72
    65
 73
     2
 40
3.0
 49
2.0
 49
-1.0
  0
LTYPE
  2
GEN3B
 70
     0
  3
 - - - - -
 72
    65
 73
     2
 40
1.0
 49
0.5
 49
-0.5
  0
LTYPE
  2
GEN7A
 70
     0
  3
__ . __ . __
 72
    65
 73
     4
 40
7.375
 49
4.75
 49
-0.875
 49
0.875
 49
-0.875
  0
LTYPE
  2
AM_ISO02W050
 70
     0
  3
__ __ __ __ __ __ __ __ __ __ __ __ __ __ __
 72
    65
 73
     2
 40
7.5
 49
6.0
 49
-1.5
  0
LTYPE
  2
AM_ISO08W050
 70
     0
  3
____ . ____ . ____ . ____ . ____ . ____ . ____
 72
    65
 73
     4
 40
18.0
 49
12.0
 49
-1.5
 49
3.0
 49
-1.5
  0
LTYPE
  2
AM_ISO09W050
 70
     0
  3
_____ . . _____ . . _____ . . ____ .. ____
 72
    65
 73
     6
 40
22.5
 49
12.0
 49
-1.5
 49
3.0
 49
-1.5
 49
3.0
 49
-1.5
  0
LTYPE
  2
AMCONSTR
 70
     0
  3
_______________________
 72
    65
 73
     2
 40
9999.0
 49
9999.0
 49
0.0
  0
LTYPE
  2
AM_ISO02W050X2
 70
     0
  3
 _ _ _ _ _ _ _ _ _ _ _ _
 72
    65
 73
     2
 40
3.75
 49
3.0
 49
-0.75
  0
LTYPE
  2
AM_ISO08W050X2
 70
     0
  3
__ . __ . __ . __ . __ . __
 72
    65
 73
     4
 40
9.0
 49
6.0
 49
-0.75
 49
1.5
 49
-0.75
  0
LTYPE
  2
AMZIGZAG
 70
     0
  3
/\/-/\/-/\/-/\/-/\/-/\/
 72
    65
 73
     2
 40
11.0001
 49
0.0001
 49
-11.0
  0
LTYPE
  2
ACJISTGB
 70
     0
  3
__ . . __ . .
 72
    65
 73
     6
 40
9.0
 49
4.0
 49
-1.0
 49
1.0
 49
-1.0
 49
1.0
 49
-1.0
  0
LTYPE
  2
ACJISTGL
 70
     0
  3
_ _ _ _ _
 72
    65
 73
     2
 40
3.0
 49
2.0
 49
-1.0
  0
LTYPE
  2
ACISOWELD
 70
     0
  3
_ _ _ _ _
 72
    65
 73
     2
 40
2.0
 49
2.0
 49
-1.0
  0
LTYPE
  2
ACISOTGB
 70
     0
  3
__ . . __ . .
 72
    65
 73
     6
 40
9.0
 49
4.0
 49
-1.0
 49
1.0
 49
-1.0
 49
1.0
 49
-1.0
  0
LTYPE
  2
ACISOTGL
 70
     0
  3
_ _ _ _ _
 72
    65
 73
     2
 40
3.0
 49
2.0
 49
-1.0
  0
LTYPE
  2
HIDDEN
 70
     0
  3
Hidden __ __ __ __ __ __ __ __ __ __ __ __ __ _
 72
    65
 73
     2
 40
9.5249999999999968
 49
6.3499999999999979
 49
-3.174999999999998
  0
ENDTAB
  0
TABLE
  2
LAYER
 70
     8
  0
LAYER
  2
0
 70
     0
 62
     7
  6
CONTINUOUS
  0
LAYER
  2
ｽﾝﾎﾟｳｾﾝ
 70
     0
 62
     2
  6
CONTINUOUS
  0
LAYER
  2
DEFPOINTS
 70
     0
 62
     7
  6
CONTINUOUS
  0
LAYER
  2
ｶｸﾚｾﾝ2
 70
     0
 62
     3
  6
GEN3B
  0
LAYER
  2
ﾁｭｳｼﾝｾﾝ1
 70
     0
 62
     1
  6
GEN7A
  0
LAYER
  2
AM_0
 70
     0
 62
     7
  6
CONTINUOUS
  0
LAYER
  2
AM_0N
 70
     0
 62
     7
  6
CONTINUOUS
  0
LAYER
  2
AM_5
 70
     0
 62
     2
  6
CONTINUOUS
  0
ENDTAB
  0
TABLE
  2
STYLE
 70
     8
  0
STYLE
  2
STANDARD
 70
     0
 40
0.0
 41
0.8299999999999999
 50
0.0
 71
     0
 42
2.5
  3
txt.shx
  4
bigfont.shx
  0
STYLE
  2
ACANSTS
 70
     0
 40
1.0
 41
1.0
 50
0.0
 71
     0
 42
2.5
  3
romans.shx
  4
bigfont.shx
  0
STYLE
  2
ACANSGDT
 70
     0
 40
0.0
 41
1.0
 50
0.0
 71
     0
 42
2.5
  3
amgdtans.shx
  4

  0
STYLE
  2

 70
     1
 40
0.0
 41
1.0
 50
0.0
 71
     0
 42
2.5
  3
ltypeshp.shx
  4

  0
STYLE
  2
ACJISTS
 70
     0
 40
1.0
 41
1.0
 50
0.0
 71
     0
 42
2.5
  3
isocp.shx
  4
bigfont.shx
  0
STYLE
  2
ACJISGDT
 70
     0
 40
0.0
 41
1.0
 50
0.0
 71
     0
 42
2.5
  3
amgdt.shx
  4

  0
STYLE
  2
ACISOTS
 70
     0
 40
3.0
 41
1.0
 50
0.0
 71
     0
 42
2.5
  3
isocp.shx
  4
extfont.shx
  0
STYLE
  2
ACISOGDT
 70
     0
 40
0.0
 41
1.0
 50
0.0
 71
     0
 42
2.5
  3
amgdt.shx
  4

  0
ENDTAB
  0
TABLE
  2
VIEW
 70
    12
  0
VIEW
  2
GEN1
 70
     0
 40
95.824742268041234
 10
71.5
 20
137.08762886597941
 41
143.0
 11
0.0
 21
0.0
 31
1.0
 12
0.0
 22
0.0
 32
0.0
 42
50.0
 43
0.0
 44
0.0
 50
0.0
 71
     0
  0
VIEW
  2
GEN2
 70
     0
 40
95.824742268041234
 10
214.5
 20
137.08762886597941
 41
143.0
 11
0.0
 21
0.0
 31
1.0
 12
0.0
 22
0.0
 32
0.0
 42
50.0
 43
0.0
 44
0.0
 50
0.0
 71
     0
  0
VIEW
  2
GEN3
 70
     0
 40
95.824742268041234
 10
71.5
 20
47.912371134020603
 41
143.0
 11
0.0
 21
0.0
 31
1.0
 12
0.0
 22
0.0
 32
0.0
 42
50.0
 43
0.0
 44
0.0
 50
0.0
 71
     0
  0
VIEW
  2
GEN4
 70
     0
 40
95.824742268041234
 10
214.5
 20
47.912371134020603
 41
143.0
 11
0.0
 21
0.0
 31
1.0
 12
0.0
 22
0.0
 32
0.0
 42
50.0
 43
0.0
 44
0.0
 50
0.0
 71
     0
  0
VIEW
  2
GEN5
 70
     0
 40
95.824742268041234
 10
143.0
 20
92.500000000000057
 41
143.0
 11
0.0
 21
0.0
 31
1.0
 12
0.0
 22
0.0
 32
0.0
 42
50.0
 43
0.0
 44
0.0
 50
0.0
 71
     0
  0
VIEW
  2
GEN6
 70
     0
 40
191.64756804123709
 10
143.0
 20
92.5
 41
285.99714
 11
0.0
 21
0.0
 31
1.0
 12
0.0
 22
0.0
 32
0.0
 42
50.0
 43
0.0
 44
0.0
 50
0.0
 71
     0
  0
VIEW
  2
AM_VIEW1
 70
     0
 40
277.50000000000011
 10
249.64779005524869
 20
416.25000000000011
 41
499.29558011049721
 11
0.0
 21
0.0
 31
1.0
 12
0.0
 22
0.0
 32
0.0
 42
50.0
 43
0.0
 44
0.0
 50
0.0
 71
    16
  0
VIEW
  2
AM_VIEW2
 70
     0
 40
277.50000000000011
 10
603.85220994475117
 20
416.25000000000011
 41
499.29558011049721
 11
0.0
 21
0.0
 31
1.0
 12
0.0
 22
0.0
 32
0.0
 42
50.0
 43
0.0
 44
0.0
 50
0.0
 71
    16
  0
VIEW
  2
AM_VIEW3
 70
     0
 40
277.50000000000011
 10
249.64779005524869
 20
138.75
 41
499.29558011049721
 11
0.0
 21
0.0
 31
1.0
 12
0.0
 22
0.0
 32
0.0
 42
50.0
 43
0.0
 44
0.0
 50
0.0
 71
    16
  0
VIEW
  2
AM_VIEW4
 70
     0
 40
277.50000000000011
 10
603.85220994475117
 20
138.75
 41
499.29558011049721
 11
0.0
 21
0.0
 31
1.0
 12
0.0
 22
0.0
 32
0.0
 42
50.0
 43
0.0
 44
0.0
 50
0.0
 71
    16
  0
VIEW
  2
AM_VIEW5
 70
     0
 40
277.50000000000011
 10
426.75
 20
277.50000000000011
 41
499.2955801104971
 11
0.0
 21
0.0
 31
1.0
 12
0.0
 22
0.0
 32
0.0
 42
50.0
 43
0.0
 44
0.0
 50
0.0
 71
    16
  0
VIEW
  2
AM_VIEW6
 70
     0
 40
554.99445000000014
 10
426.75
 20
277.5
 41
998.5811743093924
 11
0.0
 21
0.0
 31
1.0
 12
0.0
 22
0.0
 32
0.0
 42
50.0
 43
0.0
 44
0.0
 50
0.0
 71
    16
  0
ENDTAB
  0
TABLE
  2
UCS
 70
     0
  0
ENDTAB
  0
TABLE
  2
APPID
 70
    97
  0
APPID
  2
ACAD
 70
     0
  0
APPID
  2
MCAD_NO_VIS
 70
     0
  0
APPID
  2
ACAD_TEMP_GRAPHIC
 70
     0
  0
APPID
  2
AD_DRAW
 70
     0
  0
APPID
  2
DESIGNERASSEMBLIES
 70
     0
  0
APPID
  2
ASURF_PCURVE_APPNAME
 70
     0
  0
APPID
  2
GENIUS_GE3SECT_13
 70
     0
  0
APPID
  2
GENIUS_GENCFG_13
 70
     0
  0
APPID
  2
GENIUS_GE3CFG0_13
 70
     0
  0
APPID
  2
GENIUS_GENCFG0_13
 70
     0
  0
APPID
  2
GENIUS_GENCFG1_13
 70
     0
  0
APPID
  2
GENIUS_GENCFG2_13
 70
     0
  0
APPID
  2
GENIUS_GENCFG3_13
 70
     0
  0
APPID
  2
GENIUS_GENCFG4_13
 70
     0
  0
APPID
  2
GENIUS_GEVCFG0_13
 70
     0
  0
APPID
  2
GENIUS_GENOENT_13
 70
     0
  0
APPID
  2
GENIUS_GENREC_14
 70
     0
  0
APPID
  2
GENIUS_GENODEF_13
 70
     0
  0
APPID
  2
GENIUS_GENOBJ-N-REC_13
 70
     0
  0
APPID
  2
GENIUS_GENHINW_13
 70
     0
  0
APPID
  2
GENIUS_FIRSTVISTXT_14
 70
     0
  0
APPID
  2
GENIUS_GENOBJ-N-LEADER_13
 70
     0
  0
APPID
  2
GENIUS_GENOREF_13
 70
     0
  0
APPID
  2
GENIUS_GENOLIS_13
 70
     0
  0
APPID
  2
GEV_VCCNULL_SWITCH_OFF
 70
     0
  0
APPID
  2
GENIUS_GENDTOL_13
 70
     0
  0
APPID
  2
GENIUS_GEFCFG0_13
 70
     0
  0
APPID
  2
GENIUS_GENOBJ-N-TIT_13
 70
     0
  0
APPID
  2
GENIUS_GENTITLE_13
 70
     0
  0
APPID
  2
GENIUS_GENZVEED_13
 70
     0
  0
APPID
  2
GENIUS_GENOBJ-N-SDF_13
 70
     0
  0
APPID
  2
GENIUS_GENSCREG_13
 70
     0
  0
APPID
  2
GENIUS_DUMCFG0_13
 70
     0
  0
APPID
  2
GEVID936201362
 70
     0
  0
APPID
  2
GEVDC
 70
     0
  0
APPID
  2
GEVCON
 70
     0
  0
APPID
  2
VCC
 70
     0
  0
APPID
  2
GEVPT
 70
     0
  0
APPID
  2
GEVIT
 70
     0
  0
APPID
  2
GENBH
 70
     0
  0
APPID
  2
GEVMK
 70
     0
  0
APPID
  2
GENIUS_GENBH_13
 70
     0
  0
APPID
  2
GENIUS_GENOBJ-NBEHI-BHF_13
 70
     0
  0
APPID
  2
GENIUS_GENOBJ-NBEHI-BHB_13
 70
     0
  0
APPID
  2
GENIUS_GENOBJ-F-DESC_13
 70
     0
  0
APPID
  2
GENIUS_GEFDESC_14
 70
     0
  0
APPID
  2
GENIUS_GENOBJ-F-PART_13
 70
     0
  0
APPID
  2
GENIUS_GEFSTDP_13
 70
     0
  0
APPID
  2
GENIUS_GEFPARTINS_13
 70
     0
  0
APPID
  2
GENIUS_GENTRA_14
 70
     0
  0
APPID
  2
GENIUS_GENINF13_13
 70
     0
  0
APPID
  2
GENIUS_GENOBJ-N-INFOPT_13
 70
     0
  0
APPID
  2
GENIUS_GENOBJ-N-RSSYM_13
 70
     0
  0
APPID
  2
GENIUS_GENSYMENT_13
 70
     0
  0
APPID
  2
GENIUS_GENSCSYM_13
 70
     0
  0
APPID
  2
GENIUS_GEFINFNAM_13
 70
     0
  0
APPID
  2
GENIUS_GENSCREG_15
 70
     0
  0
APPID
  2
GENIUS_GENOBJ-N-CEN_13
 70
     0
  0
APPID
  2
GENIUS_GENOBJ-N-CRS_13
 70
     0
  0
APPID
  2
GENIUS_GENOBJ-N-CRC_13
 70
     0
  0
APPID
  2
GENIUS_GENCRC_14
 70
     0
  0
APPID
  2
GEVID942827039
 70
     0
  0
APPID
  2
GEVID942827040
 70
     0
  0
APPID
  2
GEVID942827041
 70
     0
  0
APPID
  2
GENIUS_GENOBJ-F-SCPASSM_13
 70
     0
  0
APPID
  2
GENIUS_GENDIMSH_14
 70
     0
  0
APPID
  2
GENIUS_GENFIL_13
 70
     0
  0
APPID
  2
GENIUS_GENOBJ-N-CHA_13
 70
     0
  0
APPID
  2
GENIUS_GENOBJ-N-FIL_13
 70
     0
  0
APPID
  2
GEVID942827042
 70
     0
  0
APPID
  2
GEVID946020473
 70
     0
  0
APPID
  2
GEVID946020474
 70
     0
  0
APPID
  2
GEVID946020475
 70
     0
  0
APPID
  2
GENIUS_GENOBJ-N-HTC_13
 70
     0
  0
APPID
  2
GENIUS_GENHATCH_13
 70
     0
  0
APPID
  2
GEVID948854295
 70
     0
  0
APPID
  2
GEVID939402019
 70
     0
  0
APPID
  2
GEVID952919491
 70
     0
  0
APPID
  2
GEVID952919492
 70
     0
  0
APPID
  2
GENIUS_GEFWELD_13
 70
     0
  0
APPID
  2
GENIUS_GENOBJ-F-WELS_13
 70
     0
  0
APPID
  2
GEVID952919493
 70
     0
  0
APPID
  2
GENIUS_GENOBJ-N-RSBK_13
 70
     0
  0
APPID
  2
GENIUS_GENOBJ-N-LIB_13
 70
     0
  0
APPID
  2
GENIUS_GENSCALE_13
 70
     0
  0
APPID
  2
GEVID986376691
 70
     0
  0
APPID
  2
ACATTRIBSERVICES
 70
     0
  0
APPID
  2
DCO15
 70
     0
  0
APPID
  2
GEVID1088155249
 70
     0
  0
APPID
  2
ACADM_DIM_EDIT
 70
     0
  0
APPID
  2
AMDT_DM_ADJ
 70
     0
  0
APPID
  2
ACAD_MLEADERVER
 70
     0
  0
APPID
  2
ACAD_DSTYLE_DIMBREAK
 70
     0
  0
APPID
  2
ACAD_DSTYLE_DIMJAG
 70
     0
  0
APPID
  2
ACAD_NAV_VCDISPLAY
 70
     0
  0
APPID
  2
ACADANNOPO
 70
     0
  0
APPID
  2
ACAD_EXEMPT_FROM_CAD_STANDARDS
 70
     0
  0
ENDTAB
  0
TABLE
  2
DIMSTYLE
 70
    16
  0
DIMSTYLE
  2
STANDARD
 70
     0
  3

  4

  5

  6

  7

 40
1.0
 41
0.18
 42
0.0625
 43
0.38
 44
0.18
 45
0.0
 46
0.0
 47
0.0
 48
0.0
140
0.18
141
0.09
142
0.0
143
25.399999999999999
144
1.0
145
0.0
146
1.0
147
0.09
 71
     0
 72
     0
 73
     1
 74
     1
 75
     0
 76
     0
 77
     0
 78
     0
170
     0
171
     2
172
     0
173
     0
174
     0
175
     0
176
     0
177
     0
178
     0
  0
DIMSTYLE
  2
AM_JIS
 70
     0
  3

  4
"
  5

  6

  7

 40
1.0
 41
2.5
 42
1.0
 43
7.0
 44
1.0
 45
0.0
 46
0.0
 47
0.1
 48
0.1000000001
140
2.5
141
0.0
142
0.0
143
0.0393701
144
1.0
145
0.0
146
0.71
147
1.0
 71
     0
 72
     0
 73
     0
 74
     0
 75
     0
 76
     0
 77
     3
 78
     8
170
     0
171
     2
172
     1
173
     0
174
     0
175
     0
176
   256
177
   256
178
     4
  0
DIMSTYLE
  2
AM_JIS$3
 70
     0
  3

  4
"
  5

  6

  7

 40
1.0
 41
2.5
 42
1.0
 43
7.0
 44
1.0
 45
0.0
 46
0.0
 47
0.1
 48
0.1000000001
140
2.5
141
0.0
142
0.0
143
0.0393701
144
1.0
145
0.0
146
0.71
147
1.0
 71
     0
 72
     0
 73
     0
 74
     1
 75
     0
 76
     0
 77
     3
 78
     8
170
     0
171
     2
172
     0
173
     0
174
     0
175
     0
176
   256
177
   256
178
     4
  0
DIMSTYLE
  2
AM_JIS$4
 70
     0
  3

  4
"
  5

  6

  7

 40
1.0
 41
2.5
 42
1.0
 43
7.0
 44
1.0
 45
0.0
 46
0.0
 47
0.1
 48
0.1000000001
140
2.5
141
0.0
142
0.0
143
0.0393701
144
1.0
145
0.0
146
0.71
147
1.0
 71
     0
 72
     0
 73
     0
 74
     0
 75
     0
 76
     0
 77
     3
 78
     8
170
     0
171
     2
172
     0
173
     0
174
     0
175
     0
176
   256
177
   256
178
     4
  0
DIMSTYLE
  2
AM_JIS$6
 70
     0
  3

  4
"
  5

  6

  7

 40
1.0
 41
2.5
 42
1.0
 43
7.0
 44
1.0
 45
0.0
 46
0.0
 47
0.1
 48
0.1000000001
140
2.5
141
0.0
142
0.0
143
0.0393701
144
1.0
145
0.0
146
0.71
147
1.0
 71
     0
 72
     0
 73
     0
 74
     0
 75
     0
 76
     0
 77
     0
 78
     8
170
     0
171
     2
172
     1
173
     0
174
     0
175
     0
176
   256
177
   256
178
     4
  0
DIMSTYLE
  2
AM_JIS$7
 70
     0
  3

  4
"
  5

  6

  7

 40
1.0
 41
2.5
 42
1.0
 43
7.0
 44
1.0
 45
0.0
 46
0.0
 47
0.1
 48
0.1000000001
140
2.5
141
0.0
142
0.0
143
0.0393701
144
1.0
145
0.0
146
0.71
147
1.0
 71
     0
 72
     0
 73
     0
 74
     0
 75
     0
 76
     0
 77
     3
 78
     8
170
     0
171
     2
172
     1
173
     0
174
     0
175
     0
176
   256
177
   256
178
     4
  0
DIMSTYLE
  2
AM_JIS$SF
 70
     0
  3

  4
"
  5
OPEN30
  6
OPEN30
  7
OPEN30
 40
1.0
 41
2.5
 42
1.0
 43
10.0
 44
1.0
 45
0.0
 46
0.0
 47
0.1
 48
0.1
140
3.5
141
0.0
142
0.0
143
0.0393701
144
1.0
145
0.0
146
0.71
147
1.5
 71
     0
 72
     0
 73
     0
 74
     0
 75
     1
 76
     1
 77
     3
 78
     8
170
     0
171
     2
172
     1
173
     0
174
     0
175
     0
176
   256
177
   256
178
     4
  0
DIMSTYLE
  2
AM_JIS$SH
 70
     0
  3

  4
"
  5

  6
NONE
  7

 40
1.0
 41
2.5
 42
1.0
 43
10.0
 44
1.0
 45
0.0
 46
0.0
 47
0.1
 48
0.1
140
3.5
141
0.0
142
0.0
143
0.0393701
144
1.0
145
0.0
146
0.71
147
1.5
 71
     0
 72
     0
 73
     0
 74
     0
 75
     1
 76
     0
 77
     3
 78
     8
170
     0
171
     2
172
     1
173
     1
174
     0
175
     0
176
   256
177
   256
178
     4
  0
DIMSTYLE
  2
AM_ISO
 70
     0
  3

  4
"
  5

  6

  7

 40
1.0
 41
2.5
 42
1.0
 43
10.0
 44
1.0
 45
0.0
 46
0.0
 47
0.0
 48
0.000000001
140
3.0
141
0.0
142
0.0
143
0.0393701
144
1.0
145
0.0
146
0.71
147
1.299999999999998
 71
     1
 72
     0
 73
     0
 74
     0
 75
     0
 76
     0
 77
     1
 78
     8
170
     0
171
     2
172
     1
173
     0
174
     0
175
     0
176
   256
177
   256
178
     4
  0
DIMSTYLE
  2
AM_ISO$3
 70
     0
  3

  4
"
  5

  6

  7

 40
1.0
 41
2.5
 42
1.0
 43
10.0
 44
1.0
 45
0.0
 46
0.0
 47
0.0
 48
0.000000001
140
2.5
141
0.0
142
0.0
143
0.0393701
144
1.0
145
0.0
146
0.71
147
1.299999999999998
 71
     1
 72
     0
 73
     0
 74
     1
 75
     0
 76
     0
 77
     1
 78
     8
170
     0
171
     2
172
     0
173
     0
174
     0
175
     0
176
   256
177
   256
178
     4
  0
DIMSTYLE
  2
AM_ISO$4
 70
     0
  3

  4
"
  5

  6

  7

 40
1.0
 41
2.5
 42
1.0
 43
10.0
 44
1.0
 45
0.0
 46
0.0
 47
0.0
 48
0.000000001
140
2.5
141
0.0
142
0.0
143
0.0393701
144
1.0
145
0.0
146
0.71
147
1.299999999999998
 71
     1
 72
     0
 73
     0
 74
     1
 75
     0
 76
     0
 77
     1
 78
     8
170
     0
171
     2
172
     0
173
     0
174
     0
175
     0
176
   256
177
   256
178
     4
  0
DIMSTYLE
  2
AM_ISO$6
 70
     0
  3

  4
"
  5

  6

  7

 40
1.0
 41
2.5
 42
1.0
 43
10.0
 44
1.0
 45
0.0
 46
0.0
 47
0.0
 48
0.000000001
140
2.5
141
0.0
142
0.0
143
0.0393701
144
1.0
145
0.0
146
0.71
147
1.299999999999998
 71
     1
 72
     0
 73
     0
 74
     0
 75
     0
 76
     0
 77
     0
 78
     8
170
     0
171
     2
172
     1
173
     0
174
     0
175
     0
176
   256
177
   256
178
     4
  0
DIMSTYLE
  2
AM_ISO$7
 70
     0
  3

  4
"
  5

  6

  7

 40
1.0
 41
2.5
 42
1.0
 43
10.0
 44
1.0
 45
0.0
 46
0.0
 47
0.0
 48
0.000000001
140
2.5
141
0.0
142
0.0
143
0.0393701
144
1.0
145
0.0
146
0.71
147
1.299999999999998
 71
     1
 72
     0
 73
     0
 74
     0
 75
     0
 76
     0
 77
     1
 78
     8
170
     0
171
     2
172
     1
173
     0
174
     0
175
     0
176
   256
177
   256
178
     4
  0
DIMSTYLE
  2
AM_ISO$SF
 70
     0
  3

  4
"
  5

  6

  7

 40
1.0
 41
2.5
 42
1.0
 43
10.0
 44
1.0
 45
0.0
 46
0.0
 47
0.1
 48
0.1
140
3.5
141
0.0
142
0.0
143
0.0393701
144
1.0
145
0.0
146
0.71
147
1.5
 71
     0
 72
     0
 73
     0
 74
     0
 75
     1
 76
     1
 77
     1
 78
     8
170
     0
171
     2
172
     1
173
     0
174
     0
175
     0
176
   256
177
   256
178
     4
  0
DIMSTYLE
  2
AM_ISO$SH
 70
     0
  3

  4
"
  5

  6
GENAXEH
  7

 40
1.0
 41
2.5
 42
1.0
 43
10.0
 44
1.0
 45
0.0
 46
0.0
 47
0.1
 48
0.1
140
3.5
141
0.0
142
0.0
143
0.0393701
144
2.0
145
0.0
146
0.71
147
1.5
 71
     0
 72
     0
 73
     0
 74
     0
 75
     1
 76
     1
 77
     1
 78
     8
170
     0
171
     2
172
     1
173
     1
174
     0
175
     0
176
   256
177
   256
178
     4
  0
DIMSTYLE
  2
AM_JIS$0
 70
     0
  3

  4
"
  5

  6

  7

 40
1.0
 41
2.5
 42
1.0
 43
7.0
 44
1.0
 45
0.0
 46
0.0
 47
0.1
 48
0.1000000001
140
2.5
141
0.0
142
0.0
143
0.0393701
144
1.0
145
0.0
146
0.71
147
1.0
 71
     0
 72
     0
 73
     0
 74
     0
 75
     0
 76
     0
 77
     3
 78
     8
170
     0
171
     2
172
     1
173
     0
174
     0
175
     0
176
   256
177
   256
178
     4
  0
ENDTAB
  0
ENDSEC
  0
SECTION
  2
BLOCKS
  0
BLOCK
  8
0
  2
$MODEL_SPACE
 70
     0
 10
0.0
 20
0.0
 30
0.0
  3
$MODEL_SPACE
  1

  0
ENDBLK
  5
1A
  8
0
  0
BLOCK
 67
     1
  8
0
  2
$PAPER_SPACE
 70
     0
 10
0.0
 20
0.0
 30
0.0
  3
$PAPER_SPACE
  1

  0
ENDBLK
  5
17
 67
     1
  8
0
  0
BLOCK
  8
0
  2
_OPEN30
 70
     0
 10
0.0
 20
0.0
 30
0.0
  3
_OPEN30
  1

  0
LINE
  5
21C5
  8
0
 62
     0
 10
-1.0
 20
0.26794919
 30
0.0
 11
0.0
 21
0.0
 31
0.0
  0
LINE
  5
21C6
  8
0
 62
     0
 10
0.0
 20
0.0
 30
0.0
 11
-1.0
 21
-0.26794919
 31
0.0
  0
LINE
  5
21C7
  8
0
 62
     0
 10
0.0
 20
0.0
 30
0.0
 11
-1.0
 21
0.0
 31
0.0
  0
ENDBLK
  5
21C9
  8
0
  0
BLOCK
  8
0
  2
GENAXEH
 70
     0
 10
0.0
 20
0.0
 30
0.0
  3
GENAXEH
  1

  0
LINE
  5
21D0
  8
0
 10
-1.0
 20
0.0
 30
0.0
 11
1.0
 21
0.0
 31
0.0
  0
ENDBLK
  5
21D2
  8
0
  0
BLOCK
  8
0
  2
_NONE
 70
     0
 10
0.0
 20
0.0
 30
0.0
  3
_NONE
  1

  0
ENDBLK
  5
8193
  8
0
  0
ENDSEC
  0
SECTION
  2
ENTITIES
  0
POINT
  5
1B94
  8
0
 10
0.0
 20
0.0
 30
0.0
1001
GENIUS_GENODEF_13
1002
{
1000
HIER
1070
     1
1002
}
1002
{
1000
MANEDIT
1070
     0
1002
}
1002
{
1000
NOSEL
1070
     0
1002
}
1002
{
1000
BEHIND
1070
     0
1002
}
1002
{
1000
REACTOR
1002
}
1001
GENIUS_GENOBJ-N-SDF_13
1002
{
1000
OWNER
1000
GEN
1002
}
1001
GENIUS_GENOENT_13
1002
{
1000
MYREF
1005
1B94
1002
}
1002
{
1000
GRP
1005
0
1002
}
1001
GENIUS_GENOLIS_13
1002
{
1000
ENT
1005
89
1002
}
  0
ARC
  5
15C0C
  8
AM_0
 10
443.6577968902057
 20
309.65503298966701
 30
0.0
 40
5.0000000000000044
 50
89.999997495521541
 51
165.52248856352909
  0
LINE
  5
15C0D
  8
AM_0
 10
422.66585353083099
 20
313.65503298966701
 30
0.0
 11
422.66585353083099
 21
320.65503298966701
 31
0.0
  0
LINE
  5
15C0E
  8
AM_0
 10
431.16585353083099
 20
311.92297732560451
 30
0.0
 11
431.16585353083099
 21
315.38708102433498
 31
0.0
  0
LINE
  5
15C0F
  8
AM_0
 10
425.1658535308307
 20
311.92297732560451
 30
0.0
 11
425.1658535308307
 21
315.38708102433498
 31
0.0
  0
LINE
  5
15C11
  8
AM_0
 10
433.66585353083082
 20
313.65503298966701
 30
0.0
 11
433.66585353083082
 21
320.65503298966701
 31
0.0
  0
ARC
  5
15C12
  8
AM_0
 10
428.16585353083082
 20
313.65503298966701
 30
0.0
 40
5.5
 50
180.0
 51
0.0000050089569292
  0
CIRCLE
  5
15C13
  8
AM_0
 10
428.16585353083082
 20
313.65503298966701
 30
0.0
 40
5.0
  0
ARC
  5
15C15
  8
AM_0
 10
428.16585353083082
 20
313.65503298966701
 30
0.0
 40
11.0
 50
283.08572287868662
 51
345.52249015738431
  0
LINE
  5
15C16
  8
AM_0
 10
431.16585353083099
 20
311.92297732560451
 30
0.0
 11
428.16585353083082
 21
310.19092929093648
 31
0.0
  0
LINE
  5
15C17
  8
AM_0
 10
428.16585353083082
 20
310.19092929093648
 30
0.0
 11
425.1658535308307
 21
311.92297732560451
 31
0.0
  0
LINE
  5
15C18
  8
AM_0
 10
431.16585353083099
 20
315.38708102433498
 30
0.0
 11
428.16585353083082
 21
317.119129059003
 31
0.0
  0
LINE
  5
15C19
  8
AM_0
 10
428.16585353083082
 20
317.119129059003
 30
0.0
 11
425.1658535308307
 21
315.38708102433498
 31
0.0
  0
LINE
  5
15C1A
  8
AM_0
 10
430.65636256403411
 20
302.94066989152248
 30
0.0
 11
412.03383448786212
 21
298.6119650575381
 31
0.0
  0
LINE
  5
15C1B
  8
AM_0
 10
408.1658535308307
 20
245.5682562562686
 30
0.0
 11
408.1658535308307
 21
293.7418020936708
 31
0.0
  0
ARC
  5
15C1C
  8
AM_0
 10
413.16585353083082
 20
293.7418020936708
 30
0.0
 40
5.0
 50
103.0857246999183
 51
180.0
  0
LINE
  5
15C1D
  8
AM_0
 10
430.65636256403411
 20
236.36938845841701
 30
0.0
 11
412.03383448786212
 21
240.69809329240141
 31
0.0
  0
ARC
  5
15C1E
  8
AM_0
 10
413.16585353083082
 20
245.5682562562686
 30
0.0
 40
5.0
 50
180.0
 51
256.91427530008173
  0
ARC
  5
15C1F
  8
AM_0
 10
428.16585353083082
 20
225.65503298966701
 30
0.0
 40
11.0
 50
14.47750984261552
 51
76.914277121313376
  0
LINE
  5
15C20
  8
AM_0
 10
431.16585353083099
 20
227.38707339494039
 30
0.0
 11
428.16585353083082
 21
229.11912905900289
 31
0.0
  0
LINE
  5
15C21
  8
AM_0
 10
428.16585353083082
 20
229.11912905900289
 30
0.0
 11
425.1658535308307
 21
227.38707339494039
 31
0.0
  0
ARC
  5
15C23
  8
AM_0
 10
428.16585353083082
 20
225.65503298966701
 30
0.0
 40
5.5000000000000213
 50
0.0000050089569292
 51
180.00001001791389
  0
CIRCLE
  5
15C24
  8
AM_0
 10
428.16585353083082
 20
225.65503298966701
 30
0.0
 40
5.0
  0
LINE
  5
15C26
  8
AM_0
 10
422.66585353083099
 20
218.65503298966701
 30
0.0
 11
422.66585353083099
 21
225.65503298966701
 31
0.0
  0
LINE
  5
15C27
  8
AM_0
 10
431.16585353083099
 20
223.92297732560451
 30
0.0
 11
428.16585353083082
 21
222.19092166154201
 31
0.0
  0
LINE
  5
15C28
  8
AM_0
 10
428.16585353083082
 20
222.19092166154201
 30
0.0
 11
425.1658535308307
 21
223.92297732560451
 31
0.0
  0
LINE
  5
15C29
  8
AM_0
 10
431.16585353083099
 20
223.92297732560451
 30
0.0
 11
431.16585353083099
 21
227.38707339494039
 31
0.0
  0
LINE
  5
15C2A
  8
AM_0
 10
425.1658535308307
 20
223.92297732560451
 30
0.0
 11
425.1658535308307
 21
227.38707339494039
 31
0.0
  0
LINE
  5
15C2B
  8
AM_0
 10
433.66585353083082
 20
218.65503298966701
 30
0.0
 11
433.66585353083082
 21
225.65503298966701
 31
0.0
  0
LINE
  5
15C2C
  8
AM_0
 10
497.67394068903411
 20
224.65503298966701
 30
0.0
 11
443.6577968902057
 21
224.65503298966701
 31
0.0
  0
ARC
  5
15C2D
  8
AM_0
 10
443.6577968902057
 20
229.65503298966701
 30
0.0
 40
5.0000000000000231
 50
194.47751143647091
 51
270.00000250447852
  0
ARC
  5
15C2E
  8
AM_0
 10
513.16585353083099
 20
225.65503298966701
 30
0.0
 40
11.000000000000011
 50
103.0857246999183
 51
165.52248856352909
  0
ARC
  5
15C2F
  8
AM_0
 10
497.67394068903411
 20
229.65503298966701
 30
0.0
 40
5.0000000000000044
 50
270.00000250447852
 51
345.52249015738431
  0
LINE
  5
15C31
  8
AM_0
 10
513.16585353083099
 20
229.11912905900289
 30
0.0
 11
510.16585353083099
 21
227.38707339494039
 31
0.0
  0
LINE
  5
15C32
  8
AM_0
 10
516.16585353083076
 20
227.38707339494039
 30
0.0
 11
513.16585353083099
 21
229.11912905900289
 31
0.0
  0
ARC
  5
15C33
  8
AM_0
 10
513.16585353083099
 20
225.65503298966701
 30
0.0
 40
5.5000000000000213
 50
0.0000050089569292
 51
180.00001001791389
  0
CIRCLE
  5
15C34
  8
AM_0
 10
513.16585353083099
 20
225.65503298966701
 30
0.0
 40
5.0
  0
LINE
  5
15C36
  8
AM_0
 10
516.16585353083076
 20
223.92297732560451
 30
0.0
 11
513.16585353083099
 21
222.19092166154201
 31
0.0
  0
LINE
  5
15C37
  8
AM_0
 10
513.16585353083099
 20
222.19092166154201
 30
0.0
 11
510.16585353083099
 21
223.92297732560451
 31
0.0
  0
LINE
  5
15C38
  8
AM_0
 10
510.16585353083099
 20
223.92297732560451
 30
0.0
 11
510.16585353083099
 21
227.38707339494039
 31
0.0
  0
LINE
  5
15C39
  8
AM_0
 10
507.66585353083082
 20
218.65503298966701
 30
0.0
 11
507.66585353083082
 21
225.65503298966701
 31
0.0
  0
LINE
  5
15C3A
  8
AM_0
 10
516.16585353083076
 20
223.92297732560451
 30
0.0
 11
516.16585353083076
 21
227.38707339494039
 31
0.0
  0
LINE
  5
15C3B
  8
AM_0
 10
518.66585353083099
 20
218.65503298966701
 30
0.0
 11
518.66585353083099
 21
225.65503298966701
 31
0.0
  0
LINE
  5
15C3C
  8
AM_0
 10
529.29790309137775
 20
240.6980932924013
 30
0.0
 11
510.67537501520582
 21
236.36938845841701
 31
0.0
  0
LINE
  5
15C3D
  8
AM_0
 10
533.16585353083076
 20
245.56825625626851
 30
0.0
 11
533.16585353083076
 21
293.7418020936708
 31
0.0
  0
ARC
  5
15C3E
  8
AM_0
 10
528.16585353083076
 20
245.5682562562686
 30
0.0
 40
5.0000000000000062
 50
283.08572287868662
 51
0.0000050089569292
  0
ARC
  5
15C3F
  8
AM_0
 10
528.16585353083076
 20
293.7418020936708
 30
0.0
 40
5.0000000000000178
 50
0.0000050089569292
 51
76.91428713922771
  0
ARC
  5
15C41
  8
AM_0
 10
513.16585353083099
 20
313.65503298966701
 30
0.0
 40
11.0
 50
194.47751143647091
 51
256.91427530008173
  0
ARC
  5
15C42
  8
AM_0
 10
497.67394068903411
 20
309.65503298966701
 30
0.0
 40
5.0000000000000107
 50
14.47750984261552
 51
89.999997495521541
  0
LINE
  5
15C43
  8
AM_0
 10
507.66585353083087
 20
313.65503298966701
 30
0.0
 11
507.66585353083087
 21
320.65503298966701
 31
0.0
  0
LINE
  5
15C44
  8
AM_0
 10
510.1658535308311
 20
311.92297732560451
 30
0.0
 11
510.1658535308311
 21
315.38708102433498
 31
0.0
  0
LINE
  5
15C45
  8
AM_0
 10
518.6658535308311
 20
313.65503298966701
 30
0.0
 11
518.6658535308311
 21
320.65503298966701
 31
0.0
  0
LINE
  5
15C46
  8
AM_0
 10
516.1658535308311
 20
311.92297732560451
 30
0.0
 11
516.1658535308311
 21
315.38708102433498
 31
0.0
  0
ARC
  5
15C47
  8
AM_0
 10
513.16585353083099
 20
313.65503298966701
 30
0.0
 40
5.5
 50
180.0
 51
0.0000050089569292
  0
CIRCLE
  5
15C48
  8
AM_0
 10
513.16585353083099
 20
313.65503298966701
 30
0.0
 40
5.0
  0
LINE
  5
15C4A
  8
AM_0
 10
516.1658535308311
 20
311.92297732560451
 30
0.0
 11
513.1658535308311
 21
310.19092929093648
 31
0.0
  0
LINE
  5
15C4B
  8
AM_0
 10
513.1658535308311
 20
310.19092929093648
 30
0.0
 11
510.1658535308311
 21
311.92297732560451
 31
0.0
  0
LINE
  5
15C4C
  8
AM_0
 10
516.1658535308311
 20
315.38708102433498
 30
0.0
 11
513.1658535308311
 21
317.119129059003
 31
0.0
  0
LINE
  5
15C4D
  8
AM_0
 10
513.1658535308311
 20
317.119129059003
 30
0.0
 11
510.1658535308311
 21
315.38708102433498
 31
0.0
  0
LINE
  5
15C4E
  8
AM_0
 10
529.29790309137775
 20
298.61196505753799
 30
0.0
 11
510.67537501520582
 21
302.94066989152248
 31
0.0
  0
LINE
  5
15C4F
  8
AM_0
 10
497.67394068903423
 20
314.65503298966701
 30
0.0
 11
443.6577968902057
 21
314.65503298966701
 31
0.0
  0
LINE
  5
17E0A
  8
AM_0
 10
528.16585576600539
 20
218.65503146974879
 30
0.0
 11
411.16585201091272
 21
218.65503146974879
 31
0.0
  0
LINE
  5
17E0B
  8
AM_0
 10
528.16585576600539
 20
320.65503450958568
 30
0.0
 11
411.16585201091272
 21
320.65503450958568
 31
0.0
  0
LINE
  5
17E0E
  8
ﾁｭｳｼﾝｾﾝ1
 10
397.16585201091277
 20
269.65503298966718
 30
0.0
 11
751.60895721390239
 21
269.65503298966718
 31
0.0
  0
CIRCLE
  5
17E10
  8
AM_0
 10
528.16585576600539
 20
309.65503418176007
 30
0.0
 40
4.5000001341104507
  0
ARC
  5
17E11
  8
AM_0
 10
528.16585576600539
 20
309.65503418176007
 30
0.0
 40
11.00000032782555
 50
359.99999499104308
 51
89.999997495524809
  0
LINE
  5
17E12
  8
ﾁｭｳｼﾝｾﾝ1
 10
528.16585576600539
 20
302.15503395824271
 30
0.0
 11
528.16585576600539
 21
317.15503440527772
 31
0.0
  0
LINE
  5
17E13
  8
AM_0
 10
552.16585609383083
 20
219.01475131242111
 30
0.0
 11
552.16585609383083
 21
320.29532229630792
 31
0.0
  0
ARC
  5
17E14
  8
AM_0
 10
320.16587135262012
 20
269.65503298966718
 30
0.0
 40
236.0
 50
359.99999499104968
 51
10.56396171235868
  0
LINE
  5
17E15
  8
AM_0
 10
563.67195960945571
 20
325.65503298966718
 30
0.0
 11
563.67195960945571
 21
213.65503298966721
 31
0.0
  0
ARC
  5
17E16
  8
AM_0
 10
320.16587135262012
 20
269.65503298966718
 30
0.0
 40
236.0
 50
349.43602826972671
 51
359.99999499104968
  0
LINE
  5
17E18
  8
AM_0
 10
539.16585609383083
 20
309.65503418176007
 30
0.0
 11
539.16585609383083
 21
229.6550317975744
 31
0.0
  0
LINE
  5
17E19
  8
AM_0
 10
550.97206951644864
 20
220.65503298966721
 30
0.0
 11
534.49041141416762
 21
220.65503298966721
 31
0.0
  0
LINE
  5
17E1A
  8
AM_0
 10
551.66585609383083
 20
226.38842379777259
 30
0.0
 11
539.16585609383083
 21
226.38842379777259
 31
0.0
  0
ARC
  5
17E1B
  8
AM_0
 10
554.11473103065282
 20
215.65503298966721
 30
0.0
 40
2.0
 50
182.0004653026449
 51
270.0
1001
GENIUS_GENOBJ-N-FIL_13
1002
{
1000
OWNER
1000
GEN
1002
}
1001
GENIUS_GENODEF_13
1002
{
1000
HIER
1070
     0
1002
}
1002
{
1000
MANEDIT
1070
     0
1002
}
1002
{
1000
NOSEL
1070
     0
1002
}
1002
{
1000
BEHIND
1070
     0
1002
}
1002
{
1000
OTHER
1070
     0
1002
}
1002
{
1000
REACTOR
1002
}
  0
LINE
  5
17E1C
  8
AM_0
 10
563.67195960945571
 20
213.65503298966721
 30
0.0
 11
554.11473103065282
 21
213.65503298966721
 31
0.0
  0
LINE
  5
17E1D
  8
AM_0
 10
552.11594994352265
 20
215.58521776403239
 30
0.0
 11
551.97124549812781
 21
219.72804629533121
 31
0.0
  0
ARC
  5
17E1E
  8
AM_0
 10
550.97080221222302
 20
219.6516801340685
 30
0.0
 40
1.003353655944897
 50
4.3650553058042041
 51
89.927631496271459
  0
CIRCLE
  5
17E21
  8
AM_0
 10
528.16585576600539
 20
229.6550317975744
 30
0.0
 40
4.5000001341104507
  0
LINE
  5
17E22
  8
ﾁｭｳｼﾝｾﾝ1
 10
528.16585576600539
 20
237.15503202109181
 30
0.0
 11
528.16585576600539
 21
222.15503157405681
 31
0.0
  0
ARC
  5
17E23
  8
AM_0
 10
528.16585576600539
 20
229.6550317975744
 30
0.0
 40
11.000000327825591
 50
269.999999316757
 51
359.99999499104308
  0
LINE
  5
17E24
  8
ﾁｭｳｼﾝｾﾝ1
 10
535.66585598952281
 20
229.6550317975744
 30
0.0
 11
520.66585554248775
 21
229.6550317975744
 31
0.0
  0
LINE
  5
17E28
  8
ﾁｭｳｼﾝｾﾝ1
 10
535.66585598952281
 20
309.65503418176007
 30
0.0
 11
520.66585554248775
 21
309.65503418176007
 31
0.0
  0
LINE
  5
17E29
  8
AM_0
 10
550.97206951644864
 20
318.65503298966718
 30
0.0
 11
534.49041141416762
 21
318.65503298966718
 31
0.0
  0
LINE
  5
17E2A
  8
AM_0
 10
551.66585609383083
 20
312.92164981095618
 30
0.0
 11
539.16585609383083
 21
312.92164981095618
 31
0.0
  0
ARC
  5
17E2B
  8
AM_0
 10
554.11473049768006
 20
323.65503298966718
 30
0.0
 40
2.0
 50
90.0
 51
177.99953469735479
1001
GENIUS_GENODEF_13
1002
{
1000
HIER
1070
     0
1002
}
1002
{
1000
MANEDIT
1070
     0
1002
}
1002
{
1000
NOSEL
1070
     0
1002
}
1002
{
1000
BEHIND
1070
     0
1002
}
1002
{
1000
OTHER
1070
     0
1002
}
1002
{
1000
REACTOR
1002
}
1001
GENIUS_GENOBJ-N-FIL_13
1002
{
1000
OWNER
1000
GEN
1002
}
  0
LINE
  5
17E2C
  8
AM_0
 10
563.67195960945571
 20
325.65503298966718
 30
0.0
 11
554.11473049768006
 21
325.65503298966718
 31
0.0
  0
ARC
  5
17E2D
  8
AM_0
 10
550.97206947273719
 20
319.65503298966718
 30
0.0
 40
1.0000000000000091
 50
270.0000025044817
 51
352.8192495496059
  0
LINE
  5
17E2E
  8
AM_0
 10
552.11594941055
 20
323.72484821530202
 30
0.0
 11
551.97124549812781
 21
319.58203494279218
 31
0.0
  0
LINE
  5
17E2F
  8
ﾁｭｳｼﾝｾﾝ1
 10
224.2763870570414
 20
159.12901342448251
 30
0.0
 11
224.2763870570414
 21
336.15503298966729
 31
0.0
  0
LINE
  5
17E30
  8
ﾁｭｳｼﾝｾﾝ1
 10
157.7763870570414
 20
269.65503298966729
 30
0.0
 11
328.80493052806543
 21
269.65503298966729
 31
0.0
  0
LINE
  5
17E31
  8
AM_0
 10
279.58625842987152
 20
233.63093316695841
 30
0.0
 11
270.2763870570414
 21
233.30582529474989
 31
0.0
  0
LINE
  5
17E32
  8
AM_0
 10
279.61034233421191
 20
235.70149885606409
 30
0.0
 11
270.2763870570414
 21
236.02744775674461
 31
0.0
  0
LINE
  5
17E33
  8
AM_0
 10
279.61034233421191
 20
303.60856712327069
 30
0.0
 11
270.2763870570414
 21
303.28261822259037
 31
0.0
  0
LINE
  5
17E34
  8
AM_0
 10
279.58625842987152
 20
305.67913281237628
 30
0.0
 11
270.2763870570414
 21
306.00424068458489
 31
0.0
  0
LINE
  5
17E36
  8
ﾁｭｳｼﾝｾﾝ1
 10
413.16585233873832
 20
302.15503395824271
 30
0.0
 11
413.16585233873832
 21
317.15503440527772
 31
0.0
  0
CIRCLE
  5
17E38
  8
AM_0
 10
413.16585233873832
 20
309.65503418176007
 30
0.0
 40
4.5000001341104507
  0
LINE
  5
17E39
  8
ﾁｭｳｼﾝｾﾝ1
 10
453.16585353083121
 20
325.65503450958568
 30
0.0
 11
453.16585353083121
 21
213.65503146974891
 31
0.0
  0
CIRCLE
  5
17E3C
  8
AM_0
 10
453.16585353083121
 20
269.65503298966718
 30
0.0
 40
27.500000819563869
  0
LINE
  5
17E3F
  8
ﾁｭｳｼﾝｾﾝ1
 10
413.16585233873832
 20
237.15503202109181
 30
0.0
 11
413.16585233873832
 21
222.15503157405681
 31
0.0
  0
CIRCLE
  5
17E40
  8
AM_0
 10
413.16585233873832
 20
229.6550317975744
 30
0.0
 40
4.5000001341104507
  0
LINE
  5
17E42
  8
ﾁｭｳｼﾝｾﾝ1
 10
420.6658525622554
 20
229.6550317975744
 30
0.0
 11
405.66585211522079
 21
229.6550317975744
 31
0.0
  0
LINE
  5
17E46
  8
ﾁｭｳｼﾝｾﾝ1
 10
420.6658525622554
 20
309.65503418176007
 30
0.0
 11
405.66585211522079
 21
309.65503418176007
 31
0.0
  0
LINE
  5
17E47
  8
AM_0
 10
278.2763870570414
 20
235.74808160081011
 30
0.0
 11
278.2763870570414
 21
243.48350212850241
 31
0.0
  0
ARC
  5
17E48
  8
AM_0
 10
279.57544283750912
 20
234.70210802904509
 30
0.0
 40
1.0
 50
341.47285768553178
 51
87.999999999996405
1001
GENIUS_GENODEF_13
1002
{
1000
HIER
1070
     0
1002
}
1002
{
1000
MANEDIT
1070
     0
1002
}
1002
{
1000
NOSEL
1070
     0
1002
}
1002
{
1000
BEHIND
1070
     0
1002
}
1002
{
1000
REACTOR
1002
}
1001
GENIUS_GENOBJ-N-FIL_13
1002
{
1000
OWNER
1000
GEN
1002
}
  0
ARC
  5
17E49
  8
AM_0
 10
279.55135893316913
 20
234.6303239939775
 30
0.0
 40
1.0
 50
272.00000000000369
 51
341.43341919809689
1001
GENIUS_GENODEF_13
1002
{
1000
HIER
1070
     0
1002
}
1002
{
1000
MANEDIT
1070
     0
1002
}
1002
{
1000
NOSEL
1070
     0
1002
}
1002
{
1000
BEHIND
1070
     0
1002
}
1002
{
1000
REACTOR
1002
}
1001
GENIUS_GENOBJ-N-FIL_13
1002
{
1000
OWNER
1000
GEN
1002
}
  0
ARC
  5
17E4A
  8
AM_0
 10
175.2763870570414
 20
269.65503298966729
 30
0.0
 40
111.0
 50
341.43341919810371
 51
341.47285768553178
  0
LINE
  5
17E4B
  8
AM_0
 10
282.44269148890311
 20
245.69721891271169
 30
0.0
 11
275.55734111516159
 21
245.93766064598299
 31
0.0
  0
LINE
  5
17E4C
  8
AM_0
 10
282.4263567545803
 20
243.62842226370799
 30
0.0
 11
274.27608165447452
 21
243.34380838564289
 31
0.0
  0
ARC
  5
17E4D
  8
AM_0
 10
175.2763870570414
 20
269.65503298966729
 30
0.0
 40
111.0
 50
346.84888173935173
 51
346.88632985670108
  0
ARC
  5
17E4E
  8
AM_0
 10
282.40779199220049
 20
244.69782808569241
 30
0.0
 40
1.0
 50
346.88632985670108
 51
87.999999999996405
1001
GENIUS_GENODEF_13
1002
{
1000
HIER
1070
     0
1002
}
1002
{
1000
MANEDIT
1070
     0
1002
}
1002
{
1000
NOSEL
1070
     0
1002
}
1002
{
1000
BEHIND
1070
     0
1002
}
1002
{
1000
REACTOR
1002
}
1001
GENIUS_GENOBJ-N-FIL_13
1002
{
1000
OWNER
1000
GEN
1002
}
  0
ARC
  5
17E4F
  8
AM_0
 10
282.39145725787768
 20
244.62781309072719
 30
0.0
 40
1.0
 50
271.9999999999971
 51
346.84888173935173
1001
GENIUS_GENODEF_13
1002
{
1000
HIER
1070
     0
1002
}
1002
{
1000
MANEDIT
1070
     0
1002
}
1002
{
1000
NOSEL
1070
     0
1002
}
1002
{
1000
BEHIND
1070
     0
1002
}
1002
{
1000
REACTOR
1002
}
1001
GENIUS_GENOBJ-N-FIL_13
1002
{
1000
OWNER
1000
GEN
1002
}
  0
ARC
  5
17E50
  8
AM_0
 10
284.25422889568461
 20
254.69408421655481
 30
0.0
 40
1.0
 50
352.18305216830538
 51
88.000000000002927
1001
GENIUS_GENODEF_13
1002
{
1000
HIER
1070
     0
1002
}
1002
{
1000
MANEDIT
1070
     0
1002
}
1002
{
1000
NOSEL
1070
     0
1002
}
1002
{
1000
BEHIND
1070
     0
1002
}
1002
{
1000
REACTOR
1002
}
1001
GENIUS_GENOBJ-N-FIL_13
1002
{
1000
OWNER
1000
GEN
1002
}
  0
LINE
  5
17E51
  8
AM_0
 10
284.27964624001368
 20
253.625785633601
 30
0.0
 11
278.3936819030647
 21
253.42024322975391
 31
0.0
  0
ARC
  5
17E52
  8
AM_0
 10
284.24474674331111
 20
254.6251764606202
 30
0.0
 40
1.0
 50
271.9999999999971
 51
352.1468219111938
1001
GENIUS_GENODEF_13
1002
{
1000
HIER
1070
     0
1002
}
1002
{
1000
MANEDIT
1070
     0
1002
}
1002
{
1000
NOSEL
1070
     0
1002
}
1002
{
1000
BEHIND
1070
     0
1002
}
1002
{
1000
REACTOR
1002
}
1001
GENIUS_GENOBJ-N-FIL_13
1002
{
1000
OWNER
1000
GEN
1002
}
  0
ARC
  5
17E53
  8
AM_0
 10
175.2763870570414
 20
269.65503298966729
 30
0.0
 40
111.0
 50
352.14682191118732
 51
352.18305216830538
  0
LINE
  5
17E54
  8
AM_0
 10
284.28912839238723
 20
255.69347504357401
 30
0.0
 11
279.07036922646142
 21
255.87571812944
 31
0.0
  0
ARC
  5
17E55
  8
AM_0
 10
282.39145725787768
 20
294.68225288860771
 30
0.0
 40
1.0
 50
13.151118260648341
 51
88.000000000002927
1001
GENIUS_GENODEF_13
1002
{
1000
HIER
1070
     0
1002
}
1002
{
1000
MANEDIT
1070
     0
1002
}
1002
{
1000
NOSEL
1070
     0
1002
}
1002
{
1000
BEHIND
1070
     0
1002
}
1002
{
1000
REACTOR
1002
}
1001
GENIUS_GENOBJ-N-FIL_13
1002
{
1000
OWNER
1000
GEN
1002
}
  0
ARC
  5
17E56
  8
AM_0
 10
284.25422889568461
 20
284.61598176278
 30
0.0
 40
1.0
 50
271.9999999999971
 51
7.8169478316945868
1001
GENIUS_GENODEF_13
1002
{
1000
HIER
1070
     0
1002
}
1002
{
1000
MANEDIT
1070
     0
1002
}
1002
{
1000
NOSEL
1070
     0
1002
}
1002
{
1000
BEHIND
1070
     0
1002
}
1002
{
1000
REACTOR
1002
}
1001
GENIUS_GENOBJ-N-FIL_13
1002
{
1000
OWNER
1000
GEN
1002
}
  0
LINE
  5
17E57
  8
AM_0
 10
284.28912839238723
 20
283.616590935761
 30
0.0
 11
279.07036922646142
 21
283.43434784989449
 31
0.0
  0
LINE
  5
17E58
  8
AM_0
 10
284.27964624001368
 20
285.6842803457335
 30
0.0
 11
278.3936819030647
 21
285.8898227495809
 31
0.0
  0
ARC
  5
17E59
  8
AM_0
 10
284.24474674331111
 20
284.68488951871461
 30
0.0
 40
1.0
 50
7.8531780888061729
 51
88.000000000002927
1001
GENIUS_GENODEF_13
1002
{
1000
HIER
1070
     0
1002
}
1002
{
1000
MANEDIT
1070
     0
1002
}
1002
{
1000
NOSEL
1070
     0
1002
}
1002
{
1000
BEHIND
1070
     0
1002
}
1002
{
1000
REACTOR
1002
}
1001
GENIUS_GENOBJ-N-FIL_13
1002
{
1000
OWNER
1000
GEN
1002
}
  0
ARC
  5
17E5A
  8
AM_0
 10
175.2763870570414
 20
269.65503298966729
 30
0.0
 40
111.0
 50
7.8169478316945868
 51
7.85317808881274
  0
LINE
  5
17E5B
  8
AM_0
 10
282.44269148890311
 20
293.61284706662309
 30
0.0
 11
275.55734111516159
 21
293.37240533335182
 31
0.0
  0
ARC
  5
17E5C
  8
AM_0
 10
175.2763870570414
 20
269.65503298966729
 30
0.0
 40
111.0
 50
13.11367014330558
 51
13.151118260648341
  0
ARC
  5
17E5D
  8
AM_0
 10
282.40779199220049
 20
294.61223789364232
 30
0.0
 40
1.0
 50
272.00000000000369
 51
13.11367014329889
1001
GENIUS_GENODEF_13
1002
{
1000
HIER
1070
     0
1002
}
1002
{
1000
MANEDIT
1070
     0
1002
}
1002
{
1000
NOSEL
1070
     0
1002
}
1002
{
1000
BEHIND
1070
     0
1002
}
1002
{
1000
REACTOR
1002
}
1001
GENIUS_GENOBJ-N-FIL_13
1002
{
1000
OWNER
1000
GEN
1002
}
  0
LINE
  5
17E5E
  8
AM_0
 10
278.2763870570414
 20
303.5619843785243
 30
0.0
 11
278.2763870570414
 21
295.8265638508322
 31
0.0
  0
LINE
  5
17E5F
  8
AM_0
 10
282.4263567545803
 20
295.68164371562682
 30
0.0
 11
274.27608165447452
 21
295.96625759369192
 31
0.0
  0
ARC
  5
17E60
  8
AM_0
 10
279.57544283750912
 20
304.60795795028992
 30
0.0
 40
1.0
 50
272.00000000000369
 51
18.527142314468261
1001
GENIUS_GENODEF_13
1002
{
1000
HIER
1070
     0
1002
}
1002
{
1000
MANEDIT
1070
     0
1002
}
1002
{
1000
NOSEL
1070
     0
1002
}
1002
{
1000
BEHIND
1070
     0
1002
}
1002
{
1000
REACTOR
1002
}
1001
GENIUS_GENOBJ-N-FIL_13
1002
{
1000
OWNER
1000
GEN
1002
}
  0
ARC
  5
17E61
  8
AM_0
 10
175.2763870570414
 20
269.65503298966729
 30
0.0
 40
111.0
 50
18.527142314468261
 51
18.56658080189624
  0
ARC
  5
17E62
  8
AM_0
 10
279.55135893316913
 20
304.67974198535723
 30
0.0
 40
1.0
 50
18.566580801903061
 51
87.999999999996405
1001
GENIUS_GENODEF_13
1002
{
1000
HIER
1070
     0
1002
}
1002
{
1000
MANEDIT
1070
     0
1002
}
1002
{
1000
NOSEL
1070
     0
1002
}
1002
{
1000
BEHIND
1070
     0
1002
}
1002
{
1000
REACTOR
1002
}
1001
GENIUS_GENOBJ-N-FIL_13
1002
{
1000
OWNER
1000
GEN
1002
}
  0
ARC
  5
17E63
  8
AM_0
 10
183.2763870570414
 20
310.65503298966729
 30
0.0
 40
5.0
 50
90.0
 51
180.0
1001
GENIUS_GENODEF_13
1002
{
1000
HIER
1070
     0
1002
}
1002
{
1000
MANEDIT
1070
     0
1002
}
1002
{
1000
NOSEL
1070
     0
1002
}
1002
{
1000
BEHIND
1070
     0
1002
}
1002
{
1000
REACTOR
1002
}
1001
GENIUS_GENOBJ-N-FIL_13
1002
{
1000
OWNER
1000
GEN
1002
}
  0
LINE
  5
17E64
  8
AM_0
 10
249.27638780209929
 20
320.6550345095859
 30
0.0
 11
249.27638780209929
 21
218.65503146974891
 31
0.0
  0
LINE
  5
17E65
  8
AM_0
 10
262.27638818952948
 20
320.4281186587562
 30
0.0
 11
262.27638818952948
 21
218.88194732057829
 31
0.0
  0
ARC
  5
17E66
  8
AM_0
 10
265.27638705704152
 20
310.65503298966729
 30
0.0
 40
5.0
 50
0.000000000000007
 51
90.0
1001
GENIUS_GENOBJ-N-CEN_13
1002
{
1000
OWNER
1000
GEN
1002
}
1001
GENIUS_GENODEF_13
1002
{
1000
HIER
1070
     0
1002
}
1002
{
1000
MANEDIT
1070
     0
1002
}
1002
{
1000
NOSEL
1070
     0
1002
}
1002
{
1000
BEHIND
1070
     0
1002
}
1002
{
1000
REACTOR
1002
}
1001
GENIUS_GENOBJ-N-FIL_13
1002
{
1000
OWNER
1000
GEN
1002
}
  0
LINE
  5
17E67
  8
AM_0
 10
186.27638592455301
 20
319.55536538633532
 30
0.0
 11
186.27638592455301
 21
219.7547005929994
 31
0.0
  0
LINE
  5
17E68
  8
AM_0
 10
168.94243177987099
 20
303.60856712327069
 30
0.0
 11
178.2763870570414
 21
303.28261822259037
 31
0.0
  0
LINE
  5
17E69
  8
AM_0
 10
168.9665156842112
 20
305.67913281237628
 30
0.0
 11
178.2763870570414
 21
306.00424068458489
 31
0.0
  0
LINE
  5
17E6A
  8
AM_0
 10
168.9665156842114
 20
233.63093316695841
 30
0.0
 11
178.2763870570414
 21
233.30582529474989
 31
0.0
  0
LINE
  5
17E6B
  8
AM_0
 10
168.94243177987099
 20
235.70149885606409
 30
0.0
 11
178.2763870570414
 21
236.02744775674461
 31
0.0
  0
ARC
  5
17E6C
  8
AM_0
 10
224.2763870570414
 20
269.65503298966729
 30
0.0
 40
56.5
 50
144.98137173791559
 51
215.01862826208429
  0
LINE
  5
17E6D
  8
AM_0
 10
266.27638830873877
 20
297.15503380923121
 30
0.0
 11
266.27638830873877
 21
242.15503217010351
 31
0.0
  0
LINE
  5
17E6F
  8
AM_0
 10
249.27638780210069
 20
218.65503146974879
 30
0.0
 11
186.27638592455281
 21
219.7547005929994
 31
0.0
  0
LINE
  5
17E70
  8
ｶｸﾚｾﾝ2
 10
186.27638592455301
 20
225.15503179757451
 30
0.0
 11
262.27638818952943
 21
225.15503179757451
 31
0.0
  0
LINE
  5
17E71
  8
ｶｸﾚｾﾝ2
 10
186.27638592455301
 20
234.15503179757451
 30
0.0
 11
262.27638818952943
 21
234.15503179757451
 31
0.0
  0
LINE
  5
17E72
  8
ﾁｭｳｼﾝｾﾝ1
 10
183.2763859245531
 20
229.65503179757451
 30
0.0
 11
265.2763881895296
 21
229.65503179757451
 31
0.0
  0
ARC
  5
17E73
  8
AM_0
 10
224.27638705704121
 20
269.65503298966729
 30
0.0
 40
56.5
 50
242.4821246347982
 51
295.51787536519993
  0
ARC
  5
17E74
  8
AM_0
 10
192.3138361130633
 20
213.69566886767649
 30
0.0
 40
1.9655366667591301
 50
3.1584702260747881
 51
179.35044678892791
  0
LINE
  5
17E75
  8
AM_0
 10
188.24268500482921
 20
212.6201334929647
 30
0.0
 11
187.99458775183331
 21
219.7247092685445
 31
0.0
  0
LINE
  5
17E76
  8
AM_0
 10
190.3100891092532
 20
212.6201334929649
 30
0.0
 11
190.55662468724151
 21
219.67998874748841
 31
0.0
  0
ARC
  5
17E77
  8
AM_0
 10
189.31069828223431
 20
212.65503298966729
 30
0.0
 40
1.0
 50
269.99999999999352
 51
357.99999999999642
1001
GENIUS_GENODEF_13
1002
{
1000
HIER
1070
     0
1002
}
1002
{
1000
MANEDIT
1070
     0
1002
}
1002
{
1000
NOSEL
1070
     0
1002
}
1002
{
1000
BEHIND
1070
     0
1002
}
1002
{
1000
REACTOR
1002
}
1001
GENIUS_GENOBJ-N-FIL_13
1002
{
1000
OWNER
1000
GEN
1002
}
  0
LINE
  5
17E78
  8
AM_0
 10
189.31069828223431
 20
211.65503298966729
 30
0.0
 11
189.24207583184821
 21
211.65503298966729
 31
0.0
  0
ARC
  5
17E79
  8
AM_0
 10
189.24207583184821
 20
212.65503298966729
 30
0.0
 40
1.0
 50
181.9999999999971
 51
270.0
1001
GENIUS_GENODEF_13
1002
{
1000
HIER
1070
     0
1002
}
1002
{
1000
MANEDIT
1070
     0
1002
}
1002
{
1000
NOSEL
1070
     0
1002
}
1002
{
1000
BEHIND
1070
     0
1002
}
1002
{
1000
REACTOR
1002
}
1001
GENIUS_GENOBJ-N-FIL_13
1002
{
1000
OWNER
1000
GEN
1002
}
  0
LINE
  5
17E7A
  8
AM_0
 10
270.2763870570414
 20
236.37215450838221
 30
0.0
 11
270.2763870570414
 21
228.65503298966729
 31
0.0
1001
GENIUS_GENODEF_13
1002
{
1000
HIER
1070
     0
1002
}
1002
{
1000
MANEDIT
1070
     0
1002
}
1002
{
1000
NOSEL
1070
     0
1002
}
1002
{
1000
BEHIND
1070
     0
1002
}
1002
{
1000
REACTOR
1002
}
1001
GENIUS_GENOBJ-N-CEN_13
1002
{
1000
OWNER
1000
GEN
1002
}
  0
ARC
  5
17E7B
  8
AM_0
 10
265.27638705704152
 20
228.65503298966729
 30
0.0
 40
5.0
 50
270.0
 51
0.000000000000007
1001
GENIUS_GENOBJ-N-CEN_13
1002
{
1000
OWNER
1000
GEN
1002
}
1001
GENIUS_GENODEF_13
1002
{
1000
HIER
1070
     0
1002
}
1002
{
1000
MANEDIT
1070
     0
1002
}
1002
{
1000
NOSEL
1070
     0
1002
}
1002
{
1000
BEHIND
1070
     0
1002
}
1002
{
1000
REACTOR
1002
}
1001
GENIUS_GENOBJ-N-FIL_13
1002
{
1000
OWNER
1000
GEN
1002
}
  0
LINE
  5
17E7C
  8
AM_0
 10
265.27638705704152
 20
223.65503298966721
 30
0.0
 11
262.27638705704152
 21
223.65503298966721
 31
0.0
  0
ARC
  5
17E7D
  8
AM_0
 10
271.77638705704152
 20
236.37215450838221
 30
0.0
 40
1.5
 50
144.9813717379121
 51
180.0
1001
GENIUS_GENODEF_13
1002
{
1000
HIER
1070
     0
1002
}
1002
{
1000
MANEDIT
1070
     0
1002
}
1002
{
1000
NOSEL
1070
     0
1002
}
1002
{
1000
BEHIND
1070
     0
1002
}
1002
{
1000
REACTOR
1002
}
1001
GENIUS_GENOBJ-N-FIL_13
1002
{
1000
OWNER
1000
GEN
1002
}
  0
LINE
  5
17E7E
  8
AM_0
 10
266.276388308739
 20
242.1550321701034
 30
0.0
 11
262.27638818952971
 21
242.1550321701034
 31
0.0
  0
ARC
  5
17E7F
  8
AM_0
 10
256.23893800101922
 20
213.69566886767649
 30
0.0
 40
1.9655366667591301
 50
0.6495532110655964
 51
176.84152977392509
  0
LINE
  5
17E80
  8
AM_0
 10
258.24268500482918
 20
212.6201334929649
 30
0.0
 11
258.02660807679382
 21
218.80776713277979
 31
0.0
  0
LINE
  5
17E81
  8
AM_0
 10
260.31008910925323
 20
212.6201334929647
 30
0.0
 11
260.52769055785598
 21
218.85142368987761
 31
0.0
  0
ARC
  5
17E82
  8
AM_0
 10
259.31069828223428
 20
212.65503298966729
 30
0.0
 40
1.0
 50
269.99999999999352
 51
357.99999999999642
1001
GENIUS_GENODEF_13
1002
{
1000
HIER
1070
     0
1002
}
1002
{
1000
MANEDIT
1070
     0
1002
}
1002
{
1000
NOSEL
1070
     0
1002
}
1002
{
1000
BEHIND
1070
     0
1002
}
1002
{
1000
REACTOR
1002
}
1001
GENIUS_GENOBJ-N-FIL_13
1002
{
1000
OWNER
1000
GEN
1002
}
  0
ARC
  5
17E83
  8
AM_0
 10
259.24207583184818
 20
212.65503298966729
 30
0.0
 40
1.0
 50
181.9999999999971
 51
270.0
1001
GENIUS_GENODEF_13
1002
{
1000
HIER
1070
     0
1002
}
1002
{
1000
MANEDIT
1070
     0
1002
}
1002
{
1000
NOSEL
1070
     0
1002
}
1002
{
1000
BEHIND
1070
     0
1002
}
1002
{
1000
REACTOR
1002
}
1001
GENIUS_GENOBJ-N-FIL_13
1002
{
1000
OWNER
1000
GEN
1002
}
  0
LINE
  5
17E84
  8
AM_0
 10
259.24207583184818
 20
211.65503298966729
 30
0.0
 11
259.31069828223428
 21
211.65503298966729
 31
0.0
  0
LINE
  5
17E85
  8
AM_0
 10
178.2763870570414
 20
236.37215450838221
 30
0.0
 11
178.2763870570414
 21
228.65503298966729
 31
0.0
1001
GENIUS_GENODEF_13
1002
{
1000
HIER
1070
     0
1002
}
1002
{
1000
MANEDIT
1070
     0
1002
}
1002
{
1000
NOSEL
1070
     0
1002
}
1002
{
1000
BEHIND
1070
     0
1002
}
1002
{
1000
REACTOR
1002
}
1001
GENIUS_GENOBJ-N-CEN_13
1002
{
1000
OWNER
1000
GEN
1002
}
  0
LINE
  5
17E86
  8
AM_0
 10
249.27638780209921
 20
218.65503146974891
 30
0.0
 11
262.27638818952943
 21
218.88194732057829
 31
0.0
  0
ARC
  5
17E87
  8
AM_0
 10
183.2763870570414
 20
228.65503298966729
 30
0.0
 40
5.0
 50
180.0
 51
270.0
1001
GENIUS_GENODEF_13
1002
{
1000
HIER
1070
     0
1002
}
1002
{
1000
MANEDIT
1070
     0
1002
}
1002
{
1000
NOSEL
1070
     0
1002
}
1002
{
1000
BEHIND
1070
     0
1002
}
1002
{
1000
REACTOR
1002
}
1001
GENIUS_GENOBJ-N-FIL_13
1002
{
1000
OWNER
1000
GEN
1002
}
  0
LINE
  5
17E88
  8
AM_0
 10
186.2763870570414
 20
223.65503298966721
 30
0.0
 11
183.2763870570414
 21
223.65503298966721
 31
0.0
  0
ARC
  5
17E89
  8
AM_0
 10
176.7763870570414
 20
236.37215450838221
 30
0.0
 40
1.5
 50
0.000000000000007
 51
35.01862826208427
1001
GENIUS_GENODEF_13
1002
{
1000
HIER
1070
     0
1002
}
1002
{
1000
MANEDIT
1070
     0
1002
}
1002
{
1000
NOSEL
1070
     0
1002
}
1002
{
1000
BEHIND
1070
     0
1002
}
1002
{
1000
REACTOR
1002
}
1001
GENIUS_GENOBJ-N-FIL_13
1002
{
1000
OWNER
1000
GEN
1002
}
  0
LINE
  5
17E8B
  8
ｶｸﾚｾﾝ2
 10
186.27638592455301
 20
305.15503418176019
 30
0.0
 11
262.27638818952943
 21
305.15503418176019
 31
0.0
  0
LINE
  5
17E8C
  8
ﾁｭｳｼﾝｾﾝ1
 10
183.2763859245531
 20
309.65503418176019
 30
0.0
 11
265.2763881895296
 21
309.65503418176019
 31
0.0
  0
LINE
  5
17E8D
  8
AM_0
 10
269.27638839814603
 20
284.65503343670213
 30
0.0
 11
269.27638839814603
 21
254.65503254263251
 31
0.0
  0
LINE
  5
17E8E
  8
AM_0
 10
266.276388308739
 20
254.65503254263251
 30
0.0
 11
269.27638839814603
 21
254.65503254263251
 31
0.0
  0
LINE
  5
17E8F
  8
AM_0
 10
266.276388308739
 20
284.65503343670213
 30
0.0
 11
269.27638839814603
 21
284.65503343670213
 31
0.0
  0
ARC
  5
17E90
  8
AM_0
 10
271.77638705704152
 20
302.93791147095283
 30
0.0
 40
1.5
 50
180.0
 51
215.01862826208429
1001
GENIUS_GENODEF_13
1002
{
1000
HIER
1070
     0
1002
}
1002
{
1000
MANEDIT
1070
     0
1002
}
1002
{
1000
NOSEL
1070
     0
1002
}
1002
{
1000
BEHIND
1070
     0
1002
}
1002
{
1000
REACTOR
1002
}
1001
GENIUS_GENOBJ-N-FIL_13
1002
{
1000
OWNER
1000
GEN
1002
}
  0
LINE
  5
17E91
  8
AM_0
 10
266.276388308739
 20
297.15503380923121
 30
0.0
 11
262.27638818952971
 21
297.15503380923121
 31
0.0
  0
LINE
  5
17E92
  8
AM_0
 10
270.2763870570414
 20
310.65503298966729
 30
0.0
 11
270.2763870570414
 21
302.93791147095283
 31
0.0
1001
GENIUS_GENODEF_13
1002
{
1000
HIER
1070
     0
1002
}
1002
{
1000
MANEDIT
1070
     0
1002
}
1002
{
1000
NOSEL
1070
     0
1002
}
1002
{
1000
BEHIND
1070
     0
1002
}
1002
{
1000
REACTOR
1002
}
1001
GENIUS_GENOBJ-N-CEN_13
1002
{
1000
OWNER
1000
GEN
1002
}
  0
ARC
  5
17E93
  8
AM_0
 10
176.7763870570414
 20
302.93791147095283
 30
0.0
 40
1.5
 50
324.98137173791582
 51
0.0000000000065208
1001
GENIUS_GENODEF_13
1002
{
1000
HIER
1070
     0
1002
}
1002
{
1000
MANEDIT
1070
     0
1002
}
1002
{
1000
NOSEL
1070
     0
1002
}
1002
{
1000
BEHIND
1070
     0
1002
}
1002
{
1000
REACTOR
1002
}
1001
GENIUS_GENOBJ-N-FIL_13
1002
{
1000
OWNER
1000
GEN
1002
}
  0
LINE
  5
17E95
  8
AM_0
 10
178.2763870570414
 20
310.65503298966729
 30
0.0
 11
178.2763870570414
 21
302.93791147095283
 31
0.0
1001
GENIUS_GENODEF_13
1002
{
1000
HIER
1070
     0
1002
}
1002
{
1000
MANEDIT
1070
     0
1002
}
1002
{
1000
NOSEL
1070
     0
1002
}
1002
{
1000
BEHIND
1070
     0
1002
}
1002
{
1000
REACTOR
1002
}
1001
GENIUS_GENOBJ-N-CEN_13
1002
{
1000
OWNER
1000
GEN
1002
}
  0
ARC
  5
17E96
  8
AM_0
 10
166.14498212188241
 20
244.69782808569241
 30
0.0
 40
1.0
 50
92.000000000003581
 51
193.11367014329889
1001
GENIUS_GENODEF_13
1002
{
1000
HIER
1070
     0
1002
}
1002
{
1000
MANEDIT
1070
     0
1002
}
1002
{
1000
NOSEL
1070
     0
1002
}
1002
{
1000
BEHIND
1070
     0
1002
}
1002
{
1000
REACTOR
1002
}
1001
GENIUS_GENOBJ-N-FIL_13
1002
{
1000
OWNER
1000
GEN
1002
}
  0
LINE
  5
17E97
  8
AM_0
 10
170.27638705704149
 20
235.74808160081011
 30
0.0
 11
170.2763870570414
 21
243.48350212850241
 31
0.0
  0
ARC
  5
17E98
  8
AM_0
 10
273.27638705704152
 20
269.65503298966729
 30
0.0
 40
111.0
 50
198.52714231446831
 51
198.56658080189609
  0
ARC
  5
17E99
  8
AM_0
 10
168.97733127657381
 20
234.70210802904509
 30
0.0
 40
1.0
 50
92.000000000003581
 51
198.52714231446831
1001
GENIUS_GENODEF_13
1002
{
1000
HIER
1070
     0
1002
}
1002
{
1000
MANEDIT
1070
     0
1002
}
1002
{
1000
NOSEL
1070
     0
1002
}
1002
{
1000
BEHIND
1070
     0
1002
}
1002
{
1000
REACTOR
1002
}
1001
GENIUS_GENOBJ-N-FIL_13
1002
{
1000
OWNER
1000
GEN
1002
}
  0
ARC
  5
17E9A
  8
AM_0
 10
169.0014151809138
 20
234.6303239939775
 30
0.0
 40
1.0
 50
198.566580801903
 51
267.99999999999648
1001
GENIUS_GENODEF_13
1002
{
1000
HIER
1070
     0
1002
}
1002
{
1000
MANEDIT
1070
     0
1002
}
1002
{
1000
NOSEL
1070
     0
1002
}
1002
{
1000
BEHIND
1070
     0
1002
}
1002
{
1000
REACTOR
1002
}
1001
GENIUS_GENOBJ-N-FIL_13
1002
{
1000
OWNER
1000
GEN
1002
}
  0
LINE
  5
17E9B
  8
AM_0
 10
166.11008262517981
 20
245.69721891271169
 30
0.0
 11
172.9954329989213
 21
245.93766064598299
 31
0.0
  0
LINE
  5
17E9C
  8
AM_0
 10
166.1264173595026
 20
243.62842226370799
 30
0.0
 11
174.2766924596084
 21
243.34380838564289
 31
0.0
  0
ARC
  5
17E9D
  8
AM_0
 10
273.27638705704152
 20
269.65503298966729
 30
0.0
 40
111.0
 50
193.1136701433056
 51
193.1511182606483
  0
ARC
  5
17E9E
  8
AM_0
 10
166.16131685620519
 20
244.62781309072719
 30
0.0
 40
1.0
 50
193.1511182606483
 51
268.0000000000029
1001
GENIUS_GENODEF_13
1002
{
1000
HIER
1070
     0
1002
}
1002
{
1000
MANEDIT
1070
     0
1002
}
1002
{
1000
NOSEL
1070
     0
1002
}
1002
{
1000
BEHIND
1070
     0
1002
}
1002
{
1000
REACTOR
1002
}
1001
GENIUS_GENOBJ-N-FIL_13
1002
{
1000
OWNER
1000
GEN
1002
}
  0
LINE
  5
17E9F
  8
AM_0
 10
164.2636457216957
 20
255.69347504357401
 30
0.0
 11
169.4824048876215
 21
255.87571812944
 31
0.0
  0
LINE
  5
17EA0
  8
AM_0
 10
164.27312787406919
 20
253.625785633601
 30
0.0
 11
170.15909221101819
 21
253.42024322975391
 31
0.0
  0
ARC
  5
17EA1
  8
AM_0
 10
164.29854521839829
 20
254.69408421655481
 30
0.0
 40
1.0
 50
91.999999999997087
 51
187.81694783169459
1001
GENIUS_GENODEF_13
1002
{
1000
HIER
1070
     0
1002
}
1002
{
1000
MANEDIT
1070
     0
1002
}
1002
{
1000
NOSEL
1070
     0
1002
}
1002
{
1000
BEHIND
1070
     0
1002
}
1002
{
1000
REACTOR
1002
}
1001
GENIUS_GENOBJ-N-FIL_13
1002
{
1000
OWNER
1000
GEN
1002
}
  0
ARC
  5
17EA2
  8
AM_0
 10
164.30802737077181
 20
254.6251764606202
 30
0.0
 40
1.0
 50
187.853178088806
 51
268.0000000000029
1001
GENIUS_GENODEF_13
1002
{
1000
HIER
1070
     0
1002
}
1002
{
1000
MANEDIT
1070
     0
1002
}
1002
{
1000
NOSEL
1070
     0
1002
}
1002
{
1000
BEHIND
1070
     0
1002
}
1002
{
1000
REACTOR
1002
}
1001
GENIUS_GENOBJ-N-FIL_13
1002
{
1000
OWNER
1000
GEN
1002
}
  0
ARC
  5
17EA3
  8
AM_0
 10
273.27638705704152
 20
269.65503298966729
 30
0.0
 40
111.0
 50
187.81694783169459
 51
187.85317808881271
  0
LINE
  5
17EA4
  8
AM_0
 10
163.35356375246431
 20
265.69013119892321
 30
0.0
 11
167.90472238023821
 21
265.8490611602839
 31
0.0
  0
LINE
  5
17EA5
  8
AM_0
 10
163.35667393092481
 20
275.68709046856588
 30
0.0
 11
168.11740733593061
 21
275.85333894241381
 31
0.0
  0
LINE
  5
17EA6
  8
AM_0
 10
163.35356375246431
 20
273.61993478041182
 30
0.0
 11
167.90472238023821
 21
273.4610048190508
 31
0.0
  0
LINE
  5
17EA7
  8
AM_0
 10
163.35667393092481
 20
263.62297551076881
 30
0.0
 11
168.11740733593061
 21
263.456727036921
 31
0.0
  0
ARC
  5
17EA8
  8
AM_0
 10
163.3884632491671
 20
264.69074037190398
 30
0.0
 40
1.0
 50
92.000000000003581
 51
182.58663322877331
1001
GENIUS_GENODEF_13
1002
{
1000
HIER
1070
     0
1002
}
1002
{
1000
MANEDIT
1070
     0
1002
}
1002
{
1000
NOSEL
1070
     0
1002
}
1002
{
1000
BEHIND
1070
     0
1002
}
1002
{
1000
REACTOR
1002
}
1001
GENIUS_GENOBJ-N-FIL_13
1002
{
1000
OWNER
1000
GEN
1002
}
  0
ARC
  5
17EA9
  8
AM_0
 10
163.39157342762729
 20
264.62236633778781
 30
0.0
 40
1.0
 50
182.62228408795289
 51
268.0000000000029
1001
GENIUS_GENODEF_13
1002
{
1000
HIER
1070
     0
1002
}
1002
{
1000
MANEDIT
1070
     0
1002
}
1002
{
1000
NOSEL
1070
     0
1002
}
1002
{
1000
BEHIND
1070
     0
1002
}
1002
{
1000
REACTOR
1002
}
1001
GENIUS_GENOBJ-N-FIL_13
1002
{
1000
OWNER
1000
GEN
1002
}
  0
ARC
  5
17EAA
  8
AM_0
 10
273.27638705704152
 20
269.65503298966729
 30
0.0
 40
111.0
 50
182.58663322877331
 51
182.62228408795289
  0
ARC
  5
17EAB
  8
AM_0
 10
273.27638705704152
 20
269.65503298966729
 30
0.0
 40
111.0
 50
177.37771591204699
 51
177.41336677122669
  0
ARC
  5
17EAC
  8
AM_0
 10
163.39157342762729
 20
274.68769964154683
 30
0.0
 40
1.0
 50
91.999999999997087
 51
177.37771591204699
1001
GENIUS_GENODEF_13
1002
{
1000
HIER
1070
     0
1002
}
1002
{
1000
MANEDIT
1070
     0
1002
}
1002
{
1000
NOSEL
1070
     0
1002
}
1002
{
1000
BEHIND
1070
     0
1002
}
1002
{
1000
REACTOR
1002
}
1001
GENIUS_GENOBJ-N-FIL_13
1002
{
1000
OWNER
1000
GEN
1002
}
  0
ARC
  5
17EAD
  8
AM_0
 10
163.3884632491671
 20
274.61932560743082
 30
0.0
 40
1.0
 50
177.41336677122669
 51
267.99999999999648
1001
GENIUS_GENODEF_13
1002
{
1000
HIER
1070
     0
1002
}
1002
{
1000
MANEDIT
1070
     0
1002
}
1002
{
1000
NOSEL
1070
     0
1002
}
1002
{
1000
BEHIND
1070
     0
1002
}
1002
{
1000
REACTOR
1002
}
1001
GENIUS_GENOBJ-N-FIL_13
1002
{
1000
OWNER
1000
GEN
1002
}
  0
ARC
  5
17EAE
  8
AM_0
 10
166.16131685620519
 20
294.68225288860771
 30
0.0
 40
1.0
 50
91.999999999997087
 51
166.84888173935161
1001
GENIUS_GENODEF_13
1002
{
1000
HIER
1070
     0
1002
}
1002
{
1000
MANEDIT
1070
     0
1002
}
1002
{
1000
NOSEL
1070
     0
1002
}
1002
{
1000
BEHIND
1070
     0
1002
}
1002
{
1000
REACTOR
1002
}
1001
GENIUS_GENOBJ-N-FIL_13
1002
{
1000
OWNER
1000
GEN
1002
}
  0
ARC
  5
17EAF
  8
AM_0
 10
166.14498212188241
 20
294.61223789364232
 30
0.0
 40
1.0
 50
166.88632985670111
 51
267.99999999999648
1001
GENIUS_GENODEF_13
1002
{
1000
HIER
1070
     0
1002
}
1002
{
1000
MANEDIT
1070
     0
1002
}
1002
{
1000
NOSEL
1070
     0
1002
}
1002
{
1000
BEHIND
1070
     0
1002
}
1002
{
1000
REACTOR
1002
}
1001
GENIUS_GENOBJ-N-FIL_13
1002
{
1000
OWNER
1000
GEN
1002
}
  0
LINE
  5
17EB0
  8
AM_0
 10
164.2636457216957
 20
283.616590935761
 30
0.0
 11
169.4824048876215
 21
283.43434784989449
 31
0.0
  0
LINE
  5
17EB1
  8
AM_0
 10
164.27312787406919
 20
285.6842803457335
 30
0.0
 11
170.15909221101819
 21
285.8898227495809
 31
0.0
  0
LINE
  5
17EB2
  8
AM_0
 10
166.11008262517959
 20
293.61284706662309
 30
0.0
 11
172.9954329989213
 21
293.37240533335182
 31
0.0
  0
ARC
  5
17EB3
  8
AM_0
 10
273.27638705704152
 20
269.65503298966729
 30
0.0
 40
111.0
 50
166.84888173935161
 51
166.8863298566944
  0
ARC
  5
17EB4
  8
AM_0
 10
164.29854521839829
 20
284.61598176278
 30
0.0
 40
1.0
 50
172.18305216830541
 51
268.0000000000029
1001
GENIUS_GENODEF_13
1002
{
1000
HIER
1070
     0
1002
}
1002
{
1000
MANEDIT
1070
     0
1002
}
1002
{
1000
NOSEL
1070
     0
1002
}
1002
{
1000
BEHIND
1070
     0
1002
}
1002
{
1000
REACTOR
1002
}
1001
GENIUS_GENOBJ-N-FIL_13
1002
{
1000
OWNER
1000
GEN
1002
}
  0
ARC
  5
17EB5
  8
AM_0
 10
273.27638705704152
 20
269.65503298966729
 30
0.0
 40
111.0
 50
172.14682191118709
 51
172.18305216830541
  0
ARC
  5
17EB6
  8
AM_0
 10
164.30802737077181
 20
284.68488951871461
 30
0.0
 40
1.0
 50
91.999999999997087
 51
172.1468219111938
1001
GENIUS_GENODEF_13
1002
{
1000
HIER
1070
     0
1002
}
1002
{
1000
MANEDIT
1070
     0
1002
}
1002
{
1000
NOSEL
1070
     0
1002
}
1002
{
1000
BEHIND
1070
     0
1002
}
1002
{
1000
REACTOR
1002
}
1001
GENIUS_GENOBJ-N-FIL_13
1002
{
1000
OWNER
1000
GEN
1002
}
  0
LINE
  5
17EB7
  8
AM_0
 10
170.27638705704149
 20
303.5619843785243
 30
0.0
 11
170.2763870570414
 21
295.8265638508322
 31
0.0
  0
LINE
  5
17EB8
  8
AM_0
 10
166.1264173595026
 20
295.68164371562682
 30
0.0
 11
174.2766924596084
 21
295.96625759369192
 31
0.0
  0
ARC
  5
17EB9
  8
AM_0
 10
273.27638705704152
 20
269.65503298966729
 30
0.0
 40
111.0
 50
161.43341919810371
 51
161.47285768553169
  0
ARC
  5
17EBA
  8
AM_0
 10
168.97733127657381
 20
304.60795795028992
 30
0.0
 40
1.0
 50
161.47285768553169
 51
268.0000000000029
1001
GENIUS_GENODEF_13
1002
{
1000
HIER
1070
     0
1002
}
1002
{
1000
MANEDIT
1070
     0
1002
}
1002
{
1000
NOSEL
1070
     0
1002
}
1002
{
1000
BEHIND
1070
     0
1002
}
1002
{
1000
REACTOR
1002
}
1001
GENIUS_GENOBJ-N-FIL_13
1002
{
1000
OWNER
1000
GEN
1002
}
  0
ARC
  5
17EBB
  8
AM_0
 10
169.0014151809138
 20
304.67974198535723
 30
0.0
 40
1.0
 50
92.000000000003581
 51
161.43341919809691
1001
GENIUS_GENODEF_13
1002
{
1000
HIER
1070
     0
1002
}
1002
{
1000
MANEDIT
1070
     0
1002
}
1002
{
1000
NOSEL
1070
     0
1002
}
1002
{
1000
BEHIND
1070
     0
1002
}
1002
{
1000
REACTOR
1002
}
1001
GENIUS_GENOBJ-N-FIL_13
1002
{
1000
OWNER
1000
GEN
1002
}
  0
LINE
  5
17EBC
  8
ｶｸﾚｾﾝ2
 10
186.27638592455301
 20
314.15503418176019
 30
0.0
 11
262.27638818952943
 21
314.15503418176019
 31
0.0
  0
LINE
  5
17EBD
  8
AM_0
 10
249.2763878021008
 20
320.65503450958568
 30
0.0
 11
186.27638592455301
 21
319.55536538633532
 31
0.0
  0
ARC
  5
17EBE
  8
AM_0
 10
224.27638705704121
 20
269.65503298966729
 30
0.0
 40
56.5
 50
64.482124634800144
 51
117.5178753652018
  0
ARC
  5
17EBF
  8
AM_0
 10
199.31918215306641
 20
327.78643792482609
 30
0.0
 40
1.0
 50
2.0000000000036531
 51
103.1136701432995
1001
GENIUS_GENODEF_13
1002
{
1000
HIER
1070
     0
1002
}
1002
{
1000
MANEDIT
1070
     0
1002
}
1002
{
1000
NOSEL
1070
     0
1002
}
1002
{
1000
BEHIND
1070
     0
1002
}
1002
{
1000
REACTOR
1002
}
1001
GENIUS_GENOBJ-N-FIL_13
1002
{
1000
OWNER
1000
GEN
1002
}
  0
LINE
  5
17EC0
  8
AM_0
 10
198.24977633108199
 20
327.80500268720613
 30
0.0
 11
197.96881970485759
 21
319.75945757713941
 31
0.0
  0
LINE
  5
17EC1
  8
AM_0
 10
265.27638705704152
 20
315.6550329896674
 30
0.0
 11
262.27638705704129
 21
315.6550329896674
 31
0.0
  0
LINE
  5
17EC2
  8
AM_0
 10
190.32285292343801
 20
324.9889882668374
 30
0.0
 11
190.51001862887489
 21
319.62926372007138
 31
0.0
  0
LINE
  5
17EC3
  8
AM_0
 10
188.25228723433199
 20
324.96490436249741
 30
0.0
 11
188.06447188829389
 21
319.58657654292949
 31
0.0
  0
ARC
  5
17EC4
  8
AM_0
 10
189.32346209641889
 20
324.95408877013472
 30
0.0
 40
1.0
 50
1.999999999997129
 51
108.52714231446819
1001
GENIUS_GENODEF_13
1002
{
1000
HIER
1070
     0
1002
}
1002
{
1000
MANEDIT
1070
     0
1002
}
1002
{
1000
NOSEL
1070
     0
1002
}
1002
{
1000
BEHIND
1070
     0
1002
}
1002
{
1000
REACTOR
1002
}
1001
GENIUS_GENOBJ-N-FIL_13
1002
{
1000
OWNER
1000
GEN
1002
}
  0
ARC
  5
17EC5
  8
AM_0
 10
189.2516780613515
 20
324.93000486579467
 30
0.0
 40
1.0
 50
108.5665808019029
 51
177.99999999999631
1001
GENIUS_GENODEF_13
1002
{
1000
HIER
1070
     0
1002
}
1002
{
1000
MANEDIT
1070
     0
1002
}
1002
{
1000
NOSEL
1070
     0
1002
}
1002
{
1000
BEHIND
1070
     0
1002
}
1002
{
1000
REACTOR
1002
}
1001
GENIUS_GENOBJ-N-FIL_13
1002
{
1000
OWNER
1000
GEN
1002
}
  0
ARC
  5
17EC6
  8
AM_0
 10
224.27638705704121
 20
220.65503298966729
 30
0.0
 40
111.0
 50
108.52714231446819
 51
108.5665808018953
  0
ARC
  5
17EC7
  8
AM_0
 10
224.27638705704121
 20
220.65503298966729
 30
0.0
 40
111.0
 50
103.1136701432995
 51
103.1511182606549
  0
ARC
  5
17EC8
  8
AM_0
 10
199.2491671581009
 20
327.77010319050351
 30
0.0
 40
1.0
 50
103.1511182606549
 51
178.00000000000281
1001
GENIUS_GENODEF_13
1002
{
1000
HIER
1070
     0
1002
}
1002
{
1000
MANEDIT
1070
     0
1002
}
1002
{
1000
NOSEL
1070
     0
1002
}
1002
{
1000
BEHIND
1070
     0
1002
}
1002
{
1000
REACTOR
1002
}
1001
GENIUS_GENOBJ-N-FIL_13
1002
{
1000
OWNER
1000
GEN
1002
}
  0
LINE
  5
17EC9
  8
AM_0
 10
210.3148291109477
 20
329.667774325013
 30
0.0
 11
210.497072196814
 21
324.4490151590872
 31
0.0
  0
LINE
  5
17ECA
  8
AM_0
 10
218.24432957814281
 20
330.57474611578368
 30
0.0
 11
218.07808110429471
 21
325.81401271077817
 31
0.0
  0
LINE
  5
17ECB
  8
AM_0
 10
220.3114852662969
 20
330.57785629424421
 30
0.0
 11
220.47041522765781
 21
326.02669766647028
 31
0.0
  0
LINE
  5
17ECC
  8
AM_0
 10
208.247139700975
 20
329.65829217263951
 30
0.0
 11
208.04159729712759
 21
323.77232783569031
 31
0.0
  0
LINE
  5
17ECD
  8
AM_0
 10
200.31857298008541
 20
327.82133742152888
 30
0.0
 11
200.55901471335679
 21
320.93598704778759
 31
0.0
  0
ARC
  5
17ECE
  8
AM_0
 10
224.27638705704121
 20
220.65503298966729
 30
0.0
 40
111.0
 50
97.816947831694506
 51
97.853178088806203
  0
ARC
  5
17ECF
  8
AM_0
 10
209.246530527994
 20
329.623392675937
 30
0.0
 40
1.0
 50
97.853178088806203
 51
178.00000000000281
1001
GENIUS_GENODEF_13
1002
{
1000
HIER
1070
     0
1002
}
1002
{
1000
MANEDIT
1070
     0
1002
}
1002
{
1000
NOSEL
1070
     0
1002
}
1002
{
1000
BEHIND
1070
     0
1002
}
1002
{
1000
REACTOR
1002
}
1001
GENIUS_GENOBJ-N-FIL_13
1002
{
1000
OWNER
1000
GEN
1002
}
  0
ARC
  5
17ED0
  8
AM_0
 10
209.3154382839285
 20
329.63287482831021
 30
0.0
 40
1.0
 50
1.999999999997129
 51
97.816947831694506
1001
GENIUS_GENODEF_13
1002
{
1000
HIER
1070
     0
1002
}
1002
{
1000
MANEDIT
1070
     0
1002
}
1002
{
1000
NOSEL
1070
     0
1002
}
1002
{
1000
BEHIND
1070
     0
1002
}
1002
{
1000
REACTOR
1002
}
1001
GENIUS_GENOBJ-N-FIL_13
1002
{
1000
OWNER
1000
GEN
1002
}
  0
ARC
  5
17ED1
  8
AM_0
 10
224.27638705704121
 20
220.65503298966729
 30
0.0
 40
111.0
 50
92.586633228773294
 51
92.622284087952849
  0
ARC
  5
17ED2
  8
AM_0
 10
219.31209443927779
 20
330.54295679754171
 30
0.0
 40
1.0
 50
2.0000000000036531
 51
92.586633228773294
1001
GENIUS_GENODEF_13
1002
{
1000
HIER
1070
     0
1002
}
1002
{
1000
MANEDIT
1070
     0
1002
}
1002
{
1000
NOSEL
1070
     0
1002
}
1002
{
1000
BEHIND
1070
     0
1002
}
1002
{
1000
REACTOR
1002
}
1001
GENIUS_GENOBJ-N-FIL_13
1002
{
1000
OWNER
1000
GEN
1002
}
  0
ARC
  5
17ED3
  8
AM_0
 10
219.24372040516181
 20
330.53984661908117
 30
0.0
 40
1.0
 50
92.622284087952849
 51
178.00000000000281
1001
GENIUS_GENODEF_13
1002
{
1000
HIER
1070
     0
1002
}
1002
{
1000
MANEDIT
1070
     0
1002
}
1002
{
1000
NOSEL
1070
     0
1002
}
1002
{
1000
BEHIND
1070
     0
1002
}
1002
{
1000
REACTOR
1002
}
1001
GENIUS_GENOBJ-N-FIL_13
1002
{
1000
OWNER
1000
GEN
1002
}
  0
LINE
  5
17ED4
  8
AM_0
 10
240.3056344131075
 20
329.65829217263951
 30
0.0
 11
240.5111768169549
 21
323.77232783569031
 31
0.0
  0
LINE
  5
17ED5
  8
AM_0
 10
238.23794500313471
 20
329.667774325013
 30
0.0
 11
238.05570191726849
 21
324.4490151590872
 31
0.0
  0
LINE
  5
17ED6
  8
AM_0
 10
228.2412888477856
 20
330.57785629424421
 30
0.0
 11
228.08235888642469
 21
326.02669766647028
 31
0.0
  0
LINE
  5
17ED7
  8
AM_0
 10
230.30844453593971
 20
330.57474611578368
 30
0.0
 11
230.47469300978781
 21
325.81401271077817
 31
0.0
  0
ARC
  5
17ED8
  8
AM_0
 10
229.30905370892069
 20
330.53984661908117
 30
0.0
 40
1.0
 50
1.999999999997129
 51
87.377715912047151
1001
GENIUS_GENODEF_13
1002
{
1000
HIER
1070
     0
1002
}
1002
{
1000
MANEDIT
1070
     0
1002
}
1002
{
1000
NOSEL
1070
     0
1002
}
1002
{
1000
BEHIND
1070
     0
1002
}
1002
{
1000
REACTOR
1002
}
1001
GENIUS_GENOBJ-N-FIL_13
1002
{
1000
OWNER
1000
GEN
1002
}
  0
ARC
  5
17ED9
  8
AM_0
 10
224.27638705704121
 20
220.65503298966729
 30
0.0
 40
111.0
 50
87.377715912047151
 51
87.413366771226706
  0
ARC
  5
17EDA
  8
AM_0
 10
229.24067967480471
 20
330.54295679754171
 30
0.0
 40
1.0
 50
87.413366771226706
 51
177.99999999999631
1001
GENIUS_GENODEF_13
1002
{
1000
HIER
1070
     0
1002
}
1002
{
1000
MANEDIT
1070
     0
1002
}
1002
{
1000
NOSEL
1070
     0
1002
}
1002
{
1000
BEHIND
1070
     0
1002
}
1002
{
1000
REACTOR
1002
}
1001
GENIUS_GENOBJ-N-FIL_13
1002
{
1000
OWNER
1000
GEN
1002
}
  0
ARC
  5
17EDB
  8
AM_0
 10
224.27638705704121
 20
220.65503298966729
 30
0.0
 40
111.0
 50
82.146821911193769
 51
82.183052168305494
  0
ARC
  5
17EDC
  8
AM_0
 10
239.3062435860885
 20
329.623392675937
 30
0.0
 40
1.0
 50
1.999999999997129
 51
82.146821911193769
1001
GENIUS_GENODEF_13
1002
{
1000
HIER
1070
     0
1002
}
1002
{
1000
MANEDIT
1070
     0
1002
}
1002
{
1000
NOSEL
1070
     0
1002
}
1002
{
1000
BEHIND
1070
     0
1002
}
1002
{
1000
REACTOR
1002
}
1001
GENIUS_GENOBJ-N-FIL_13
1002
{
1000
OWNER
1000
GEN
1002
}
  0
ARC
  5
17EDD
  8
AM_0
 10
239.237335830154
 20
329.63287482831021
 30
0.0
 40
1.0
 50
82.183052168305494
 51
178.00000000000281
1001
GENIUS_GENODEF_13
1002
{
1000
HIER
1070
     0
1002
}
1002
{
1000
MANEDIT
1070
     0
1002
}
1002
{
1000
NOSEL
1070
     0
1002
}
1002
{
1000
BEHIND
1070
     0
1002
}
1002
{
1000
REACTOR
1002
}
1001
GENIUS_GENOBJ-N-FIL_13
1002
{
1000
OWNER
1000
GEN
1002
}
  0
LINE
  5
17EDE
  8
AM_0
 10
250.30299778300051
 20
327.80500268720613
 30
0.0
 11
250.5534586048318
 21
320.63274315580611
 31
0.0
  0
LINE
  5
17EDF
  8
AM_0
 10
248.23420113399709
 20
327.82133742152888
 30
0.0
 11
247.99375940072571
 21
320.93598704778759
 31
0.0
  0
LINE
  5
17EE0
  8
AM_0
 10
249.27638780209929
 20
320.65503450958562
 30
0.0
 11
262.27638818952948
 21
320.4281186587562
 31
0.0
  0
ARC
  5
17EE1
  8
AM_0
 10
259.22931201766357
 20
324.95408877013472
 30
0.0
 40
1.0
 50
71.472857685531736
 51
178.00000000000281
1001
GENIUS_GENODEF_13
1002
{
1000
HIER
1070
     0
1002
}
1002
{
1000
MANEDIT
1070
     0
1002
}
1002
{
1000
NOSEL
1070
     0
1002
}
1002
{
1000
BEHIND
1070
     0
1002
}
1002
{
1000
REACTOR
1002
}
1001
GENIUS_GENOBJ-N-FIL_13
1002
{
1000
OWNER
1000
GEN
1002
}
  0
LINE
  5
17EE2
  8
AM_0
 10
258.2299211906444
 20
324.9889882668374
 30
0.0
 11
258.07321413516081
 21
320.50148533477977
 31
0.0
  0
LINE
  5
17EE3
  8
AM_0
 10
186.2763870570414
 20
315.6550329896674
 30
0.0
 11
183.2763870570414
 21
315.6550329896674
 31
0.0
  0
LINE
  5
17EE4
  8
AM_0
 10
260.30048687975039
 20
324.96490436249741
 30
0.0
 11
260.45780642139528
 21
320.45986212159619
 31
0.0
  0
ARC
  5
17EE5
  8
AM_0
 10
259.30109605273088
 20
324.93000486579467
 30
0.0
 40
1.0
 50
2.0000000000036531
 51
71.43341919809707
1001
GENIUS_GENODEF_13
1002
{
1000
HIER
1070
     0
1002
}
1002
{
1000
MANEDIT
1070
     0
1002
}
1002
{
1000
NOSEL
1070
     0
1002
}
1002
{
1000
BEHIND
1070
     0
1002
}
1002
{
1000
REACTOR
1002
}
1001
GENIUS_GENOBJ-N-FIL_13
1002
{
1000
OWNER
1000
GEN
1002
}
  0
ARC
  5
17EE6
  8
AM_0
 10
224.27638705704121
 20
220.65503298966729
 30
0.0
 40
111.0
 50
71.433419198104673
 51
71.472857685531736
  0
ARC
  5
17EE7
  8
AM_0
 10
249.233591961016
 20
327.78643792482609
 30
0.0
 40
1.0
 50
76.886329856700442
 51
177.99999999999631
1001
GENIUS_GENODEF_13
1002
{
1000
HIER
1070
     0
1002
}
1002
{
1000
MANEDIT
1070
     0
1002
}
1002
{
1000
NOSEL
1070
     0
1002
}
1002
{
1000
BEHIND
1070
     0
1002
}
1002
{
1000
REACTOR
1002
}
1001
GENIUS_GENOBJ-N-FIL_13
1002
{
1000
OWNER
1000
GEN
1002
}
  0
ARC
  5
17EE8
  8
AM_0
 10
224.27638705704121
 20
220.65503298966729
 30
0.0
 40
111.0
 50
76.848881739345046
 51
76.886329856700442
  0
ARC
  5
17EE9
  8
AM_0
 10
249.30360695598151
 20
327.77010319050351
 30
0.0
 40
1.0
 50
1.999999999997129
 51
76.848881739345046
1001
GENIUS_GENODEF_13
1002
{
1000
HIER
1070
     0
1002
}
1002
{
1000
MANEDIT
1070
     0
1002
}
1002
{
1000
NOSEL
1070
     0
1002
}
1002
{
1000
BEHIND
1070
     0
1002
}
1002
{
1000
REACTOR
1002
}
1001
GENIUS_GENOBJ-N-FIL_13
1002
{
1000
OWNER
1000
GEN
1002
}
  0
CIRCLE
  5
17EEA
  8
ｽﾝﾎﾟｳｾﾝ
 10
453.16585353083121
 20
269.65503298966718
 30
0.0
 40
3.0
  0
ARC
  5
17EEB
  8
0
 10
453.16585353083121
 20
269.65503298966718
 30
0.0
 40
9.5000000000000124
 50
108.4084801705891
 51
71.591519829410885
  0
CIRCLE
  5
17EEC
  8
0
 10
453.16585353083121
 20
269.65503298966718
 30
0.0
 40
15.00000044703483
  0
LINE
  5
17EED
  8
0
 10
450.16585353083121
 20
281.65503298966718
 30
0.0
 11
450.16585353083121
 21
275.65503298966718
 31
0.0
  0
LINE
  5
17EEE
  8
0
 10
456.1658535308311
 20
275.65503298966718
 30
0.0
 11
456.1658535308311
 21
281.65503298966718
 31
0.0
  0
LINE
  5
17EEF
  8
0
 10
450.16585353083121
 20
275.65503298966718
 30
0.0
 11
456.1658535308311
 21
275.65503298966718
 31
0.0
  0
LINE
  5
17EF0
  8
0
 10
456.1658535308311
 20
281.65503298966718
 30
0.0
 11
450.16585353083121
 21
281.65503298966718
 31
0.0
  0
LINE
  5
17EF1
  8
AM_0
 10
269.27638858814601
 20
284.65503343670213
 30
0.0
 11
269.27638858814601
 21
254.65503254263251
 31
0.0
  0
LINE
  5
17EF2
  8
0
 10
269.27638858814601
 20
284.65503343670213
 30
0.0
 11
293.27638858814601
 21
281.65503298966729
 31
0.0
  0
LINE
  5
17EF3
  8
AM_0
 10
269.27638858814601
 20
284.65503343670213
 30
0.0
 11
266.27638849873898
 21
284.65503343670213
 31
0.0
  0
LINE
  5
17EF4
  8
0
 10
269.27638858814601
 20
254.65503254263251
 30
0.0
 11
293.27638858814601
 21
257.6550329896674
 31
0.0
  0
LINE
  5
17EF5
  8
AM_0
 10
269.27638858814601
 20
254.65503254263251
 30
0.0
 11
266.27638849873898
 21
254.65503254263251
 31
0.0
  0
LINE
  5
17EF6
  8
AM_0
 10
293.27638858814601
 20
281.65503298966729
 30
0.0
 11
293.27638858814601
 21
257.6550329896674
 31
0.0
  0
LINE
  5
17EF7
  8
0
 10
321.27638858814612
 20
260.1550329896674
 30
0.0
 11
321.27638858814612
 21
281.65503298966729
 31
0.0
  0
LINE
  5
17EF8
  8
0
 10
321.27638858814612
 20
260.1550329896674
 30
0.0
 11
293.27638858814601
 21
260.15503298670541
 31
0.0
  0
LINE
  5
17EF9
  8
0
 10
321.27638858814612
 20
281.65503298966729
 30
0.0
 11
299.27638858814601
 21
281.65503298966729
 31
0.0
  0
LINE
  5
17EFA
  8
0
 10
293.27638858814601
 20
279.15503298966729
 30
0.0
 11
321.27638858814612
 21
279.15503298966729
 31
0.0
  0
LINE
  5
17EFB
  8
0
 10
299.27638858814601
 20
281.65503298966729
 30
0.0
 11
299.27638858814601
 21
279.15503298966729
 31
0.0
  0
ARC
  5
17EFC
  8
AM_0
 10
224.27638686704131
 20
269.65503298966729
 30
0.0
 40
56.499999999999972
 50
14.111908439093931
 51
35.018628262080881
  0
ARC
  5
17EFD
  8
AM_0
 10
224.27638686704131
 20
269.65503298966729
 30
0.0
 40
56.499999999999972
 50
324.98137173791912
 51
345.88809156090622
  0
LINE
  5
17EFE
  8
AM_0
 10
400.39276813342212
 20
481.81274252764058
 30
0.0
 11
538.93894051075949
 21
481.8127580921788
 31
0.0
  0
LINE
  5
17EFF
  8
AM_0
 10
400.16585227867103
 20
494.81274313975439
 30
0.0
 11
539.16585662933619
 21
494.81274313975462
 31
0.0
  0
LINE
  5
17F00
  8
AM_0
 10
401.2655208664051
 20
557.81274501730093
 30
0.0
 11
538.06618750609664
 21
557.81274501730104
 31
0.0
  0
LINE
  5
17F01
  8
ﾁｭｳｼﾝｾﾝ1
 10
751.60895721390239
 20
519.81272393994561
 30
0.0
 11
397.16585201091277
 21
519.81276738952056
 31
0.0
1001
GENIUS_GENODEF_13
1002
{
1000
HIER
1070
     0
1002
}
1002
{
1000
MANEDIT
1070
     0
1002
}
1002
{
1000
NOSEL
1070
     0
1002
}
1002
{
1000
BEHIND
1070
     0
1002
}
1002
{
1000
REACTOR
1002
}
1001
GENIUS_GENOBJ-N-CEN_13
1002
{
1000
OWNER
1000
GEN
1002
}
  0
LINE
  5
17F02
  8
AM_0
 10
539.16585662933619
 20
494.81274313975462
 30
0.0
 11
538.06618723833844
 21
557.8127603571553
 31
0.0
  0
LINE
  5
17F03
  8
ﾁｭｳｼﾝｾﾝ1
 10
528.16585576600505
 20
478.8127427523246
 30
0.0
 11
528.16585576600505
 21
560.81274501730104
 31
0.0
  0
LINE
  5
17F04
  8
ｶｸﾚｾﾝ2
 10
523.66585576600505
 20
481.81274275232431
 30
0.0
 11
523.66585576600505
 21
557.81274501730081
 31
0.0
  0
LINE
  5
17F05
  8
ｶｸﾚｾﾝ2
 10
532.66585576600505
 20
481.81274275232431
 30
0.0
 11
532.66585576600505
 21
557.81274501730081
 31
0.0
  0
LINE
  5
17F06
  8
AM_0
 10
554.034382433941
 20
575.34483241835619
 30
0.0
 11
554.03436717582656
 21
464.2806546458803
 31
0.0
  0
LINE
  5
17F07
  8
AM_0
 10
563.67195960945571
 20
575.81275393994565
 30
0.0
 11
563.67195960945571
 21
463.81273293994559
 31
0.0
  0
LINE
  5
17F08
  8
AM_0
 10
553.35032650097764
 20
465.46544990916618
 30
0.0
 11
548.11437361616026
 21
495.16003921265548
 31
0.0
1001
GENIUS_GENODEF_13
1002
{
1000
HIER
1070
     0
1002
}
1002
{
1000
MANEDIT
1070
     0
1002
}
1002
{
1000
NOSEL
1070
     0
1002
}
1002
{
1000
BEHIND
1070
     0
1002
}
1002
{
1000
REACTOR
1002
}
1001
GENIUS_GENOBJ-N-CEN_13
1002
{
1000
OWNER
1000
GEN
1002
}
  0
ARC
  5
17F09
  8
AM_0
 10
555.3199425050467
 20
465.81274343994562
 30
0.0
 40
2.0
 50
189.99999178407381
 51
270.0
1001
GENIUS_GENOBJ-N-CEN_13
1002
{
1000
OWNER
1000
GEN
1002
}
1001
GENIUS_GENODEF_13
1002
{
1000
HIER
1070
     0
1002
}
1002
{
1000
MANEDIT
1070
     0
1002
}
1002
{
1000
NOSEL
1070
     0
1002
}
1002
{
1000
BEHIND
1070
     0
1002
}
1002
{
1000
OTHER
1070
     0
1002
}
1002
{
1000
REACTOR
1002
}
1001
GENIUS_GENOBJ-N-FIL_13
1002
{
1000
OWNER
1000
GEN
1002
}
  0
LINE
  5
17F0A
  8
AM_0
 10
563.67195960945571
 20
463.81274343994562
 30
0.0
 11
555.3199425050467
 21
463.81274343994562
 31
0.0
  0
LINE
  5
17F0B
  8
AM_0
 10
540.14855389245213
 20
496.81274313975462
 30
0.0
 11
546.14475806033545
 21
496.81274313975462
 31
0.0
  0
LINE
  5
17F0C
  8
AM_0
 10
563.67195960945571
 20
473.8127179399458
 30
0.0
 11
554.03436848535455
 21
473.81273929892052
 31
0.0
  0
LINE
  5
17F0D
  8
AM_0
 10
563.67195960945571
 20
487.87528593994563
 30
0.0
 11
554.03437041694247
 21
487.87281450805477
 31
0.0
  0
ARC
  5
17F0E
  8
AM_0
 10
546.14475806033545
 20
494.81274313975462
 30
0.0
 40
2.0
 50
9.9999917840738934
 51
90.000000000000057
1001
GENIUS_GENODEF_13
1002
{
1000
HIER
1070
     0
1002
}
1002
{
1000
MANEDIT
1070
     0
1002
}
1002
{
1000
NOSEL
1070
     0
1002
}
1002
{
1000
BEHIND
1070
     0
1002
}
1002
{
1000
OTHER
1070
     0
1002
}
1002
{
1000
REACTOR
1002
}
1001
GENIUS_GENOBJ-N-FIL_13
1002
{
1000
OWNER
1000
GEN
1002
}
  0
LINE
  5
17F0F
  8
AM_0
 10
539.16585636158902
 20
494.81275847960899
 30
0.0
 11
538.93894051075949
 21
481.8127580921788
 31
0.0
  0
ARC
  5
17F10
  8
AM_0
 10
540.14855389245213
 20
495.81274313975462
 30
0.0
 40
1.0
 50
90.000000000000057
 51
180.9999999999886
1001
GENIUS_GENODEF_13
1002
{
1000
HIER
1070
     0
1002
}
1002
{
1000
MANEDIT
1070
     0
1002
}
1002
{
1000
NOSEL
1070
     0
1002
}
1002
{
1000
BEHIND
1070
     0
1002
}
1002
{
1000
OTHER
1070
     0
1002
}
1002
{
1000
REACTOR
1002
}
1001
GENIUS_GENOBJ-N-FIL_13
1002
{
1000
OWNER
1000
GEN
1002
}
  0
LINE
  5
17F11
  8
AM_0
 10
540.06649216218432
 20
555.81274501730104
 30
0.0
 11
549.16585353083121
 21
555.81274501730104
 31
0.0
  0
LINE
  5
17F12
  8
AM_0
 10
553.35034208724335
 20
574.16004007771267
 30
0.0
 11
551.1658535308311
 21
561.77120023083614
 31
0.0
1001
GENIUS_GENODEF_13
1002
{
1000
HIER
1070
     0
1002
}
1002
{
1000
MANEDIT
1070
     0
1002
}
1002
{
1000
NOSEL
1070
     0
1002
}
1002
{
1000
BEHIND
1070
     0
1002
}
1002
{
1000
REACTOR
1002
}
1001
GENIUS_GENOBJ-N-CEN_13
1002
{
1000
OWNER
1000
GEN
1002
}
  0
LINE
  5
17F13
  8
AM_0
 10
563.67195960945571
 20
551.75269343994546
 30
0.0
 11
554.03437919282794
 21
551.75269343994546
 31
0.0
  0
ARC
  5
17F14
  8
AM_0
 10
549.16585353083121
 20
557.81274501730104
 30
0.0
 40
2.0
 50
270.0
 51
0.0
1001
GENIUS_GENODEF_13
1002
{
1000
HIER
1070
     0
1002
}
1002
{
1000
MANEDIT
1070
     0
1002
}
1002
{
1000
NOSEL
1070
     0
1002
}
1002
{
1000
BEHIND
1070
     0
1002
}
1002
{
1000
OTHER
1070
     0
1002
}
1002
{
1000
REACTOR
1002
}
1001
GENIUS_GENOBJ-N-FIL_13
1002
{
1000
OWNER
1000
GEN
1002
}
  0
LINE
  5
17F15
  8
AM_0
 10
551.16585353083121
 20
557.81274501730104
 30
0.0
 11
551.1658535308311
 21
561.77120023083614
 31
0.0
  0
ARC
  5
17F16
  8
AM_0
 10
555.31995754346713
 20
573.81274343994573
 30
0.0
 40
2.0
 50
90.000000000000057
 51
169.99999178406989
1001
GENIUS_GENOBJ-N-CEN_13
1002
{
1000
OWNER
1000
GEN
1002
}
1001
GENIUS_GENOBJ-N-FIL_13
1002
{
1000
OWNER
1000
GEN
1002
}
1001
GENIUS_GENODEF_13
1002
{
1000
HIER
1070
     0
1002
}
1002
{
1000
MANEDIT
1070
     0
1002
}
1002
{
1000
NOSEL
1070
     0
1002
}
1002
{
1000
BEHIND
1070
     0
1002
}
1002
{
1000
OTHER
1070
     0
1002
}
1002
{
1000
REACTOR
1002
}
  0
LINE
  5
17F17
  8
AM_0
 10
563.67195960945571
 20
565.81274343994573
 30
0.0
 11
554.03438112441268
 21
565.81274343994573
 31
0.0
  0
LINE
  5
17F18
  8
AM_0
 10
563.67195960945571
 20
575.81274343994573
 30
0.0
 11
555.31995754346713
 21
575.81274343994573
 31
0.0
  0
ARC
  5
17F19
  8
AM_0
 10
540.06649216218432
 20
557.81274501730104
 30
0.0
 40
2.0
 50
180.9999999999952
 51
270.0
1001
GENIUS_GENODEF_13
1002
{
1000
HIER
1070
     0
1002
}
1002
{
1000
MANEDIT
1070
     0
1002
}
1002
{
1000
NOSEL
1070
     0
1002
}
1002
{
1000
BEHIND
1070
     0
1002
}
1002
{
1000
OTHER
1070
     0
1002
}
1002
{
1000
REACTOR
1002
}
1001
GENIUS_GENOBJ-N-FIL_13
1002
{
1000
OWNER
1000
GEN
1002
}
  0
LINE
  5
17F1A
  8
AM_0
 10
400.16585201091277
 20
494.8127584796074
 30
0.0
 11
401.2655208664051
 21
557.81274501730093
 31
0.0
  0
LINE
  5
17F1B
  8
ｶｸﾚｾﾝ2
 10
417.66585233873809
 20
481.81274275232431
 30
0.0
 11
417.66585233873809
 21
557.81274501730081
 31
0.0
  0
LINE
  5
17F1C
  8
ｶｸﾚｾﾝ2
 10
408.66585233873809
 20
481.81274275232431
 30
0.0
 11
408.66585233873809
 21
557.81274501730081
 31
0.0
  0
LINE
  5
17F1D
  8
ﾁｭｳｼﾝｾﾝ1
 10
413.16585233873809
 20
478.8127427523246
 30
0.0
 11
413.16585233873809
 21
560.81274501730104
 31
0.0
  0
LINE
  5
17F1E
  8
ﾁｭｳｼﾝｾﾝ1
 10
453.16585353083087
 20
566.81270524677598
 30
0.0
 11
453.16585353083121
 21
419.00185450869179
 31
0.0
  0
LINE
  5
17F1F
  8
AM_0
 10
425.66585271126712
 20
561.81270524677598
 30
0.0
 11
480.66585435039491
 21
561.81270524677598
 31
0.0
  0
LINE
  5
17F20
  8
AM_0
 10
480.66585435039491
 20
561.81270524677598
 30
0.0
 11
480.66585435039491
 21
557.81270512756646
 31
0.0
  0
LINE
  5
17F21
  8
AM_0
 10
425.66585271126712
 20
561.81270524677598
 30
0.0
 11
425.66585271126712
 21
557.81270512756646
 31
0.0
  0
LINE
  5
17F22
  8
AM_0
 10
400.16585201091277
 20
494.8127584796087
 30
0.0
 11
400.39276813342212
 21
481.81274252764058
 31
0.0
  0
LINE
  5
17F23
  8
AM_0
 10
425.66585271126712
 20
477.8127027433809
 30
0.0
 11
480.66585435039491
 21
477.81270274338061
 31
0.0
  0
LINE
  5
17F24
  8
AM_0
 10
480.66585435039491
 20
477.81270274338061
 30
0.0
 11
480.66585435039491
 21
481.81270286259007
 31
0.0
  0
LINE
  5
17F25
  8
AM_0
 10
425.66585271126712
 20
477.8127027433809
 30
0.0
 11
425.66585271126712
 21
481.81270286259019
 31
0.0
  0
LINE
  5
17F26
  8
AM_0
 10
468.16585397786582
 20
474.81270265397359
 30
0.0
 11
438.16585308379609
 21
474.81270265397359
 31
0.0
  0
LINE
  5
17F27
  8
AM_0
 10
438.16585308379609
 20
477.81270274338061
 30
0.0
 11
438.16585308379609
 21
474.81270265397359
 31
0.0
  0
LINE
  5
17F28
  8
AM_0
 10
468.16585397786582
 20
477.81270274338061
 30
0.0
 11
468.16585397786582
 21
474.81270265397359
 31
0.0
  0
LINE
  5
17F29
  8
AM_0
 10
468.16585397786582
 20
474.81270246397372
 30
0.0
 11
438.16585308379609
 21
474.81270246397372
 31
0.0
  0
LINE
  5
17F2A
  8
0
 10
468.16585397786582
 20
474.81270246397372
 30
0.0
 11
465.16585353083087
 21
450.81270246397372
 31
0.0
  0
LINE
  5
17F2B
  8
AM_0
 10
468.16585397786582
 20
474.81270246397372
 30
0.0
 11
468.16585397786582
 21
477.81270255338057
 31
0.0
  0
LINE
  5
17F2C
  8
0
 10
438.16585308379609
 20
474.81270246397372
 30
0.0
 11
441.1658535308311
 21
450.81270246397372
 31
0.0
  0
LINE
  5
17F2D
  8
AM_0
 10
438.16585308379609
 20
474.81270246397372
 30
0.0
 11
438.16585308379609
 21
477.81270255338057
 31
0.0
  0
LINE
  5
17F2E
  8
AM_0
 10
465.16585353083087
 20
450.81270246397372
 30
0.0
 11
441.1658535308311
 21
450.81270246397372
 31
0.0
  0
LINE
  5
17F2F
  8
0
 10
443.6658535308311
 20
422.81270246397361
 30
0.0
 11
462.6658535308311
 21
422.81270246397338
 31
0.0
  0
LINE
  5
17F30
  8
0
 10
443.6658535308311
 20
422.81270246397361
 30
0.0
 11
443.6658535278691
 21
450.81270246397372
 31
0.0
  0
LINE
  5
17F31
  8
0
 10
462.6658535308311
 20
450.81270246397372
 30
0.0
 11
462.6658535308311
 21
422.81270246397361
 31
0.0
  0
LINE
  5
17F32
  8
0
 10
456.1658535308311
 20
444.81270246397372
 30
0.0
 11
450.16585353083133
 21
444.81270246397349
 31
0.0
  0
LINE
  5
17F33
  8
AM_0
 10
456.1658535308311
 20
422.81270246397338
 30
0.0
 11
456.1658535308311
 21
444.81270246397372
 31
0.0
  0
LINE
  5
17F34
  8
AM_0
 10
450.16585353083121
 20
422.81270246397361
 30
0.0
 11
450.1658535308311
 21
444.81270246397349
 31
0.0
  0
ARC
  5
17F35
  8
AM_0
 10
453.16585353083121
 20
444.81270246397349
 30
0.0
 40
2.9999999999999432
 50
0.0000000000032639
 51
180.0
  0
CIRCLE
  5
17F36
  8
AM_0
 10
453.16585353083121
 20
269.65503298966718
 30
0.0
 40
2.5
  0
LINE
  5
17F37
  8
AM_0
 10
194.27638705704109
 20
207.15503298966729
 30
0.0
 11
254.27638705704109
 21
207.15503298966729
 31
0.0
  0
LINE
  5
17F38
  8
AM_0
 10
194.27638705704109
 20
219.61506005380599
 30
0.0
 11
194.27638705704101
 21
203.15503298966749
 31
0.0
  0
LINE
  5
17F39
  8
AM_0
 10
254.27638705704121
 20
218.74230678138491
 30
0.0
 11
254.27638705704109
 21
203.15503298966749
 31
0.0
  0
LINE
  5
17F3A
  8
AM_0
 10
219.33601408238451
 20
331.54231908563031
 30
0.0
 11
219.33601408238451
 21
334.65503348140572
 31
0.0
  0
LINE
  5
17F3B
  8
AM_0
 10
222.5360140823847
 20
333.88729686354719
 30
0.0
 11
222.53601408238461
 21
334.65503348140572
 31
0.0
  0
LINE
  5
17F3C
  8
AM_0
 10
219.33601408238451
 20
334.65503348140572
 30
0.0
 11
222.53601408238461
 21
334.65503348140572
 31
0.0
  0
CIRCLE
  5
17F3D
  8
AM_0
 10
224.33601408238459
 20
332.16106652364721
 30
0.0
 40
2.4939669577585151
  0
LINE
  5
17F3E
  8
AM_0
 10
222.53601408238461
 20
328.40503348140572
 30
0.0
 11
222.5360140823847
 21
330.43483618374722
 31
0.0
  0
LINE
  5
17F3F
  8
AM_0
 10
222.53601408238461
 20
328.40503348140572
 30
0.0
 11
226.13601408238449
 21
328.40503348140572
 31
0.0
  0
LINE
  5
17F40
  8
AM_0
 10
226.13601408238449
 20
334.65503348140572
 30
0.0
 11
229.33601408238451
 21
334.65503348140572
 31
0.0
  0
LINE
  5
17F41
  8
AM_0
 10
226.13601408238449
 20
328.40503348140572
 30
0.0
 11
226.13601408238449
 21
330.434836183747
 31
0.0
  0
LINE
  5
17F42
  8
AM_0
 10
224.33601408238451
 20
329.66709956588869
 30
0.0
 11
226.13601408238469
 21
329.6670995658888
 31
0.0
  0
LINE
  5
17F43
  8
AM_0
 10
226.13601408238449
 20
333.88729686354742
 30
0.0
 11
226.13601408238449
 21
334.65503348140572
 31
0.0
  0
LINE
  5
17F44
  8
AM_0
 10
224.33601408238451
 20
334.65503348140572
 30
0.0
 11
226.13601408238469
 21
334.65503348140578
 31
0.0
  0
LINE
  5
17F45
  8
AM_0
 10
229.33601408238439
 20
331.53931292159223
 30
0.0
 11
229.33601408238451
 21
334.65503348140572
 31
0.0
  0
LINE
  5
17F46
  8
AM_0
 10
229.33601408238451
 20
334.65503348140572
 30
0.0
 11
246.18678989221019
 21
334.65503348140572
 31
0.0
  0
LINE
  5
17F47
  8
AM_0
 10
230.39976727723209
 20
329.66709956588869
 30
0.0
 11
238.29754846537051
 21
329.66709956588858
 31
0.0
  0
LINE
  5
17F48
  8
AM_0
 10
240.36495387750139
 20
329.66709956588869
 30
0.0
 11
245.33601408238439
 21
329.66709956588869
 31
0.0
  0
ARC
  5
17F49
  8
AM_0
 10
245.33601408238439
 20
304.66709956588869
 30
0.0
 40
25.0
 50
57.467847186513779
 51
90.0
1001
GENIUS_GENOBJ-N-FIL_13
1002
{
1000
OWNER
1000
GEN
1002
}
1001
GENIUS_GENODEF_13
1002
{
1000
HIER
1070
     0
1002
}
1002
{
1000
MANEDIT
1070
     0
1002
}
1002
{
1000
NOSEL
1070
     0
1002
}
1002
{
1000
BEHIND
1070
     0
1002
}
1002
{
1000
OTHER
1070
     0
1002
}
1002
{
1000
REACTOR
1002
}
  0
ARC
  5
17F4A
  8
AM_0
 10
245.33601408238439
 20
304.66709956588869
 30
0.0
 40
30.0
 50
2.222344703261276
 51
88.374920016406037
1001
GENIUS_GENOBJ-N-FIL_13
1002
{
1000
OWNER
1000
GEN
1002
}
1001
GENIUS_GENODEF_13
1002
{
1000
HIER
1070
     0
1002
}
1002
{
1000
MANEDIT
1070
     0
1002
}
1002
{
1000
NOSEL
1070
     0
1002
}
1002
{
1000
BEHIND
1070
     0
1002
}
1002
{
1000
OTHER
1070
     0
1002
}
1002
{
1000
REACTOR
1002
}
  0
ARC
  5
17F4B
  8
AM_0
 10
245.33601408238439
 20
304.66709956588869
 30
0.0
 40
25.0
 50
23.766519203098749
 51
53.155059700517981
1001
GENIUS_GENOBJ-N-FIL_13
1002
{
1000
OWNER
1000
GEN
1002
}
1001
GENIUS_GENODEF_13
1002
{
1000
HIER
1070
     0
1002
}
1002
{
1000
MANEDIT
1070
     0
1002
}
1002
{
1000
NOSEL
1070
     0
1002
}
1002
{
1000
BEHIND
1070
     0
1002
}
1002
{
1000
OTHER
1070
     0
1002
}
1002
{
1000
REACTOR
1002
}
  0
ARC
  5
17F4C
  8
AM_0
 10
245.33601408238439
 20
234.64296641344589
 30
0.0
 40
30.0
 50
287.45760312371868
 51
357.77765529673871
1001
GENIUS_GENOBJ-N-FIL_13
1002
{
1000
OWNER
1000
GEN
1002
}
1001
GENIUS_GENODEF_13
1002
{
1000
HIER
1070
     0
1002
}
1002
{
1000
MANEDIT
1070
     0
1002
}
1002
{
1000
NOSEL
1070
     0
1002
}
1002
{
1000
BEHIND
1070
     0
1002
}
1002
{
1000
OTHER
1070
     0
1002
}
1002
{
1000
REACTOR
1002
}
  0
ARC
  5
17F4D
  8
AM_0
 10
245.33601408238439
 20
234.64296641344589
 30
0.0
 40
25.0
 50
307.00156130594962
 51
336.39078821915638
1001
GENIUS_GENOBJ-N-FIL_13
1002
{
1000
OWNER
1000
GEN
1002
}
1001
GENIUS_GENODEF_13
1002
{
1000
HIER
1070
     0
1002
}
1002
{
1000
MANEDIT
1070
     0
1002
}
1002
{
1000
NOSEL
1070
     0
1002
}
1002
{
1000
BEHIND
1070
     0
1002
}
1002
{
1000
OTHER
1070
     0
1002
}
1002
{
1000
REACTOR
1002
}
  0
ARC
  5
17F4E
  8
AM_0
 10
245.33601408238439
 20
234.64296641344589
 30
0.0
 40
25.0
 50
291.10019602408693
 51
301.02616100631229
1001
GENIUS_GENOBJ-N-FIL_13
1002
{
1000
OWNER
1000
GEN
1002
}
1001
GENIUS_GENODEF_13
1002
{
1000
HIER
1070
     0
1002
}
1002
{
1000
MANEDIT
1070
     0
1002
}
1002
{
1000
NOSEL
1070
     0
1002
}
1002
{
1000
BEHIND
1070
     0
1002
}
1002
{
1000
OTHER
1070
     0
1002
}
1002
{
1000
REACTOR
1002
}
  0
LINE
  5
17F4F
  8
AM_0
 10
218.7763808068772
 20
193.43824654943961
 30
0.0
 11
229.776380806877
 21
193.43824654943961
 31
0.0
  0
LINE
  5
17F50
  8
AM_0
 10
192.8763808068768
 20
166.1550329896674
 30
0.0
 11
255.67638080687641
 21
166.1550329896674
 31
0.0
  0
LINE
  5
17F51
  8
AM_0
 10
257.77644159231778
 20
203.15503298966749
 30
0.0
 11
190.77639080687729
 21
203.15503298966749
 31
0.0
  0
LINE
  5
17F52
  8
AM_0
 10
259.27638080687859
 20
200.15503298966769
 30
0.0
 11
189.27638080687871
 21
200.15503298966769
 31
0.0
  0
LINE
  5
17F53
  8
AM_0
 10
260.27638080687859
 20
179.1550329896674
 30
0.0
 11
188.27638080687859
 21
179.1550329896674
 31
0.0
  0
LINE
  5
17F54
  8
AM_0
 10
218.7763808068772
 20
179.15503298966749
 30
0.0
 11
218.7763808068772
 21
193.43824654943961
 31
0.0
  0
LINE
  5
17F55
  8
AM_0
 10
199.77638080687871
 20
199.15503298966769
 30
0.0
 11
199.77638080687871
 21
183.15503298966749
 31
0.0
  0
LINE
  5
17F56
  8
AM_0
 10
188.27638080687859
 20
199.15503298966769
 30
0.0
 11
188.27638080687859
 21
166.6550329896674
 31
0.0
  0
LINE
  5
17F57
  8
AM_0
 10
200.64622928785991
 20
179.1550329896674
 30
0.0
 11
200.64622928785991
 21
168.65503298966331
 31
0.0
  0
LINE
  5
17F58
  8
AM_0
 10
190.37638080687671
 20
177.69003298966749
 30
0.0
 11
190.37638080687671
 21
168.6550329896674
 31
0.0
  0
ARC
  5
17F59
  8
AM_0
 10
192.8763808068768
 20
168.6550329896674
 30
0.0
 40
2.4999999999999991
 50
180.0
 51
270.0
  0
ARC
  5
17F5A
  8
AM_0
 10
188.776380806877
 20
166.6550329896674
 30
0.0
 40
0.5
 50
180.0
 51
270.0
  0
LINE
  5
17F5B
  8
AM_0
 10
188.776380806877
 20
166.1550329896674
 30
0.0
 11
192.8763808068768
 21
166.1550329896674
 31
0.0
  0
POLYLINE
  5
17F5C
  8
AM_0
 66
     1
 10
0.0
 20
0.0
 30
0.0
 70
     8
  0
VERTEX
  5
17F5D
  8
AM_0
 10
200.64596600383391
 20
168.65498592459329
 30
0.0
 70
    32
  0
VERTEX
  5
17F5E
  8
AM_0
 10
200.64596600383391
 20
168.6509859245935
 30
0.0
 70
    32
  0
VERTEX
  5
17F5F
  8
AM_0
 10
200.64596600383391
 20
168.64698592459351
 30
0.0
 70
    32
  0
VERTEX
  5
17F60
  8
AM_0
 10
200.64596600383391
 20
168.6419859245934
 30
0.0
 70
    32
  0
VERTEX
  5
17F61
  8
AM_0
 10
200.64596600383391
 20
168.6379859245931
 30
0.0
 70
    32
  0
VERTEX
  5
17F62
  8
AM_0
 10
200.64596600383391
 20
168.63398592459359
 30
0.0
 70
    32
  0
VERTEX
  5
17F63
  8
AM_0
 10
200.64596600383391
 20
168.62898592459351
 30
0.0
 70
    32
  0
VERTEX
  5
17F64
  8
AM_0
 10
200.64696600383411
 20
168.62498592459369
 30
0.0
 70
    32
  0
VERTEX
  5
17F65
  8
AM_0
 10
200.64696600383411
 20
168.62098592459341
 30
0.0
 70
    32
  0
VERTEX
  5
17F66
  8
AM_0
 10
200.64696600383411
 20
168.61698592459339
 30
0.0
 70
    32
  0
VERTEX
  5
17F67
  8
AM_0
 10
200.64696600383411
 20
168.6119859245934
 30
0.0
 70
    32
  0
VERTEX
  5
17F68
  8
AM_0
 10
200.64696600383411
 20
168.60798592459301
 30
0.0
 70
    32
  0
VERTEX
  5
17F69
  8
AM_0
 10
200.64696600383411
 20
168.6039859245935
 30
0.0
 70
    32
  0
VERTEX
  5
17F6A
  8
AM_0
 10
200.64696600383411
 20
168.59998592459331
 30
0.0
 70
    32
  0
VERTEX
  5
17F6B
  8
AM_0
 10
200.64696600383411
 20
168.5949859245934
 30
0.0
 70
    32
  0
VERTEX
  5
17F6C
  8
AM_0
 10
200.64696600383411
 20
168.59098592459321
 30
0.0
 70
    32
  0
VERTEX
  5
17F6D
  8
AM_0
 10
200.64696600383411
 20
168.58698592459351
 30
0.0
 70
    32
  0
VERTEX
  5
17F6E
  8
AM_0
 10
200.64696600383411
 20
168.58198592459311
 30
0.0
 70
    32
  0
VERTEX
  5
17F6F
  8
AM_0
 10
200.64696600383411
 20
168.57798592459361
 30
0.0
 70
    32
  0
VERTEX
  5
17F70
  8
AM_0
 10
200.64696600383411
 20
168.57398592459319
 30
0.0
 70
    32
  0
VERTEX
  5
17F71
  8
AM_0
 10
200.64696600383411
 20
168.5699859245934
 30
0.0
 70
    32
  0
VERTEX
  5
17F72
  8
AM_0
 10
200.64696600383411
 20
168.5649859245934
 30
0.0
 70
    32
  0
VERTEX
  5
17F73
  8
AM_0
 10
200.64696600383411
 20
168.56098592459321
 30
0.0
 70
    32
  0
VERTEX
  5
17F74
  8
AM_0
 10
200.64696600383411
 20
168.55698592459339
 30
0.0
 70
    32
  0
VERTEX
  5
17F75
  8
AM_0
 10
200.64696600383411
 20
168.55298592459329
 30
0.0
 70
    32
  0
VERTEX
  5
17F76
  8
AM_0
 10
200.647966003834
 20
168.54798592459329
 30
0.0
 70
    32
  0
VERTEX
  5
17F77
  8
AM_0
 10
200.647966003834
 20
168.54398592459319
 30
0.0
 70
    32
  0
VERTEX
  5
17F78
  8
AM_0
 10
200.647966003834
 20
168.53998592459351
 30
0.0
 70
    32
  0
VERTEX
  5
17F79
  8
AM_0
 10
200.647966003834
 20
168.53598592459289
 30
0.0
 70
    32
  0
VERTEX
  5
17F7A
  8
AM_0
 10
200.647966003834
 20
168.53098592459361
 30
0.0
 70
    32
  0
VERTEX
  5
17F7B
  8
AM_0
 10
200.647966003834
 20
168.52698592459311
 30
0.0
 70
    32
  0
VERTEX
  5
17F7C
  8
AM_0
 10
200.647966003834
 20
168.5229859245934
 30
0.0
 70
    32
  0
VERTEX
  5
17F7D
  8
AM_0
 10
200.647966003834
 20
168.51798592459329
 30
0.0
 70
    32
  0
VERTEX
  5
17F7E
  8
AM_0
 10
200.647966003834
 20
168.51398592459319
 30
0.0
 70
    32
  0
VERTEX
  5
17F7F
  8
AM_0
 10
200.647966003834
 20
168.50998592459339
 30
0.0
 70
    32
  0
VERTEX
  5
17F80
  8
AM_0
 10
200.6489660038342
 20
168.50598592459329
 30
0.0
 70
    32
  0
VERTEX
  5
17F81
  8
AM_0
 10
200.6489660038342
 20
168.50098592459329
 30
0.0
 70
    32
  0
VERTEX
  5
17F82
  8
AM_0
 10
200.6489660038342
 20
168.49698592459319
 30
0.0
 70
    32
  0
VERTEX
  5
17F83
  8
AM_0
 10
200.6489660038342
 20
168.49298592459351
 30
0.0
 70
    32
  0
VERTEX
  5
17F84
  8
AM_0
 10
200.6489660038342
 20
168.48898592459341
 30
0.0
 70
    32
  0
VERTEX
  5
17F85
  8
AM_0
 10
200.6489660038342
 20
168.48398592459361
 30
0.0
 70
    32
  0
VERTEX
  5
17F86
  8
AM_0
 10
200.6489660038342
 20
168.47998592459311
 30
0.0
 70
    32
  0
VERTEX
  5
17F87
  8
AM_0
 10
200.64996600383401
 20
168.47598592459329
 30
0.0
 70
    32
  0
VERTEX
  5
17F88
  8
AM_0
 10
200.64996600383401
 20
168.4719859245933
 30
0.0
 70
    32
  0
VERTEX
  5
17F89
  8
AM_0
 10
200.64996600383401
 20
168.4669859245935
 30
0.0
 70
    32
  0
VERTEX
  5
17F8A
  8
AM_0
 10
200.64996600383401
 20
168.4629859245934
 30
0.0
 70
    32
  0
VERTEX
  5
17F8B
  8
AM_0
 10
200.64996600383401
 20
168.45898592459341
 30
0.0
 70
    32
  0
VERTEX
  5
17F8C
  8
AM_0
 10
200.64996600383401
 20
168.45398592459361
 30
0.0
 70
    32
  0
VERTEX
  5
17F8D
  8
AM_0
 10
200.64996600383401
 20
168.44998592459311
 30
0.0
 70
    32
  0
VERTEX
  5
17F8E
  8
AM_0
 10
200.6509660038339
 20
168.44598592459329
 30
0.0
 70
    32
  0
VERTEX
  5
17F8F
  8
AM_0
 10
200.6509660038339
 20
168.44198592459361
 30
0.0
 70
    32
  0
VERTEX
  5
17F90
  8
AM_0
 10
200.6509660038339
 20
168.43698592459361
 30
0.0
 70
    32
  0
VERTEX
  5
17F91
  8
AM_0
 10
200.6509660038339
 20
168.43298592459331
 30
0.0
 70
    32
  0
VERTEX
  5
17F92
  8
AM_0
 10
200.6509660038339
 20
168.42898592459329
 30
0.0
 70
    32
  0
VERTEX
  5
17F93
  8
AM_0
 10
200.6519660038341
 20
168.42498592459319
 30
0.0
 70
    32
  0
VERTEX
  5
17F94
  8
AM_0
 10
200.6519660038341
 20
168.4199859245935
 30
0.0
 70
    32
  0
VERTEX
  5
17F95
  8
AM_0
 10
200.6519660038341
 20
168.4159859245934
 30
0.0
 70
    32
  0
VERTEX
  5
17F96
  8
AM_0
 10
200.6519660038341
 20
168.41198592459341
 30
0.0
 70
    32
  0
VERTEX
  5
17F97
  8
AM_0
 10
200.6519660038341
 20
168.40798592459339
 30
0.0
 70
    32
  0
VERTEX
  5
17F98
  8
AM_0
 10
200.6519660038341
 20
168.40298592459311
 30
0.0
 70
    32
  0
VERTEX
  5
17F99
  8
AM_0
 10
200.65296600383351
 20
168.39898592459329
 30
0.0
 70
    32
  0
VERTEX
  5
17F9A
  8
AM_0
 10
200.65296600383351
 20
168.3949859245935
 30
0.0
 70
    32
  0
VERTEX
  5
17F9B
  8
AM_0
 10
200.65296600383351
 20
168.39098592459339
 30
0.0
 70
    32
  0
VERTEX
  5
17F9C
  8
AM_0
 10
200.65296600383351
 20
168.3859859245934
 30
0.0
 70
    32
  0
VERTEX
  5
17F9D
  8
AM_0
 10
200.6539660038338
 20
168.38198592459341
 30
0.0
 70
    32
  0
VERTEX
  5
17F9E
  8
AM_0
 10
200.6539660038338
 20
168.37798592459319
 30
0.0
 70
    32
  0
VERTEX
  5
17F9F
  8
AM_0
 10
200.6539660038338
 20
168.37298592459311
 30
0.0
 70
    32
  0
VERTEX
  5
17FA0
  8
AM_0
 10
200.6539660038338
 20
168.36898592459329
 30
0.0
 70
    32
  0
VERTEX
  5
17FA1
  8
AM_0
 10
200.6539660038338
 20
168.3649859245933
 30
0.0
 70
    32
  0
VERTEX
  5
17FA2
  8
AM_0
 10
200.65496600383409
 20
168.36098592459319
 30
0.0
 70
    32
  0
VERTEX
  5
17FA3
  8
AM_0
 10
200.65496600383409
 20
168.35598592459331
 30
0.0
 70
    32
  0
VERTEX
  5
17FA4
  8
AM_0
 10
200.65496600383409
 20
168.35198592459341
 30
0.0
 70
    32
  0
VERTEX
  5
17FA5
  8
AM_0
 10
200.65496600383409
 20
168.3479859245935
 30
0.0
 70
    32
  0
VERTEX
  5
17FA6
  8
AM_0
 10
200.6559660038339
 20
168.3439859245934
 30
0.0
 70
    32
  0
VERTEX
  5
17FA7
  8
AM_0
 10
200.6559660038339
 20
168.3389859245934
 30
0.0
 70
    32
  0
VERTEX
  5
17FA8
  8
AM_0
 10
200.6559660038339
 20
168.3349859245933
 30
0.0
 70
    32
  0
VERTEX
  5
17FA9
  8
AM_0
 10
200.65696600383379
 20
168.33098592459299
 30
0.0
 70
    32
  0
VERTEX
  5
17FAA
  8
AM_0
 10
200.65696600383379
 20
168.32698592459329
 30
0.0
 70
    32
  0
VERTEX
  5
17FAB
  8
AM_0
 10
200.65696600383379
 20
168.32198592459329
 30
0.0
 70
    32
  0
VERTEX
  5
17FAC
  8
AM_0
 10
200.65696600383379
 20
168.3179859245933
 30
0.0
 70
    32
  0
VERTEX
  5
17FAD
  8
AM_0
 10
200.65796600383399
 20
168.31398592459311
 30
0.0
 70
    32
  0
VERTEX
  5
17FAE
  8
AM_0
 10
200.65796600383399
 20
168.3099859245936
 30
0.0
 70
    32
  0
VERTEX
  5
17FAF
  8
AM_0
 10
200.65796600383399
 20
168.30498592459341
 30
0.0
 70
    32
  0
VERTEX
  5
17FB0
  8
AM_0
 10
200.65796600383399
 20
168.3009859245935
 30
0.0
 70
    32
  0
VERTEX
  5
17FB1
  8
AM_0
 10
200.65896600383419
 20
168.29698592459329
 30
0.0
 70
    32
  0
VERTEX
  5
17FB2
  8
AM_0
 10
200.65896600383419
 20
168.29298592459321
 30
0.0
 70
    32
  0
VERTEX
  5
17FB3
  8
AM_0
 10
200.65896600383419
 20
168.28798592459319
 30
0.0
 70
    32
  0
VERTEX
  5
17FB4
  8
AM_0
 10
200.659966003834
 20
168.2839859245934
 30
0.0
 70
    32
  0
VERTEX
  5
17FB5
  8
AM_0
 10
200.659966003834
 20
168.27998592459329
 30
0.0
 70
    32
  0
VERTEX
  5
17FB6
  8
AM_0
 10
200.659966003834
 20
168.2749859245933
 30
0.0
 70
    32
  0
VERTEX
  5
17FB7
  8
AM_0
 10
200.66096600383389
 20
168.2709859245933
 30
0.0
 70
    32
  0
VERTEX
  5
17FB8
  8
AM_0
 10
200.66096600383389
 20
168.26698592459309
 30
0.0
 70
    32
  0
VERTEX
  5
17FB9
  8
AM_0
 10
200.66096600383389
 20
168.26298592459329
 30
0.0
 70
    32
  0
VERTEX
  5
17FBA
  8
AM_0
 10
200.6619660038337
 20
168.2579859245931
 30
0.0
 70
    32
  0
VERTEX
  5
17FBB
  8
AM_0
 10
200.6619660038337
 20
168.25398592459351
 30
0.0
 70
    32
  0
VERTEX
  5
17FBC
  8
AM_0
 10
200.6619660038337
 20
168.24998592459369
 30
0.0
 70
    32
  0
VERTEX
  5
17FBD
  8
AM_0
 10
200.66296600383399
 20
168.24598592459341
 30
0.0
 70
    32
  0
VERTEX
  5
17FBE
  8
AM_0
 10
200.66296600383399
 20
168.24098592459319
 30
0.0
 70
    32
  0
VERTEX
  5
17FBF
  8
AM_0
 10
200.66296600383399
 20
168.2369859245934
 30
0.0
 70
    32
  0
VERTEX
  5
17FC0
  8
AM_0
 10
200.66396600383379
 20
168.23298592459329
 30
0.0
 70
    32
  0
VERTEX
  5
17FC1
  8
AM_0
 10
200.66396600383379
 20
168.2289859245935
 30
0.0
 70
    32
  0
VERTEX
  5
17FC2
  8
AM_0
 10
200.66396600383379
 20
168.22398592459331
 30
0.0
 70
    32
  0
VERTEX
  5
17FC3
  8
AM_0
 10
200.664966003834
 20
168.21998592459309
 30
0.0
 70
    32
  0
VERTEX
  5
17FC4
  8
AM_0
 10
200.664966003834
 20
168.21598592459361
 30
0.0
 70
    32
  0
VERTEX
  5
17FC5
  8
AM_0
 10
200.66596600383389
 20
168.21198592459351
 30
0.0
 70
    32
  0
VERTEX
  5
17FC6
  8
AM_0
 10
200.66596600383389
 20
168.2069859245934
 30
0.0
 70
    32
  0
VERTEX
  5
17FC7
  8
AM_0
 10
200.66596600383389
 20
168.20298592459361
 30
0.0
 70
    32
  0
VERTEX
  5
17FC8
  8
AM_0
 10
200.66696600383401
 20
168.1989859245935
 30
0.0
 70
    32
  0
VERTEX
  5
17FC9
  8
AM_0
 10
200.66696600383401
 20
168.19498592459351
 30
0.0
 70
    32
  0
VERTEX
  5
17FCA
  8
AM_0
 10
200.66796600383401
 20
168.18998592459309
 30
0.0
 70
    32
  0
VERTEX
  5
17FCB
  8
AM_0
 10
200.66796600383401
 20
168.18598592459361
 30
0.0
 70
    32
  0
VERTEX
  5
17FCC
  8
AM_0
 10
200.66796600383401
 20
168.18198592459339
 30
0.0
 70
    32
  0
VERTEX
  5
17FCD
  8
AM_0
 10
200.6689660038341
 20
168.17798592459329
 30
0.0
 70
    32
  0
VERTEX
  5
17FCE
  8
AM_0
 10
200.6689660038341
 20
168.17298592459329
 30
0.0
 70
    32
  0
VERTEX
  5
17FCF
  8
AM_0
 10
200.66996600383399
 20
168.1689859245935
 30
0.0
 70
    32
  0
VERTEX
  5
17FD0
  8
AM_0
 10
200.66996600383399
 20
168.16498592459351
 30
0.0
 70
    32
  0
VERTEX
  5
17FD1
  8
AM_0
 10
200.67096600383391
 20
168.1609859245934
 30
0.0
 70
    32
  0
VERTEX
  5
17FD2
  8
AM_0
 10
200.67096600383391
 20
168.15598592459361
 30
0.0
 70
    32
  0
VERTEX
  5
17FD3
  8
AM_0
 10
200.67096600383391
 20
168.1519859245935
 30
0.0
 70
    32
  0
VERTEX
  5
17FD4
  8
AM_0
 10
200.67196600383409
 20
168.14798592459331
 30
0.0
 70
    32
  0
VERTEX
  5
17FD5
  8
AM_0
 10
200.67196600383409
 20
168.1439859245933
 30
0.0
 70
    32
  0
VERTEX
  5
17FD6
  8
AM_0
 10
200.67296600383389
 20
168.13898592459361
 30
0.0
 70
    32
  0
VERTEX
  5
17FD7
  8
AM_0
 10
200.67296600383389
 20
168.13498592459331
 30
0.0
 70
    32
  0
VERTEX
  5
17FD8
  8
AM_0
 10
200.67396600383381
 20
168.13098592459329
 30
0.0
 70
    32
  0
VERTEX
  5
17FD9
  8
AM_0
 10
200.67396600383381
 20
168.1269859245935
 30
0.0
 70
    32
  0
VERTEX
  5
17FDA
  8
AM_0
 10
200.67496600383399
 20
168.12298592459339
 30
0.0
 70
    32
  0
VERTEX
  5
17FDB
  8
AM_0
 10
200.67496600383399
 20
168.1179859245934
 30
0.0
 70
    32
  0
VERTEX
  5
17FDC
  8
AM_0
 10
200.67596600383419
 20
168.11398592459329
 30
0.0
 70
    32
  0
VERTEX
  5
17FDD
  8
AM_0
 10
200.67596600383419
 20
168.10998592459319
 30
0.0
 70
    32
  0
VERTEX
  5
17FDE
  8
AM_0
 10
200.67696600383411
 20
168.10598592459331
 30
0.0
 70
    32
  0
VERTEX
  5
17FDF
  8
AM_0
 10
200.67696600383411
 20
168.10098592459329
 30
0.0
 70
    32
  0
VERTEX
  5
17FE0
  8
AM_0
 10
200.67796600383431
 20
168.0969859245933
 30
0.0
 70
    32
  0
VERTEX
  5
17FE1
  8
AM_0
 10
200.67796600383431
 20
168.09298592459339
 30
0.0
 70
    32
  0
VERTEX
  5
17FE2
  8
AM_0
 10
200.6789660038342
 20
168.0889859245936
 30
0.0
 70
    32
  0
VERTEX
  5
17FE3
  8
AM_0
 10
200.6789660038342
 20
168.08398592459341
 30
0.0
 70
    32
  0
VERTEX
  5
17FE4
  8
AM_0
 10
200.6799660038337
 20
168.0799859245933
 30
0.0
 70
    32
  0
VERTEX
  5
17FE5
  8
AM_0
 10
200.6799660038337
 20
168.07598592459331
 30
0.0
 70
    32
  0
VERTEX
  5
17FE6
  8
AM_0
 10
200.6809660038339
 20
168.07198592459321
 30
0.0
 70
    32
  0
VERTEX
  5
17FE7
  8
AM_0
 10
200.6809660038339
 20
168.06698592459361
 30
0.0
 70
    32
  0
VERTEX
  5
17FE8
  8
AM_0
 10
200.68196600383411
 20
168.06298592459339
 30
0.0
 70
    32
  0
VERTEX
  5
17FE9
  8
AM_0
 10
200.68196600383411
 20
168.05898592459329
 30
0.0
 70
    32
  0
VERTEX
  5
17FEA
  8
AM_0
 10
200.68296600383391
 20
168.05498592459341
 30
0.0
 70
    32
  0
VERTEX
  5
17FEB
  8
AM_0
 10
200.68296600383391
 20
168.0499859245933
 30
0.0
 70
    32
  0
VERTEX
  5
17FEC
  8
AM_0
 10
200.6839660038338
 20
168.0459859245934
 30
0.0
 70
    32
  0
VERTEX
  5
17FED
  8
AM_0
 10
200.6839660038338
 20
168.04198592459321
 30
0.0
 70
    32
  0
VERTEX
  5
17FEE
  8
AM_0
 10
200.68496600383401
 20
168.03798592459339
 30
0.0
 70
    32
  0
VERTEX
  5
17FEF
  8
AM_0
 10
200.68496600383401
 20
168.0339859245934
 30
0.0
 70
    32
  0
VERTEX
  5
17FF0
  8
AM_0
 10
200.6859660038339
 20
168.0289859245936
 30
0.0
 70
    32
  0
VERTEX
  5
17FF1
  8
AM_0
 10
200.6869660038341
 20
168.02498592459341
 30
0.0
 70
    32
  0
VERTEX
  5
17FF2
  8
AM_0
 10
200.6869660038341
 20
168.02098592459339
 30
0.0
 70
    32
  0
VERTEX
  5
17FF3
  8
AM_0
 10
200.68796600383391
 20
168.01698592459331
 30
0.0
 70
    32
  0
VERTEX
  5
17FF4
  8
AM_0
 10
200.68796600383391
 20
168.0119859245936
 30
0.0
 70
    32
  0
VERTEX
  5
17FF5
  8
AM_0
 10
200.68896600383411
 20
168.0079859245935
 30
0.0
 70
    32
  0
VERTEX
  5
17FF6
  8
AM_0
 10
200.68896600383411
 20
168.00398592459331
 30
0.0
 70
    32
  0
VERTEX
  5
17FF7
  8
AM_0
 10
200.689966003834
 20
167.99998592459309
 30
0.0
 70
    32
  0
VERTEX
  5
17FF8
  8
AM_0
 10
200.69096600383381
 20
167.99498592459321
 30
0.0
 70
    32
  0
VERTEX
  5
17FF9
  8
AM_0
 10
200.69096600383381
 20
167.9909859245935
 30
0.0
 70
    32
  0
VERTEX
  5
17FFA
  8
AM_0
 10
200.6919660038341
 20
167.9869859245934
 30
0.0
 70
    32
  0
VERTEX
  5
17FFB
  8
AM_0
 10
200.6919660038341
 20
167.98298592459329
 30
0.0
 70
    32
  0
VERTEX
  5
17FFC
  8
AM_0
 10
200.6929660038339
 20
167.97898592459339
 30
0.0
 70
    32
  0
VERTEX
  5
17FFD
  8
AM_0
 10
200.69396600383379
 20
167.97398592459351
 30
0.0
 70
    32
  0
VERTEX
  5
17FFE
  8
AM_0
 10
200.69396600383379
 20
167.9699859245932
 30
0.0
 70
    32
  0
VERTEX
  5
17FFF
  8
AM_0
 10
200.694966003834
 20
167.96598592459341
 30
0.0
 70
    32
  0
VERTEX
  5
18000
  8
AM_0
 10
200.694966003834
 20
167.96198592459371
 30
0.0
 70
    32
  0
VERTEX
  5
18001
  8
AM_0
 10
200.6959660038342
 20
167.95698592459331
 30
0.0
 70
    32
  0
VERTEX
  5
18002
  8
AM_0
 10
200.69696600383409
 20
167.95298592459309
 30
0.0
 70
    32
  0
VERTEX
  5
18003
  8
AM_0
 10
200.69696600383409
 20
167.94898592459339
 30
0.0
 70
    32
  0
VERTEX
  5
18004
  8
AM_0
 10
200.6979660038339
 20
167.94498592459351
 30
0.0
 70
    32
  0
VERTEX
  5
18005
  8
AM_0
 10
200.6989660038341
 20
167.94098592459349
 30
0.0
 70
    32
  0
VERTEX
  5
18006
  8
AM_0
 10
200.6989660038341
 20
167.93598592459321
 30
0.0
 70
    32
  0
VERTEX
  5
18007
  8
AM_0
 10
200.69996600383399
 20
167.93198592459331
 30
0.0
 70
    32
  0
VERTEX
  5
18008
  8
AM_0
 10
200.69996600383399
 20
167.92798592459349
 30
0.0
 70
    32
  0
VERTEX
  5
18009
  8
AM_0
 10
200.7009660038342
 20
167.9239859245935
 30
0.0
 70
    32
  0
VERTEX
  5
1800A
  8
AM_0
 10
200.701966003834
 20
167.91898592459339
 30
0.0
 70
    32
  0
VERTEX
  5
1800B
  8
AM_0
 10
200.701966003834
 20
167.91498592459359
 30
0.0
 70
    32
  0
VERTEX
  5
1800C
  8
AM_0
 10
200.70296600383389
 20
167.91098592459349
 30
0.0
 70
    32
  0
VERTEX
  5
1800D
  8
AM_0
 10
200.70396600383381
 20
167.90698592459341
 30
0.0
 70
    32
  0
VERTEX
  5
1800E
  8
AM_0
 10
200.70396600383381
 20
167.90298592459331
 30
0.0
 70
    32
  0
VERTEX
  5
1800F
  8
AM_0
 10
200.70496600383399
 20
167.8979859245936
 30
0.0
 70
    32
  0
VERTEX
  5
18010
  8
AM_0
 10
200.70596600383419
 20
167.8939859245933
 30
0.0
 70
    32
  0
VERTEX
  5
18011
  8
AM_0
 10
200.70596600383419
 20
167.8899859245933
 30
0.0
 70
    32
  0
VERTEX
  5
18012
  8
AM_0
 10
200.70696600383371
 20
167.88598592459351
 30
0.0
 70
    32
  0
VERTEX
  5
18013
  8
AM_0
 10
200.70796600383389
 20
167.8809859245934
 30
0.0
 70
    32
  0
VERTEX
  5
18014
  8
AM_0
 10
200.70796600383389
 20
167.8769859245935
 30
0.0
 70
    32
  0
VERTEX
  5
18015
  8
AM_0
 10
200.70896600383401
 20
167.87298592459319
 30
0.0
 70
    32
  0
VERTEX
  5
18016
  8
AM_0
 10
200.70996600383401
 20
167.8689859245932
 30
0.0
 70
    32
  0
VERTEX
  5
18017
  8
AM_0
 10
200.71096600383379
 20
167.8649859245931
 30
0.0
 70
    32
  0
VERTEX
  5
18018
  8
AM_0
 10
200.71096600383379
 20
167.8599859245933
 30
0.0
 70
    32
  0
VERTEX
  5
18019
  8
AM_0
 10
200.71196600383371
 20
167.85598592459331
 30
0.0
 70
    32
  0
VERTEX
  5
1801A
  8
AM_0
 10
200.71296600383391
 20
167.85198592459341
 30
0.0
 70
    32
  0
VERTEX
  5
1801B
  8
AM_0
 10
200.71296600383391
 20
167.84798592459359
 30
0.0
 70
    32
  0
VERTEX
  5
1801C
  8
AM_0
 10
200.71396600383409
 20
167.8439859245932
 30
0.0
 70
    32
  0
VERTEX
  5
1801D
  8
AM_0
 10
200.71496600383401
 20
167.83898592459349
 30
0.0
 70
    32
  0
VERTEX
  5
1801E
  8
AM_0
 10
200.71596600383381
 20
167.83498592459341
 30
0.0
 70
    32
  0
VERTEX
  5
1801F
  8
AM_0
 10
200.71596600383381
 20
167.83098592459319
 30
0.0
 70
    32
  0
VERTEX
  5
18020
  8
AM_0
 10
200.7169660038341
 20
167.82698592459329
 30
0.0
 70
    32
  0
VERTEX
  5
18021
  8
AM_0
 10
200.71796600383391
 20
167.82298592459341
 30
0.0
 70
    32
  0
VERTEX
  5
18022
  8
AM_0
 10
200.71896600383411
 20
167.8179859245933
 30
0.0
 70
    32
  0
VERTEX
  5
18023
  8
AM_0
 10
200.71896600383411
 20
167.8139859245932
 30
0.0
 70
    32
  0
VERTEX
  5
18024
  8
AM_0
 10
200.719966003834
 20
167.80998592459349
 30
0.0
 70
    32
  0
VERTEX
  5
18025
  8
AM_0
 10
200.72096600383381
 20
167.80598592459339
 30
0.0
 70
    32
  0
VERTEX
  5
18026
  8
AM_0
 10
200.72196600383401
 20
167.80198592459311
 30
0.0
 70
    32
  0
VERTEX
  5
18027
  8
AM_0
 10
200.72196600383401
 20
167.79698592459309
 30
0.0
 70
    32
  0
VERTEX
  5
18028
  8
AM_0
 10
200.72296600383419
 20
167.79298592459341
 30
0.0
 70
    32
  0
VERTEX
  5
18029
  8
AM_0
 10
200.72396600383371
 20
167.78898592459331
 30
0.0
 70
    32
  0
VERTEX
  5
1802A
  8
AM_0
 10
200.724966003834
 20
167.7849859245934
 30
0.0
 70
    32
  0
VERTEX
  5
1802B
  8
AM_0
 10
200.724966003834
 20
167.78098592459361
 30
0.0
 70
    32
  0
VERTEX
  5
1802C
  8
AM_0
 10
200.7259660038342
 20
167.77598592459341
 30
0.0
 70
    32
  0
VERTEX
  5
1802D
  8
AM_0
 10
200.72696600383401
 20
167.77198592459351
 30
0.0
 70
    32
  0
VERTEX
  5
1802E
  8
AM_0
 10
200.7279660038339
 20
167.7679859245934
 30
0.0
 70
    32
  0
VERTEX
  5
1802F
  8
AM_0
 10
200.7289660038341
 20
167.76398592459319
 30
0.0
 70
    32
  0
VERTEX
  5
18030
  8
AM_0
 10
200.7289660038341
 20
167.75998592459331
 30
0.0
 70
    32
  0
VERTEX
  5
18031
  8
AM_0
 10
200.7299660038336
 20
167.7549859245934
 30
0.0
 70
    32
  0
VERTEX
  5
18032
  8
AM_0
 10
200.7309660038338
 20
167.75098592459329
 30
0.0
 70
    32
  0
VERTEX
  5
18033
  8
AM_0
 10
200.731966003834
 20
167.74698592459339
 30
0.0
 70
    32
  0
VERTEX
  5
18034
  8
AM_0
 10
200.73296600383389
 20
167.7429859245934
 30
0.0
 70
    32
  0
VERTEX
  5
18035
  8
AM_0
 10
200.73296600383389
 20
167.73898592459309
 30
0.0
 70
    32
  0
VERTEX
  5
18036
  8
AM_0
 10
200.73396600383381
 20
167.73398592459321
 30
0.0
 70
    32
  0
VERTEX
  5
18037
  8
AM_0
 10
200.73496600383399
 20
167.72998592459339
 30
0.0
 70
    32
  0
VERTEX
  5
18038
  8
AM_0
 10
200.73596600383419
 20
167.72598592459329
 30
0.0
 70
    32
  0
VERTEX
  5
18039
  8
AM_0
 10
200.736966003834
 20
167.72198592459321
 30
0.0
 70
    32
  0
VERTEX
  5
1803A
  8
AM_0
 10
200.73796600383389
 20
167.71798592459339
 30
0.0
 70
    32
  0
VERTEX
  5
1803B
  8
AM_0
 10
200.73796600383389
 20
167.7139859245936
 30
0.0
 70
    32
  0
VERTEX
  5
1803C
  8
AM_0
 10
200.73896600383381
 20
167.70898592459329
 30
0.0
 70
    32
  0
VERTEX
  5
1803D
  8
AM_0
 10
200.7399660038339
 20
167.7049859245935
 30
0.0
 70
    32
  0
VERTEX
  5
1803E
  8
AM_0
 10
200.74096600383419
 20
167.70098592459311
 30
0.0
 70
    32
  0
VERTEX
  5
1803F
  8
AM_0
 10
200.74196600383399
 20
167.69698592459321
 30
0.0
 70
    32
  0
VERTEX
  5
18040
  8
AM_0
 10
200.7429660038342
 20
167.69298592459339
 30
0.0
 70
    32
  0
VERTEX
  5
18041
  8
AM_0
 10
200.74396600383409
 20
167.68798592459339
 30
0.0
 70
    32
  0
VERTEX
  5
18042
  8
AM_0
 10
200.74396600383409
 20
167.68398592459329
 30
0.0
 70
    32
  0
VERTEX
  5
18043
  8
AM_0
 10
200.74496600383389
 20
167.67998592459341
 30
0.0
 70
    32
  0
VERTEX
  5
18044
  8
AM_0
 10
200.74596600383421
 20
167.67598592459339
 30
0.0
 70
    32
  0
VERTEX
  5
18045
  8
AM_0
 10
200.74696600383399
 20
167.6719859245934
 30
0.0
 70
    32
  0
VERTEX
  5
18046
  8
AM_0
 10
200.74796600383391
 20
167.66798592459341
 30
0.0
 70
    32
  0
VERTEX
  5
18047
  8
AM_0
 10
200.74896600383411
 20
167.66298592459339
 30
0.0
 70
    32
  0
VERTEX
  5
18048
  8
AM_0
 10
200.749966003834
 20
167.65898592459331
 30
0.0
 70
    32
  0
VERTEX
  5
18049
  8
AM_0
 10
200.75096600383381
 20
167.65498592459329
 30
0.0
 70
    32
  0
VERTEX
  5
1804A
  8
AM_0
 10
200.75196600383401
 20
167.65098592459341
 30
0.0
 70
    32
  0
VERTEX
  5
1804B
  8
AM_0
 10
200.75196600383401
 20
167.64698592459351
 30
0.0
 70
    32
  0
VERTEX
  5
1804C
  8
AM_0
 10
200.75296600383351
 20
167.64298592459349
 30
0.0
 70
    32
  0
VERTEX
  5
1804D
  8
AM_0
 10
200.75396600383411
 20
167.63798592459321
 30
0.0
 70
    32
  0
VERTEX
  5
1804E
  8
AM_0
 10
200.754966003834
 20
167.63398592459311
 30
0.0
 70
    32
  0
VERTEX
  5
1804F
  8
AM_0
 10
200.75596600383409
 20
167.62998592459351
 30
0.0
 70
    32
  0
VERTEX
  5
18050
  8
AM_0
 10
200.7569660038337
 20
167.62598592459329
 30
0.0
 70
    32
  0
VERTEX
  5
18051
  8
AM_0
 10
200.7579660038339
 20
167.6219859245933
 30
0.0
 70
    32
  0
VERTEX
  5
18052
  8
AM_0
 10
200.7589660038341
 20
167.61798592459351
 30
0.0
 70
    32
  0
VERTEX
  5
18053
  8
AM_0
 10
200.75996600383391
 20
167.61298592459349
 30
0.0
 70
    32
  0
VERTEX
  5
18054
  8
AM_0
 10
200.7609660038338
 20
167.60898592459341
 30
0.0
 70
    32
  0
VERTEX
  5
18055
  8
AM_0
 10
200.76196600383361
 20
167.60498592459331
 30
0.0
 70
    32
  0
VERTEX
  5
18056
  8
AM_0
 10
200.76296600383421
 20
167.60098592459309
 30
0.0
 70
    32
  0
VERTEX
  5
18057
  8
AM_0
 10
200.7639660038341
 20
167.5969859245933
 30
0.0
 70
    32
  0
VERTEX
  5
18058
  8
AM_0
 10
200.76496600383391
 20
167.59298592459351
 30
0.0
 70
    32
  0
VERTEX
  5
18059
  8
AM_0
 10
200.76596600383419
 20
167.58798592459331
 30
0.0
 70
    32
  0
VERTEX
  5
1805A
  8
AM_0
 10
200.766966003834
 20
167.58398592459341
 30
0.0
 70
    32
  0
VERTEX
  5
1805B
  8
AM_0
 10
200.76796600383389
 20
167.57998592459359
 30
0.0
 70
    32
  0
VERTEX
  5
1805C
  8
AM_0
 10
200.76896600383401
 20
167.57598592459311
 30
0.0
 70
    32
  0
VERTEX
  5
1805D
  8
AM_0
 10
200.7699660038339
 20
167.57198592459341
 30
0.0
 70
    32
  0
VERTEX
  5
1805E
  8
AM_0
 10
200.77096600383379
 20
167.5679859245933
 30
0.0
 70
    32
  0
VERTEX
  5
1805F
  8
AM_0
 10
200.771966003834
 20
167.5639859245934
 30
0.0
 70
    32
  0
VERTEX
  5
18060
  8
AM_0
 10
200.7729660038342
 20
167.55898592459329
 30
0.0
 70
    32
  0
VERTEX
  5
18061
  8
AM_0
 10
200.77396600383409
 20
167.55498592459341
 30
0.0
 70
    32
  0
VERTEX
  5
18062
  8
AM_0
 10
200.7749660038339
 20
167.55098592459319
 30
0.0
 70
    32
  0
VERTEX
  5
18063
  8
AM_0
 10
200.7759660038341
 20
167.5469859245934
 30
0.0
 70
    32
  0
VERTEX
  5
18064
  8
AM_0
 10
200.77696600383399
 20
167.54298592459321
 30
0.0
 70
    32
  0
VERTEX
  5
18065
  8
AM_0
 10
200.7779660038338
 20
167.53898592459339
 30
0.0
 70
    32
  0
VERTEX
  5
18066
  8
AM_0
 10
200.77896600383411
 20
167.53398592459311
 30
0.0
 70
    32
  0
VERTEX
  5
18067
  8
AM_0
 10
200.77996600383361
 20
167.52998592459329
 30
0.0
 70
    32
  0
VERTEX
  5
18068
  8
AM_0
 10
200.78096600383381
 20
167.5259859245935
 30
0.0
 70
    32
  0
VERTEX
  5
18069
  8
AM_0
 10
200.78196600383399
 20
167.52198592459339
 30
0.0
 70
    32
  0
VERTEX
  5
1806A
  8
AM_0
 10
200.78296600383419
 20
167.51798592459329
 30
0.0
 70
    32
  0
VERTEX
  5
1806B
  8
AM_0
 10
200.78396600383371
 20
167.51398592459319
 30
0.0
 70
    32
  0
VERTEX
  5
1806C
  8
AM_0
 10
200.78496600383389
 20
167.50998592459331
 30
0.0
 70
    32
  0
VERTEX
  5
1806D
  8
AM_0
 10
200.78596600383409
 20
167.5059859245934
 30
0.0
 70
    32
  0
VERTEX
  5
1806E
  8
AM_0
 10
200.78696600383401
 20
167.50098592459321
 30
0.0
 70
    32
  0
VERTEX
  5
1806F
  8
AM_0
 10
200.7879660038339
 20
167.49698592459339
 30
0.0
 70
    32
  0
VERTEX
  5
18070
  8
AM_0
 10
200.78896600383371
 20
167.4929859245936
 30
0.0
 70
    32
  0
VERTEX
  5
18071
  8
AM_0
 10
200.7909660038338
 20
167.48898592459349
 30
0.0
 70
    32
  0
VERTEX
  5
18072
  8
AM_0
 10
200.79196600383401
 20
167.4849859245933
 30
0.0
 70
    32
  0
VERTEX
  5
18073
  8
AM_0
 10
200.79296600383381
 20
167.48098592459311
 30
0.0
 70
    32
  0
VERTEX
  5
18074
  8
AM_0
 10
200.79396600383399
 20
167.47698592459321
 30
0.0
 70
    32
  0
VERTEX
  5
18075
  8
AM_0
 10
200.79496600383391
 20
167.47298592459359
 30
0.0
 70
    32
  0
VERTEX
  5
18076
  8
AM_0
 10
200.79596600383411
 20
167.46798592459331
 30
0.0
 70
    32
  0
VERTEX
  5
18077
  8
AM_0
 10
200.796966003834
 20
167.46398592459349
 30
0.0
 70
    32
  0
VERTEX
  5
18078
  8
AM_0
 10
200.79796600383381
 20
167.4599859245931
 30
0.0
 70
    32
  0
VERTEX
  5
18079
  8
AM_0
 10
200.79896600383401
 20
167.45598592459319
 30
0.0
 70
    32
  0
VERTEX
  5
1807A
  8
AM_0
 10
200.80096600383411
 20
167.4519859245934
 30
0.0
 70
    32
  0
VERTEX
  5
1807B
  8
AM_0
 10
200.80196600383391
 20
167.4479859245933
 30
0.0
 70
    32
  0
VERTEX
  5
1807C
  8
AM_0
 10
200.8029660038342
 20
167.44398592459351
 30
0.0
 70
    32
  0
VERTEX
  5
1807D
  8
AM_0
 10
200.80396600383409
 20
167.4399859245934
 30
0.0
 70
    32
  0
VERTEX
  5
1807E
  8
AM_0
 10
200.80496600383421
 20
167.43498592459349
 30
0.0
 70
    32
  0
VERTEX
  5
1807F
  8
AM_0
 10
200.8059660038341
 20
167.43098592459319
 30
0.0
 70
    32
  0
VERTEX
  5
18080
  8
AM_0
 10
200.80696600383359
 20
167.42698592459351
 30
0.0
 70
    32
  0
VERTEX
  5
18081
  8
AM_0
 10
200.808966003834
 20
167.42298592459329
 30
0.0
 70
    32
  0
VERTEX
  5
18082
  8
AM_0
 10
200.80996600383421
 20
167.41898592459339
 30
0.0
 70
    32
  0
VERTEX
  5
18083
  8
AM_0
 10
200.8109660038337
 20
167.41498592459351
 30
0.0
 70
    32
  0
VERTEX
  5
18084
  8
AM_0
 10
200.81196600383399
 20
167.4109859245934
 30
0.0
 70
    32
  0
VERTEX
  5
18085
  8
AM_0
 10
200.81296600383419
 20
167.4069859245935
 30
0.0
 70
    32
  0
VERTEX
  5
18086
  8
AM_0
 10
200.813966003834
 20
167.40298592459311
 30
0.0
 70
    32
  0
VERTEX
  5
18087
  8
AM_0
 10
200.81596600383369
 20
167.39898592459321
 30
0.0
 70
    32
  0
VERTEX
  5
18088
  8
AM_0
 10
200.81696600383401
 20
167.3939859245933
 30
0.0
 70
    32
  0
VERTEX
  5
18089
  8
AM_0
 10
200.81796600383379
 20
167.38998592459319
 30
0.0
 70
    32
  0
VERTEX
  5
1808A
  8
AM_0
 10
200.81896600383399
 20
167.3859859245936
 30
0.0
 70
    32
  0
VERTEX
  5
1808B
  8
AM_0
 10
200.81996600383391
 20
167.38198592459321
 30
0.0
 70
    32
  0
VERTEX
  5
1808C
  8
AM_0
 10
200.82196600383389
 20
167.37798592459339
 30
0.0
 70
    32
  0
VERTEX
  5
1808D
  8
AM_0
 10
200.8229660038341
 20
167.3739859245934
 30
0.0
 70
    32
  0
VERTEX
  5
1808E
  8
AM_0
 10
200.82396600383399
 20
167.36998592459321
 30
0.0
 70
    32
  0
VERTEX
  5
1808F
  8
AM_0
 10
200.82496600383391
 20
167.3659859245933
 30
0.0
 70
    32
  0
VERTEX
  5
18090
  8
AM_0
 10
200.82696600383389
 20
167.36198592459351
 30
0.0
 70
    32
  0
VERTEX
  5
18091
  8
AM_0
 10
200.82796600383381
 20
167.35798592459341
 30
0.0
 70
    32
  0
VERTEX
  5
18092
  8
AM_0
 10
200.82896600383401
 20
167.35398592459339
 30
0.0
 70
    32
  0
VERTEX
  5
18093
  8
AM_0
 10
200.82996600383419
 20
167.34898592459351
 30
0.0
 70
    32
  0
VERTEX
  5
18094
  8
AM_0
 10
200.83196600383391
 20
167.34498592459349
 30
0.0
 70
    32
  0
VERTEX
  5
18095
  8
AM_0
 10
200.8329660038342
 20
167.3409859245933
 30
0.0
 70
    32
  0
VERTEX
  5
18096
  8
AM_0
 10
200.83396600383369
 20
167.33698592459351
 30
0.0
 70
    32
  0
VERTEX
  5
18097
  8
AM_0
 10
200.8349660038339
 20
167.3329859245934
 30
0.0
 70
    32
  0
VERTEX
  5
18098
  8
AM_0
 10
200.83696600383399
 20
167.32898592459361
 30
0.0
 70
    32
  0
VERTEX
  5
18099
  8
AM_0
 10
200.8379660038338
 20
167.32498592459351
 30
0.0
 70
    32
  0
VERTEX
  5
1809A
  8
AM_0
 10
200.838966003834
 20
167.32098592459329
 30
0.0
 70
    32
  0
VERTEX
  5
1809B
  8
AM_0
 10
200.83996600383421
 20
167.31698592459361
 30
0.0
 70
    32
  0
VERTEX
  5
1809C
  8
AM_0
 10
200.8419660038339
 20
167.31298592459339
 30
0.0
 70
    32
  0
VERTEX
  5
1809D
  8
AM_0
 10
200.84296600383411
 20
167.30898592459329
 30
0.0
 70
    32
  0
VERTEX
  5
1809E
  8
AM_0
 10
200.843966003834
 20
167.3049859245935
 30
0.0
 70
    32
  0
VERTEX
  5
1809F
  8
AM_0
 10
200.84596600383409
 20
167.30098592459339
 30
0.0
 70
    32
  0
VERTEX
  5
180A0
  8
AM_0
 10
200.8469660038339
 20
167.2959859245934
 30
0.0
 70
    32
  0
VERTEX
  5
180A1
  8
AM_0
 10
200.84796600383379
 20
167.29198592459321
 30
0.0
 70
    32
  0
VERTEX
  5
180A2
  8
AM_0
 10
200.8499660038342
 20
167.2879859245931
 30
0.0
 70
    32
  0
VERTEX
  5
180A3
  8
AM_0
 10
200.850966003834
 20
167.2839859245934
 30
0.0
 70
    32
  0
VERTEX
  5
180A4
  8
AM_0
 10
200.85196600383389
 20
167.27998592459329
 30
0.0
 70
    32
  0
VERTEX
  5
180A5
  8
AM_0
 10
200.85396600383399
 20
167.27598592459341
 30
0.0
 70
    32
  0
VERTEX
  5
180A6
  8
AM_0
 10
200.85496600383391
 20
167.27198592459359
 30
0.0
 70
    32
  0
VERTEX
  5
180A7
  8
AM_0
 10
200.855966003834
 20
167.26798592459309
 30
0.0
 70
    32
  0
VERTEX
  5
180A8
  8
AM_0
 10
200.85796600383381
 20
167.2639859245935
 30
0.0
 70
    32
  0
VERTEX
  5
180A9
  8
AM_0
 10
200.85896600383401
 20
167.2599859245932
 30
0.0
 70
    32
  0
VERTEX
  5
180AA
  8
AM_0
 10
200.85996600383419
 20
167.2559859245934
 30
0.0
 70
    32
  0
VERTEX
  5
180AB
  8
AM_0
 10
200.86196600383391
 20
167.25198592459361
 30
0.0
 70
    32
  0
VERTEX
  5
180AC
  8
AM_0
 10
200.86296600383409
 20
167.24798592459319
 30
0.0
 70
    32
  0
VERTEX
  5
180AD
  8
AM_0
 10
200.86396600383401
 20
167.24398592459329
 30
0.0
 70
    32
  0
VERTEX
  5
180AE
  8
AM_0
 10
200.86596600383371
 20
167.23998592459321
 30
0.0
 70
    32
  0
VERTEX
  5
180AF
  8
AM_0
 10
200.86696600383391
 20
167.23598592459319
 30
0.0
 70
    32
  0
VERTEX
  5
180B0
  8
AM_0
 10
200.868966003834
 20
167.2319859245936
 30
0.0
 70
    32
  0
VERTEX
  5
180B1
  8
AM_0
 10
200.86996600383421
 20
167.22798592459341
 30
0.0
 70
    32
  0
VERTEX
  5
180B2
  8
AM_0
 10
200.87096600383401
 20
167.22398592459339
 30
0.0
 70
    32
  0
VERTEX
  5
180B3
  8
AM_0
 10
200.87296600383411
 20
167.21998592459329
 30
0.0
 70
    32
  0
VERTEX
  5
180B4
  8
AM_0
 10
200.873966003834
 20
167.2159859245931
 30
0.0
 70
    32
  0
VERTEX
  5
180B5
  8
AM_0
 10
200.87596600383401
 20
167.21198592459359
 30
0.0
 70
    32
  0
VERTEX
  5
180B6
  8
AM_0
 10
200.8769660038339
 20
167.20798592459349
 30
0.0
 70
    32
  0
VERTEX
  5
180B7
  8
AM_0
 10
200.87796600383379
 20
167.2039859245935
 30
0.0
 70
    32
  0
VERTEX
  5
180B8
  8
AM_0
 10
200.87996600383411
 20
167.19998592459339
 30
0.0
 70
    32
  0
VERTEX
  5
180B9
  8
AM_0
 10
200.880966003834
 20
167.19598592459349
 30
0.0
 70
    32
  0
VERTEX
  5
180BA
  8
AM_0
 10
200.8829660038341
 20
167.19098592459349
 30
0.0
 70
    32
  0
VERTEX
  5
180BB
  8
AM_0
 10
200.88396600383359
 20
167.18698592459339
 30
0.0
 70
    32
  0
VERTEX
  5
180BC
  8
AM_0
 10
200.885966003834
 20
167.18298592459351
 30
0.0
 70
    32
  0
VERTEX
  5
180BD
  8
AM_0
 10
200.88696600383389
 20
167.17898592459341
 30
0.0
 70
    32
  0
VERTEX
  5
180BE
  8
AM_0
 10
200.8889660038339
 20
167.1749859245931
 30
0.0
 70
    32
  0
VERTEX
  5
180BF
  8
AM_0
 10
200.88996600383419
 20
167.17098592459351
 30
0.0
 70
    32
  0
VERTEX
  5
180C0
  8
AM_0
 10
200.89196600383389
 20
167.1669859245934
 30
0.0
 70
    32
  0
VERTEX
  5
180C1
  8
AM_0
 10
200.89296600383369
 20
167.16298592459319
 30
0.0
 70
    32
  0
VERTEX
  5
180C2
  8
AM_0
 10
200.89496600383379
 20
167.1589859245934
 30
0.0
 70
    32
  0
VERTEX
  5
180C3
  8
AM_0
 10
200.89596600383399
 20
167.15498592459329
 30
0.0
 70
    32
  0
VERTEX
  5
180C4
  8
AM_0
 10
200.89796600383411
 20
167.15098592459341
 30
0.0
 70
    32
  0
VERTEX
  5
180C5
  8
AM_0
 10
200.898966003834
 20
167.14698592459351
 30
0.0
 70
    32
  0
VERTEX
  5
180C6
  8
AM_0
 10
200.90096600383399
 20
167.14298592459321
 30
0.0
 70
    32
  0
VERTEX
  5
180C7
  8
AM_0
 10
200.90196600383391
 20
167.13898592459341
 30
0.0
 70
    32
  0
VERTEX
  5
180C8
  8
AM_0
 10
200.903966003834
 20
167.13498592459331
 30
0.0
 70
    32
  0
VERTEX
  5
180C9
  8
AM_0
 10
200.90496600383381
 20
167.1309859245934
 30
0.0
 70
    32
  0
VERTEX
  5
180CA
  8
AM_0
 10
200.9069660038335
 20
167.1279859245935
 30
0.0
 70
    32
  0
VERTEX
  5
180CB
  8
AM_0
 10
200.9079660038341
 20
167.1239859245934
 30
0.0
 70
    32
  0
VERTEX
  5
180CC
  8
AM_0
 10
200.90996600383411
 20
167.11998592459329
 30
0.0
 70
    32
  0
VERTEX
  5
180CD
  8
AM_0
 10
200.91096600383361
 20
167.11598592459319
 30
0.0
 70
    32
  0
VERTEX
  5
180CE
  8
AM_0
 10
200.9129660038341
 20
167.1119859245934
 30
0.0
 70
    32
  0
VERTEX
  5
180CF
  8
AM_0
 10
200.91396600383391
 20
167.10798592459329
 30
0.0
 70
    32
  0
VERTEX
  5
180D0
  8
AM_0
 10
200.91596600383369
 20
167.1039859245935
 30
0.0
 70
    32
  0
VERTEX
  5
180D1
  8
AM_0
 10
200.9179660038341
 20
167.09998592459331
 30
0.0
 70
    32
  0
VERTEX
  5
180D2
  8
AM_0
 10
200.9189660038339
 20
167.09598592459329
 30
0.0
 70
    32
  0
VERTEX
  5
180D3
  8
AM_0
 10
200.920966003834
 20
167.09198592459339
 30
0.0
 70
    32
  0
VERTEX
  5
180D4
  8
AM_0
 10
200.9219660038342
 20
167.08798592459331
 30
0.0
 70
    32
  0
VERTEX
  5
180D5
  8
AM_0
 10
200.9239660038339
 20
167.08398592459349
 30
0.0
 70
    32
  0
VERTEX
  5
180D6
  8
AM_0
 10
200.92596600383399
 20
167.07998592459339
 30
0.0
 70
    32
  0
VERTEX
  5
180D7
  8
AM_0
 10
200.9269660038342
 20
167.07598592459331
 30
0.0
 70
    32
  0
VERTEX
  5
180D8
  8
AM_0
 10
200.92896600383389
 20
167.07198592459321
 30
0.0
 70
    32
  0
VERTEX
  5
180D9
  8
AM_0
 10
200.9299660038341
 20
167.0679859245933
 30
0.0
 70
    32
  0
VERTEX
  5
180DA
  8
AM_0
 10
200.93196600383391
 20
167.06398592459351
 30
0.0
 70
    32
  0
VERTEX
  5
180DB
  8
AM_0
 10
200.9339660038336
 20
167.05998592459349
 30
0.0
 70
    32
  0
VERTEX
  5
180DC
  8
AM_0
 10
200.93496600383409
 20
167.05598592459339
 30
0.0
 70
    32
  0
VERTEX
  5
180DD
  8
AM_0
 10
200.93696600383419
 20
167.0519859245932
 30
0.0
 70
    32
  0
VERTEX
  5
180DE
  8
AM_0
 10
200.93896600383391
 20
167.04798592459329
 30
0.0
 70
    32
  0
VERTEX
  5
180DF
  8
AM_0
 10
200.93996600383409
 20
167.0439859245935
 30
0.0
 70
    32
  0
VERTEX
  5
180E0
  8
AM_0
 10
200.94196600383381
 20
167.03998592459351
 30
0.0
 70
    32
  0
VERTEX
  5
180E1
  8
AM_0
 10
200.94396600383391
 20
167.0369859245931
 30
0.0
 70
    32
  0
VERTEX
  5
180E2
  8
AM_0
 10
200.94496600383411
 20
167.03298592459331
 30
0.0
 70
    32
  0
VERTEX
  5
180E3
  8
AM_0
 10
200.94696600383421
 20
167.02898592459351
 30
0.0
 70
    32
  0
VERTEX
  5
180E4
  8
AM_0
 10
200.9489660038339
 20
167.02498592459341
 30
0.0
 70
    32
  0
VERTEX
  5
180E5
  8
AM_0
 10
200.94996600383411
 20
167.0209859245933
 30
0.0
 70
    32
  0
VERTEX
  5
180E6
  8
AM_0
 10
200.9519660038338
 20
167.01698592459309
 30
0.0
 70
    32
  0
VERTEX
  5
180E7
  8
AM_0
 10
200.9539660038339
 20
167.01298592459349
 30
0.0
 70
    32
  0
VERTEX
  5
180E8
  8
AM_0
 10
200.9549660038341
 20
167.00898592459359
 30
0.0
 70
    32
  0
VERTEX
  5
180E9
  8
AM_0
 10
200.9569660038342
 20
167.0049859245932
 30
0.0
 70
    32
  0
VERTEX
  5
180EA
  8
AM_0
 10
200.95896600383389
 20
167.00098592459329
 30
0.0
 70
    32
  0
VERTEX
  5
180EB
  8
AM_0
 10
200.96096600383359
 20
166.99698592459319
 30
0.0
 70
    32
  0
VERTEX
  5
180EC
  8
AM_0
 10
200.96196600383379
 20
166.9929859245934
 30
0.0
 70
    32
  0
VERTEX
  5
180ED
  8
AM_0
 10
200.9639660038342
 20
166.9899859245931
 30
0.0
 70
    32
  0
VERTEX
  5
180EE
  8
AM_0
 10
200.96596600383401
 20
166.98598592459339
 30
0.0
 70
    32
  0
VERTEX
  5
180EF
  8
AM_0
 10
200.96796600383399
 20
166.98198592459349
 30
0.0
 70
    32
  0
VERTEX
  5
180F0
  8
AM_0
 10
200.96896600383391
 20
166.97798592459341
 30
0.0
 70
    32
  0
VERTEX
  5
180F1
  8
AM_0
 10
200.97096600383389
 20
166.97398592459359
 30
0.0
 70
    32
  0
VERTEX
  5
180F2
  8
AM_0
 10
200.97296600383399
 20
166.96998592459309
 30
0.0
 70
    32
  0
VERTEX
  5
180F3
  8
AM_0
 10
200.97496600383411
 20
166.96598592459341
 30
0.0
 70
    32
  0
VERTEX
  5
180F4
  8
AM_0
 10
200.97596600383389
 20
166.96198592459351
 30
0.0
 70
    32
  0
VERTEX
  5
180F5
  8
AM_0
 10
200.97796600383401
 20
166.9579859245934
 30
0.0
 70
    32
  0
VERTEX
  5
180F6
  8
AM_0
 10
200.97996600383411
 20
166.9549859245933
 30
0.0
 70
    32
  0
VERTEX
  5
180F7
  8
AM_0
 10
200.9819660038338
 20
166.95098592459331
 30
0.0
 70
    32
  0
VERTEX
  5
180F8
  8
AM_0
 10
200.98396600383421
 20
166.94698592459321
 30
0.0
 70
    32
  0
VERTEX
  5
180F9
  8
AM_0
 10
200.9849660038341
 20
166.9429859245933
 30
0.0
 70
    32
  0
VERTEX
  5
180FA
  8
AM_0
 10
200.98696600383411
 20
166.9389859245934
 30
0.0
 70
    32
  0
VERTEX
  5
180FB
  8
AM_0
 10
200.98896600383389
 20
166.93498592459349
 30
0.0
 70
    32
  0
VERTEX
  5
180FC
  8
AM_0
 10
200.9909660038339
 20
166.93098592459339
 30
0.0
 70
    32
  0
VERTEX
  5
180FD
  8
AM_0
 10
200.992966003834
 20
166.9279859245934
 30
0.0
 70
    32
  0
VERTEX
  5
180FE
  8
AM_0
 10
200.9939660038342
 20
166.92398592459361
 30
0.0
 70
    32
  0
VERTEX
  5
180FF
  8
AM_0
 10
200.9959660038339
 20
166.91998592459339
 30
0.0
 70
    32
  0
VERTEX
  5
18100
  8
AM_0
 10
200.99796600383399
 20
166.9159859245934
 30
0.0
 70
    32
  0
VERTEX
  5
18101
  8
AM_0
 10
200.999966003834
 20
166.9119859245931
 30
0.0
 70
    32
  0
VERTEX
  5
18102
  8
AM_0
 10
201.00196600383379
 20
166.9079859245935
 30
0.0
 70
    32
  0
VERTEX
  5
18103
  8
AM_0
 10
201.00396600383419
 20
166.90398592459371
 30
0.0
 70
    32
  0
VERTEX
  5
18104
  8
AM_0
 10
201.00596600383389
 20
166.90098592459341
 30
0.0
 70
    32
  0
VERTEX
  5
18105
  8
AM_0
 10
201.00796600383401
 20
166.8969859245932
 30
0.0
 70
    32
  0
VERTEX
  5
18106
  8
AM_0
 10
201.00896600383379
 20
166.89298592459349
 30
0.0
 70
    32
  0
VERTEX
  5
18107
  8
AM_0
 10
201.0109660038336
 20
166.88898592459341
 30
0.0
 70
    32
  0
VERTEX
  5
18108
  8
AM_0
 10
201.01296600383401
 20
166.8849859245932
 30
0.0
 70
    32
  0
VERTEX
  5
18109
  8
AM_0
 10
201.01496600383371
 20
166.88198592459329
 30
0.0
 70
    32
  0
VERTEX
  5
1810A
  8
AM_0
 10
201.01696600383411
 20
166.8779859245933
 30
0.0
 70
    32
  0
VERTEX
  5
1810B
  8
AM_0
 10
201.01896600383381
 20
166.87398592459309
 30
0.0
 70
    32
  0
VERTEX
  5
1810C
  8
AM_0
 10
201.02096600383391
 20
166.86998592459321
 30
0.0
 70
    32
  0
VERTEX
  5
1810D
  8
AM_0
 10
201.022966003834
 20
166.8659859245935
 30
0.0
 70
    32
  0
VERTEX
  5
1810E
  8
AM_0
 10
201.02496600383401
 20
166.86298592459349
 30
0.0
 70
    32
  0
VERTEX
  5
1810F
  8
AM_0
 10
201.0269660038341
 20
166.85898592459341
 30
0.0
 70
    32
  0
VERTEX
  5
18110
  8
AM_0
 10
201.0289660038338
 20
166.85498592459319
 30
0.0
 70
    32
  0
VERTEX
  5
18111
  8
AM_0
 10
201.0309660038339
 20
166.85098592459309
 30
0.0
 70
    32
  0
VERTEX
  5
18112
  8
AM_0
 10
201.03296600383399
 20
166.8469859245933
 30
0.0
 70
    32
  0
VERTEX
  5
18113
  8
AM_0
 10
201.034966003834
 20
166.84398592459311
 30
0.0
 70
    32
  0
VERTEX
  5
18114
  8
AM_0
 10
201.0369660038341
 20
166.83998592459361
 30
0.0
 70
    32
  0
VERTEX
  5
18115
  8
AM_0
 10
201.03896600383379
 20
166.83598592459339
 30
0.0
 70
    32
  0
VERTEX
  5
18116
  8
AM_0
 10
201.04096600383389
 20
166.83198592459331
 30
0.0
 70
    32
  0
VERTEX
  5
18117
  8
AM_0
 10
201.04296600383401
 20
166.82798592459349
 30
0.0
 70
    32
  0
VERTEX
  5
18118
  8
AM_0
 10
201.04496600383399
 20
166.82498592459339
 30
0.0
 70
    32
  0
VERTEX
  5
18119
  8
AM_0
 10
201.04696600383369
 20
166.82098592459349
 30
0.0
 70
    32
  0
VERTEX
  5
1811A
  8
AM_0
 10
201.04896600383381
 20
166.81698592459369
 30
0.0
 70
    32
  0
VERTEX
  5
1811B
  8
AM_0
 10
201.05096600383391
 20
166.81298592459351
 30
0.0
 70
    32
  0
VERTEX
  5
1811C
  8
AM_0
 10
201.05296600383389
 20
166.8099859245936
 30
0.0
 70
    32
  0
VERTEX
  5
1811D
  8
AM_0
 10
201.05496600383401
 20
166.8059859245935
 30
0.0
 70
    32
  0
VERTEX
  5
1811E
  8
AM_0
 10
201.05696600383411
 20
166.80198592459331
 30
0.0
 70
    32
  0
VERTEX
  5
1811F
  8
AM_0
 10
201.0589660038338
 20
166.79798592459329
 30
0.0
 70
    32
  0
VERTEX
  5
18120
  8
AM_0
 10
201.0609660038335
 20
166.79498592459331
 30
0.0
 70
    32
  0
VERTEX
  5
18121
  8
AM_0
 10
201.0629660038343
 20
166.79098592459329
 30
0.0
 70
    32
  0
VERTEX
  5
18122
  8
AM_0
 10
201.06496600383369
 20
166.7869859245931
 30
0.0
 70
    32
  0
VERTEX
  5
18123
  8
AM_0
 10
201.0669660038341
 20
166.7839859245932
 30
0.0
 70
    32
  0
VERTEX
  5
18124
  8
AM_0
 10
201.069966003834
 20
166.77998592459329
 30
0.0
 70
    32
  0
VERTEX
  5
18125
  8
AM_0
 10
201.07196600383409
 20
166.7759859245935
 30
0.0
 70
    32
  0
VERTEX
  5
18126
  8
AM_0
 10
201.07396600383379
 20
166.77198592459339
 30
0.0
 70
    32
  0
VERTEX
  5
18127
  8
AM_0
 10
201.0759660038338
 20
166.7689859245933
 30
0.0
 70
    32
  0
VERTEX
  5
18128
  8
AM_0
 10
201.07796600383389
 20
166.7649859245933
 30
0.0
 70
    32
  0
VERTEX
  5
18129
  8
AM_0
 10
201.07996600383399
 20
166.76098592459351
 30
0.0
 70
    32
  0
VERTEX
  5
1812A
  8
AM_0
 10
201.08196600383411
 20
166.75798592459341
 30
0.0
 70
    32
  0
VERTEX
  5
1812B
  8
AM_0
 10
201.08396600383409
 20
166.7539859245932
 30
0.0
 70
    32
  0
VERTEX
  5
1812C
  8
AM_0
 10
201.08696600383399
 20
166.74998592459329
 30
0.0
 70
    32
  0
VERTEX
  5
1812D
  8
AM_0
 10
201.08896600383409
 20
166.74698592459339
 30
0.0
 70
    32
  0
VERTEX
  5
1812E
  8
AM_0
 10
201.09096600383421
 20
166.74298592459351
 30
0.0
 70
    32
  0
VERTEX
  5
1812F
  8
AM_0
 10
201.09296600383391
 20
166.73898592459309
 30
0.0
 70
    32
  0
VERTEX
  5
18130
  8
AM_0
 10
201.094966003834
 20
166.73598592459319
 30
0.0
 70
    32
  0
VERTEX
  5
18131
  8
AM_0
 10
201.0979660038339
 20
166.73198592459349
 30
0.0
 70
    32
  0
VERTEX
  5
18132
  8
AM_0
 10
201.09996600383391
 20
166.72798592459341
 30
0.0
 70
    32
  0
VERTEX
  5
18133
  8
AM_0
 10
201.10196600383401
 20
166.72498592459351
 30
0.0
 70
    32
  0
VERTEX
  5
18134
  8
AM_0
 10
201.1039660038341
 20
166.72098592459321
 30
0.0
 70
    32
  0
VERTEX
  5
18135
  8
AM_0
 10
201.1059660038338
 20
166.71698592459339
 30
0.0
 70
    32
  0
VERTEX
  5
18136
  8
AM_0
 10
201.10896600383401
 20
166.71398592459349
 30
0.0
 70
    32
  0
VERTEX
  5
18137
  8
AM_0
 10
201.11096600383419
 20
166.70998592459341
 30
0.0
 70
    32
  0
VERTEX
  5
18138
  8
AM_0
 10
201.11296600383389
 20
166.70598592459319
 30
0.0
 70
    32
  0
VERTEX
  5
18139
  8
AM_0
 10
201.11496600383359
 20
166.70298592459361
 30
0.0
 70
    32
  0
VERTEX
  5
1813A
  8
AM_0
 10
201.1179660038342
 20
166.6989859245935
 30
0.0
 70
    32
  0
VERTEX
  5
1813B
  8
AM_0
 10
201.11996600383389
 20
166.6959859245936
 30
0.0
 70
    32
  0
VERTEX
  5
1813C
  8
AM_0
 10
201.12196600383399
 20
166.6919859245935
 30
0.0
 70
    32
  0
VERTEX
  5
1813D
  8
AM_0
 10
201.12396600383369
 20
166.68798592459331
 30
0.0
 70
    32
  0
VERTEX
  5
1813E
  8
AM_0
 10
201.12696600383401
 20
166.68498592459341
 30
0.0
 70
    32
  0
VERTEX
  5
1813F
  8
AM_0
 10
201.12896600383411
 20
166.6809859245933
 30
0.0
 70
    32
  0
VERTEX
  5
18140
  8
AM_0
 10
201.13096600383409
 20
166.6779859245934
 30
0.0
 70
    32
  0
VERTEX
  5
18141
  8
AM_0
 10
201.1339660038341
 20
166.6739859245935
 30
0.0
 70
    32
  0
VERTEX
  5
18142
  8
AM_0
 10
201.1359660038338
 20
166.66998592459339
 30
0.0
 70
    32
  0
VERTEX
  5
18143
  8
AM_0
 10
201.13796600383421
 20
166.66698592459349
 30
0.0
 70
    32
  0
VERTEX
  5
18144
  8
AM_0
 10
201.14096600383411
 20
166.6629859245933
 30
0.0
 70
    32
  0
VERTEX
  5
18145
  8
AM_0
 10
201.14296600383389
 20
166.6599859245934
 30
0.0
 70
    32
  0
VERTEX
  5
18146
  8
AM_0
 10
201.1449660038339
 20
166.65598592459361
 30
0.0
 70
    32
  0
VERTEX
  5
18147
  8
AM_0
 10
201.1479660038342
 20
166.65298592459311
 30
0.0
 70
    32
  0
VERTEX
  5
18148
  8
AM_0
 10
201.1499660038339
 20
166.64898592459321
 30
0.0
 70
    32
  0
VERTEX
  5
18149
  8
AM_0
 10
201.1529660038338
 20
166.64598592459299
 30
0.0
 70
    32
  0
VERTEX
  5
1814A
  8
AM_0
 10
201.15496600383389
 20
166.64198592459351
 30
0.0
 70
    32
  0
VERTEX
  5
1814B
  8
AM_0
 10
201.15696600383399
 20
166.63798592459341
 30
0.0
 70
    32
  0
VERTEX
  5
1814C
  8
AM_0
 10
201.15996600383389
 20
166.63498592459339
 30
0.0
 70
    32
  0
VERTEX
  5
1814D
  8
AM_0
 10
201.16196600383401
 20
166.63098592459329
 30
0.0
 70
    32
  0
VERTEX
  5
1814E
  8
AM_0
 10
201.1649660038336
 20
166.62798592459339
 30
0.0
 70
    32
  0
VERTEX
  5
1814F
  8
AM_0
 10
201.16696600383401
 20
166.6239859245932
 30
0.0
 70
    32
  0
VERTEX
  5
18150
  8
AM_0
 10
201.16996600383391
 20
166.62098592459341
 30
0.0
 70
    32
  0
VERTEX
  5
18151
  8
AM_0
 10
201.17196600383431
 20
166.61698592459331
 30
0.0
 70
    32
  0
VERTEX
  5
18152
  8
AM_0
 10
201.1739660038337
 20
166.61398592459309
 30
0.0
 70
    32
  0
VERTEX
  5
18153
  8
AM_0
 10
201.176966003834
 20
166.60998592459319
 30
0.0
 70
    32
  0
VERTEX
  5
18154
  8
AM_0
 10
201.17896600383401
 20
166.60698592459349
 30
0.0
 70
    32
  0
VERTEX
  5
18155
  8
AM_0
 10
201.18196600383399
 20
166.60298592459341
 30
0.0
 70
    32
  0
VERTEX
  5
18156
  8
AM_0
 10
201.183966003834
 20
166.59998592459351
 30
0.0
 70
    32
  0
VERTEX
  5
18157
  8
AM_0
 10
201.1869660038339
 20
166.5969859245931
 30
0.0
 70
    32
  0
VERTEX
  5
18158
  8
AM_0
 10
201.188966003834
 20
166.59298592459339
 30
0.0
 70
    32
  0
VERTEX
  5
18159
  8
AM_0
 10
201.19196600383361
 20
166.58998592459309
 30
0.0
 70
    32
  0
VERTEX
  5
1815A
  8
AM_0
 10
201.19396600383399
 20
166.5859859245933
 30
0.0
 70
    32
  0
VERTEX
  5
1815B
  8
AM_0
 10
201.19696600383401
 20
166.5829859245934
 30
0.0
 70
    32
  0
VERTEX
  5
1815C
  8
AM_0
 10
201.19896600383399
 20
166.57898592459361
 30
0.0
 70
    32
  0
VERTEX
  5
1815D
  8
AM_0
 10
201.20196600383389
 20
166.57598592459311
 30
0.0
 70
    32
  0
VERTEX
  5
1815E
  8
AM_0
 10
201.20496600383419
 20
166.57298592459341
 30
0.0
 70
    32
  0
VERTEX
  5
1815F
  8
AM_0
 10
201.20696600383431
 20
166.56898592459359
 30
0.0
 70
    32
  0
VERTEX
  5
18160
  8
AM_0
 10
201.2099660038339
 20
166.56598592459329
 30
0.0
 70
    32
  0
VERTEX
  5
18161
  8
AM_0
 10
201.21196600383391
 20
166.56198592459361
 30
0.0
 70
    32
  0
VERTEX
  5
18162
  8
AM_0
 10
201.21496600383421
 20
166.55898592459329
 30
0.0
 70
    32
  0
VERTEX
  5
18163
  8
AM_0
 10
201.21796600383411
 20
166.5559859245931
 30
0.0
 70
    32
  0
VERTEX
  5
18164
  8
AM_0
 10
201.2199660038338
 20
166.55198592459359
 30
0.0
 70
    32
  0
VERTEX
  5
18165
  8
AM_0
 10
201.22296600383379
 20
166.54898592459361
 30
0.0
 70
    32
  0
VERTEX
  5
18166
  8
AM_0
 10
201.2249660038342
 20
166.5449859245935
 30
0.0
 70
    32
  0
VERTEX
  5
18167
  8
AM_0
 10
201.22796600383381
 20
166.5419859245936
 30
0.0
 70
    32
  0
VERTEX
  5
18168
  8
AM_0
 10
201.230966003834
 20
166.53898592459331
 30
0.0
 70
    32
  0
VERTEX
  5
18169
  8
AM_0
 10
201.23296600383381
 20
166.53498592459351
 30
0.0
 70
    32
  0
VERTEX
  5
1816A
  8
AM_0
 10
201.23596600383399
 20
166.53198592459361
 30
0.0
 70
    32
  0
VERTEX
  5
1816B
  8
AM_0
 10
201.23896600383401
 20
166.52898592459371
 30
0.0
 70
    32
  0
VERTEX
  5
1816C
  8
AM_0
 10
201.24096600383399
 20
166.52498592459349
 30
0.0
 70
    32
  0
VERTEX
  5
1816D
  8
AM_0
 10
201.243966003834
 20
166.52198592459351
 30
0.0
 70
    32
  0
VERTEX
  5
1816E
  8
AM_0
 10
201.2469660038339
 20
166.5189859245933
 30
0.0
 70
    32
  0
VERTEX
  5
1816F
  8
AM_0
 10
201.2499660038338
 20
166.5159859245932
 30
0.0
 70
    32
  0
VERTEX
  5
18170
  8
AM_0
 10
201.2519660038339
 20
166.51198592459329
 30
0.0
 70
    32
  0
VERTEX
  5
18171
  8
AM_0
 10
201.2549660038338
 20
166.50898592459311
 30
0.0
 70
    32
  0
VERTEX
  5
18172
  8
AM_0
 10
201.25796600383401
 20
166.5059859245934
 30
0.0
 70
    32
  0
VERTEX
  5
18173
  8
AM_0
 10
201.260966003834
 20
166.50198592459361
 30
0.0
 70
    32
  0
VERTEX
  5
18174
  8
AM_0
 10
201.26296600383409
 20
166.49898592459309
 30
0.0
 70
    32
  0
VERTEX
  5
18175
  8
AM_0
 10
201.265966003834
 20
166.49598592459341
 30
0.0
 70
    32
  0
VERTEX
  5
18176
  8
AM_0
 10
201.26896600383361
 20
166.49298592459351
 30
0.0
 70
    32
  0
VERTEX
  5
18177
  8
AM_0
 10
201.27196600383419
 20
166.48898592459309
 30
0.0
 70
    32
  0
VERTEX
  5
18178
  8
AM_0
 10
201.27396600383389
 20
166.48598592459319
 30
0.0
 70
    32
  0
VERTEX
  5
18179
  8
AM_0
 10
201.27696600383399
 20
166.48298592459329
 30
0.0
 70
    32
  0
VERTEX
  5
1817A
  8
AM_0
 10
201.27996600383381
 20
166.47998592459319
 30
0.0
 70
    32
  0
VERTEX
  5
1817B
  8
AM_0
 10
201.2829660038341
 20
166.47698592459329
 30
0.0
 70
    32
  0
VERTEX
  5
1817C
  8
AM_0
 10
201.28596600383401
 20
166.4729859245935
 30
0.0
 70
    32
  0
VERTEX
  5
1817D
  8
AM_0
 10
201.28896600383391
 20
166.46998592459329
 30
0.0
 70
    32
  0
VERTEX
  5
1817E
  8
AM_0
 10
201.290966003834
 20
166.46698592459339
 30
0.0
 70
    32
  0
VERTEX
  5
1817F
  8
AM_0
 10
201.2939660038339
 20
166.46398592459349
 30
0.0
 70
    32
  0
VERTEX
  5
18180
  8
AM_0
 10
201.29696600383389
 20
166.4609859245931
 30
0.0
 70
    32
  0
VERTEX
  5
18181
  8
AM_0
 10
201.29996600383379
 20
166.45798592459349
 30
0.0
 70
    32
  0
VERTEX
  5
18182
  8
AM_0
 10
201.3029660038344
 20
166.45498592459359
 30
0.0
 70
    32
  0
VERTEX
  5
18183
  8
AM_0
 10
201.30596600383399
 20
166.45098592459311
 30
0.0
 70
    32
  0
VERTEX
  5
18184
  8
AM_0
 10
201.30896600383389
 20
166.4479859245935
 30
0.0
 70
    32
  0
VERTEX
  5
18185
  8
AM_0
 10
201.31196600383419
 20
166.4449859245936
 30
0.0
 70
    32
  0
VERTEX
  5
18186
  8
AM_0
 10
201.31496600383409
 20
166.44198592459369
 30
0.0
 70
    32
  0
VERTEX
  5
18187
  8
AM_0
 10
201.31796600383399
 20
166.4389859245934
 30
0.0
 70
    32
  0
VERTEX
  5
18188
  8
AM_0
 10
201.320966003834
 20
166.4359859245933
 30
0.0
 70
    32
  0
VERTEX
  5
18189
  8
AM_0
 10
201.3239660038339
 20
166.43298592459351
 30
0.0
 70
    32
  0
VERTEX
  5
1818A
  8
AM_0
 10
201.3269660038338
 20
166.42998592459341
 30
0.0
 70
    32
  0
VERTEX
  5
1818B
  8
AM_0
 10
201.3299660038341
 20
166.42698592459351
 30
0.0
 70
    32
  0
VERTEX
  5
1818C
  8
AM_0
 10
201.332966003834
 20
166.4239859245935
 30
0.0
 70
    32
  0
VERTEX
  5
1818D
  8
AM_0
 10
201.3359660038339
 20
166.42098592459311
 30
0.0
 70
    32
  0
VERTEX
  5
1818E
  8
AM_0
 10
201.3389660038342
 20
166.41798592459321
 30
0.0
 70
    32
  0
VERTEX
  5
1818F
  8
AM_0
 10
201.34196600383419
 20
166.41498592459359
 30
0.0
 70
    32
  0
VERTEX
  5
18190
  8
AM_0
 10
201.34496600383409
 20
166.41198592459341
 30
0.0
 70
    32
  0
VERTEX
  5
18191
  8
AM_0
 10
201.34796600383399
 20
166.40898592459311
 30
0.0
 70
    32
  0
VERTEX
  5
18192
  8
AM_0
 10
201.35096600383389
 20
166.40598592459349
 30
0.0
 70
    32
  0
VERTEX
  5
18193
  8
AM_0
 10
201.3539660038339
 20
166.40298592459311
 30
0.0
 70
    32
  0
VERTEX
  5
18194
  8
AM_0
 10
201.3569660038338
 20
166.39998592459341
 30
0.0
 70
    32
  0
VERTEX
  5
18195
  8
AM_0
 10
201.3599660038341
 20
166.39698592459339
 30
0.0
 70
    32
  0
VERTEX
  5
18196
  8
AM_0
 10
201.362966003834
 20
166.3939859245933
 30
0.0
 70
    32
  0
VERTEX
  5
18197
  8
AM_0
 10
201.3659660038343
 20
166.39098592459339
 30
0.0
 70
    32
  0
VERTEX
  5
18198
  8
AM_0
 10
201.3689660038342
 20
166.38798592459321
 30
0.0
 70
    32
  0
VERTEX
  5
18199
  8
AM_0
 10
201.3719660038341
 20
166.38498592459331
 30
0.0
 70
    32
  0
VERTEX
  5
1819A
  8
AM_0
 10
201.3759660038339
 20
166.38198592459321
 30
0.0
 70
    32
  0
VERTEX
  5
1819B
  8
AM_0
 10
201.37896600383419
 20
166.37898592459351
 30
0.0
 70
    32
  0
VERTEX
  5
1819C
  8
AM_0
 10
201.38196600383381
 20
166.37598592459321
 30
0.0
 70
    32
  0
VERTEX
  5
1819D
  8
AM_0
 10
201.38496600383399
 20
166.37398592459351
 30
0.0
 70
    32
  0
VERTEX
  5
1819E
  8
AM_0
 10
201.38796600383429
 20
166.37098592459341
 30
0.0
 70
    32
  0
VERTEX
  5
1819F
  8
AM_0
 10
201.39096600383391
 20
166.3679859245936
 30
0.0
 70
    32
  0
VERTEX
  5
181A0
  8
AM_0
 10
201.3949660038341
 20
166.3649859245933
 30
0.0
 70
    32
  0
VERTEX
  5
181A1
  8
AM_0
 10
201.397966003834
 20
166.3619859245934
 30
0.0
 70
    32
  0
VERTEX
  5
181A2
  8
AM_0
 10
201.4009660038339
 20
166.3589859245935
 30
0.0
 70
    32
  0
VERTEX
  5
181A3
  8
AM_0
 10
201.4039660038338
 20
166.35698592459349
 30
0.0
 70
    32
  0
VERTEX
  5
181A4
  8
AM_0
 10
201.40796600383399
 20
166.3539859245935
 30
0.0
 70
    32
  0
VERTEX
  5
181A5
  8
AM_0
 10
201.41096600383389
 20
166.3509859245932
 30
0.0
 70
    32
  0
VERTEX
  5
181A6
  8
AM_0
 10
201.41396600383379
 20
166.34798592459359
 30
0.0
 70
    32
  0
VERTEX
  5
181A7
  8
AM_0
 10
201.41696600383409
 20
166.34598592459309
 30
0.0
 70
    32
  0
VERTEX
  5
181A8
  8
AM_0
 10
201.42096600383391
 20
166.34298592459331
 30
0.0
 70
    32
  0
VERTEX
  5
181A9
  8
AM_0
 10
201.42396600383381
 20
166.33998592459341
 30
0.0
 70
    32
  0
VERTEX
  5
181AA
  8
AM_0
 10
201.42696600383371
 20
166.33798592459331
 30
0.0
 70
    32
  0
VERTEX
  5
181AB
  8
AM_0
 10
201.4309660038339
 20
166.3349859245931
 30
0.0
 70
    32
  0
VERTEX
  5
181AC
  8
AM_0
 10
201.4339660038338
 20
166.3319859245934
 30
0.0
 70
    32
  0
VERTEX
  5
181AD
  8
AM_0
 10
201.4369660038341
 20
166.3299859245935
 30
0.0
 70
    32
  0
VERTEX
  5
181AE
  8
AM_0
 10
201.44096600383389
 20
166.3269859245934
 30
0.0
 70
    32
  0
VERTEX
  5
181AF
  8
AM_0
 10
201.44396600383379
 20
166.32398592459339
 30
0.0
 70
    32
  0
VERTEX
  5
181B0
  8
AM_0
 10
201.44696600383401
 20
166.32198592459309
 30
0.0
 70
    32
  0
VERTEX
  5
181B1
  8
AM_0
 10
201.4509660038338
 20
166.31898592459331
 30
0.0
 70
    32
  0
VERTEX
  5
181B2
  8
AM_0
 10
201.45396600383381
 20
166.31698592459361
 30
0.0
 70
    32
  0
VERTEX
  5
181B3
  8
AM_0
 10
201.45796600383389
 20
166.3139859245934
 30
0.0
 70
    32
  0
VERTEX
  5
181B4
  8
AM_0
 10
201.46096600383379
 20
166.31098592459301
 30
0.0
 70
    32
  0
VERTEX
  5
181B5
  8
AM_0
 10
201.4639660038338
 20
166.3089859245932
 30
0.0
 70
    32
  0
VERTEX
  5
181B6
  8
AM_0
 10
201.46796600383391
 20
166.30598592459339
 30
0.0
 70
    32
  0
VERTEX
  5
181B7
  8
AM_0
 10
201.47096600383381
 20
166.30398592459341
 30
0.0
 70
    32
  0
VERTEX
  5
181B8
  8
AM_0
 10
201.474966003834
 20
166.3009859245935
 30
0.0
 70
    32
  0
VERTEX
  5
181B9
  8
AM_0
 10
201.4779660038339
 20
166.2989859245935
 30
0.0
 70
    32
  0
VERTEX
  5
181BA
  8
AM_0
 10
201.48196600383369
 20
166.2959859245934
 30
0.0
 70
    32
  0
VERTEX
  5
181BB
  8
AM_0
 10
201.4849660038339
 20
166.29398592459339
 30
0.0
 70
    32
  0
VERTEX
  5
181BC
  8
AM_0
 10
201.48896600383409
 20
166.29198592459309
 30
0.0
 70
    32
  0
VERTEX
  5
181BD
  8
AM_0
 10
201.49196600383399
 20
166.28898592459319
 30
0.0
 70
    32
  0
VERTEX
  5
181BE
  8
AM_0
 10
201.4959660038341
 20
166.2869859245931
 30
0.0
 70
    32
  0
VERTEX
  5
181BF
  8
AM_0
 10
201.49896600383411
 20
166.28398592459351
 30
0.0
 70
    32
  0
VERTEX
  5
181C0
  8
AM_0
 10
201.5029660038339
 20
166.2819859245935
 30
0.0
 70
    32
  0
VERTEX
  5
181C1
  8
AM_0
 10
201.50696600383429
 20
166.2799859245934
 30
0.0
 70
    32
  0
VERTEX
  5
181C2
  8
AM_0
 10
201.50996600383391
 20
166.2769859245935
 30
0.0
 70
    32
  0
VERTEX
  5
181C3
  8
AM_0
 10
201.5139660038341
 20
166.2749859245931
 30
0.0
 70
    32
  0
VERTEX
  5
181C4
  8
AM_0
 10
201.516966003834
 20
166.27298592459331
 30
0.0
 70
    32
  0
VERTEX
  5
181C5
  8
AM_0
 10
201.52096600383379
 20
166.2699859245935
 30
0.0
 70
    32
  0
VERTEX
  5
181C6
  8
AM_0
 10
201.52496600383421
 20
166.26798592459309
 30
0.0
 70
    32
  0
VERTEX
  5
181C7
  8
AM_0
 10
201.52796600383391
 20
166.26598592459331
 30
0.0
 70
    32
  0
VERTEX
  5
181C8
  8
AM_0
 10
201.53196600383359
 20
166.26398592459361
 30
0.0
 70
    32
  0
VERTEX
  5
181C9
  8
AM_0
 10
201.53596600383381
 20
166.2609859245936
 30
0.0
 70
    32
  0
VERTEX
  5
181CA
  8
AM_0
 10
201.53896600383399
 20
166.25898592459359
 30
0.0
 70
    32
  0
VERTEX
  5
181CB
  8
AM_0
 10
201.54296600383421
 20
166.25698592459349
 30
0.0
 70
    32
  0
VERTEX
  5
181CC
  8
AM_0
 10
201.54696600383431
 20
166.2549859245934
 30
0.0
 70
    32
  0
VERTEX
  5
181CD
  8
AM_0
 10
201.54996600383359
 20
166.25298592459339
 30
0.0
 70
    32
  0
VERTEX
  5
181CE
  8
AM_0
 10
201.55396600383369
 20
166.25098592459329
 30
0.0
 70
    32
  0
VERTEX
  5
181CF
  8
AM_0
 10
201.5579660038338
 20
166.2489859245934
 30
0.0
 70
    32
  0
VERTEX
  5
181D0
  8
AM_0
 10
201.56096600383381
 20
166.2459859245933
 30
0.0
 70
    32
  0
VERTEX
  5
181D1
  8
AM_0
 10
201.56496600383389
 20
166.2439859245932
 30
0.0
 70
    32
  0
VERTEX
  5
181D2
  8
AM_0
 10
201.56896600383399
 20
166.24198592459331
 30
0.0
 70
    32
  0
VERTEX
  5
181D3
  8
AM_0
 10
201.57296600383421
 20
166.2399859245931
 30
0.0
 70
    32
  0
VERTEX
  5
181D4
  8
AM_0
 10
201.57596600383411
 20
166.23798592459309
 30
0.0
 70
    32
  0
VERTEX
  5
181D5
  8
AM_0
 10
201.57996600383419
 20
166.23598592459331
 30
0.0
 70
    32
  0
VERTEX
  5
181D6
  8
AM_0
 10
201.58396600383401
 20
166.23398592459361
 30
0.0
 70
    32
  0
VERTEX
  5
181D7
  8
AM_0
 10
201.58796600383411
 20
166.23198592459349
 30
0.0
 70
    32
  0
VERTEX
  5
181D8
  8
AM_0
 10
201.5919660038343
 20
166.22998592459311
 30
0.0
 70
    32
  0
VERTEX
  5
181D9
  8
AM_0
 10
201.59496600383389
 20
166.22898592459339
 30
0.0
 70
    32
  0
VERTEX
  5
181DA
  8
AM_0
 10
201.59896600383399
 20
166.22698592459349
 30
0.0
 70
    32
  0
VERTEX
  5
181DB
  8
AM_0
 10
201.6029660038341
 20
166.2249859245932
 30
0.0
 70
    32
  0
VERTEX
  5
181DC
  8
AM_0
 10
201.60696600383389
 20
166.2229859245935
 30
0.0
 70
    32
  0
VERTEX
  5
181DD
  8
AM_0
 10
201.61096600383411
 20
166.22098592459329
 30
0.0
 70
    32
  0
VERTEX
  5
181DE
  8
AM_0
 10
201.6149660038339
 20
166.2189859245934
 30
0.0
 70
    32
  0
VERTEX
  5
181DF
  8
AM_0
 10
201.618966003834
 20
166.21798592459339
 30
0.0
 70
    32
  0
VERTEX
  5
181E0
  8
AM_0
 10
201.6219660038339
 20
166.2159859245933
 30
0.0
 70
    32
  0
VERTEX
  5
181E1
  8
AM_0
 10
201.62596600383401
 20
166.21398592459349
 30
0.0
 70
    32
  0
VERTEX
  5
181E2
  8
AM_0
 10
201.6299660038342
 20
166.21198592459351
 30
0.0
 70
    32
  0
VERTEX
  5
181E3
  8
AM_0
 10
201.63396600383399
 20
166.21098592459299
 30
0.0
 70
    32
  0
VERTEX
  5
181E4
  8
AM_0
 10
201.63796600383409
 20
166.20898592459329
 30
0.0
 70
    32
  0
VERTEX
  5
181E5
  8
AM_0
 10
201.64196600383389
 20
166.20698592459351
 30
0.0
 70
    32
  0
VERTEX
  5
181E6
  8
AM_0
 10
201.64596600383399
 20
166.20598592459331
 30
0.0
 70
    32
  0
VERTEX
  5
181E7
  8
AM_0
 10
201.64996600383409
 20
166.20398592459361
 30
0.0
 70
    32
  0
VERTEX
  5
181E8
  8
AM_0
 10
201.6539660038336
 20
166.20198592459329
 30
0.0
 70
    32
  0
VERTEX
  5
181E9
  8
AM_0
 10
201.65796600383371
 20
166.2009859245934
 30
0.0
 70
    32
  0
VERTEX
  5
181EA
  8
AM_0
 10
201.6619660038339
 20
166.1989859245933
 30
0.0
 70
    32
  0
VERTEX
  5
181EB
  8
AM_0
 10
201.665966003834
 20
166.19798592459341
 30
0.0
 70
    32
  0
VERTEX
  5
181EC
  8
AM_0
 10
201.66996600383411
 20
166.19598592459349
 30
0.0
 70
    32
  0
VERTEX
  5
181ED
  8
AM_0
 10
201.6739660038339
 20
166.19498592459351
 30
0.0
 70
    32
  0
VERTEX
  5
181EE
  8
AM_0
 10
201.677966003834
 20
166.1929859245933
 30
0.0
 70
    32
  0
VERTEX
  5
181EF
  8
AM_0
 10
201.68196600383391
 20
166.19198592459361
 30
0.0
 70
    32
  0
VERTEX
  5
181F0
  8
AM_0
 10
201.6859660038337
 20
166.19098592459341
 30
0.0
 70
    32
  0
VERTEX
  5
181F1
  8
AM_0
 10
201.6899660038338
 20
166.18898592459331
 30
0.0
 70
    32
  0
VERTEX
  5
181F2
  8
AM_0
 10
201.69396600383391
 20
166.18798592459339
 30
0.0
 70
    32
  0
VERTEX
  5
181F3
  8
AM_0
 10
201.69796600383401
 20
166.18698592459361
 30
0.0
 70
    32
  0
VERTEX
  5
181F4
  8
AM_0
 10
201.7019660038338
 20
166.18498592459349
 30
0.0
 70
    32
  0
VERTEX
  5
181F5
  8
AM_0
 10
201.70596600383431
 20
166.18398592459329
 30
0.0
 70
    32
  0
VERTEX
  5
181F6
  8
AM_0
 10
201.7099660038341
 20
166.18298592459351
 30
0.0
 70
    32
  0
VERTEX
  5
181F7
  8
AM_0
 10
201.71496600383409
 20
166.18198592459331
 30
0.0
 70
    32
  0
VERTEX
  5
181F8
  8
AM_0
 10
201.71896600383391
 20
166.18098592459339
 30
0.0
 70
    32
  0
VERTEX
  5
181F9
  8
AM_0
 10
201.72296600383399
 20
166.17898592459341
 30
0.0
 70
    32
  0
VERTEX
  5
181FA
  8
AM_0
 10
201.72696600383409
 20
166.1779859245932
 30
0.0
 70
    32
  0
VERTEX
  5
181FB
  8
AM_0
 10
201.7309660038336
 20
166.17698592459311
 30
0.0
 70
    32
  0
VERTEX
  5
181FC
  8
AM_0
 10
201.7349660038337
 20
166.17598592459339
 30
0.0
 70
    32
  0
VERTEX
  5
181FD
  8
AM_0
 10
201.73896600383389
 20
166.17498592459319
 30
0.0
 70
    32
  0
VERTEX
  5
181FE
  8
AM_0
 10
201.742966003834
 20
166.17398592459361
 30
0.0
 70
    32
  0
VERTEX
  5
181FF
  8
AM_0
 10
201.74796600383399
 20
166.17298592459341
 30
0.0
 70
    32
  0
VERTEX
  5
18200
  8
AM_0
 10
201.75196600383379
 20
166.17198592459329
 30
0.0
 70
    32
  0
VERTEX
  5
18201
  8
AM_0
 10
201.75596600383389
 20
166.1709859245934
 30
0.0
 70
    32
  0
VERTEX
  5
18202
  8
AM_0
 10
201.75996600383411
 20
166.16998592459319
 30
0.0
 70
    32
  0
VERTEX
  5
18203
  8
AM_0
 10
201.76396600383421
 20
166.16898592459339
 30
0.0
 70
    32
  0
VERTEX
  5
18204
  8
AM_0
 10
201.767966003834
 20
166.16798592459321
 30
0.0
 70
    32
  0
VERTEX
  5
18205
  8
AM_0
 10
201.77296600383431
 20
166.16798592459321
 30
0.0
 70
    32
  0
VERTEX
  5
18206
  8
AM_0
 10
201.7769660038341
 20
166.16698592459321
 30
0.0
 70
    32
  0
VERTEX
  5
18207
  8
AM_0
 10
201.78096600383361
 20
166.1659859245934
 30
0.0
 70
    32
  0
VERTEX
  5
18208
  8
AM_0
 10
201.78496600383369
 20
166.16498592459351
 30
0.0
 70
    32
  0
VERTEX
  5
18209
  8
AM_0
 10
201.78896600383379
 20
166.16398592459331
 30
0.0
 70
    32
  0
VERTEX
  5
1820A
  8
AM_0
 10
201.79396600383379
 20
166.16398592459331
 30
0.0
 70
    32
  0
VERTEX
  5
1820B
  8
AM_0
 10
201.79796600383389
 20
166.1629859245931
 30
0.0
 70
    32
  0
VERTEX
  5
1820C
  8
AM_0
 10
201.80196600383411
 20
166.1619859245933
 30
0.0
 70
    32
  0
VERTEX
  5
1820D
  8
AM_0
 10
201.8059660038339
 20
166.1619859245933
 30
0.0
 70
    32
  0
VERTEX
  5
1820E
  8
AM_0
 10
201.81096600383421
 20
166.1609859245934
 30
0.0
 70
    32
  0
VERTEX
  5
1820F
  8
AM_0
 10
201.814966003834
 20
166.15998592459351
 30
0.0
 70
    32
  0
VERTEX
  5
18210
  8
AM_0
 10
201.81896600383379
 20
166.15998592459351
 30
0.0
 70
    32
  0
VERTEX
  5
18211
  8
AM_0
 10
201.8229660038339
 20
166.1589859245934
 30
0.0
 70
    32
  0
VERTEX
  5
18212
  8
AM_0
 10
201.82796600383389
 20
166.1589859245934
 30
0.0
 70
    32
  0
VERTEX
  5
18213
  8
AM_0
 10
201.8319660038344
 20
166.15798592459319
 30
0.0
 70
    32
  0
VERTEX
  5
18214
  8
AM_0
 10
201.83596600383379
 20
166.15798592459319
 30
0.0
 70
    32
  0
VERTEX
  5
18215
  8
AM_0
 10
201.83996600383401
 20
166.15698592459361
 30
0.0
 70
    32
  0
VERTEX
  5
18216
  8
AM_0
 10
201.844966003834
 20
166.15698592459361
 30
0.0
 70
    32
  0
VERTEX
  5
18217
  8
AM_0
 10
201.84896600383371
 20
166.15698592459361
 30
0.0
 70
    32
  0
VERTEX
  5
18218
  8
AM_0
 10
201.8529660038339
 20
166.15598592459349
 30
0.0
 70
    32
  0
VERTEX
  5
18219
  8
AM_0
 10
201.856966003834
 20
166.15598592459349
 30
0.0
 70
    32
  0
VERTEX
  5
1821A
  8
AM_0
 10
201.861966003834
 20
166.15598592459349
 30
0.0
 70
    32
  0
VERTEX
  5
1821B
  8
AM_0
 10
201.86596600383379
 20
166.15598592459349
 30
0.0
 70
    32
  0
VERTEX
  5
1821C
  8
AM_0
 10
201.86996600383389
 20
166.15498592459329
 30
0.0
 70
    32
  0
VERTEX
  5
1821D
  8
AM_0
 10
201.87396600383411
 20
166.15498592459329
 30
0.0
 70
    32
  0
VERTEX
  5
1821E
  8
AM_0
 10
201.87896600383411
 20
166.15498592459329
 30
0.0
 70
    32
  0
VERTEX
  5
1821F
  8
AM_0
 10
201.8829660038339
 20
166.15498592459329
 30
0.0
 70
    32
  0
VERTEX
  5
18220
  8
AM_0
 10
201.886966003834
 20
166.15498592459329
 30
0.0
 70
    32
  0
VERTEX
  5
18221
  8
AM_0
 10
201.891966003834
 20
166.15498592459329
 30
0.0
 70
    32
  0
VERTEX
  5
18222
  8
AM_0
 10
201.89596600383379
 20
166.15498592459329
 30
0.0
 70
    32
  0
VERTEX
  5
18223
  8
AM_0
 10
201.8999660038339
 20
166.15498592459329
 30
0.0
 70
    32
  0
VERTEX
  5
18224
  8
AM_0
 10
201.90396600383411
 20
166.15498592459329
 30
0.0
 70
    32
  0
VERTEX
  5
18225
  8
AM_0
 10
201.90896600383439
 20
166.15498592459329
 30
0.0
 70
    32
  0
VERTEX
  5
18226
  8
AM_0
 10
201.9129660038339
 20
166.15598592459349
 30
0.0
 70
    32
  0
VERTEX
  5
18227
  8
AM_0
 10
201.91696600383401
 20
166.15598592459349
 30
0.0
 70
    32
  0
VERTEX
  5
18228
  8
AM_0
 10
201.9209660038338
 20
166.15598592459349
 30
0.0
 70
    32
  0
VERTEX
  5
18229
  8
AM_0
 10
201.92596600383379
 20
166.15598592459349
 30
0.0
 70
    32
  0
VERTEX
  5
1822A
  8
AM_0
 10
201.9299660038339
 20
166.15698592459361
 30
0.0
 70
    32
  0
VERTEX
  5
1822B
  8
AM_0
 10
201.933966003834
 20
166.15698592459361
 30
0.0
 70
    32
  0
VERTEX
  5
1822C
  8
AM_0
 10
201.93796600383419
 20
166.15698592459361
 30
0.0
 70
    32
  0
VERTEX
  5
1822D
  8
AM_0
 10
201.94296600383379
 20
166.15798592459319
 30
0.0
 70
    32
  0
VERTEX
  5
1822E
  8
AM_0
 10
201.94696600383389
 20
166.15798592459319
 30
0.0
 70
    32
  0
VERTEX
  5
1822F
  8
AM_0
 10
201.95096600383411
 20
166.15798592459319
 30
0.0
 70
    32
  0
VERTEX
  5
18230
  8
AM_0
 10
201.95496600383419
 20
166.1589859245934
 30
0.0
 70
    32
  0
VERTEX
  5
18231
  8
AM_0
 10
201.9599660038339
 20
166.1589859245934
 30
0.0
 70
    32
  0
VERTEX
  5
18232
  8
AM_0
 10
201.963966003834
 20
166.15998592459351
 30
0.0
 70
    32
  0
VERTEX
  5
18233
  8
AM_0
 10
201.96796600383411
 20
166.15998592459351
 30
0.0
 70
    32
  0
VERTEX
  5
18234
  8
AM_0
 10
201.9719660038339
 20
166.1609859245934
 30
0.0
 70
    32
  0
VERTEX
  5
18235
  8
AM_0
 10
201.97696600383389
 20
166.1609859245934
 30
0.0
 70
    32
  0
VERTEX
  5
18236
  8
AM_0
 10
201.980966003834
 20
166.1619859245933
 30
0.0
 70
    32
  0
VERTEX
  5
18237
  8
AM_0
 10
201.98496600383419
 20
166.1619859245933
 30
0.0
 70
    32
  0
VERTEX
  5
18238
  8
AM_0
 10
201.98896600383361
 20
166.1629859245931
 30
0.0
 70
    32
  0
VERTEX
  5
18239
  8
AM_0
 10
201.993966003834
 20
166.1629859245931
 30
0.0
 70
    32
  0
VERTEX
  5
1823A
  8
AM_0
 10
201.99796600383371
 20
166.16398592459331
 30
0.0
 70
    32
  0
VERTEX
  5
1823B
  8
AM_0
 10
202.0019660038339
 20
166.16398592459331
 30
0.0
 70
    32
  0
VERTEX
  5
1823C
  8
AM_0
 10
202.005966003834
 20
166.16498592459351
 30
0.0
 70
    32
  0
SEQEND
  5
1823D
  8
AM_0
  0
LINE
  5
1823E
  8
AM_0
 10
188.27638080687689
 20
183.15503298966749
 30
0.0
 11
218.7763808068772
 21
183.15503298966749
 31
0.0
  0
LINE
  5
1823F
  8
AM_0
 10
199.19638080687719
 20
179.1550329896674
 30
0.0
 11
190.37638080687671
 21
177.69003298966749
 31
0.0
  0
LINE
  5
18240
  8
AM_0
 10
199.77638080687871
 20
183.15503298966749
 30
0.0
 11
188.27638080687859
 21
183.15503298966749
 31
0.0
  0
LINE
  5
18241
  8
AM_0
 10
190.7764415923177
 20
200.15503298966769
 30
0.0
 11
190.7764415923177
 21
203.15503298966749
 31
0.0
  0
ARC
  5
18242
  8
AM_0
 10
189.27638080687871
 20
199.15503298966769
 30
0.0
 40
0.9999999999998859
 50
90.0
 51
180.0
  0
ARC
  5
18243
  8
AM_0
 10
198.77638080687859
 20
199.15503298966769
 30
0.0
 40
0.9999999999999996
 50
0.0
 51
90.0
  0
LINE
  5
18244
  8
AM_0
 10
248.77638080687859
 20
199.15503298966769
 30
0.0
 11
248.77638080687859
 21
183.15503298966749
 31
0.0
  0
LINE
  5
18245
  8
AM_0
 10
229.776380806877
 20
193.43824654943961
 30
0.0
 11
229.776380806877
 21
179.15503298966749
 31
0.0
  0
LINE
  5
18246
  8
AM_0
 10
260.27638080687859
 20
166.6550329896674
 30
0.0
 11
260.27638080687859
 21
199.15503298966769
 31
0.0
  0
LINE
  5
18247
  8
AM_0
 10
260.27638080687859
 20
183.15503298966749
 30
0.0
 11
248.77638080687859
 21
183.15503298966749
 31
0.0
  0
LINE
  5
18248
  8
AM_0
 10
249.3563808068769
 20
179.1550329896674
 30
0.0
 11
258.17638080687641
 21
177.69003298966749
 31
0.0
  0
LINE
  5
18249
  8
AM_0
 10
229.776380806877
 20
183.15503298966749
 30
0.0
 11
260.27638080687677
 21
183.15503298966749
 31
0.0
  0
LINE
  5
1824A
  8
AM_0
 10
247.90653232589341
 20
179.1550329896674
 30
0.0
 11
247.90653232589341
 21
168.6550329896674
 31
0.0
  0
POLYLINE
  5
1824B
  8
AM_0
 66
     1
 10
0.0
 20
0.0
 30
0.0
 70
     8
  0
VERTEX
  5
1824C
  8
AM_0
 10
246.7665660038341
 20
166.16498592459351
 30
0.0
 70
    32
  0
VERTEX
  5
1824D
  8
AM_0
 10
246.77076600383421
 20
166.1659859245934
 30
0.0
 70
    32
  0
VERTEX
  5
1824E
  8
AM_0
 10
246.77506600383381
 20
166.16698592459321
 30
0.0
 70
    32
  0
VERTEX
  5
1824F
  8
AM_0
 10
246.7792660038337
 20
166.16798592459321
 30
0.0
 70
    32
  0
VERTEX
  5
18250
  8
AM_0
 10
246.7835660038337
 20
166.16898592459339
 30
0.0
 70
    32
  0
VERTEX
  5
18251
  8
AM_0
 10
246.78776600383401
 20
166.16998592459319
 30
0.0
 70
    32
  0
VERTEX
  5
18252
  8
AM_0
 10
246.79206600383409
 20
166.1709859245934
 30
0.0
 70
    32
  0
VERTEX
  5
18253
  8
AM_0
 10
246.79626600383389
 20
166.17198592459329
 30
0.0
 70
    32
  0
VERTEX
  5
18254
  8
AM_0
 10
246.8004660038342
 20
166.17298592459341
 30
0.0
 70
    32
  0
VERTEX
  5
18255
  8
AM_0
 10
246.80476600383381
 20
166.17398592459361
 30
0.0
 70
    32
  0
VERTEX
  5
18256
  8
AM_0
 10
246.80896600383369
 20
166.17498592459319
 30
0.0
 70
    32
  0
VERTEX
  5
18257
  8
AM_0
 10
246.813166003834
 20
166.17598592459339
 30
0.0
 70
    32
  0
VERTEX
  5
18258
  8
AM_0
 10
246.81746600383411
 20
166.17698592459311
 30
0.0
 70
    32
  0
VERTEX
  5
18259
  8
AM_0
 10
246.82166600383431
 20
166.1779859245932
 30
0.0
 70
    32
  0
VERTEX
  5
1825A
  8
AM_0
 10
246.82586600383419
 20
166.17898592459341
 30
0.0
 70
    32
  0
VERTEX
  5
1825B
  8
AM_0
 10
246.83006600383359
 20
166.1799859245935
 30
0.0
 70
    32
  0
VERTEX
  5
1825C
  8
AM_0
 10
246.8342660038339
 20
166.18098592459339
 30
0.0
 70
    32
  0
VERTEX
  5
1825D
  8
AM_0
 10
246.83846600383399
 20
166.18298592459351
 30
0.0
 70
    32
  0
VERTEX
  5
1825E
  8
AM_0
 10
246.84266600383361
 20
166.18398592459329
 30
0.0
 70
    32
  0
VERTEX
  5
1825F
  8
AM_0
 10
246.84676600383381
 20
166.18498592459349
 30
0.0
 70
    32
  0
VERTEX
  5
18260
  8
AM_0
 10
246.850966003834
 20
166.1859859245935
 30
0.0
 70
    32
  0
VERTEX
  5
18261
  8
AM_0
 10
246.85516600383389
 20
166.18698592459361
 30
0.0
 70
    32
  0
VERTEX
  5
18262
  8
AM_0
 10
246.8592660038336
 20
166.18898592459331
 30
0.0
 70
    32
  0
VERTEX
  5
18263
  8
AM_0
 10
246.86346600383391
 20
166.1899859245932
 30
0.0
 70
    32
  0
VERTEX
  5
18264
  8
AM_0
 10
246.86756600383401
 20
166.19098592459341
 30
0.0
 70
    32
  0
VERTEX
  5
18265
  8
AM_0
 10
246.8716660038337
 20
166.1929859245933
 30
0.0
 70
    32
  0
VERTEX
  5
18266
  8
AM_0
 10
246.875766003834
 20
166.19398592459331
 30
0.0
 70
    32
  0
VERTEX
  5
18267
  8
AM_0
 10
246.87996600383411
 20
166.19498592459351
 30
0.0
 70
    32
  0
VERTEX
  5
18268
  8
AM_0
 10
246.8839660038339
 20
166.19698592459321
 30
0.0
 70
    32
  0
VERTEX
  5
18269
  8
AM_0
 10
246.8880660038341
 20
166.19798592459341
 30
0.0
 70
    32
  0
VERTEX
  5
1826A
  8
AM_0
 10
246.89216600383369
 20
166.19998592459351
 30
0.0
 70
    32
  0
VERTEX
  5
1826B
  8
AM_0
 10
246.89626600383411
 20
166.2009859245934
 30
0.0
 70
    32
  0
VERTEX
  5
1826C
  8
AM_0
 10
246.90026600383371
 20
166.20298592459349
 30
0.0
 70
    32
  0
VERTEX
  5
1826D
  8
AM_0
 10
246.9043660038341
 20
166.20398592459361
 30
0.0
 70
    32
  0
VERTEX
  5
1826E
  8
AM_0
 10
246.90836600383381
 20
166.20598592459331
 30
0.0
 70
    32
  0
VERTEX
  5
1826F
  8
AM_0
 10
246.91236600383411
 20
166.2079859245934
 30
0.0
 70
    32
  0
VERTEX
  5
18270
  8
AM_0
 10
246.91636600383401
 20
166.20898592459329
 30
0.0
 70
    32
  0
VERTEX
  5
18271
  8
AM_0
 10
246.9203660038344
 20
166.21098592459299
 30
0.0
 70
    32
  0
VERTEX
  5
18272
  8
AM_0
 10
246.924366003834
 20
166.21298592459331
 30
0.0
 70
    32
  0
VERTEX
  5
18273
  8
AM_0
 10
246.9283660038337
 20
166.21498592459321
 30
0.0
 70
    32
  0
VERTEX
  5
18274
  8
AM_0
 10
246.93226600383429
 20
166.2159859245933
 30
0.0
 70
    32
  0
VERTEX
  5
18275
  8
AM_0
 10
246.93626600383379
 20
166.21798592459339
 30
0.0
 70
    32
  0
VERTEX
  5
18276
  8
AM_0
 10
246.94016600383389
 20
166.21998592459349
 30
0.0
 70
    32
  0
VERTEX
  5
18277
  8
AM_0
 10
246.94416600383431
 20
166.2219859245933
 30
0.0
 70
    32
  0
VERTEX
  5
18278
  8
AM_0
 10
246.94806600383399
 20
166.22398592459331
 30
0.0
 70
    32
  0
VERTEX
  5
18279
  8
AM_0
 10
246.951966003834
 20
166.22598592459329
 30
0.0
 70
    32
  0
VERTEX
  5
1827A
  8
AM_0
 10
246.9558660038339
 20
166.22798592459321
 30
0.0
 70
    32
  0
VERTEX
  5
1827B
  8
AM_0
 10
246.95976600383401
 20
166.22998592459311
 30
0.0
 70
    32
  0
VERTEX
  5
1827C
  8
AM_0
 10
246.96366600383419
 20
166.23198592459349
 30
0.0
 70
    32
  0
VERTEX
  5
1827D
  8
AM_0
 10
246.96756600383401
 20
166.23398592459361
 30
0.0
 70
    32
  0
VERTEX
  5
1827E
  8
AM_0
 10
246.97136600383411
 20
166.23598592459331
 30
0.0
 70
    32
  0
VERTEX
  5
1827F
  8
AM_0
 10
246.97526600383401
 20
166.23798592459309
 30
0.0
 70
    32
  0
VERTEX
  5
18280
  8
AM_0
 10
246.97906600383399
 20
166.2399859245931
 30
0.0
 70
    32
  0
VERTEX
  5
18281
  8
AM_0
 10
246.98286600383389
 20
166.24198592459331
 30
0.0
 70
    32
  0
VERTEX
  5
18282
  8
AM_0
 10
246.98676600383359
 20
166.2439859245932
 30
0.0
 70
    32
  0
VERTEX
  5
18283
  8
AM_0
 10
246.990566003834
 20
166.2459859245933
 30
0.0
 70
    32
  0
VERTEX
  5
18284
  8
AM_0
 10
246.99436600383351
 20
166.24798592459319
 30
0.0
 70
    32
  0
VERTEX
  5
18285
  8
AM_0
 10
246.99806600383371
 20
166.24998592459349
 30
0.0
 70
    32
  0
VERTEX
  5
18286
  8
AM_0
 10
247.0018660038337
 20
166.2519859245935
 30
0.0
 70
    32
  0
VERTEX
  5
18287
  8
AM_0
 10
247.0056660038336
 20
166.2549859245934
 30
0.0
 70
    32
  0
VERTEX
  5
18288
  8
AM_0
 10
247.0093660038338
 20
166.25698592459349
 30
0.0
 70
    32
  0
VERTEX
  5
18289
  8
AM_0
 10
247.01316600383379
 20
166.25898592459359
 30
0.0
 70
    32
  0
VERTEX
  5
1828A
  8
AM_0
 10
247.0168660038338
 20
166.2609859245936
 30
0.0
 70
    32
  0
VERTEX
  5
1828B
  8
AM_0
 10
247.02056600383401
 20
166.26398592459361
 30
0.0
 70
    32
  0
VERTEX
  5
1828C
  8
AM_0
 10
247.0243660038339
 20
166.26598592459331
 30
0.0
 70
    32
  0
VERTEX
  5
1828D
  8
AM_0
 10
247.02806600383391
 20
166.26798592459309
 30
0.0
 70
    32
  0
VERTEX
  5
1828E
  8
AM_0
 10
247.03166600383389
 20
166.2699859245935
 30
0.0
 70
    32
  0
VERTEX
  5
1828F
  8
AM_0
 10
247.0353660038337
 20
166.27298592459331
 30
0.0
 70
    32
  0
VERTEX
  5
18290
  8
AM_0
 10
247.03906600383391
 20
166.2749859245931
 30
0.0
 70
    32
  0
VERTEX
  5
18291
  8
AM_0
 10
247.04266600383389
 20
166.2769859245935
 30
0.0
 70
    32
  0
VERTEX
  5
18292
  8
AM_0
 10
247.04636600383401
 20
166.2799859245934
 30
0.0
 70
    32
  0
VERTEX
  5
18293
  8
AM_0
 10
247.0499660038341
 20
166.2819859245935
 30
0.0
 70
    32
  0
VERTEX
  5
18294
  8
AM_0
 10
247.05366600383391
 20
166.2849859245934
 30
0.0
 70
    32
  0
VERTEX
  5
18295
  8
AM_0
 10
247.05726600383409
 20
166.2869859245931
 30
0.0
 70
    32
  0
VERTEX
  5
18296
  8
AM_0
 10
247.06086600383429
 20
166.28898592459319
 30
0.0
 70
    32
  0
VERTEX
  5
18297
  8
AM_0
 10
247.0644660038339
 20
166.29198592459309
 30
0.0
 70
    32
  0
VERTEX
  5
18298
  8
AM_0
 10
247.06796600383419
 20
166.29398592459339
 30
0.0
 70
    32
  0
VERTEX
  5
18299
  8
AM_0
 10
247.07156600383371
 20
166.29698592459351
 30
0.0
 70
    32
  0
VERTEX
  5
1829A
  8
AM_0
 10
247.07516600383391
 20
166.2989859245935
 30
0.0
 70
    32
  0
VERTEX
  5
1829B
  8
AM_0
 10
247.078666003834
 20
166.30198592459351
 30
0.0
 70
    32
  0
VERTEX
  5
1829C
  8
AM_0
 10
247.08216600383381
 20
166.30398592459341
 30
0.0
 70
    32
  0
VERTEX
  5
1829D
  8
AM_0
 10
247.08566600383401
 20
166.30698592459339
 30
0.0
 70
    32
  0
VERTEX
  5
1829E
  8
AM_0
 10
247.08926600383401
 20
166.30998592459349
 30
0.0
 70
    32
  0
VERTEX
  5
1829F
  8
AM_0
 10
247.09266600383361
 20
166.3119859245935
 30
0.0
 70
    32
  0
VERTEX
  5
182A0
  8
AM_0
 10
247.0961660038341
 20
166.31498592459309
 30
0.0
 70
    32
  0
VERTEX
  5
182A1
  8
AM_0
 10
247.0996660038337
 20
166.31698592459361
 30
0.0
 70
    32
  0
VERTEX
  5
182A2
  8
AM_0
 10
247.10316600383391
 20
166.31998592459351
 30
0.0
 70
    32
  0
VERTEX
  5
182A3
  8
AM_0
 10
247.10656600383399
 20
166.3229859245933
 30
0.0
 70
    32
  0
VERTEX
  5
182A4
  8
AM_0
 10
247.11006600383431
 20
166.32498592459339
 30
0.0
 70
    32
  0
VERTEX
  5
182A5
  8
AM_0
 10
247.1134660038343
 20
166.32798592459361
 30
0.0
 70
    32
  0
VERTEX
  5
182A6
  8
AM_0
 10
247.11686600383371
 20
166.33098592459319
 30
0.0
 70
    32
  0
VERTEX
  5
182A7
  8
AM_0
 10
247.12026600383439
 20
166.3329859245934
 30
0.0
 70
    32
  0
VERTEX
  5
182A8
  8
AM_0
 10
247.1236660038341
 20
166.33598592459319
 30
0.0
 70
    32
  0
VERTEX
  5
182A9
  8
AM_0
 10
247.1270660038339
 20
166.33898592459349
 30
0.0
 70
    32
  0
VERTEX
  5
182AA
  8
AM_0
 10
247.13036600383401
 20
166.34198592459339
 30
0.0
 70
    32
  0
VERTEX
  5
182AB
  8
AM_0
 10
247.13376600383441
 20
166.34398592459351
 30
0.0
 70
    32
  0
VERTEX
  5
182AC
  8
AM_0
 10
247.13706600383381
 20
166.34698592459341
 30
0.0
 70
    32
  0
VERTEX
  5
182AD
  8
AM_0
 10
247.14046600383389
 20
166.34998592459331
 30
0.0
 70
    32
  0
VERTEX
  5
182AE
  8
AM_0
 10
247.143766003834
 20
166.35298592459341
 30
0.0
 70
    32
  0
VERTEX
  5
182AF
  8
AM_0
 10
247.1470660038336
 20
166.35498592459311
 30
0.0
 70
    32
  0
VERTEX
  5
182B0
  8
AM_0
 10
247.15036600383391
 20
166.35798592459329
 30
0.0
 70
    32
  0
VERTEX
  5
182B1
  8
AM_0
 10
247.15366600383379
 20
166.36098592459319
 30
0.0
 70
    32
  0
VERTEX
  5
182B2
  8
AM_0
 10
247.1569660038337
 20
166.36398592459349
 30
0.0
 70
    32
  0
VERTEX
  5
182B3
  8
AM_0
 10
247.1602660038339
 20
166.36698592459339
 30
0.0
 70
    32
  0
VERTEX
  5
182B4
  8
AM_0
 10
247.16346600383409
 20
166.36998592459329
 30
0.0
 70
    32
  0
VERTEX
  5
182B5
  8
AM_0
 10
247.16676600383391
 20
166.37298592459331
 30
0.0
 70
    32
  0
VERTEX
  5
182B6
  8
AM_0
 10
247.16996600383359
 20
166.37598592459321
 30
0.0
 70
    32
  0
VERTEX
  5
182B7
  8
AM_0
 10
247.17316600383359
 20
166.37898592459351
 30
0.0
 70
    32
  0
VERTEX
  5
182B8
  8
AM_0
 10
247.17636600383381
 20
166.3809859245934
 30
0.0
 70
    32
  0
VERTEX
  5
182B9
  8
AM_0
 10
247.17956600383431
 20
166.38398592459359
 30
0.0
 70
    32
  0
VERTEX
  5
182BA
  8
AM_0
 10
247.18276600383399
 20
166.3869859245934
 30
0.0
 70
    32
  0
VERTEX
  5
182BB
  8
AM_0
 10
247.1859660038339
 20
166.3899859245933
 30
0.0
 70
    32
  0
VERTEX
  5
182BC
  8
AM_0
 10
247.1891660038342
 20
166.39298592459329
 30
0.0
 70
    32
  0
VERTEX
  5
182BD
  8
AM_0
 10
247.19226600383411
 20
166.3959859245933
 30
0.0
 70
    32
  0
VERTEX
  5
182BE
  8
AM_0
 10
247.19546600383421
 20
166.39898592459321
 30
0.0
 70
    32
  0
VERTEX
  5
182BF
  8
AM_0
 10
247.19856600383361
 20
166.40198592459339
 30
0.0
 70
    32
  0
VERTEX
  5
182C0
  8
AM_0
 10
247.20166600383399
 20
166.40498592459329
 30
0.0
 70
    32
  0
VERTEX
  5
182C1
  8
AM_0
 10
247.2048660038339
 20
166.40798592459319
 30
0.0
 70
    32
  0
VERTEX
  5
182C2
  8
AM_0
 10
247.20796600383429
 20
166.41098592459321
 30
0.0
 70
    32
  0
VERTEX
  5
182C3
  8
AM_0
 10
247.21106600383391
 20
166.41398592459331
 30
0.0
 70
    32
  0
VERTEX
  5
182C4
  8
AM_0
 10
247.21406600383389
 20
166.4169859245934
 30
0.0
 70
    32
  0
VERTEX
  5
182C5
  8
AM_0
 10
247.217166003834
 20
166.42098592459311
 30
0.0
 70
    32
  0
VERTEX
  5
182C6
  8
AM_0
 10
247.22026600383441
 20
166.4239859245935
 30
0.0
 70
    32
  0
VERTEX
  5
182C7
  8
AM_0
 10
247.223266003834
 20
166.42698592459351
 30
0.0
 70
    32
  0
VERTEX
  5
182C8
  8
AM_0
 10
247.22636600383399
 20
166.42998592459341
 30
0.0
 70
    32
  0
VERTEX
  5
182C9
  8
AM_0
 10
247.2293660038336
 20
166.43298592459351
 30
0.0
 70
    32
  0
VERTEX
  5
182CA
  8
AM_0
 10
247.2323660038341
 20
166.4359859245933
 30
0.0
 70
    32
  0
VERTEX
  5
182CB
  8
AM_0
 10
247.235366003834
 20
166.4389859245934
 30
0.0
 70
    32
  0
VERTEX
  5
182CC
  8
AM_0
 10
247.2383660038339
 20
166.44198592459369
 30
0.0
 70
    32
  0
VERTEX
  5
182CD
  8
AM_0
 10
247.24136600383429
 20
166.4459859245932
 30
0.0
 70
    32
  0
VERTEX
  5
182CE
  8
AM_0
 10
247.24436600383399
 20
166.44898592459339
 30
0.0
 70
    32
  0
VERTEX
  5
182CF
  8
AM_0
 10
247.2473660038342
 20
166.45198592459329
 30
0.0
 70
    32
  0
VERTEX
  5
182D0
  8
AM_0
 10
247.2502660038339
 20
166.45498592459359
 30
0.0
 70
    32
  0
VERTEX
  5
182D1
  8
AM_0
 10
247.2532660038338
 20
166.45798592459349
 30
0.0
 70
    32
  0
VERTEX
  5
182D2
  8
AM_0
 10
247.25616600383421
 20
166.4609859245931
 30
0.0
 70
    32
  0
VERTEX
  5
182D3
  8
AM_0
 10
247.25916600383431
 20
166.46498592459321
 30
0.0
 70
    32
  0
VERTEX
  5
182D4
  8
AM_0
 10
247.26206600383409
 20
166.46798592459319
 30
0.0
 70
    32
  0
VERTEX
  5
182D5
  8
AM_0
 10
247.26496600383379
 20
166.47098592459329
 30
0.0
 70
    32
  0
VERTEX
  5
182D6
  8
AM_0
 10
247.2678660038342
 20
166.47398592459339
 30
0.0
 70
    32
  0
VERTEX
  5
182D7
  8
AM_0
 10
247.27076600383401
 20
166.4779859245935
 30
0.0
 70
    32
  0
VERTEX
  5
182D8
  8
AM_0
 10
247.27366600383371
 20
166.48098592459331
 30
0.0
 70
    32
  0
VERTEX
  5
182D9
  8
AM_0
 10
247.27646600383429
 20
166.4839859245935
 30
0.0
 70
    32
  0
VERTEX
  5
182DA
  8
AM_0
 10
247.27936600383379
 20
166.48698592459331
 30
0.0
 70
    32
  0
VERTEX
  5
182DB
  8
AM_0
 10
247.28216600383411
 20
166.4909859245935
 30
0.0
 70
    32
  0
VERTEX
  5
182DC
  8
AM_0
 10
247.28506600383449
 20
166.49398592459329
 30
0.0
 70
    32
  0
VERTEX
  5
182DD
  8
AM_0
 10
247.28786600383421
 20
166.4969859245933
 30
0.0
 70
    32
  0
VERTEX
  5
182DE
  8
AM_0
 10
247.29066600383399
 20
166.50098592459329
 30
0.0
 70
    32
  0
VERTEX
  5
182DF
  8
AM_0
 10
247.29346600383391
 20
166.50398592459331
 30
0.0
 70
    32
  0
VERTEX
  5
182E0
  8
AM_0
 10
247.29626600383389
 20
166.50698592459329
 30
0.0
 70
    32
  0
VERTEX
  5
182E1
  8
AM_0
 10
247.2990660038341
 20
166.51098592459351
 30
0.0
 70
    32
  0
VERTEX
  5
182E2
  8
AM_0
 10
247.30186600383391
 20
166.5139859245933
 30
0.0
 70
    32
  0
VERTEX
  5
182E3
  8
AM_0
 10
247.3046660038336
 20
166.5169859245934
 30
0.0
 70
    32
  0
VERTEX
  5
182E4
  8
AM_0
 10
247.30736600383361
 20
166.52098592459311
 30
0.0
 70
    32
  0
VERTEX
  5
182E5
  8
AM_0
 10
247.3101660038341
 20
166.52398592459329
 30
0.0
 70
    32
  0
VERTEX
  5
182E6
  8
AM_0
 10
247.3128660038341
 20
166.52698592459339
 30
0.0
 70
    32
  0
VERTEX
  5
182E7
  8
AM_0
 10
247.31566600383411
 20
166.53098592459349
 30
0.0
 70
    32
  0
VERTEX
  5
182E8
  8
AM_0
 10
247.31836600383409
 20
166.53398592459331
 30
0.0
 70
    32
  0
VERTEX
  5
182E9
  8
AM_0
 10
247.32106600383409
 20
166.5379859245935
 30
0.0
 70
    32
  0
VERTEX
  5
182EA
  8
AM_0
 10
247.32376600383409
 20
166.540985924593
 30
0.0
 70
    32
  0
VERTEX
  5
182EB
  8
AM_0
 10
247.3264660038339
 20
166.5439859245933
 30
0.0
 70
    32
  0
VERTEX
  5
182EC
  8
AM_0
 10
247.32916600383379
 20
166.54798592459341
 30
0.0
 70
    32
  0
VERTEX
  5
182ED
  8
AM_0
 10
247.33186600383411
 20
166.55098592459339
 30
0.0
 70
    32
  0
VERTEX
  5
182EE
  8
AM_0
 10
247.33446600383411
 20
166.55498592459321
 30
0.0
 70
    32
  0
VERTEX
  5
182EF
  8
AM_0
 10
247.33716600383431
 20
166.55798592459351
 30
0.0
 70
    32
  0
VERTEX
  5
182F0
  8
AM_0
 10
247.33986600383409
 20
166.56198592459361
 30
0.0
 70
    32
  0
VERTEX
  5
182F1
  8
AM_0
 10
247.34246600383369
 20
166.56498592459349
 30
0.0
 70
    32
  0
VERTEX
  5
182F2
  8
AM_0
 10
247.34506600383401
 20
166.56798592459339
 30
0.0
 70
    32
  0
VERTEX
  5
182F3
  8
AM_0
 10
247.34766600383421
 20
166.57198592459321
 30
0.0
 70
    32
  0
VERTEX
  5
182F4
  8
AM_0
 10
247.35036600383381
 20
166.57498592459351
 30
0.0
 70
    32
  0
VERTEX
  5
182F5
  8
AM_0
 10
247.35296600383401
 20
166.57898592459361
 30
0.0
 70
    32
  0
VERTEX
  5
182F6
  8
AM_0
 10
247.3555660038341
 20
166.58198592459311
 30
0.0
 70
    32
  0
VERTEX
  5
182F7
  8
AM_0
 10
247.3580660038343
 20
166.5859859245933
 30
0.0
 70
    32
  0
VERTEX
  5
182F8
  8
AM_0
 10
247.3606660038337
 20
166.5889859245936
 30
0.0
 70
    32
  0
VERTEX
  5
182F9
  8
AM_0
 10
247.3632660038339
 20
166.59298592459339
 30
0.0
 70
    32
  0
VERTEX
  5
182FA
  8
AM_0
 10
247.36576600383401
 20
166.59598592459329
 30
0.0
 70
    32
  0
VERTEX
  5
182FB
  8
AM_0
 10
247.36836600383421
 20
166.59998592459351
 30
0.0
 70
    32
  0
VERTEX
  5
182FC
  8
AM_0
 10
247.37086600383381
 20
166.60298592459341
 30
0.0
 70
    32
  0
VERTEX
  5
182FD
  8
AM_0
 10
247.37346600383381
 20
166.60698592459349
 30
0.0
 70
    32
  0
VERTEX
  5
182FE
  8
AM_0
 10
247.37596600383421
 20
166.60998592459319
 30
0.0
 70
    32
  0
VERTEX
  5
182FF
  8
AM_0
 10
247.37846600383369
 20
166.61398592459309
 30
0.0
 70
    32
  0
VERTEX
  5
18300
  8
AM_0
 10
247.38096600383409
 20
166.61798592459351
 30
0.0
 70
    32
  0
VERTEX
  5
18301
  8
AM_0
 10
247.38346600383429
 20
166.62098592459341
 30
0.0
 70
    32
  0
VERTEX
  5
18302
  8
AM_0
 10
247.38596600383389
 20
166.6249859245936
 30
0.0
 70
    32
  0
VERTEX
  5
18303
  8
AM_0
 10
247.388466003834
 20
166.62798592459339
 30
0.0
 70
    32
  0
VERTEX
  5
18304
  8
AM_0
 10
247.39086600383379
 20
166.63198592459341
 30
0.0
 70
    32
  0
VERTEX
  5
18305
  8
AM_0
 10
247.3933660038341
 20
166.63498592459339
 30
0.0
 70
    32
  0
VERTEX
  5
18306
  8
AM_0
 10
247.3957660038337
 20
166.63898592459319
 30
0.0
 70
    32
  0
VERTEX
  5
18307
  8
AM_0
 10
247.39826600383381
 20
166.6429859245934
 30
0.0
 70
    32
  0
VERTEX
  5
18308
  8
AM_0
 10
247.40066600383369
 20
166.64598592459299
 30
0.0
 70
    32
  0
VERTEX
  5
18309
  8
AM_0
 10
247.40306600383391
 20
166.64998592459321
 30
0.0
 70
    32
  0
VERTEX
  5
1830A
  8
AM_0
 10
247.405566003834
 20
166.65298592459311
 30
0.0
 70
    32
  0
VERTEX
  5
1830B
  8
AM_0
 10
247.4079660038343
 20
166.6569859245935
 30
0.0
 70
    32
  0
VERTEX
  5
1830C
  8
AM_0
 10
247.4103660038337
 20
166.6609859245934
 30
0.0
 70
    32
  0
VERTEX
  5
1830D
  8
AM_0
 10
247.41276600383401
 20
166.66398592459331
 30
0.0
 70
    32
  0
VERTEX
  5
1830E
  8
AM_0
 10
247.41516600383389
 20
166.66798592459341
 30
0.0
 70
    32
  0
VERTEX
  5
1830F
  8
AM_0
 10
247.41746600383399
 20
166.67198592459309
 30
0.0
 70
    32
  0
VERTEX
  5
18310
  8
AM_0
 10
247.41986600383379
 20
166.67498592459339
 30
0.0
 70
    32
  0
VERTEX
  5
18311
  8
AM_0
 10
247.4222660038337
 20
166.67898592459341
 30
0.0
 70
    32
  0
VERTEX
  5
18312
  8
AM_0
 10
247.4245660038342
 20
166.68298592459359
 30
0.0
 70
    32
  0
VERTEX
  5
18313
  8
AM_0
 10
247.42696600383391
 20
166.68598592459321
 30
0.0
 70
    32
  0
VERTEX
  5
18314
  8
AM_0
 10
247.4292660038337
 20
166.6899859245934
 30
0.0
 70
    32
  0
VERTEX
  5
18315
  8
AM_0
 10
247.43156600383381
 20
166.69398592459351
 30
0.0
 70
    32
  0
VERTEX
  5
18316
  8
AM_0
 10
247.43386600383391
 20
166.69698592459321
 30
0.0
 70
    32
  0
VERTEX
  5
18317
  8
AM_0
 10
247.43616600383399
 20
166.70098592459311
 30
0.0
 70
    32
  0
VERTEX
  5
18318
  8
AM_0
 10
247.4385660038343
 20
166.7049859245935
 30
0.0
 70
    32
  0
VERTEX
  5
18319
  8
AM_0
 10
247.4407660038342
 20
166.7079859245934
 30
0.0
 70
    32
  0
VERTEX
  5
1831A
  8
AM_0
 10
247.4430660038341
 20
166.71198592459359
 30
0.0
 70
    32
  0
VERTEX
  5
1831B
  8
AM_0
 10
247.44536600383401
 20
166.71598592459321
 30
0.0
 70
    32
  0
VERTEX
  5
1831C
  8
AM_0
 10
247.4476660038336
 20
166.71898592459311
 30
0.0
 70
    32
  0
VERTEX
  5
1831D
  8
AM_0
 10
247.44996600383419
 20
166.72298592459359
 30
0.0
 70
    32
  0
VERTEX
  5
1831E
  8
AM_0
 10
247.45216600383409
 20
166.72698592459341
 30
0.0
 70
    32
  0
VERTEX
  5
1831F
  8
AM_0
 10
247.454466003834
 20
166.73098592459331
 30
0.0
 70
    32
  0
VERTEX
  5
18320
  8
AM_0
 10
247.4566660038339
 20
166.7339859245933
 30
0.0
 70
    32
  0
VERTEX
  5
18321
  8
AM_0
 10
247.458866003834
 20
166.7379859245934
 30
0.0
 70
    32
  0
VERTEX
  5
18322
  8
AM_0
 10
247.46116600383411
 20
166.74198592459339
 30
0.0
 70
    32
  0
VERTEX
  5
18323
  8
AM_0
 10
247.46336600383401
 20
166.74498592459341
 30
0.0
 70
    32
  0
VERTEX
  5
18324
  8
AM_0
 10
247.4655660038344
 20
166.74898592459309
 30
0.0
 70
    32
  0
VERTEX
  5
18325
  8
AM_0
 10
247.4677660038343
 20
166.7529859245933
 30
0.0
 70
    32
  0
VERTEX
  5
18326
  8
AM_0
 10
247.4699660038342
 20
166.75698592459341
 30
0.0
 70
    32
  0
VERTEX
  5
18327
  8
AM_0
 10
247.4721660038341
 20
166.75998592459331
 30
0.0
 70
    32
  0
VERTEX
  5
18328
  8
AM_0
 10
247.47426600383429
 20
166.76398592459319
 30
0.0
 70
    32
  0
VERTEX
  5
18329
  8
AM_0
 10
247.47646600383419
 20
166.7679859245934
 30
0.0
 70
    32
  0
VERTEX
  5
1832A
  8
AM_0
 10
247.47866600383409
 20
166.77198592459339
 30
0.0
 70
    32
  0
VERTEX
  5
1832B
  8
AM_0
 10
247.48076600383419
 20
166.7759859245935
 30
0.0
 70
    32
  0
VERTEX
  5
1832C
  8
AM_0
 10
247.4829660038337
 20
166.77898592459351
 30
0.0
 70
    32
  0
VERTEX
  5
1832D
  8
AM_0
 10
247.48506600383431
 20
166.78298592459319
 30
0.0
 70
    32
  0
VERTEX
  5
1832E
  8
AM_0
 10
247.48726600383421
 20
166.7869859245931
 30
0.0
 70
    32
  0
VERTEX
  5
1832F
  8
AM_0
 10
247.48936600383431
 20
166.79098592459329
 30
0.0
 70
    32
  0
VERTEX
  5
18330
  8
AM_0
 10
247.49146600383361
 20
166.79398592459339
 30
0.0
 70
    32
  0
VERTEX
  5
18331
  8
AM_0
 10
247.49356600383371
 20
166.79798592459329
 30
0.0
 70
    32
  0
VERTEX
  5
18332
  8
AM_0
 10
247.4956660038344
 20
166.80198592459331
 30
0.0
 70
    32
  0
VERTEX
  5
18333
  8
AM_0
 10
247.49776600383379
 20
166.8059859245935
 30
0.0
 70
    32
  0
VERTEX
  5
18334
  8
AM_0
 10
247.499866003834
 20
166.8099859245936
 30
0.0
 70
    32
  0
VERTEX
  5
18335
  8
AM_0
 10
247.5019660038341
 20
166.8139859245934
 30
0.0
 70
    32
  0
VERTEX
  5
18336
  8
AM_0
 10
247.50406600383411
 20
166.81698592459369
 30
0.0
 70
    32
  0
VERTEX
  5
18337
  8
AM_0
 10
247.50606600383441
 20
166.82098592459349
 30
0.0
 70
    32
  0
VERTEX
  5
18338
  8
AM_0
 10
247.50816600383371
 20
166.82498592459339
 30
0.0
 70
    32
  0
VERTEX
  5
18339
  8
AM_0
 10
247.51026600383389
 20
166.8289859245935
 30
0.0
 70
    32
  0
VERTEX
  5
1833A
  8
AM_0
 10
247.5122660038341
 20
166.8329859245934
 30
0.0
 70
    32
  0
VERTEX
  5
1833B
  8
AM_0
 10
247.514366003834
 20
166.83598592459339
 30
0.0
 70
    32
  0
VERTEX
  5
1833C
  8
AM_0
 10
247.51636600383389
 20
166.83998592459361
 30
0.0
 70
    32
  0
VERTEX
  5
1833D
  8
AM_0
 10
247.5183660038339
 20
166.84398592459311
 30
0.0
 70
    32
  0
VERTEX
  5
1833E
  8
AM_0
 10
247.520366003834
 20
166.8479859245935
 30
0.0
 70
    32
  0
VERTEX
  5
1833F
  8
AM_0
 10
247.52236600383421
 20
166.85198592459329
 30
0.0
 70
    32
  0
VERTEX
  5
18340
  8
AM_0
 10
247.52436600383371
 20
166.8559859245934
 30
0.0
 70
    32
  0
VERTEX
  5
18341
  8
AM_0
 10
247.52636600383391
 20
166.85998592459319
 30
0.0
 70
    32
  0
VERTEX
  5
18342
  8
AM_0
 10
247.52836600383401
 20
166.86298592459349
 30
0.0
 70
    32
  0
VERTEX
  5
18343
  8
AM_0
 10
247.5303660038341
 20
166.86698592459331
 30
0.0
 70
    32
  0
VERTEX
  5
18344
  8
AM_0
 10
247.532366003834
 20
166.87098592459341
 30
0.0
 70
    32
  0
VERTEX
  5
18345
  8
AM_0
 10
247.53436600383401
 20
166.8749859245932
 30
0.0
 70
    32
  0
VERTEX
  5
18346
  8
AM_0
 10
247.53626600383421
 20
166.87898592459331
 30
0.0
 70
    32
  0
VERTEX
  5
18347
  8
AM_0
 10
247.53826600383391
 20
166.8829859245935
 30
0.0
 70
    32
  0
VERTEX
  5
18348
  8
AM_0
 10
247.54016600383429
 20
166.8869859245936
 30
0.0
 70
    32
  0
VERTEX
  5
18349
  8
AM_0
 10
247.54216600383381
 20
166.89098592459339
 30
0.0
 70
    32
  0
VERTEX
  5
1834A
  8
AM_0
 10
247.54406600383399
 20
166.8949859245935
 30
0.0
 70
    32
  0
VERTEX
  5
1834B
  8
AM_0
 10
247.5459660038338
 20
166.89798592459351
 30
0.0
 70
    32
  0
VERTEX
  5
1834C
  8
AM_0
 10
247.54796600383389
 20
166.9019859245933
 30
0.0
 70
    32
  0
VERTEX
  5
1834D
  8
AM_0
 10
247.5498660038339
 20
166.90598592459349
 30
0.0
 70
    32
  0
VERTEX
  5
1834E
  8
AM_0
 10
247.5517660038339
 20
166.9099859245934
 30
0.0
 70
    32
  0
VERTEX
  5
1834F
  8
AM_0
 10
247.55366600383431
 20
166.91398592459331
 30
0.0
 70
    32
  0
VERTEX
  5
18350
  8
AM_0
 10
247.55556600383389
 20
166.91798592459341
 30
0.0
 70
    32
  0
VERTEX
  5
18351
  8
AM_0
 10
247.55746600383429
 20
166.9219859245932
 30
0.0
 70
    32
  0
VERTEX
  5
18352
  8
AM_0
 10
247.5592660038341
 20
166.92598592459339
 30
0.0
 70
    32
  0
VERTEX
  5
18353
  8
AM_0
 10
247.5611660038341
 20
166.92998592459341
 30
0.0
 70
    32
  0
VERTEX
  5
18354
  8
AM_0
 10
247.5630660038338
 20
166.93398592459329
 30
0.0
 70
    32
  0
VERTEX
  5
18355
  8
AM_0
 10
247.5648660038338
 20
166.93798592459339
 30
0.0
 70
    32
  0
VERTEX
  5
18356
  8
AM_0
 10
247.566766003834
 20
166.94098592459341
 30
0.0
 70
    32
  0
VERTEX
  5
18357
  8
AM_0
 10
247.56856600383401
 20
166.94498592459351
 30
0.0
 70
    32
  0
VERTEX
  5
18358
  8
AM_0
 10
247.57046600383421
 20
166.94898592459339
 30
0.0
 70
    32
  0
VERTEX
  5
18359
  8
AM_0
 10
247.57226600383399
 20
166.95298592459329
 30
0.0
 70
    32
  0
VERTEX
  5
1835A
  8
AM_0
 10
247.57406600383419
 20
166.9569859245932
 30
0.0
 70
    32
  0
VERTEX
  5
1835B
  8
AM_0
 10
247.5759660038342
 20
166.9609859245933
 30
0.0
 70
    32
  0
VERTEX
  5
1835C
  8
AM_0
 10
247.577766003834
 20
166.96498592459309
 30
0.0
 70
    32
  0
VERTEX
  5
1835D
  8
AM_0
 10
247.579566003834
 20
166.96898592459331
 30
0.0
 70
    32
  0
VERTEX
  5
1835E
  8
AM_0
 10
247.58136600383401
 20
166.9729859245935
 30
0.0
 70
    32
  0
VERTEX
  5
1835F
  8
AM_0
 10
247.58316600383401
 20
166.97698592459309
 30
0.0
 70
    32
  0
VERTEX
  5
18360
  8
AM_0
 10
247.58496600383401
 20
166.98098592459331
 30
0.0
 70
    32
  0
VERTEX
  5
18361
  8
AM_0
 10
247.58666600383421
 20
166.98498592459319
 30
0.0
 70
    32
  0
VERTEX
  5
18362
  8
AM_0
 10
247.58846600383421
 20
166.98898592459321
 30
0.0
 70
    32
  0
VERTEX
  5
18363
  8
AM_0
 10
247.59026600383379
 20
166.9929859245934
 30
0.0
 70
    32
  0
VERTEX
  5
18364
  8
AM_0
 10
247.59206600383419
 20
166.99698592459319
 30
0.0
 70
    32
  0
VERTEX
  5
18365
  8
AM_0
 10
247.59376600383399
 20
167.00098592459329
 30
0.0
 70
    32
  0
VERTEX
  5
18366
  8
AM_0
 10
247.59556600383411
 20
167.0049859245932
 30
0.0
 70
    32
  0
VERTEX
  5
18367
  8
AM_0
 10
247.59726600383399
 20
167.00898592459359
 30
0.0
 70
    32
  0
VERTEX
  5
18368
  8
AM_0
 10
247.59896600383371
 20
167.01298592459349
 30
0.0
 70
    32
  0
VERTEX
  5
18369
  8
AM_0
 10
247.60076600383411
 20
167.01698592459309
 30
0.0
 70
    32
  0
VERTEX
  5
1836A
  8
AM_0
 10
247.60246600383411
 20
167.0209859245933
 30
0.0
 70
    32
  0
VERTEX
  5
1836B
  8
AM_0
 10
247.60416600383391
 20
167.02498592459341
 30
0.0
 70
    32
  0
VERTEX
  5
1836C
  8
AM_0
 10
247.605866003834
 20
167.02898592459351
 30
0.0
 70
    32
  0
VERTEX
  5
1836D
  8
AM_0
 10
247.6075660038338
 20
167.03298592459331
 30
0.0
 70
    32
  0
VERTEX
  5
1836E
  8
AM_0
 10
247.60926600383399
 20
167.0369859245931
 30
0.0
 70
    32
  0
VERTEX
  5
1836F
  8
AM_0
 10
247.61096600383431
 20
167.04098592459329
 30
0.0
 70
    32
  0
VERTEX
  5
18370
  8
AM_0
 10
247.61266600383411
 20
167.04498592459339
 30
0.0
 70
    32
  0
VERTEX
  5
18371
  8
AM_0
 10
247.61436600383391
 20
167.0489859245935
 30
0.0
 70
    32
  0
VERTEX
  5
18372
  8
AM_0
 10
247.61606600383411
 20
167.05298592459329
 30
0.0
 70
    32
  0
VERTEX
  5
18373
  8
AM_0
 10
247.61776600383391
 20
167.0569859245935
 30
0.0
 70
    32
  0
VERTEX
  5
18374
  8
AM_0
 10
247.61936600383379
 20
167.06098592459361
 30
0.0
 70
    32
  0
VERTEX
  5
18375
  8
AM_0
 10
247.62106600383379
 20
167.0649859245932
 30
0.0
 70
    32
  0
VERTEX
  5
18376
  8
AM_0
 10
247.6226660038339
 20
167.06898592459351
 30
0.0
 70
    32
  0
VERTEX
  5
18377
  8
AM_0
 10
247.6243660038337
 20
167.0729859245933
 30
0.0
 70
    32
  0
VERTEX
  5
18378
  8
AM_0
 10
247.6259660038337
 20
167.0769859245934
 30
0.0
 70
    32
  0
VERTEX
  5
18379
  8
AM_0
 10
247.62766600383389
 20
167.08098592459359
 30
0.0
 70
    32
  0
VERTEX
  5
1837A
  8
AM_0
 10
247.62926600383349
 20
167.0849859245931
 30
0.0
 70
    32
  0
VERTEX
  5
1837B
  8
AM_0
 10
247.63086600383409
 20
167.08898592459349
 30
0.0
 70
    32
  0
VERTEX
  5
1837C
  8
AM_0
 10
247.6324660038336
 20
167.09298592459331
 30
0.0
 70
    32
  0
VERTEX
  5
1837D
  8
AM_0
 10
247.63416600383391
 20
167.09698592459341
 30
0.0
 70
    32
  0
VERTEX
  5
1837E
  8
AM_0
 10
247.63576600383399
 20
167.10098592459309
 30
0.0
 70
    32
  0
VERTEX
  5
1837F
  8
AM_0
 10
247.63736600383359
 20
167.10498592459311
 30
0.0
 70
    32
  0
VERTEX
  5
18380
  8
AM_0
 10
247.63896600383359
 20
167.1089859245935
 30
0.0
 70
    32
  0
VERTEX
  5
18381
  8
AM_0
 10
247.64046600383389
 20
167.1129859245934
 30
0.0
 70
    32
  0
VERTEX
  5
18382
  8
AM_0
 10
247.642066003834
 20
167.11698592459339
 30
0.0
 70
    32
  0
VERTEX
  5
18383
  8
AM_0
 10
247.6436660038338
 20
167.12098592459341
 30
0.0
 70
    32
  0
VERTEX
  5
18384
  8
AM_0
 10
247.64526600383411
 20
167.12498592459369
 30
0.0
 70
    32
  0
VERTEX
  5
18385
  8
AM_0
 10
247.6467660038339
 20
167.1289859245932
 30
0.0
 70
    32
  0
VERTEX
  5
18386
  8
AM_0
 10
247.64836600383401
 20
167.13298592459341
 30
0.0
 70
    32
  0
VERTEX
  5
18387
  8
AM_0
 10
247.64996600383401
 20
167.13798592459329
 30
0.0
 70
    32
  0
VERTEX
  5
18388
  8
AM_0
 10
247.65146600383429
 20
167.14198592459309
 30
0.0
 70
    32
  0
VERTEX
  5
18389
  8
AM_0
 10
247.65296600383371
 20
167.1459859245933
 30
0.0
 70
    32
  0
VERTEX
  5
1838A
  8
AM_0
 10
247.65456600383379
 20
167.1499859245933
 30
0.0
 70
    32
  0
VERTEX
  5
1838B
  8
AM_0
 10
247.6560660038341
 20
167.1539859245936
 30
0.0
 70
    32
  0
VERTEX
  5
1838C
  8
AM_0
 10
247.65756600383389
 20
167.15798592459319
 30
0.0
 70
    32
  0
VERTEX
  5
1838D
  8
AM_0
 10
247.6591660038342
 20
167.1619859245931
 30
0.0
 70
    32
  0
VERTEX
  5
1838E
  8
AM_0
 10
247.66066600383431
 20
167.16598592459329
 30
0.0
 70
    32
  0
VERTEX
  5
1838F
  8
AM_0
 10
247.6621660038337
 20
167.16998592459331
 30
0.0
 70
    32
  0
VERTEX
  5
18390
  8
AM_0
 10
247.66366600383401
 20
167.1739859245935
 30
0.0
 70
    32
  0
VERTEX
  5
18391
  8
AM_0
 10
247.66516600383409
 20
167.1779859245932
 30
0.0
 70
    32
  0
VERTEX
  5
18392
  8
AM_0
 10
247.66666600383371
 20
167.18198592459331
 30
0.0
 70
    32
  0
VERTEX
  5
18393
  8
AM_0
 10
247.6681660038345
 20
167.1859859245935
 30
0.0
 70
    32
  0
VERTEX
  5
18394
  8
AM_0
 10
247.66956600383389
 20
167.18998592459329
 30
0.0
 70
    32
  0
VERTEX
  5
18395
  8
AM_0
 10
247.671066003834
 20
167.1949859245936
 30
0.0
 70
    32
  0
VERTEX
  5
18396
  8
AM_0
 10
247.67256600383431
 20
167.19898592459339
 30
0.0
 70
    32
  0
VERTEX
  5
18397
  8
AM_0
 10
247.6740660038341
 20
167.20298592459349
 30
0.0
 70
    32
  0
VERTEX
  5
18398
  8
AM_0
 10
247.6754660038342
 20
167.2069859245934
 30
0.0
 70
    32
  0
VERTEX
  5
18399
  8
AM_0
 10
247.67696600383411
 20
167.21098592459339
 30
0.0
 70
    32
  0
VERTEX
  5
1839A
  8
AM_0
 10
247.6783660038337
 20
167.21498592459329
 30
0.0
 70
    32
  0
VERTEX
  5
1839B
  8
AM_0
 10
247.67986600383401
 20
167.2189859245934
 30
0.0
 70
    32
  0
VERTEX
  5
1839C
  8
AM_0
 10
247.68126600383411
 20
167.2229859245935
 30
0.0
 70
    32
  0
VERTEX
  5
1839D
  8
AM_0
 10
247.6826660038343
 20
167.22698592459341
 30
0.0
 70
    32
  0
VERTEX
  5
1839E
  8
AM_0
 10
247.68406600383409
 20
167.23098592459331
 30
0.0
 70
    32
  0
VERTEX
  5
1839F
  8
AM_0
 10
247.6855660038342
 20
167.23598592459319
 30
0.0
 70
    32
  0
VERTEX
  5
183A0
  8
AM_0
 10
247.68696600383379
 20
167.23998592459321
 30
0.0
 70
    32
  0
VERTEX
  5
183A1
  8
AM_0
 10
247.68836600383389
 20
167.24398592459329
 30
0.0
 70
    32
  0
VERTEX
  5
183A2
  8
AM_0
 10
247.689766003834
 20
167.24798592459319
 30
0.0
 70
    32
  0
VERTEX
  5
183A3
  8
AM_0
 10
247.6911660038339
 20
167.25198592459361
 30
0.0
 70
    32
  0
VERTEX
  5
183A4
  8
AM_0
 10
247.69256600383429
 20
167.2559859245934
 30
0.0
 70
    32
  0
VERTEX
  5
183A5
  8
AM_0
 10
247.69396600383391
 20
167.2599859245932
 30
0.0
 70
    32
  0
VERTEX
  5
183A6
  8
AM_0
 10
247.69536600383401
 20
167.2639859245935
 30
0.0
 70
    32
  0
VERTEX
  5
183A7
  8
AM_0
 10
247.69666600383391
 20
167.26798592459309
 30
0.0
 70
    32
  0
VERTEX
  5
183A8
  8
AM_0
 10
247.69806600383399
 20
167.27298592459309
 30
0.0
 70
    32
  0
VERTEX
  5
183A9
  8
AM_0
 10
247.69946600383369
 20
167.27698592459339
 30
0.0
 70
    32
  0
VERTEX
  5
183AA
  8
AM_0
 10
247.70076600383399
 20
167.28098592459349
 30
0.0
 70
    32
  0
VERTEX
  5
183AB
  8
AM_0
 10
247.7021660038337
 20
167.28498592459351
 30
0.0
 70
    32
  0
VERTEX
  5
183AC
  8
AM_0
 10
247.703466003834
 20
167.28898592459331
 30
0.0
 70
    32
  0
VERTEX
  5
183AD
  8
AM_0
 10
247.7048660038337
 20
167.29298592459321
 30
0.0
 70
    32
  0
VERTEX
  5
183AE
  8
AM_0
 10
247.706166003834
 20
167.29698592459329
 30
0.0
 70
    32
  0
VERTEX
  5
183AF
  8
AM_0
 10
247.7074660038339
 20
167.30198592459359
 30
0.0
 70
    32
  0
VERTEX
  5
183B0
  8
AM_0
 10
247.708866003834
 20
167.30598592459339
 30
0.0
 70
    32
  0
VERTEX
  5
183B1
  8
AM_0
 10
247.7101660038339
 20
167.30998592459349
 30
0.0
 70
    32
  0
VERTEX
  5
183B2
  8
AM_0
 10
247.71146600383429
 20
167.31398592459331
 30
0.0
 70
    32
  0
VERTEX
  5
183B3
  8
AM_0
 10
247.71276600383399
 20
167.31798592459339
 30
0.0
 70
    32
  0
VERTEX
  5
183B4
  8
AM_0
 10
247.71406600383361
 20
167.32198592459309
 30
0.0
 70
    32
  0
VERTEX
  5
183B5
  8
AM_0
 10
247.71536600383399
 20
167.32598592459311
 30
0.0
 70
    32
  0
VERTEX
  5
183B6
  8
AM_0
 10
247.71666600383389
 20
167.33098592459319
 30
0.0
 70
    32
  0
VERTEX
  5
183B7
  8
AM_0
 10
247.71796600383379
 20
167.3349859245931
 30
0.0
 70
    32
  0
VERTEX
  5
183B8
  8
AM_0
 10
247.71926600383389
 20
167.33898592459349
 30
0.0
 70
    32
  0
VERTEX
  5
183B9
  8
AM_0
 10
247.72056600383399
 20
167.34298592459319
 30
0.0
 70
    32
  0
VERTEX
  5
183BA
  8
AM_0
 10
247.72186600383401
 20
167.3469859245933
 30
0.0
 70
    32
  0
VERTEX
  5
183BB
  8
AM_0
 10
247.72306600383399
 20
167.35098592459329
 30
0.0
 70
    32
  0
VERTEX
  5
183BC
  8
AM_0
 10
247.72436600383401
 20
167.354985924593
 30
0.0
 70
    32
  0
VERTEX
  5
183BD
  8
AM_0
 10
247.72566600383411
 20
167.35998592459319
 30
0.0
 70
    32
  0
VERTEX
  5
183BE
  8
AM_0
 10
247.726866003834
 20
167.36398592459341
 30
0.0
 70
    32
  0
VERTEX
  5
183BF
  8
AM_0
 10
247.72816600383399
 20
167.36798592459351
 30
0.0
 70
    32
  0
VERTEX
  5
183C0
  8
AM_0
 10
247.72936600383409
 20
167.3719859245935
 30
0.0
 70
    32
  0
VERTEX
  5
183C1
  8
AM_0
 10
247.73066600383399
 20
167.37598592459329
 30
0.0
 70
    32
  0
VERTEX
  5
183C2
  8
AM_0
 10
247.73186600383369
 20
167.3799859245934
 30
0.0
 70
    32
  0
VERTEX
  5
183C3
  8
AM_0
 10
247.7330660038343
 20
167.38498592459331
 30
0.0
 70
    32
  0
VERTEX
  5
183C4
  8
AM_0
 10
247.7343660038342
 20
167.38898592459361
 30
0.0
 70
    32
  0
VERTEX
  5
183C5
  8
AM_0
 10
247.7355660038337
 20
167.3929859245934
 30
0.0
 70
    32
  0
VERTEX
  5
183C6
  8
AM_0
 10
247.73676600383411
 20
167.39698592459331
 30
0.0
 70
    32
  0
VERTEX
  5
183C7
  8
AM_0
 10
247.7379660038342
 20
167.4009859245933
 30
0.0
 70
    32
  0
VERTEX
  5
183C8
  8
AM_0
 10
247.7391660038339
 20
167.4049859245934
 30
0.0
 70
    32
  0
VERTEX
  5
183C9
  8
AM_0
 10
247.74036600383411
 20
167.4099859245934
 30
0.0
 70
    32
  0
VERTEX
  5
183CA
  8
AM_0
 10
247.74156600383381
 20
167.41398592459319
 30
0.0
 70
    32
  0
VERTEX
  5
183CB
  8
AM_0
 10
247.74276600383351
 20
167.4179859245933
 30
0.0
 70
    32
  0
VERTEX
  5
183CC
  8
AM_0
 10
247.74396600383409
 20
167.42198592459351
 30
0.0
 70
    32
  0
VERTEX
  5
183CD
  8
AM_0
 10
247.74516600383421
 20
167.42598592459331
 30
0.0
 70
    32
  0
VERTEX
  5
183CE
  8
AM_0
 10
247.74636600383391
 20
167.43098592459319
 30
0.0
 70
    32
  0
VERTEX
  5
183CF
  8
AM_0
 10
247.74746600383389
 20
167.43498592459349
 30
0.0
 70
    32
  0
VERTEX
  5
183D0
  8
AM_0
 10
247.7486660038341
 20
167.4389859245934
 30
0.0
 70
    32
  0
VERTEX
  5
183D1
  8
AM_0
 10
247.7498660038342
 20
167.4429859245933
 30
0.0
 70
    32
  0
VERTEX
  5
183D2
  8
AM_0
 10
247.75096600383421
 20
167.44698592459341
 30
0.0
 70
    32
  0
VERTEX
  5
183D3
  8
AM_0
 10
247.75216600383411
 20
167.45098592459311
 30
0.0
 70
    32
  0
VERTEX
  5
183D4
  8
AM_0
 10
247.753266003834
 20
167.45598592459319
 30
0.0
 70
    32
  0
VERTEX
  5
183D5
  8
AM_0
 10
247.7544660038337
 20
167.4599859245931
 30
0.0
 70
    32
  0
VERTEX
  5
183D6
  8
AM_0
 10
247.75556600383391
 20
167.46398592459349
 30
0.0
 70
    32
  0
VERTEX
  5
183D7
  8
AM_0
 10
247.756766003834
 20
167.46798592459331
 30
0.0
 70
    32
  0
VERTEX
  5
183D8
  8
AM_0
 10
247.75786600383401
 20
167.47198592459341
 30
0.0
 70
    32
  0
VERTEX
  5
183D9
  8
AM_0
 10
247.75896600383399
 20
167.47698592459321
 30
0.0
 70
    32
  0
VERTEX
  5
183DA
  8
AM_0
 10
247.7600660038344
 20
167.48098592459311
 30
0.0
 70
    32
  0
VERTEX
  5
183DB
  8
AM_0
 10
247.76126600383409
 20
167.4849859245933
 30
0.0
 70
    32
  0
VERTEX
  5
183DC
  8
AM_0
 10
247.7623660038343
 20
167.48898592459349
 30
0.0
 70
    32
  0
VERTEX
  5
183DD
  8
AM_0
 10
247.763466003834
 20
167.4929859245936
 30
0.0
 70
    32
  0
VERTEX
  5
183DE
  8
AM_0
 10
247.7645660038342
 20
167.49798592459331
 30
0.0
 70
    32
  0
VERTEX
  5
183DF
  8
AM_0
 10
247.7656660038339
 20
167.5019859245935
 30
0.0
 70
    32
  0
VERTEX
  5
183E0
  8
AM_0
 10
247.76676600383431
 20
167.5059859245934
 30
0.0
 70
    32
  0
VERTEX
  5
183E1
  8
AM_0
 10
247.767866003834
 20
167.50998592459331
 30
0.0
 70
    32
  0
VERTEX
  5
183E2
  8
AM_0
 10
247.76886600383401
 20
167.5149859245933
 30
0.0
 70
    32
  0
VERTEX
  5
183E3
  8
AM_0
 10
247.7699660038339
 20
167.5189859245933
 30
0.0
 70
    32
  0
VERTEX
  5
183E4
  8
AM_0
 10
247.77106600383399
 20
167.5229859245932
 30
0.0
 70
    32
  0
VERTEX
  5
183E5
  8
AM_0
 10
247.77216600383409
 20
167.52698592459339
 30
0.0
 70
    32
  0
VERTEX
  5
183E6
  8
AM_0
 10
247.77316600383421
 20
167.53098592459349
 30
0.0
 70
    32
  0
VERTEX
  5
183E7
  8
AM_0
 10
247.77426600383399
 20
167.53598592459321
 30
0.0
 70
    32
  0
VERTEX
  5
183E8
  8
AM_0
 10
247.77526600383419
 20
167.53998592459359
 30
0.0
 70
    32
  0
VERTEX
  5
183E9
  8
AM_0
 10
247.77636600383411
 20
167.54398592459339
 30
0.0
 70
    32
  0
VERTEX
  5
183EA
  8
AM_0
 10
247.77736600383389
 20
167.54798592459329
 30
0.0
 70
    32
  0
VERTEX
  5
183EB
  8
AM_0
 10
247.7784660038343
 20
167.55198592459351
 30
0.0
 70
    32
  0
VERTEX
  5
183EC
  8
AM_0
 10
247.7794660038345
 20
167.55698592459331
 30
0.0
 70
    32
  0
VERTEX
  5
183ED
  8
AM_0
 10
247.78046600383379
 20
167.56098592459321
 30
0.0
 70
    32
  0
VERTEX
  5
183EE
  8
AM_0
 10
247.78156600383369
 20
167.5649859245934
 30
0.0
 70
    32
  0
VERTEX
  5
183EF
  8
AM_0
 10
247.78256600383401
 20
167.56898592459351
 30
0.0
 70
    32
  0
VERTEX
  5
183F0
  8
AM_0
 10
247.7835660038341
 20
167.57398592459339
 30
0.0
 70
    32
  0
VERTEX
  5
183F1
  8
AM_0
 10
247.7845660038341
 20
167.57798592459349
 30
0.0
 70
    32
  0
VERTEX
  5
183F2
  8
AM_0
 10
247.78556600383359
 20
167.58198592459311
 30
0.0
 70
    32
  0
VERTEX
  5
183F3
  8
AM_0
 10
247.78656600383431
 20
167.5859859245935
 30
0.0
 70
    32
  0
VERTEX
  5
183F4
  8
AM_0
 10
247.787566003834
 20
167.58998592459309
 30
0.0
 70
    32
  0
VERTEX
  5
183F5
  8
AM_0
 10
247.78856600383381
 20
167.5949859245934
 30
0.0
 70
    32
  0
VERTEX
  5
183F6
  8
AM_0
 10
247.78956600383401
 20
167.59898592459299
 30
0.0
 70
    32
  0
VERTEX
  5
183F7
  8
AM_0
 10
247.79056600383399
 20
167.6029859245935
 30
0.0
 70
    32
  0
VERTEX
  5
183F8
  8
AM_0
 10
247.79146600383419
 20
167.6069859245936
 30
0.0
 70
    32
  0
VERTEX
  5
183F9
  8
AM_0
 10
247.79246600383399
 20
167.61198592459331
 30
0.0
 70
    32
  0
VERTEX
  5
183FA
  8
AM_0
 10
247.79346600383369
 20
167.6159859245935
 30
0.0
 70
    32
  0
VERTEX
  5
183FB
  8
AM_0
 10
247.79436600383389
 20
167.61998592459349
 30
0.0
 70
    32
  0
VERTEX
  5
183FC
  8
AM_0
 10
247.79536600383389
 20
167.62398592459309
 30
0.0
 70
    32
  0
VERTEX
  5
183FD
  8
AM_0
 10
247.7963660038337
 20
167.62898592459331
 30
0.0
 70
    32
  0
VERTEX
  5
183FE
  8
AM_0
 10
247.7972660038337
 20
167.6329859245935
 30
0.0
 70
    32
  0
VERTEX
  5
183FF
  8
AM_0
 10
247.7982660038339
 20
167.6369859245936
 30
0.0
 70
    32
  0
VERTEX
  5
18400
  8
AM_0
 10
247.7991660038341
 20
167.6409859245932
 30
0.0
 70
    32
  0
VERTEX
  5
18401
  8
AM_0
 10
247.8000660038343
 20
167.64598592459299
 30
0.0
 70
    32
  0
VERTEX
  5
18402
  8
AM_0
 10
247.80106600383411
 20
167.64998592459349
 30
0.0
 70
    32
  0
VERTEX
  5
18403
  8
AM_0
 10
247.80196600383411
 20
167.65398592459371
 30
0.0
 70
    32
  0
VERTEX
  5
18404
  8
AM_0
 10
247.80286600383411
 20
167.65798592459319
 30
0.0
 70
    32
  0
VERTEX
  5
18405
  8
AM_0
 10
247.80376600383411
 20
167.66298592459339
 30
0.0
 70
    32
  0
VERTEX
  5
18406
  8
AM_0
 10
247.80466600383389
 20
167.6669859245936
 30
0.0
 70
    32
  0
VERTEX
  5
18407
  8
AM_0
 10
247.80556600383409
 20
167.67098592459311
 30
0.0
 70
    32
  0
VERTEX
  5
18408
  8
AM_0
 10
247.80646600383409
 20
167.6749859245933
 30
0.0
 70
    32
  0
VERTEX
  5
18409
  8
AM_0
 10
247.80736600383409
 20
167.67998592459341
 30
0.0
 70
    32
  0
VERTEX
  5
1840A
  8
AM_0
 10
247.80826600383401
 20
167.68398592459329
 30
0.0
 70
    32
  0
VERTEX
  5
1840B
  8
AM_0
 10
247.80916600383361
 20
167.68798592459339
 30
0.0
 70
    32
  0
VERTEX
  5
1840C
  8
AM_0
 10
247.8100660038339
 20
167.69198592459361
 30
0.0
 70
    32
  0
VERTEX
  5
1840D
  8
AM_0
 10
247.8109660038341
 20
167.69698592459321
 30
0.0
 70
    32
  0
VERTEX
  5
1840E
  8
AM_0
 10
247.8118660038341
 20
167.70098592459311
 30
0.0
 70
    32
  0
VERTEX
  5
1840F
  8
AM_0
 10
247.81266600383441
 20
167.7049859245935
 30
0.0
 70
    32
  0
VERTEX
  5
18410
  8
AM_0
 10
247.8135660038343
 20
167.70898592459329
 30
0.0
 70
    32
  0
VERTEX
  5
18411
  8
AM_0
 10
247.8144660038339
 20
167.7139859245936
 30
0.0
 70
    32
  0
VERTEX
  5
18412
  8
AM_0
 10
247.8152660038337
 20
167.71798592459339
 30
0.0
 70
    32
  0
VERTEX
  5
18413
  8
AM_0
 10
247.8161660038337
 20
167.72198592459321
 30
0.0
 70
    32
  0
VERTEX
  5
18414
  8
AM_0
 10
247.8169660038339
 20
167.72598592459329
 30
0.0
 70
    32
  0
VERTEX
  5
18415
  8
AM_0
 10
247.81786600383401
 20
167.73098592459331
 30
0.0
 70
    32
  0
VERTEX
  5
18416
  8
AM_0
 10
247.81866600383401
 20
167.73498592459319
 30
0.0
 70
    32
  0
VERTEX
  5
18417
  8
AM_0
 10
247.81956600383421
 20
167.73898592459309
 30
0.0
 70
    32
  0
VERTEX
  5
18418
  8
AM_0
 10
247.82036600383401
 20
167.7429859245934
 30
0.0
 70
    32
  0
VERTEX
  5
18419
  8
AM_0
 10
247.82116600383429
 20
167.74798592459311
 30
0.0
 70
    32
  0
VERTEX
  5
1841A
  8
AM_0
 10
247.82196600383381
 20
167.7519859245935
 30
0.0
 70
    32
  0
VERTEX
  5
1841B
  8
AM_0
 10
247.82286600383401
 20
167.75598592459329
 30
0.0
 70
    32
  0
VERTEX
  5
1841C
  8
AM_0
 10
247.82366600383381
 20
167.7609859245936
 30
0.0
 70
    32
  0
VERTEX
  5
1841D
  8
AM_0
 10
247.82446600383409
 20
167.76498592459339
 30
0.0
 70
    32
  0
VERTEX
  5
1841E
  8
AM_0
 10
247.82526600383389
 20
167.76898592459321
 30
0.0
 70
    32
  0
VERTEX
  5
1841F
  8
AM_0
 10
247.8260660038342
 20
167.77298592459351
 30
0.0
 70
    32
  0
VERTEX
  5
18420
  8
AM_0
 10
247.826866003834
 20
167.77798592459331
 30
0.0
 70
    32
  0
VERTEX
  5
18421
  8
AM_0
 10
247.8276660038342
 20
167.7819859245933
 30
0.0
 70
    32
  0
VERTEX
  5
18422
  8
AM_0
 10
247.828466003834
 20
167.7859859245934
 30
0.0
 70
    32
  0
VERTEX
  5
18423
  8
AM_0
 10
247.82926600383431
 20
167.78998592459351
 30
0.0
 70
    32
  0
VERTEX
  5
18424
  8
AM_0
 10
247.83006600383391
 20
167.79498592459339
 30
0.0
 70
    32
  0
VERTEX
  5
18425
  8
AM_0
 10
247.8307660038341
 20
167.7989859245935
 30
0.0
 70
    32
  0
VERTEX
  5
18426
  8
AM_0
 10
247.8315660038339
 20
167.8029859245934
 30
0.0
 70
    32
  0
VERTEX
  5
18427
  8
AM_0
 10
247.8323660038337
 20
167.80798592459371
 30
0.0
 70
    32
  0
VERTEX
  5
18428
  8
AM_0
 10
247.83316600383401
 20
167.81198592459319
 30
0.0
 70
    32
  0
VERTEX
  5
18429
  8
AM_0
 10
247.833866003834
 20
167.81598592459341
 30
0.0
 70
    32
  0
VERTEX
  5
1842A
  8
AM_0
 10
247.83466600383429
 20
167.8199859245934
 30
0.0
 70
    32
  0
VERTEX
  5
1842B
  8
AM_0
 10
247.83536600383411
 20
167.82498592459339
 30
0.0
 70
    32
  0
VERTEX
  5
1842C
  8
AM_0
 10
247.83616600383371
 20
167.8289859245935
 30
0.0
 70
    32
  0
VERTEX
  5
1842D
  8
AM_0
 10
247.83686600383419
 20
167.8329859245934
 30
0.0
 70
    32
  0
VERTEX
  5
1842E
  8
AM_0
 10
247.83766600383399
 20
167.83798592459331
 30
0.0
 70
    32
  0
VERTEX
  5
1842F
  8
AM_0
 10
247.83836600383401
 20
167.84198592459339
 30
0.0
 70
    32
  0
VERTEX
  5
18430
  8
AM_0
 10
247.83906600383401
 20
167.84598592459321
 30
0.0
 70
    32
  0
VERTEX
  5
18431
  8
AM_0
 10
247.83986600383389
 20
167.84998592459351
 30
0.0
 70
    32
  0
VERTEX
  5
18432
  8
AM_0
 10
247.84056600383391
 20
167.85498592459331
 30
0.0
 70
    32
  0
VERTEX
  5
18433
  8
AM_0
 10
247.84126600383399
 20
167.85898592459321
 30
0.0
 70
    32
  0
VERTEX
  5
18434
  8
AM_0
 10
247.8419660038341
 20
167.8629859245934
 30
0.0
 70
    32
  0
VERTEX
  5
18435
  8
AM_0
 10
247.8427660038343
 20
167.86798592459351
 30
0.0
 70
    32
  0
VERTEX
  5
18436
  8
AM_0
 10
247.8434660038341
 20
167.87198592459339
 30
0.0
 70
    32
  0
VERTEX
  5
18437
  8
AM_0
 10
247.844166003834
 20
167.87598592459329
 30
0.0
 70
    32
  0
VERTEX
  5
18438
  8
AM_0
 10
247.844866003834
 20
167.87998592459331
 30
0.0
 70
    32
  0
VERTEX
  5
18439
  8
AM_0
 10
247.84556600383411
 20
167.88498592459331
 30
0.0
 70
    32
  0
VERTEX
  5
1843A
  8
AM_0
 10
247.8462660038339
 20
167.88898592459319
 30
0.0
 70
    32
  0
VERTEX
  5
1843B
  8
AM_0
 10
247.8469660038337
 20
167.8929859245934
 30
0.0
 70
    32
  0
VERTEX
  5
1843C
  8
AM_0
 10
247.847566003834
 20
167.8979859245936
 30
0.0
 70
    32
  0
VERTEX
  5
1843D
  8
AM_0
 10
247.848266003834
 20
167.90198592459311
 30
0.0
 70
    32
  0
VERTEX
  5
1843E
  8
AM_0
 10
247.84896600383391
 20
167.90598592459349
 30
0.0
 70
    32
  0
VERTEX
  5
1843F
  8
AM_0
 10
247.8496660038337
 20
167.90998592459329
 30
0.0
 70
    32
  0
VERTEX
  5
18440
  8
AM_0
 10
247.85036600383381
 20
167.91498592459359
 30
0.0
 70
    32
  0
VERTEX
  5
18441
  8
AM_0
 10
247.85096600383409
 20
167.91898592459339
 30
0.0
 70
    32
  0
VERTEX
  5
18442
  8
AM_0
 10
247.85166600383391
 20
167.92298592459329
 30
0.0
 70
    32
  0
VERTEX
  5
18443
  8
AM_0
 10
247.85226600383399
 20
167.92798592459349
 30
0.0
 70
    32
  0
VERTEX
  5
18444
  8
AM_0
 10
247.85296600383401
 20
167.93198592459331
 30
0.0
 70
    32
  0
VERTEX
  5
18445
  8
AM_0
 10
247.85366600383401
 20
167.93598592459321
 30
0.0
 70
    32
  0
VERTEX
  5
18446
  8
AM_0
 10
247.85426600383391
 20
167.9399859245934
 30
0.0
 70
    32
  0
VERTEX
  5
18447
  8
AM_0
 10
247.85486600383399
 20
167.94498592459351
 30
0.0
 70
    32
  0
VERTEX
  5
18448
  8
AM_0
 10
247.85556600383379
 20
167.94898592459339
 30
0.0
 70
    32
  0
VERTEX
  5
18449
  8
AM_0
 10
247.85616600383369
 20
167.95298592459309
 30
0.0
 70
    32
  0
VERTEX
  5
1844A
  8
AM_0
 10
247.8568660038342
 20
167.9579859245934
 30
0.0
 70
    32
  0
VERTEX
  5
1844B
  8
AM_0
 10
247.85746600383399
 20
167.96198592459371
 30
0.0
 70
    32
  0
VERTEX
  5
1844C
  8
AM_0
 10
247.8580660038341
 20
167.96598592459341
 30
0.0
 70
    32
  0
VERTEX
  5
1844D
  8
AM_0
 10
247.85866600383389
 20
167.97098592459341
 30
0.0
 70
    32
  0
VERTEX
  5
1844E
  8
AM_0
 10
247.85926600383399
 20
167.97498592459311
 30
0.0
 70
    32
  0
VERTEX
  5
1844F
  8
AM_0
 10
247.85996600383359
 20
167.97898592459339
 30
0.0
 70
    32
  0
VERTEX
  5
18450
  8
AM_0
 10
247.8605660038339
 20
167.98398592459341
 30
0.0
 70
    32
  0
VERTEX
  5
18451
  8
AM_0
 10
247.8611660038338
 20
167.98798592459349
 30
0.0
 70
    32
  0
VERTEX
  5
18452
  8
AM_0
 10
247.86176600383411
 20
167.99198592459331
 30
0.0
 70
    32
  0
VERTEX
  5
18453
  8
AM_0
 10
247.8623660038339
 20
167.99598592459341
 30
0.0
 70
    32
  0
VERTEX
  5
18454
  8
AM_0
 10
247.862966003834
 20
168.00098592459341
 30
0.0
 70
    32
  0
VERTEX
  5
18455
  8
AM_0
 10
247.86356600383391
 20
168.00498592459309
 30
0.0
 70
    32
  0
VERTEX
  5
18456
  8
AM_0
 10
247.8641660038339
 20
168.0089859245937
 30
0.0
 70
    32
  0
VERTEX
  5
18457
  8
AM_0
 10
247.864666003834
 20
168.01398592459341
 30
0.0
 70
    32
  0
VERTEX
  5
18458
  8
AM_0
 10
247.86526600383391
 20
168.01798592459349
 30
0.0
 70
    32
  0
VERTEX
  5
18459
  8
AM_0
 10
247.86586600383379
 20
168.02198592459359
 30
0.0
 70
    32
  0
VERTEX
  5
1845A
  8
AM_0
 10
247.86646600383401
 20
168.02698592459339
 30
0.0
 70
    32
  0
VERTEX
  5
1845B
  8
AM_0
 10
247.86696600383371
 20
168.03098592459349
 30
0.0
 70
    32
  0
VERTEX
  5
1845C
  8
AM_0
 10
247.86756600383401
 20
168.0349859245934
 30
0.0
 70
    32
  0
VERTEX
  5
1845D
  8
AM_0
 10
247.86816600383429
 20
168.03898592459331
 30
0.0
 70
    32
  0
VERTEX
  5
1845E
  8
AM_0
 10
247.86866600383391
 20
168.04398592459339
 30
0.0
 70
    32
  0
VERTEX
  5
1845F
  8
AM_0
 10
247.86926600383379
 20
168.04798592459329
 30
0.0
 70
    32
  0
VERTEX
  5
18460
  8
AM_0
 10
247.86976600383429
 20
168.05198592459311
 30
0.0
 70
    32
  0
VERTEX
  5
18461
  8
AM_0
 10
247.87036600383419
 20
168.05698592459331
 30
0.0
 70
    32
  0
VERTEX
  5
18462
  8
AM_0
 10
247.87086600383429
 20
168.0609859245935
 30
0.0
 70
    32
  0
VERTEX
  5
18463
  8
AM_0
 10
247.87136600383391
 20
168.0649859245932
 30
0.0
 70
    32
  0
VERTEX
  5
18464
  8
AM_0
 10
247.87196600383379
 20
168.06998592459311
 30
0.0
 70
    32
  0
VERTEX
  5
18465
  8
AM_0
 10
247.87246600383449
 20
168.07398592459339
 30
0.0
 70
    32
  0
VERTEX
  5
18466
  8
AM_0
 10
247.87296600383399
 20
168.07798592459349
 30
0.0
 70
    32
  0
VERTEX
  5
18467
  8
AM_0
 10
247.8735660038343
 20
168.0829859245934
 30
0.0
 70
    32
  0
VERTEX
  5
18468
  8
AM_0
 10
247.8740660038344
 20
168.08698592459351
 30
0.0
 70
    32
  0
VERTEX
  5
18469
  8
AM_0
 10
247.87456600383399
 20
168.09098592459341
 30
0.0
 70
    32
  0
VERTEX
  5
1846A
  8
AM_0
 10
247.87506600383369
 20
168.09598592459329
 30
0.0
 70
    32
  0
VERTEX
  5
1846B
  8
AM_0
 10
247.8755660038338
 20
168.09998592459311
 30
0.0
 70
    32
  0
VERTEX
  5
1846C
  8
AM_0
 10
247.8760660038339
 20
168.10398592459339
 30
0.0
 70
    32
  0
VERTEX
  5
1846D
  8
AM_0
 10
247.876566003834
 20
168.10898592459361
 30
0.0
 70
    32
  0
VERTEX
  5
1846E
  8
AM_0
 10
247.8770660038339
 20
168.1129859245934
 30
0.0
 70
    32
  0
VERTEX
  5
1846F
  8
AM_0
 10
247.8775660038342
 20
168.11698592459331
 30
0.0
 70
    32
  0
VERTEX
  5
18470
  8
AM_0
 10
247.87806600383431
 20
168.1209859245933
 30
0.0
 70
    32
  0
VERTEX
  5
18471
  8
AM_0
 10
247.87856600383401
 20
168.12598592459329
 30
0.0
 70
    32
  0
VERTEX
  5
18472
  8
AM_0
 10
247.87896600383431
 20
168.1299859245932
 30
0.0
 70
    32
  0
VERTEX
  5
18473
  8
AM_0
 10
247.87946600383401
 20
168.13398592459359
 30
0.0
 70
    32
  0
VERTEX
  5
18474
  8
AM_0
 10
247.879966003834
 20
168.13898592459361
 30
0.0
 70
    32
  0
VERTEX
  5
18475
  8
AM_0
 10
247.88036600383401
 20
168.14298592459309
 30
0.0
 70
    32
  0
VERTEX
  5
18476
  8
AM_0
 10
247.88086600383409
 20
168.14698592459351
 30
0.0
 70
    32
  0
VERTEX
  5
18477
  8
AM_0
 10
247.8813660038339
 20
168.1519859245935
 30
0.0
 70
    32
  0
VERTEX
  5
18478
  8
AM_0
 10
247.88176600383409
 20
168.15598592459361
 30
0.0
 70
    32
  0
VERTEX
  5
18479
  8
AM_0
 10
247.8821660038339
 20
168.1599859245934
 30
0.0
 70
    32
  0
VERTEX
  5
1847A
  8
AM_0
 10
247.88266600383409
 20
168.16498592459351
 30
0.0
 70
    32
  0
VERTEX
  5
1847B
  8
AM_0
 10
247.88306600383399
 20
168.1689859245935
 30
0.0
 70
    32
  0
VERTEX
  5
1847C
  8
AM_0
 10
247.88356600383401
 20
168.17298592459329
 30
0.0
 70
    32
  0
VERTEX
  5
1847D
  8
AM_0
 10
247.88396600383399
 20
168.17798592459329
 30
0.0
 70
    32
  0
VERTEX
  5
1847E
  8
AM_0
 10
247.88436600383429
 20
168.18198592459339
 30
0.0
 70
    32
  0
VERTEX
  5
1847F
  8
AM_0
 10
247.88476600383379
 20
168.18598592459361
 30
0.0
 70
    32
  0
VERTEX
  5
18480
  8
AM_0
 10
247.88526600383381
 20
168.19098592459341
 30
0.0
 70
    32
  0
VERTEX
  5
18481
  8
AM_0
 10
247.88566600383399
 20
168.19498592459351
 30
0.0
 70
    32
  0
VERTEX
  5
18482
  8
AM_0
 10
247.88606600383409
 20
168.1989859245935
 30
0.0
 70
    32
  0
VERTEX
  5
18483
  8
AM_0
 10
247.88646600383399
 20
168.2039859245935
 30
0.0
 70
    32
  0
VERTEX
  5
18484
  8
AM_0
 10
247.88686600383369
 20
168.20798592459329
 30
0.0
 70
    32
  0
VERTEX
  5
18485
  8
AM_0
 10
247.88726600383379
 20
168.21198592459351
 30
0.0
 70
    32
  0
VERTEX
  5
18486
  8
AM_0
 10
247.8876660038342
 20
168.21698592459339
 30
0.0
 70
    32
  0
VERTEX
  5
18487
  8
AM_0
 10
247.8879660038339
 20
168.22098592459329
 30
0.0
 70
    32
  0
VERTEX
  5
18488
  8
AM_0
 10
247.88836600383419
 20
168.22498592459331
 30
0.0
 70
    32
  0
VERTEX
  5
18489
  8
AM_0
 10
247.88876600383409
 20
168.22998592459311
 30
0.0
 70
    32
  0
VERTEX
  5
1848A
  8
AM_0
 10
247.88916600383399
 20
168.2339859245935
 30
0.0
 70
    32
  0
VERTEX
  5
1848B
  8
AM_0
 10
247.88946600383389
 20
168.2379859245934
 30
0.0
 70
    32
  0
VERTEX
  5
1848C
  8
AM_0
 10
247.8898660038341
 20
168.24298592459331
 30
0.0
 70
    32
  0
VERTEX
  5
1848D
  8
AM_0
 10
247.890266003834
 20
168.24698592459339
 30
0.0
 70
    32
  0
VERTEX
  5
1848E
  8
AM_0
 10
247.8905660038339
 20
168.2509859245931
 30
0.0
 70
    32
  0
VERTEX
  5
1848F
  8
AM_0
 10
247.890966003834
 20
168.2559859245934
 30
0.0
 70
    32
  0
VERTEX
  5
18490
  8
AM_0
 10
247.89126600383369
 20
168.25998592459331
 30
0.0
 70
    32
  0
VERTEX
  5
18491
  8
AM_0
 10
247.8915660038341
 20
168.2639859245935
 30
0.0
 70
    32
  0
VERTEX
  5
18492
  8
AM_0
 10
247.8919660038342
 20
168.26898592459341
 30
0.0
 70
    32
  0
VERTEX
  5
18493
  8
AM_0
 10
247.8922660038337
 20
168.27298592459309
 30
0.0
 70
    32
  0
VERTEX
  5
18494
  8
AM_0
 10
247.89256600383411
 20
168.27698592459339
 30
0.0
 70
    32
  0
VERTEX
  5
18495
  8
AM_0
 10
247.8928660038342
 20
168.2819859245935
 30
0.0
 70
    32
  0
VERTEX
  5
18496
  8
AM_0
 10
247.8932660038339
 20
168.28598592459349
 30
0.0
 70
    32
  0
VERTEX
  5
18497
  8
AM_0
 10
247.8935660038338
 20
168.28998592459359
 30
0.0
 70
    32
  0
VERTEX
  5
18498
  8
AM_0
 10
247.89386600383401
 20
168.29498592459331
 30
0.0
 70
    32
  0
VERTEX
  5
18499
  8
AM_0
 10
247.8941660038341
 20
168.2989859245935
 30
0.0
 70
    32
  0
VERTEX
  5
1849A
  8
AM_0
 10
247.8944660038338
 20
168.3029859245932
 30
0.0
 70
    32
  0
VERTEX
  5
1849B
  8
AM_0
 10
247.89476600383421
 20
168.30798592459351
 30
0.0
 70
    32
  0
VERTEX
  5
1849C
  8
AM_0
 10
247.8950660038337
 20
168.31198592459339
 30
0.0
 70
    32
  0
VERTEX
  5
1849D
  8
AM_0
 10
247.8953660038338
 20
168.31598592459349
 30
0.0
 70
    32
  0
VERTEX
  5
1849E
  8
AM_0
 10
247.89566600383449
 20
168.32098592459349
 30
0.0
 70
    32
  0
VERTEX
  5
1849F
  8
AM_0
 10
247.8958660038339
 20
168.32498592459339
 30
0.0
 70
    32
  0
VERTEX
  5
184A0
  8
AM_0
 10
247.8961660038336
 20
168.3289859245935
 30
0.0
 70
    32
  0
VERTEX
  5
184A1
  8
AM_0
 10
247.89646600383429
 20
168.33398592459321
 30
0.0
 70
    32
  0
VERTEX
  5
184A2
  8
AM_0
 10
247.89676600383351
 20
168.33798592459311
 30
0.0
 70
    32
  0
VERTEX
  5
184A3
  8
AM_0
 10
247.89696600383431
 20
168.34198592459339
 30
0.0
 70
    32
  0
VERTEX
  5
184A4
  8
AM_0
 10
247.89726600383409
 20
168.3469859245933
 30
0.0
 70
    32
  0
VERTEX
  5
184A5
  8
AM_0
 10
247.89746600383401
 20
168.3509859245932
 30
0.0
 70
    32
  0
VERTEX
  5
184A6
  8
AM_0
 10
247.89776600383371
 20
168.35498592459319
 30
0.0
 70
    32
  0
VERTEX
  5
184A7
  8
AM_0
 10
247.89796600383411
 20
168.35998592459319
 30
0.0
 70
    32
  0
VERTEX
  5
184A8
  8
AM_0
 10
247.89826600383421
 20
168.36398592459341
 30
0.0
 70
    32
  0
VERTEX
  5
184A9
  8
AM_0
 10
247.89846600383419
 20
168.36798592459351
 30
0.0
 70
    32
  0
VERTEX
  5
184AA
  8
AM_0
 10
247.8987660038344
 20
168.37298592459311
 30
0.0
 70
    32
  0
VERTEX
  5
184AB
  8
AM_0
 10
247.89896600383381
 20
168.37698592459361
 30
0.0
 70
    32
  0
VERTEX
  5
184AC
  8
AM_0
 10
247.89916600383421
 20
168.3809859245934
 30
0.0
 70
    32
  0
VERTEX
  5
184AD
  8
AM_0
 10
247.89936600383371
 20
168.3859859245934
 30
0.0
 70
    32
  0
VERTEX
  5
184AE
  8
AM_0
 10
247.89966600383431
 20
168.3899859245935
 30
0.0
 70
    32
  0
VERTEX
  5
184AF
  8
AM_0
 10
247.89986600383381
 20
168.3939859245933
 30
0.0
 70
    32
  0
VERTEX
  5
184B0
  8
AM_0
 10
247.90006600383421
 20
168.39898592459329
 30
0.0
 70
    32
  0
VERTEX
  5
184B1
  8
AM_0
 10
247.90026600383391
 20
168.40298592459311
 30
0.0
 70
    32
  0
VERTEX
  5
184B2
  8
AM_0
 10
247.90046600383371
 20
168.40698592459361
 30
0.0
 70
    32
  0
VERTEX
  5
184B3
  8
AM_0
 10
247.90066600383409
 20
168.41198592459341
 30
0.0
 70
    32
  0
VERTEX
  5
184B4
  8
AM_0
 10
247.90086600383401
 20
168.4159859245934
 30
0.0
 70
    32
  0
VERTEX
  5
184B5
  8
AM_0
 10
247.9010660038345
 20
168.4199859245935
 30
0.0
 70
    32
  0
VERTEX
  5
184B6
  8
AM_0
 10
247.90126600383391
 20
168.42498592459319
 30
0.0
 70
    32
  0
VERTEX
  5
184B7
  8
AM_0
 10
247.90146600383429
 20
168.42898592459329
 30
0.0
 70
    32
  0
VERTEX
  5
184B8
  8
AM_0
 10
247.90166600383381
 20
168.43298592459331
 30
0.0
 70
    32
  0
VERTEX
  5
184B9
  8
AM_0
 10
247.90186600383399
 20
168.43798592459339
 30
0.0
 70
    32
  0
VERTEX
  5
184BA
  8
AM_0
 10
247.90206600383371
 20
168.44198592459361
 30
0.0
 70
    32
  0
VERTEX
  5
184BB
  8
AM_0
 10
247.90216600383391
 20
168.44598592459329
 30
0.0
 70
    32
  0
VERTEX
  5
184BC
  8
AM_0
 10
247.90236600383429
 20
168.45098592459311
 30
0.0
 70
    32
  0
VERTEX
  5
184BD
  8
AM_0
 10
247.90256600383381
 20
168.4549859245935
 30
0.0
 70
    32
  0
VERTEX
  5
184BE
  8
AM_0
 10
247.9026660038341
 20
168.4599859245935
 30
0.0
 70
    32
  0
VERTEX
  5
184BF
  8
AM_0
 10
247.90286600383419
 20
168.46398592459329
 30
0.0
 70
    32
  0
VERTEX
  5
184C0
  8
AM_0
 10
247.90306600383391
 20
168.46798592459339
 30
0.0
 70
    32
  0
VERTEX
  5
184C1
  8
AM_0
 10
247.90316600383369
 20
168.4729859245935
 30
0.0
 70
    32
  0
VERTEX
  5
184C2
  8
AM_0
 10
247.90336600383409
 20
168.47698592459349
 30
0.0
 70
    32
  0
VERTEX
  5
184C3
  8
AM_0
 10
247.9034660038339
 20
168.48098592459331
 30
0.0
 70
    32
  0
VERTEX
  5
184C4
  8
AM_0
 10
247.90366600383379
 20
168.48598592459339
 30
0.0
 70
    32
  0
VERTEX
  5
184C5
  8
AM_0
 10
247.90376600383439
 20
168.48998592459341
 30
0.0
 70
    32
  0
VERTEX
  5
184C6
  8
AM_0
 10
247.9038660038342
 20
168.4939859245936
 30
0.0
 70
    32
  0
VERTEX
  5
184C7
  8
AM_0
 10
247.90406600383389
 20
168.49898592459331
 30
0.0
 70
    32
  0
VERTEX
  5
184C8
  8
AM_0
 10
247.9041660038344
 20
168.5029859245935
 30
0.0
 70
    32
  0
VERTEX
  5
184C9
  8
AM_0
 10
247.9042660038337
 20
168.50698592459349
 30
0.0
 70
    32
  0
VERTEX
  5
184CA
  8
AM_0
 10
247.90436600383379
 20
168.51198592459309
 30
0.0
 70
    32
  0
VERTEX
  5
184CB
  8
AM_0
 10
247.90446600383399
 20
168.51598592459339
 30
0.0
 70
    32
  0
VERTEX
  5
184CC
  8
AM_0
 10
247.90456600383419
 20
168.5199859245935
 30
0.0
 70
    32
  0
VERTEX
  5
184CD
  8
AM_0
 10
247.90476600383371
 20
168.52498592459341
 30
0.0
 70
    32
  0
VERTEX
  5
184CE
  8
AM_0
 10
247.90486600383349
 20
168.5289859245932
 30
0.0
 70
    32
  0
VERTEX
  5
184CF
  8
AM_0
 10
247.9049660038342
 20
168.53298592459339
 30
0.0
 70
    32
  0
VERTEX
  5
184D0
  8
AM_0
 10
247.90506600383409
 20
168.5379859245931
 30
0.0
 70
    32
  0
VERTEX
  5
184D1
  8
AM_0
 10
247.90506600383409
 20
168.54198592459309
 30
0.0
 70
    32
  0
VERTEX
  5
184D2
  8
AM_0
 10
247.9051660038339
 20
168.54598592459331
 30
0.0
 70
    32
  0
VERTEX
  5
184D3
  8
AM_0
 10
247.90526600383379
 20
168.55098592459299
 30
0.0
 70
    32
  0
VERTEX
  5
184D4
  8
AM_0
 10
247.90536600383399
 20
168.55498592459341
 30
0.0
 70
    32
  0
VERTEX
  5
184D5
  8
AM_0
 10
247.90546600383431
 20
168.55898592459329
 30
0.0
 70
    32
  0
VERTEX
  5
184D6
  8
AM_0
 10
247.90546600383431
 20
168.5639859245934
 30
0.0
 70
    32
  0
VERTEX
  5
184D7
  8
AM_0
 10
247.9055660038342
 20
168.56798592459299
 30
0.0
 70
    32
  0
VERTEX
  5
184D8
  8
AM_0
 10
247.905666003834
 20
168.57198592459341
 30
0.0
 70
    32
  0
VERTEX
  5
184D9
  8
AM_0
 10
247.905666003834
 20
168.5769859245934
 30
0.0
 70
    32
  0
VERTEX
  5
184DA
  8
AM_0
 10
247.90576600383369
 20
168.58098592459359
 30
0.0
 70
    32
  0
VERTEX
  5
184DB
  8
AM_0
 10
247.90586600383369
 20
168.58598592459319
 30
0.0
 70
    32
  0
VERTEX
  5
184DC
  8
AM_0
 10
247.90586600383369
 20
168.58998592459329
 30
0.0
 70
    32
  0
VERTEX
  5
184DD
  8
AM_0
 10
247.90596600383429
 20
168.59398592459351
 30
0.0
 70
    32
  0
VERTEX
  5
184DE
  8
AM_0
 10
247.90596600383429
 20
168.59898592459351
 30
0.0
 70
    32
  0
VERTEX
  5
184DF
  8
AM_0
 10
247.9060660038341
 20
168.60298592459341
 30
0.0
 70
    32
  0
VERTEX
  5
184E0
  8
AM_0
 10
247.9060660038341
 20
168.6069859245934
 30
0.0
 70
    32
  0
VERTEX
  5
184E1
  8
AM_0
 10
247.90616600383379
 20
168.6119859245934
 30
0.0
 70
    32
  0
VERTEX
  5
184E2
  8
AM_0
 10
247.90616600383379
 20
168.6159859245935
 30
0.0
 70
    32
  0
VERTEX
  5
184E3
  8
AM_0
 10
247.90626600383411
 20
168.61998592459341
 30
0.0
 70
    32
  0
VERTEX
  5
184E4
  8
AM_0
 10
247.90626600383411
 20
168.62498592459369
 30
0.0
 70
    32
  0
VERTEX
  5
184E5
  8
AM_0
 10
247.90626600383411
 20
168.62898592459351
 30
0.0
 70
    32
  0
VERTEX
  5
184E6
  8
AM_0
 10
247.90636600383431
 20
168.63298592459341
 30
0.0
 70
    32
  0
VERTEX
  5
184E7
  8
AM_0
 10
247.90636600383431
 20
168.6379859245931
 30
0.0
 70
    32
  0
VERTEX
  5
184E8
  8
AM_0
 10
247.90646600383451
 20
168.6419859245934
 30
0.0
 70
    32
  0
VERTEX
  5
184E9
  8
AM_0
 10
247.90646600383451
 20
168.64598592459319
 30
0.0
 70
    32
  0
VERTEX
  5
184EA
  8
AM_0
 10
247.90646600383451
 20
168.6509859245935
 30
0.0
 70
    32
  0
VERTEX
  5
184EB
  8
AM_0
 10
247.9065660038342
 20
168.65498592459329
 30
0.0
 70
    32
  0
SEQEND
  5
184EC
  8
AM_0
  0
LINE
  5
184ED
  8
AM_0
 10
258.17638080687641
 20
168.6550329896674
 30
0.0
 11
258.17638080687641
 21
177.69003298966749
 31
0.0
  0
ARC
  5
184EE
  8
AM_0
 10
259.776380806877
 20
166.6550329896674
 30
0.0
 40
0.5
 50
270.0
 51
0.0
  0
LINE
  5
184EF
  8
AM_0
 10
259.776380806877
 20
166.1550329896674
 30
0.0
 11
255.67638080687641
 21
166.1550329896674
 31
0.0
  0
ARC
  5
184F0
  8
AM_0
 10
255.67638080687641
 20
168.6550329896674
 30
0.0
 40
2.4999999999999991
 50
270.0
 51
0.0
  0
ARC
  5
184F1
  8
AM_0
 10
249.77638080687819
 20
199.15503298966769
 30
0.0
 40
0.9999999999998859
 50
90.0
 51
180.0
  0
LINE
  5
184F2
  8
AM_0
 10
257.77644159231778
 20
200.15503298966769
 30
0.0
 11
257.77644159231778
 21
203.15503298966749
 31
0.0
  0
ARC
  5
184F3
  8
AM_0
 10
259.27638080687859
 20
199.15503298966769
 30
0.0
 40
0.9999999999999996
 50
0.0
 51
90.0
  0
LINE
  5
184F4
  8
AM_0
 10
687.67192960945556
 20
572.81271054291255
 30
0.0
 11
679.67192960945567
 21
572.81271054291255
 31
0.0
  0
LINE
  5
184F5
  8
AM_0
 10
687.67192960945556
 20
572.80772054291265
 30
0.0
 11
679.67192960945567
 21
572.80772054291265
 31
0.0
  0
LINE
  5
184F6
  8
AM_0
 10
686.98192960945573
 20
562.99770054291241
 30
0.0
 11
680.75194960945589
 21
562.99770054291241
 31
0.0
  0
LINE
  5
184F7
  8
AM_0
 10
687.67192960945556
 20
466.81270654291239
 30
0.0
 11
679.67192960945567
 21
466.81270654291239
 31
0.0
  0
LINE
  5
184F8
  8
AM_0
 10
687.67192960945556
 20
466.80771754291248
 30
0.0
 11
679.67192960945567
 21
466.80771754291248
 31
0.0
  0
LINE
  5
184F9
  8
AM_0
 10
686.98192960945573
 20
476.61770654291252
 30
0.0
 11
680.75194960945589
 21
476.61770654291252
 31
0.0
  0
LINE
  5
184FA
  8
ﾁｭｳｼﾝｾﾝ1
 10
622.67192960945556
 20
560.43773735760919
 30
0.0
 11
622.67192960945556
 21
479.1877343576092
 31
0.0
  0
LINE
  5
184FB
  8
AM_0
 10
679.67192960945567
 20
572.80772054291265
 30
0.0
 11
679.67192960945567
 21
470.36772254291247
 31
0.0
  0
LINE
  5
184FC
  8
AM_0
 10
571.67192960945567
 20
575.81271054291255
 30
0.0
 11
571.67192960945567
 21
463.81270654291239
 31
0.0
  0
LINE
  5
184FD
  8
AM_0
 10
676.47191960945565
 20
463.52770354291232
 30
0.0
 11
579.55195960945571
 21
463.52770354291232
 31
0.0
  0
LINE
  5
184FE
  8
AM_0
 10
654.17192960945556
 20
481.58771554291252
 30
0.0
 11
571.67192960945567
 21
481.58771554291252
 31
0.0
  0
LINE
  5
184FF
  8
AM_0
 10
679.67192960945567
 20
471.7176975429125
 30
0.0
 11
678.43193960945575
 21
465.15770054291249
 31
0.0
  0
LINE
  5
18500
  8
AM_0
 10
679.67192960945567
 20
470.36770654291252
 30
0.0
 11
678.39195960945574
 21
462.36771454291249
 31
0.0
  0
LINE
  5
18501
  8
AM_0
 10
676.42192960945556
 20
460.6777125429125
 30
0.0
 11
642.67192960945567
 21
460.6777125429125
 31
0.0
  0
LINE
  5
18502
  8
AM_0
 10
676.40190960945574
 20
458.83770854291248
 30
0.0
 11
642.67192960945567
 21
458.83770854291248
 31
0.0
  0
LINE
  5
18503
  8
AM_0
 10
676.38194960945589
 20
457.9177175429125
 30
0.0
 11
642.67192960945567
 21
457.9177175429125
 31
0.0
  0
ARC
  5
18504
  8
AM_0
 10
676.41594960945565
 20
462.67788754291252
 30
0.0
 40
2.0001840999999998
 50
270.1714700000008
 51
351.07900000000069
  0
LINE
  5
18505
  8
AM_0
 10
679.67186960945571
 20
469.02771054291247
 30
0.0
 11
678.38188960945558
 21
460.52771854291251
 31
0.0
  0
LINE
  5
18506
  8
AM_0
 10
679.67192960945567
 20
469.02773354291259
 30
0.0
 11
678.36192960945573
 21
459.64772854291249
 31
0.0
  0
ARC
  5
18507
  8
AM_0
 10
676.37980960945572
 20
459.91819054291261
 30
0.0
 40
2.0004758999999992
 50
270.06031000000388
 51
352.22953999999908
  0
ARC
  5
18508
  8
AM_0
 10
676.40837960945555
 20
460.8350455429125
 30
0.0
 40
1.9973480999999991
 50
269.81532000000249
 51
351.14853000000028
  0
ARC
  5
18509
  8
AM_0
 10
676.46727960945577
 20
465.52671154291249
 30
0.0
 40
1.9990078999999989
 50
270.13344999999691
 51
349.36258999999973
  0
ARC
  5
1850A
  8
AM_0
 10
642.67912960945557
 20
462.68489154291262
 30
0.0
 40
2.0071799999999991
 50
180.204620000001
 51
269.79538000000241
  0
LINE
  5
1850B
  8
AM_0
 10
640.67192960945556
 20
459.91771054291252
 30
0.0
 11
640.67192960945556
 21
463.52770354291232
 31
0.0
  0
ARC
  5
1850C
  8
AM_0
 10
642.67991960945574
 20
459.92572054291242
 30
0.0
 40
2.0080360999999991
 50
180.22878999999941
 51
269.77121000000062
  0
ARC
  5
1850D
  8
AM_0
 10
642.67521960945567
 20
460.84099654291248
 30
0.0
 40
2.003279899999999
 50
180.09379000000041
 51
269.90621000000289
  0
LINE
  5
1850E
  8
AM_0
 10
654.17192960945556
 20
481.58771554291252
 30
0.0
 11
674.34477960945571
 21
483.08771554291252
 31
0.0
  0
LINE
  5
1850F
  8
AM_0
 10
674.34238227017192
 20
483.09277245247227
 30
0.0
 11
679.67198960945575
 21
471.71773554291229
 31
0.0
  0
LINE
  5
18510
  8
AM_0
 10
573.1719296094559
 20
481.58772354291261
 30
0.0
 11
577.62193960945569
 21
465.00772154291229
 31
0.0
  0
LINE
  5
18511
  8
AM_0
 10
571.67192960945567
 20
463.81270654291239
 30
0.0
 11
563.67195960945571
 21
463.81270654291239
 31
0.0
  0
ARC
  5
18512
  8
AM_0
 10
579.55479960945593
 20
465.52984654291248
 30
0.0
 40
2.0021281000000002
 50
195.1166999999981
 51
269.9184800000001
  0
LINE
  5
18513
  8
AM_0
 10
577.13194960945589
 20
466.80771754291248
 30
0.0
 11
571.67192960945567
 21
466.80771754291248
 31
0.0
  0
LINE
  5
18514
  8
AM_0
 10
571.67192960945567
 20
487.87271954291242
 30
0.0
 11
563.67195960945571
 21
487.87271954291242
 31
0.0
  0
LINE
  5
18515
  8
AM_0
 10
571.67192960945567
 20
473.8127145429126
 30
0.0
 11
563.67195960945571
 21
473.8127145429126
 31
0.0
  0
LINE
  5
18516
  8
AM_0
 10
676.47191960945565
 20
576.09771054291264
 30
0.0
 11
579.55195960945571
 21
576.09771054291264
 31
0.0
  0
LINE
  5
18517
  8
AM_0
 10
654.17192960945556
 20
558.03770054291249
 30
0.0
 11
571.67192960945567
 21
558.03770054291249
 31
0.0
  0
LINE
  5
18518
  8
AM_0
 10
674.34704239314374
 20
556.53268710524856
 30
0.0
 11
679.67192960945567
 21
567.90771054291258
 31
0.0
  0
LINE
  5
18519
  8
AM_0
 10
654.17198960945575
 20
558.03771054291258
 30
0.0
 11
674.34941960945571
 21
556.53771054291246
 31
0.0
  0
LINE
  5
1851A
  8
AM_0
 10
676.42192960945556
 20
578.93771054291255
 30
0.0
 11
642.67192960945567
 21
578.93771054291255
 31
0.0
  0
LINE
  5
1851B
  8
AM_0
 10
676.40190960945574
 20
580.78771054291258
 30
0.0
 11
642.67192960945567
 21
580.78771054291258
 31
0.0
  0
LINE
  5
1851C
  8
AM_0
 10
676.38194960945589
 20
581.69772054291229
 30
0.0
 11
642.67192960945567
 21
581.69772054291229
 31
0.0
  0
ARC
  5
1851D
  8
AM_0
 10
676.38725960945555
 20
579.70423054291246
 30
0.0
 40
1.9934921000000001
 50
7.8852600000007271
 51
90.153908999998634
  0
LINE
  5
1851E
  8
AM_0
 10
679.67192960945567
 20
567.90772054291244
 30
0.0
 11
678.43193960945575
 21
574.4677205429125
 31
0.0
  0
LINE
  5
1851F
  8
AM_0
 10
679.67192960945567
 20
569.24772054291259
 30
0.0
 11
678.39195960945574
 21
577.25771054291249
 31
0.0
  0
LINE
  5
18520
  8
AM_0
 10
679.67186960945571
 20
570.59773054291259
 30
0.0
 11
678.38188960945558
 21
579.08772054291262
 31
0.0
  0
LINE
  5
18521
  8
AM_0
 10
679.67192960945567
 20
570.59769054291257
 30
0.0
 11
678.36192960945573
 21
579.97770054291254
 31
0.0
  0
ARC
  5
18522
  8
AM_0
 10
676.46904960945585
 20
574.10081054291254
 30
0.0
 40
1.9969039999999989
 50
10.587439999998541
 51
89.916526000000388
  0
ARC
  5
18523
  8
AM_0
 10
676.42351960945575
 20
576.94457054291252
 30
0.0
 40
1.9931281000000001
 50
9.0388199999996193
 51
90.046626999999518
  0
ARC
  5
18524
  8
AM_0
 10
676.40922960945556
 20
578.79314054291262
 30
0.0
 40
1.994588
 50
8.4929100000020856
 51
90.209246999997603
  0
ARC
  5
18525
  8
AM_0
 10
642.67320960945574
 20
579.69642054291262
 30
0.0
 40
2.001287899999999
 50
90.036874000002058
 51
179.963128001001
  0
LINE
  5
18526
  8
AM_0
 10
640.67192960945556
 20
579.69770054291246
 30
0.0
 11
640.67192960945556
 21
576.09771054291264
 31
0.0
  0
ARC
  5
18527
  8
AM_0
 10
642.67235960945573
 20
576.93729054291259
 30
0.0
 40
2.000407899999999
 50
90.011650000002177
 51
179.9883509999992
  0
ARC
  5
18528
  8
AM_0
 10
642.67351960945587
 20
578.7861605429124
 30
0.0
 40
2.0015439999999991
 50
90.044216000000915
 51
179.9557860009991
  0
LINE
  5
18529
  8
AM_0
 10
573.47191960945565
 20
559.14773054291254
 30
0.0
 11
577.62190960945588
 21
574.60772054291238
 31
0.0
  0
LINE
  5
1852A
  8
AM_0
 10
571.67192960945567
 20
551.75272054291236
 30
0.0
 11
563.67195960945571
 21
551.75272054291236
 31
0.0
  0
ARC
  5
1852B
  8
AM_0
 10
572.0187296094557
 20
559.53548054291264
 30
0.0
 40
1.5027759999999999
 50
270.12241000000358
 51
345.2435700000006
  0
LINE
  5
1852C
  8
AM_0
 10
571.67192960945567
 20
575.81271054291255
 30
0.0
 11
563.67195960945571
 21
575.81271054291255
 31
0.0
  0
LINE
  5
1852D
  8
AM_0
 10
571.67192960945567
 20
565.81271054291255
 30
0.0
 11
563.67195960945571
 21
565.81271054291255
 31
0.0
  0
ARC
  5
1852E
  8
AM_0
 10
579.55473960945574
 20
574.09911054291251
 30
0.0
 40
1.9986041000000001
 50
90.080483999998862
 51
165.2572840000006
  0
LINE
  5
1852F
  8
AM_0
 10
577.13194960945589
 20
572.80772054291265
 30
0.0
 11
571.67192960945567
 21
572.80772054291265
 31
0.0
  0
LINE
  5
18530
  8
AM_0
 10
578.33192960945576
 20
483.81274245247232
 30
0.0
 11
677.31196960945556
 21
483.81274245247232
 31
0.0
  0
LINE
  5
18531
  8
AM_0
 10
578.33192960945576
 20
485.81274245247232
 30
0.0
 11
677.31196960945556
 21
485.81274245247232
 31
0.0
  0
LINE
  5
18532
  8
AM_0
 10
578.33912960945565
 20
495.81274245247232
 30
0.0
 11
677.31196960945556
 21
495.81274245247232
 31
0.0
  0
LINE
  5
18533
  8
AM_0
 10
677.99196960945574
 20
483.09277245247227
 30
0.0
 11
574.85194960945591
 21
483.09277245247227
 31
0.0
  0
LINE
  5
18534
  8
AM_0
 10
678.21193960945573
 20
496.2526824524723
 30
0.0
 11
574.63771960945564
 21
496.2526824524723
 31
0.0
  0
LINE
  5
18535
  8
AM_0
 10
578.32478960945571
 20
493.81274245247232
 30
0.0
 11
677.31196960945556
 21
493.81274245247232
 31
0.0
  0
LINE
  5
18536
  8
AM_0
 10
677.99196960945574
 20
486.44275245247252
 30
0.0
 11
574.85194960945591
 21
486.44275245247252
 31
0.0
  0
LINE
  5
18537
  8
AM_0
 10
678.21193960945573
 20
493.32275245247217
 30
0.0
 11
574.6262996094556
 21
493.32275245247217
 31
0.0
  0
POLYLINE
  5
18538
  8
AM_0
 66
     1
 10
0.0
 20
0.0
 30
0.0
  0
VERTEX
  5
18539
  8
AM_0
 10
677.26790960945573
 20
513.5423624524725
 30
0.0
 42
-0.00076691992
  0
VERTEX
  5
1853A
  8
AM_0
 10
677.25310960945569
 20
512.92459245247233
 30
0.0
 42
-0.00073262792
  0
VERTEX
  5
1853B
  8
AM_0
 10
677.23646960945575
 20
512.30700245247215
 30
0.0
 42
-0.00076529537
  0
VERTEX
  5
1853C
  8
AM_0
 10
677.2179796094556
 20
511.68933245247251
 30
0.0
 42
-0.00075141097
  0
VERTEX
  5
1853D
  8
AM_0
 10
677.19760960945575
 20
511.0717324524723
 30
0.0
 42
-0.00075841687
  0
VERTEX
  5
1853E
  8
AM_0
 10
677.17537960945572
 20
510.4543024524724
 30
0.0
 42
-0.00075711788
  0
VERTEX
  5
1853F
  8
AM_0
 10
677.15126960945565
 20
509.83679245247231
 30
0.0
 42
-0.00075976003
  0
VERTEX
  5
18540
  8
AM_0
 10
677.12527960945556
 20
509.21940245247248
 30
0.0
 42
-0.00075797311
  0
VERTEX
  5
18541
  8
AM_0
 10
677.09743960945559
 20
508.6021224524722
 30
0.0
 42
-0.0007482613
  0
VERTEX
  5
18542
  8
AM_0
 10
677.06770960945573
 20
507.98474245247229
 30
0.0
 42
-0.00074893561
  0
VERTEX
  5
18543
  8
AM_0
 10
677.03614960945572
 20
507.3676124524722
 30
0.0
 42
-0.00076039839
  0
VERTEX
  5
18544
  8
AM_0
 10
677.00272960945574
 20
506.75058245247232
 30
0.0
 42
-0.00075618786
  0
VERTEX
  5
18545
  8
AM_0
 10
676.96742960945573
 20
506.1335424524724
 30
0.0
  0
SEQEND
  5
18546
  8
AM_0
  0
LINE
  5
18547
  8
AM_0
 10
578.32859331604459
 20
513.81274245247243
 30
0.0
 11
677.31196960945556
 21
513.81274245247243
 31
0.0
  0
LINE
  5
18548
  8
AM_0
 10
578.32859331604459
 20
515.81274245247243
 30
0.0
 11
677.31196960945556
 21
515.81274245247243
 31
0.0
  0
LINE
  5
18549
  8
AM_0
 10
678.40193960945555
 20
513.54272245247239
 30
0.0
 11
574.28584035594884
 21
513.54272245247239
 31
0.0
  0
LINE
  5
1854A
  8
AM_0
 10
678.40193960945555
 20
516.07275245247217
 30
0.0
 11
574.44912763344632
 21
516.07275245247217
 31
0.0
  0
POLYLINE
  5
1854B
  8
AM_0
 66
     1
 10
0.0
 20
0.0
 30
0.0
  0
VERTEX
  5
1854C
  8
AM_0
 10
677.31196960945556
 20
519.81274245247243
 30
0.0
 42
-0.00039106649
  0
VERTEX
  5
1854D
  8
AM_0
 10
677.31432960945574
 20
519.50161245247216
 30
0.0
 42
-0.00035488198
  0
VERTEX
  5
1854E
  8
AM_0
 10
677.31621960945574
 20
519.19050245247251
 30
0.0
 42
-0.00039706113
  0
VERTEX
  5
1854F
  8
AM_0
 10
677.31764960945566
 20
518.87939245247219
 30
0.0
 42
-0.00038765718
  0
VERTEX
  5
18550
  8
AM_0
 10
677.3185796094557
 20
518.56825245247239
 30
0.0
 42
-0.00040613432
  0
VERTEX
  5
18551
  8
AM_0
 10
677.3190296094557
 20
518.2571524524725
 30
0.0
 42
-0.00035573434
  0
VERTEX
  5
18552
  8
AM_0
 10
677.31898960945568
 20
517.9460424524724
 30
0.0
 42
-0.00038545884
  0
VERTEX
  5
18553
  8
AM_0
 10
677.31849960945556
 20
517.63491245247246
 30
0.0
 42
-0.00035501205
  0
VERTEX
  5
18554
  8
AM_0
 10
677.31753960945571
 20
517.32380245247236
 30
0.0
 42
-0.00040120779
  0
VERTEX
  5
18555
  8
AM_0
 10
677.31611960945588
 20
517.01257245247234
 30
0.0
 42
-0.00038317817
  0
VERTEX
  5
18556
  8
AM_0
 10
677.3142096094557
 20
516.70144245247218
 30
0.0
 42
-0.00035656084
  0
VERTEX
  5
18557
  8
AM_0
 10
677.31182960945569
 20
516.39020245247218
 30
0.0
 42
-0.00040143615
  0
VERTEX
  5
18558
  8
AM_0
 10
677.30897960945572
 20
516.07910245247251
 30
0.0
  0
SEQEND
  5
18559
  8
AM_0
  0
ARC
  5
1855A
  8
AM_0
 10
678.40779960945565
 20
514.80774245247255
 30
0.0
 40
1.2650129999999991
 50
269.73557900000168
 51
90.264410000002513
  0
ARC
  5
1855B
  8
AM_0
 10
677.1273396094557
 20
514.81274245247243
 30
0.0
 40
1.0000138999999999
 50
269.69165999999939
 51
90.308340000000754
  0
ARC
  5
1855C
  8
AM_0
 10
578.33196970945573
 20
514.81274245247243
 30
0.0
 40
1.000005699999998
 50
89.999989999999016
 51
270.00000299999761
  0
ARC
  5
1855D
  8
AM_0
 10
574.44503320945557
 20
514.80273245247258
 30
0.0
 40
1.2700266
 50
89.629320000000007
 51
270.37066999999809
  0
LINE
  5
1855E
  8
AM_0
 10
578.3285933160231
 20
503.81274245247238
 30
0.0
 11
677.31196960945556
 21
503.81274245247238
 31
0.0
  0
LINE
  5
1855F
  8
AM_0
 10
578.32859331604811
 20
505.81274245247232
 30
0.0
 11
677.31196960945556
 21
505.81274245247232
 31
0.0
  0
LINE
  5
18560
  8
AM_0
 10
678.34193960945572
 20
503.4727824524723
 30
0.0
 11
574.34336165305524
 21
503.4727824524723
 31
0.0
  0
LINE
  5
18561
  8
AM_0
 10
678.34193960945572
 20
506.1326924524725
 30
0.0
 11
574.49488715146219
 21
506.1326924524725
 31
0.0
  0
ARC
  5
18562
  8
AM_0
 10
677.1273396094557
 20
494.81274245247238
 30
0.0
 40
1.0000138999999999
 50
269.69165999999939
 51
90.308340000000754
  0
ARC
  5
18563
  8
AM_0
 10
678.21193960945573
 20
494.78772245247239
 30
0.0
 40
1.465004
 50
270.00000299999761
 51
90.000000000000057
  0
POLYLINE
  5
18564
  8
AM_0
 66
     1
 10
0.0
 20
0.0
 30
0.0
  0
VERTEX
  5
18565
  8
AM_0
 10
676.79371960945571
 20
503.47217245247231
 30
0.0
 42
-0.0007337051
  0
VERTEX
  5
18566
  8
AM_0
 10
676.74957960945574
 20
502.86975245247231
 30
0.0
 42
-0.00075211323
  0
VERTEX
  5
18567
  8
AM_0
 10
676.70363960945576
 20
502.2673624524723
 30
0.0
 42
-0.0007297491
  0
VERTEX
  5
18568
  8
AM_0
 10
676.65590960945576
 20
501.66516245247232
 30
0.0
 42
-0.00073593041
  0
VERTEX
  5
18569
  8
AM_0
 10
676.60642960945574
 20
501.06317245247232
 30
0.0
 42
-0.00074742739
  0
VERTEX
  5
1856A
  8
AM_0
 10
676.5551596094557
 20
500.46130245247252
 30
0.0
 42
-0.00073217363
  0
VERTEX
  5
1856B
  8
AM_0
 10
676.50209960945574
 20
499.85950245247261
 30
0.0
 42
-0.00073754168
  0
VERTEX
  5
1856C
  8
AM_0
 10
676.44727960945556
 20
499.2579624524725
 30
0.0
 42
-0.00073075073
  0
VERTEX
  5
1856D
  8
AM_0
 10
676.39069960945574
 20
498.65660245247261
 30
0.0
 42
-0.00074550816
  0
VERTEX
  5
1856E
  8
AM_0
 10
676.33235960945569
 20
498.05554245247231
 30
0.0
 42
-0.00074288416
  0
VERTEX
  5
1856F
  8
AM_0
 10
676.27220960945556
 20
497.45452245247242
 30
0.0
 42
-0.00072504001
  0
VERTEX
  5
18570
  8
AM_0
 10
676.21029960945589
 20
496.85377245247253
 30
0.0
 42
-0.00074640667
  0
VERTEX
  5
18571
  8
AM_0
 10
676.14662960945589
 20
496.25317245247248
 30
0.0
  0
SEQEND
  5
18572
  8
AM_0
  0
ARC
  5
18573
  8
AM_0
 10
678.34193960945572
 20
504.8027324524723
 30
0.0
 40
1.3300049999999981
 50
270.00000299999761
 51
90.000000000000057
  0
ARC
  5
18574
  8
AM_0
 10
677.1273396094557
 20
504.81274245247232
 30
0.0
 40
1.0000138999999999
 50
269.69165999999939
 51
90.308340000000754
  0
POLYLINE
  5
18575
  8
AM_0
 66
     1
 10
0.0
 20
0.0
 30
0.0
  0
VERTEX
  5
18576
  8
AM_0
 10
675.8110596094557
 20
493.32971245247262
 30
0.0
 42
-0.00068898288
  0
VERTEX
  5
18577
  8
AM_0
 10
675.74017960945582
 20
492.75496245247263
 30
0.0
 42
-0.00070644354
  0
VERTEX
  5
18578
  8
AM_0
 10
675.66767960945572
 20
492.18027245247231
 30
0.0
 42
-0.00069248071
  0
VERTEX
  5
18579
  8
AM_0
 10
675.59358960945565
 20
491.60596245247251
 30
0.0
 42
-0.00069585665
  0
VERTEX
  5
1857A
  8
AM_0
 10
675.51790960945573
 20
491.03182245247251
 30
0.0
 42
-0.00068980191
  0
VERTEX
  5
1857B
  8
AM_0
 10
675.44060960945558
 20
490.45782245247239
 30
0.0
 42
-0.00072080104
  0
VERTEX
  5
1857C
  8
AM_0
 10
675.36171960945558
 20
489.88403245247252
 30
0.0
 42
-0.00071002307
  0
VERTEX
  5
1857D
  8
AM_0
 10
675.28117960945565
 20
489.31056245247231
 30
0.0
 42
-0.00072659056
  0
VERTEX
  5
1857E
  8
AM_0
 10
675.19901960945572
 20
488.73746245247219
 30
0.0
 42
-0.00069570481
  0
VERTEX
  5
1857F
  8
AM_0
 10
675.11519960945577
 20
488.1644324524724
 30
0.0
 42
-0.00071266935
  0
VERTEX
  5
18580
  8
AM_0
 10
675.02976960945557
 20
487.59166245247241
 30
0.0
 42
-0.00071614426
  0
VERTEX
  5
18581
  8
AM_0
 10
674.94273960945566
 20
487.01932245247241
 30
0.0
 42
-0.00072288975
  0
VERTEX
  5
18582
  8
AM_0
 10
674.85402960945567
 20
486.44702245247231
 30
0.0
  0
SEQEND
  5
18583
  8
AM_0
  0
ARC
  5
18584
  8
AM_0
 10
677.99934960945575
 20
484.76770245247241
 30
0.0
 40
1.6750160000000001
 50
269.7461450000045
 51
90.253870000000916
  0
ARC
  5
18585
  8
AM_0
 10
677.1273396094557
 20
484.81274245247232
 30
0.0
 40
1.0000138999999999
 50
269.69165999999939
 51
90.308340000000754
  0
ARC
  5
18586
  8
AM_0
 10
578.33196970945573
 20
504.81274245247232
 30
0.0
 40
1.000005699999998
 50
89.999989999999016
 51
270.00000299999761
  0
ARC
  5
18587
  8
AM_0
 10
574.5069832094556
 20
504.79773245247247
 30
0.0
 40
1.3350147999999999
 50
89.730429999999885
 51
270.26955600000139
  0
ARC
  5
18588
  8
AM_0
 10
578.33198960945572
 20
494.81274245247238
 30
0.0
 40
1.0000255999999981
 50
89.589470000003246
 51
270.41053099999777
  0
ARC
  5
18589
  8
AM_0
 10
574.6319796094557
 20
494.78271245247248
 30
0.0
 40
1.460011199999999
 50
89.77524999999666
 51
270.22475000000333
  0
ARC
  5
1858A
  8
AM_0
 10
578.33192960945576
 20
484.81274245247232
 30
0.0
 40
1.0
 50
89.999989999999016
 51
270.00000299999761
  0
ARC
  5
1858B
  8
AM_0
 10
574.85196977722148
 20
484.76772645247308
 30
0.0
 40
1.675026000120903
 50
90.000689856668657
 51
269.99931314329001
  0
LINE
  5
1858C
  8
AM_0
 10
578.32859726591619
 20
535.81274080915989
 30
0.0
 11
677.31197355934535
 21
535.81271637330042
 31
0.0
  0
LINE
  5
1858D
  8
AM_0
 10
578.32859677220438
 20
533.81274080915978
 30
0.0
 11
677.31197306560875
 21
533.81271637330042
 31
0.0
  0
LINE
  5
1858E
  8
AM_0
 10
578.32859479725425
 20
525.81274080916035
 30
0.0
 11
677.31197109066215
 21
525.81271637330065
 31
0.0
  0
LINE
  5
1858F
  8
AM_0
 10
578.32859430351755
 20
523.81274080916035
 30
0.0
 11
677.31197059692568
 21
523.81271637330076
 31
0.0
  0
LINE
  5
18590
  8
AM_0
 10
678.40194053273763
 20
523.55270610422156
 30
0.0
 11
574.44912855673124
 21
523.55273176687751
 31
0.0
  0
LINE
  5
18591
  8
AM_0
 10
678.40194115732174
 20
526.08273610422157
 30
0.0
 11
574.2858419038181
 21
526.08276180718781
 31
0.0
  0
LINE
  5
18592
  8
AM_0
 10
678.34194298662351
 20
533.49276611903338
 30
0.0
 11
574.49489052863316
 21
533.49279175558047
 31
0.0
  0
LINE
  5
18593
  8
AM_0
 10
678.34194364327084
 20
536.15267611903334
 30
0.0
 11
574.34336568687365
 21
536.1527017929875
 31
0.0
  0
LINE
  5
18594
  8
AM_0
 10
677.99197784744592
 20
553.18270620542933
 30
0.0
 11
574.85195784744894
 21
553.18273166743245
 31
0.0
  0
LINE
  5
18595
  8
AM_0
 10
578.32479602803176
 20
545.8127408100986
 30
0.0
 11
677.31197602802865
 21
545.81271637330019
 31
0.0
  0
LINE
  5
18596
  8
AM_0
 10
678.21194614899173
 20
546.30270615112613
 30
0.0
 11
574.6263061489949
 21
546.30273172313878
 31
0.0
  0
LINE
  5
18597
  8
AM_0
 10
678.21194542568492
 20
543.37277615112612
 30
0.0
 11
574.63772542568802
 21
543.37280172031944
 31
0.0
  0
LINE
  5
18598
  8
AM_0
 10
677.9919786744498
 20
556.5326862054294
 30
0.0
 11
574.85195867445293
 21
556.53271166743275
 31
0.0
  0
LINE
  5
18599
  8
AM_0
 10
578.33913553429522
 20
543.81274080655862
 30
0.0
 11
677.31197553429195
 21
543.81271637330008
 31
0.0
  0
LINE
  5
1859A
  8
AM_0
 10
578.3319380029784
 20
553.81274080833589
 30
0.0
 11
677.31197800297537
 21
553.81271637329985
 31
0.0
  0
LINE
  5
1859B
  8
AM_0
 10
578.33193849671511
 20
555.81274080833578
 30
0.0
 11
677.31197849671196
 21
555.81271637329974
 31
0.0
  0
ARC
  5
1859C
  8
AM_0
 10
578.33197094379716
 20
524.81274080832657
 30
0.0
 40
1.000005699999998
 50
89.999982855487545
 51
269.9999958554863
  0
ARC
  5
1859D
  8
AM_0
 10
578.33197341248024
 20
534.81274080832645
 30
0.0
 40
1.000005699999998
 50
89.999982855487545
 51
269.9999958554863
  0
ARC
  5
1859E
  8
AM_0
 10
574.44503444626844
 20
524.82275176788824
 30
0.0
 40
1.2700266
 50
89.629315855484165
 51
270.37066585548888
  0
ARC
  5
1859F
  8
AM_0
 10
574.50698691618595
 20
534.82775175259451
 30
0.0
 40
1.3350147999999999
 50
89.730429855483663
 51
270.26955585548512
  0
ARC
  5
185A0
  8
AM_0
 10
578.33193824984676
 20
554.81274080833578
 30
0.0
 40
1.0
 50
89.999982855487545
 51
269.9999958554863
  0
ARC
  5
185A1
  8
AM_0
 10
578.33199578116341
 20
544.81274080832111
 30
0.0
 40
1.0000255999999981
 50
89.589454855482614
 51
270.41051585548371
  0
ARC
  5
185A2
  8
AM_0
 10
574.63198578857714
 20
544.84277172173643
 30
0.0
 40
1.460011199999999
 50
89.775235855483814
 51
270.22473585548403
  0
ARC
  5
185A3
  8
AM_0
 10
574.85197842872572
 20
554.85775766742688
 30
0.0
 40
1.675026000120903
 50
90.000672712195325
 51
269.99929599882307
  0
POLYLINE
  5
185A4
  8
AM_0
 66
     1
 10
0.0
 20
0.0
 30
0.0
  0
VERTEX
  5
185A5
  8
AM_0
 10
676.79372364342157
 20
536.1532865012399
 30
0.0
 42
0.0007337051
  0
VERTEX
  5
185A6
  8
AM_0
 10
676.74958379214002
 20
536.75570651213673
 30
0.0
 42
0.00075211323
  0
VERTEX
  5
185A7
  8
AM_0
 10
676.70364394085095
 20
537.35809652347768
 30
0.0
 42
0.0007297491
  0
VERTEX
  5
185A8
  8
AM_0
 10
676.65591408951514
 20
537.96029653526057
 30
0.0
 42
0.00073593041
  0
VERTEX
  5
185A9
  8
AM_0
 10
676.60643423812724
 20
538.56228654747565
 30
0.0
 42
0.00074742739
  0
VERTEX
  5
185AA
  8
AM_0
 10
676.55516438670975
 20
539.16415656013237
 30
0.0
 42
0.00073217363
  0
VERTEX
  5
185AB
  8
AM_0
 10
676.50210453527529
 20
539.76595657323151
 30
0.0
 42
0.00073754168
  0
VERTEX
  5
185AC
  8
AM_0
 10
676.44728468377662
 20
540.36749658676456
 30
0.0
 42
0.00073075073
  0
VERTEX
  5
185AD
  8
AM_0
 10
676.39070483223315
 20
540.96885660073235
 30
0.0
 42
0.00074550816
  0
VERTEX
  5
185AE
  8
AM_0
 10
676.33236498061603
 20
541.56991661513484
 30
0.0
 42
0.00074288416
  0
VERTEX
  5
185AF
  8
AM_0
 10
676.27221512898871
 20
542.17093662998411
 30
0.0
 42
0.00072504001
  0
VERTEX
  5
185B0
  8
AM_0
 10
676.21030527729499
 20
542.77168664526755
 30
0.0
 42
0.00074640667
  0
VERTEX
  5
185B1
  8
AM_0
 10
676.146635425564
 20
543.37228666098576
 30
0.0
  0
SEQEND
  5
185B2
  8
AM_0
  0
POLYLINE
  5
185B3
  8
AM_0
 66
     1
 10
0.0
 20
0.0
 30
0.0
  0
VERTEX
  5
185B4
  8
AM_0
 10
677.26791115741071
 20
526.08309638417779
 30
0.0
 42
0.00076691992
  0
VERTEX
  5
185B5
  8
AM_0
 10
677.25311130991872
 20
526.70086638783118
 30
0.0
 42
0.00073262792
  0
VERTEX
  5
185B6
  8
AM_0
 10
677.23647146238193
 20
527.31845639193932
 30
0.0
 42
0.00076529537
  0
VERTEX
  5
185B7
  8
AM_0
 10
677.21798161486527
 20
527.93612639650382
 30
0.0
 42
0.00075141097
  0
VERTEX
  5
185B8
  8
AM_0
 10
677.19761176733095
 20
528.55372640153234
 30
0.0
 42
0.00075841687
  0
VERTEX
  5
185B9
  8
AM_0
 10
677.17538191975484
 20
529.17115640702036
 30
0.0
 42
0.00075711788
  0
VERTEX
  5
185BA
  8
AM_0
 10
677.15127207219859
 20
529.78866641297225
 30
0.0
 42
0.00075976003
  0
VERTEX
  5
185BB
  8
AM_0
 10
677.12528222461265
 20
530.40605641938851
 30
0.0
 42
0.00075797311
  0
VERTEX
  5
185BC
  8
AM_0
 10
677.09744237699931
 20
531.02333642626127
 30
0.0
 42
0.0007482613
  0
VERTEX
  5
185BD
  8
AM_0
 10
677.06771252941098
 20
531.64071643360057
 30
0.0
 42
0.00074893561
  0
VERTEX
  5
185BE
  8
AM_0
 10
677.036152681761
 20
532.25784644139185
 30
0.0
 42
0.00076039839
  0
VERTEX
  5
185BF
  8
AM_0
 10
677.00273283408603
 20
532.87487644964187
 30
0.0
 42
0.00075618786
  0
VERTEX
  5
185C0
  8
AM_0
 10
676.96743298641366
 20
533.49191645835663
 30
0.0
  0
SEQEND
  5
185C1
  8
AM_0
  0
POLYLINE
  5
185C2
  8
AM_0
 66
     1
 10
0.0
 20
0.0
 30
0.0
  0
VERTEX
  5
185C3
  8
AM_0
 10
677.31196960945249
 20
519.81271637330076
 30
0.0
 42
0.00039106649
  0
VERTEX
  5
185C4
  8
AM_0
 10
677.31432968626075
 20
520.12384637271816
 30
0.0
 42
0.00035488198
  0
VERTEX
  5
185C5
  8
AM_0
 10
677.31621976306394
 20
520.43495637225135
 30
0.0
 42
0.00039706113
  0
VERTEX
  5
185C6
  8
AM_0
 10
677.31764983986704
 20
520.74606637189845
 30
0.0
 42
0.00038765718
  0
VERTEX
  5
185C7
  8
AM_0
 10
677.31857991667766
 20
521.05720637166905
 30
0.0
 42
0.00040613432
  0
VERTEX
  5
185C8
  8
AM_0
 10
677.31902999347847
 20
521.36830637155788
 30
0.0
 42
0.00035573434
  0
VERTEX
  5
185C9
  8
AM_0
 10
677.31899007028164
 20
521.67941637156764
 30
0.0
 42
0.00038545884
  0
VERTEX
  5
185CA
  8
AM_0
 10
677.31850014708982
 20
521.99054637168865
 30
0.0
 42
0.00035501205
  0
VERTEX
  5
185CB
  8
AM_0
 10
677.31754022389293
 20
522.30165637192579
 30
0.0
 42
0.00040120779
  0
VERTEX
  5
185CC
  8
AM_0
 10
677.31612030072574
 20
522.61288637227608
 30
0.0
 42
0.00038317817
  0
VERTEX
  5
185CD
  8
AM_0
 10
677.31421037753398
 20
522.92401637274781
 30
0.0
 42
0.00035656084
  0
VERTEX
  5
185CE
  8
AM_0
 10
677.31183045436933
 20
523.23525637333535
 30
0.0
 42
0.00040143615
  0
VERTEX
  5
185CF
  8
AM_0
 10
677.30898053116994
 20
523.54635637403874
 30
0.0
  0
SEQEND
  5
185D0
  8
AM_0
  0
ARC
  5
185D1
  8
AM_0
 10
677.12734084379417
 20
524.81271641887986
 30
0.0
 40
1.0000138999999999
 50
269.6916458554881
 51
90.308325855489613
  0
ARC
  5
185D2
  8
AM_0
 10
678.40780084502853
 20
524.81771610277508
 30
0.0
 40
1.2650129999999991
 50
269.73557585548849
 51
90.264406855489256
  0
ARC
  5
185D3
  8
AM_0
 10
677.12734331247725
 20
534.81271641887975
 30
0.0
 40
1.0000138999999999
 50
269.6916458554881
 51
90.308325855489613
  0
ARC
  5
185D4
  8
AM_0
 10
678.34194331494825
 20
534.82272611903318
 30
0.0
 40
1.3300049999999981
 50
269.99998585548531
 51
89.999982855487545
  0
POLYLINE
  5
185D5
  8
AM_0
 66
     1
 10
0.0
 20
0.0
 30
0.0
  0
VERTEX
  5
185D6
  8
AM_0
 10
675.81106614727355
 20
546.29574674382729
 30
0.0
 42
0.00068898288
  0
VERTEX
  5
185D7
  8
AM_0
 10
675.74018628916122
 20
546.87049676132528
 30
0.0
 42
0.00070644354
  0
VERTEX
  5
185D8
  8
AM_0
 10
675.66768643103399
 20
547.44518677922315
 30
0.0
 42
0.00069248071
  0
VERTEX
  5
185D9
  8
AM_0
 10
675.593596572813
 20
548.01949679751363
 30
0.0
 42
0.00069585665
  0
VERTEX
  5
185DA
  8
AM_0
 10
675.51791671454998
 20
548.59363681619664
 30
0.0
 42
0.00068980191
  0
VERTEX
  5
185DB
  8
AM_0
 10
675.4406168562524
 20
549.1676368352795
 30
0.0
 42
0.00072080104
  0
VERTEX
  5
185DC
  8
AM_0
 10
675.36172699790291
 20
549.74142685475465
 30
0.0
 42
0.00071002307
  0
VERTEX
  5
185DD
  8
AM_0
 10
675.28118713947447
 20
550.3148968746375
 30
0.0
 42
0.00072659056
  0
VERTEX
  5
185DE
  8
AM_0
 10
675.19902728095474
 20
550.88799689492021
 30
0.0
 42
0.00069570481
  0
VERTEX
  5
185DF
  8
AM_0
 10
675.11520742241771
 20
551.46102691561282
 30
0.0
 42
0.00071266935
  0
VERTEX
  5
185E0
  8
AM_0
 10
675.02977756381642
 20
552.03379693670286
 30
0.0
 42
0.00071614426
  0
VERTEX
  5
185E1
  8
AM_0
 10
674.94274770510913
 20
552.60613695818756
 30
0.0
 42
0.00072288975
  0
VERTEX
  5
185E2
  8
AM_0
 10
674.85403784639186
 20
553.17843698008733
 30
0.0
  0
SEQEND
  5
185E3
  8
AM_0
  0
ARC
  5
185E4
  8
AM_0
 10
678.21194578733707
 20
544.83773615112614
 30
0.0
 40
1.465004
 50
269.99998585548531
 51
89.999982855487545
  0
ARC
  5
185E5
  8
AM_0
 10
677.12734578116056
 20
544.8127164188794
 30
0.0
 40
1.0000138999999999
 50
269.6916458554881
 51
90.308325855489613
  0
ARC
  5
185E6
  8
AM_0
 10
677.12734824984364
 20
554.81271641887895
 30
0.0
 40
1.0000138999999999
 50
269.6916458554881
 51
90.308325855489613
  0
ARC
  5
185E7
  8
AM_0
 10
677.99935826096271
 20
554.85775620360744
 30
0.0
 40
1.6750160000000001
 50
269.74611585548217
 51
90.253840855485208
  0
LINE
  5
185E8
  8
ｶｸﾚｾﾝ2
 10
670.1719296094559
 20
483.81275977175562
 30
0.0
 11
586.6719296094559
 21
483.81275977175562
 31
0.0
  0
LINE
  5
185E9
  8
ｶｸﾚｾﾝ2
 10
586.6719296094559
 20
555.81275977175551
 30
0.0
 11
670.1719296094559
 21
555.81275977175551
 31
0.0
  0
LINE
  5
185EA
  8
ｶｸﾚｾﾝ2
 10
673.6719296094559
 20
552.31275977175551
 30
0.0
 11
673.6719296094559
 21
487.31275977175522
 31
0.0
  0
ARC
  5
185EB
  8
ｶｸﾚｾﾝ2
 10
670.1719296094559
 20
552.31275977175551
 30
0.0
 40
3.5
 50
0.0
 51
90.000000000000057
  0
ARC
  5
185EC
  8
ｶｸﾚｾﾝ2
 10
670.1719296094559
 20
487.31275977175522
 30
0.0
 40
3.5
 50
270.0
 51
0.0
  0
LINE
  5
185ED
  8
ｶｸﾚｾﾝ2
 10
584.67192960945567
 20
553.81275977175528
 30
0.0
 11
584.67192960945567
 21
546.31275977175562
 31
0.0
  0
ARC
  5
185EE
  8
ｶｸﾚｾﾝ2
 10
586.6719296094559
 20
553.81275977175528
 30
0.0
 40
2.0
 50
90.000000000000057
 51
180.0
  0
LINE
  5
185EF
  8
ｶｸﾚｾﾝ2
 10
586.6719296094559
 20
544.31275977175551
 30
0.0
 11
587.1719296094559
 21
544.31275977175551
 31
0.0
  0
ARC
  5
185F0
  8
ｶｸﾚｾﾝ2
 10
587.1719296094559
 20
542.31275977175551
 30
0.0
 40
2.0
 50
0.0
 51
90.000000000000057
  0
ARC
  5
185F1
  8
ｶｸﾚｾﾝ2
 10
586.6719296094559
 20
546.31275977175551
 30
0.0
 40
2.0
 50
180.0
 51
270.0
  0
ARC
  5
185F2
  8
ｶｸﾚｾﾝ2
 10
587.1719296094559
 20
497.3127597717554
 30
0.0
 40
2.0
 50
270.0
 51
0.0
  0
LINE
  5
185F3
  8
ｶｸﾚｾﾝ2
 10
589.17192960945567
 20
497.3127597717554
 30
0.0
 11
589.17192960945567
 21
542.31275977175562
 31
0.0
  0
ARC
  5
185F4
  8
ｶｸﾚｾﾝ2
 10
586.6719296094559
 20
485.8127597717554
 30
0.0
 40
2.0
 50
180.0
 51
270.0
  0
LINE
  5
185F5
  8
ｶｸﾚｾﾝ2
 10
587.1719296094559
 20
495.31275977175528
 30
0.0
 11
586.6719296094559
 21
495.31275977175528
 31
0.0
  0
ARC
  5
185F6
  8
ｶｸﾚｾﾝ2
 10
586.6719296094559
 20
493.3127597717554
 30
0.0
 40
2.0
 50
90.000000000000057
 51
180.0
  0
LINE
  5
185F7
  8
ｶｸﾚｾﾝ2
 10
584.67192960945567
 20
493.3127597717554
 30
0.0
 11
584.67192960945567
 21
485.8127597717554
 31
0.0
  0
LINE
  5
185F8
  8
ｶｸﾚｾﾝ2
 10
584.67192960945567
 20
493.3127597717554
 30
0.0
 11
584.67192960945567
 21
485.8127597717554
 31
0.0
  0
LINE
  5
185F9
  8
AM_0
 10
677.99196960945585
 20
303.02502298966721
 30
0.0
 11
610.65193960945589
 21
303.02502298966721
 31
0.0
  0
LINE
  5
185FA
  8
AM_0
 10
678.21193960945573
 20
296.14502298966732
 30
0.0
 11
610.67195960945583
 21
296.14502298966732
 31
0.0
  0
LINE
  5
185FB
  8
AM_0
 10
676.46193960945573
 20
325.93506298966719
 30
0.0
 11
579.54194960945586
 21
325.93506298966719
 31
0.0
  0
LINE
  5
185FC
  8
AM_0
 10
676.42195960945571
 20
328.78503298966717
 30
0.0
 11
579.54194960945586
 21
328.78503298966717
 31
0.0
  0
LINE
  5
185FD
  8
AM_0
 10
676.40193960945589
 20
330.6350129896673
 30
0.0
 11
579.54194960945586
 21
330.6350129896673
 31
0.0
  0
LINE
  5
185FE
  8
AM_0
 10
676.38197960945604
 20
331.54504298966708
 30
0.0
 11
579.54188960945589
 21
331.54504298966708
 31
0.0
  0
LINE
  5
185FF
  8
AM_0
 10
578.33192960945598
 20
305.6550329896674
 30
0.0
 11
677.3119696094559
 21
305.6550329896674
 31
0.0
  0
LINE
  5
18600
  8
AM_0
 10
578.33192960945598
 20
303.6550329896674
 30
0.0
 11
677.3119696094559
 21
303.6550329896674
 31
0.0
  0
LINE
  5
18601
  8
AM_0
 10
678.34193960945584
 20
253.3150629896673
 30
0.0
 11
642.000689609456
 21
253.3150629896673
 31
0.0
  0
LINE
  5
18602
  8
AM_0
 10
678.40193960945555
 20
265.92505298966722
 30
0.0
 11
641.9532696094559
 21
265.92505298966722
 31
0.0
  0
LINE
  5
18603
  8
AM_0
 10
643.23323960945584
 20
265.6550329896674
 30
0.0
 11
677.3119696094559
 21
265.6550329896674
 31
0.0
  0
LINE
  5
18604
  8
AM_0
 10
643.23323960945584
 20
263.6550329896674
 30
0.0
 11
677.3119696094559
 21
263.6550329896674
 31
0.0
  0
LINE
  5
18605
  8
AM_0
 10
678.40193960945555
 20
263.38501298966742
 30
0.0
 11
641.9532696094559
 21
263.38501298966742
 31
0.0
  0
LINE
  5
18606
  8
AM_0
 10
678.34193960945584
 20
255.97497298966741
 30
0.0
 11
642.01326960945573
 21
255.97497298966741
 31
0.0
  0
LINE
  5
18607
  8
AM_0
 10
643.23323960945584
 20
255.65503298966729
 30
0.0
 11
677.3119696094559
 21
255.65503298966729
 31
0.0
  0
LINE
  5
18608
  8
AM_0
 10
643.23323960945584
 20
253.65503298966729
 30
0.0
 11
677.3119696094559
 21
253.65503298966729
 31
0.0
  0
LINE
  5
18609
  8
AM_0
 10
643.23323960945584
 20
275.65503298966729
 30
0.0
 11
677.3119696094559
 21
275.65503298966729
 31
0.0
  0
LINE
  5
1860A
  8
AM_0
 10
643.23323960945584
 20
273.65503298966729
 30
0.0
 11
677.3119696094559
 21
273.65503298966729
 31
0.0
  0
LINE
  5
1860B
  8
AM_0
 10
678.40193960945555
 20
275.92505298966722
 30
0.0
 11
641.9532696094559
 21
275.92505298966722
 31
0.0
  0
LINE
  5
1860C
  8
AM_0
 10
678.40193960945555
 20
273.39502298966732
 30
0.0
 11
641.9532696094559
 21
273.39502298966732
 31
0.0
  0
LINE
  5
1860D
  8
AM_0
 10
643.23323960945584
 20
285.65503298966729
 30
0.0
 11
677.3119696094559
 21
285.65503298966729
 31
0.0
  0
LINE
  5
1860E
  8
AM_0
 10
678.34193960945584
 20
285.99499298966731
 30
0.0
 11
642.01326960945573
 21
285.99499298966731
 31
0.0
  0
LINE
  5
1860F
  8
AM_0
 10
643.23323960945584
 20
283.65503298966729
 30
0.0
 11
677.3119696094559
 21
283.65503298966729
 31
0.0
  0
LINE
  5
18610
  8
AM_0
 10
678.34193960945584
 20
283.33508298966728
 30
0.0
 11
642.01326960945573
 21
283.33508298966728
 31
0.0
  0
LINE
  5
18611
  8
AM_0
 10
676.76570960945571
 20
210.52502298966721
 30
0.0
 11
654.33930941078916
 21
210.52502298966721
 31
0.0
  0
LINE
  5
18612
  8
AM_0
 10
676.46193960945573
 20
213.37500298966719
 30
0.0
 11
579.54194960945586
 21
213.37500298966719
 31
0.0
  0
LINE
  5
18613
  8
AM_0
 10
610.67195960945583
 20
243.65503298966729
 30
0.0
 11
677.3119696094559
 21
243.65503298966729
 31
0.0
  0
LINE
  5
18614
  8
AM_0
 10
678.21193960945573
 20
243.16504298966731
 30
0.0
 11
610.67195960945583
 21
243.16504298966731
 31
0.0
  0
LINE
  5
18615
  8
AM_0
 10
677.99196960945585
 20
232.93506298966719
 30
0.0
 11
622.67195960945583
 21
232.93506298966719
 31
0.0
  0
LINE
  5
18616
  8
AM_0
 10
677.99196960945585
 20
236.2850329896672
 30
0.0
 11
610.65193960945589
 21
236.2850329896672
 31
0.0
  0
LINE
  5
18617
  8
AM_0
 10
622.67195960945583
 20
235.65503298966729
 30
0.0
 11
677.3119696094559
 21
235.65503298966729
 31
0.0
  0
LINE
  5
18618
  8
AM_0
 10
622.67195960945583
 20
233.65503298966729
 30
0.0
 11
677.3119696094559
 21
233.65503298966729
 31
0.0
  0
LINE
  5
18619
  8
AM_0
 10
578.33912960945599
 20
245.65503298966729
 30
0.0
 11
677.3119696094559
 21
245.65503298966729
 31
0.0
  0
LINE
  5
1861A
  8
AM_0
 10
610.67195960945583
 20
295.65503298966729
 30
0.0
 11
677.3119696094559
 21
295.65503298966729
 31
0.0
  0
LINE
  5
1861B
  8
AM_0
 10
578.33912960945599
 20
293.65503298966729
 30
0.0
 11
677.3119696094559
 21
293.65503298966729
 31
0.0
  0
LINE
  5
1861C
  8
AM_0
 10
666.36979717787699
 20
200.15503298966729
 30
0.0
 11
648.76979717787697
 21
200.15503298966729
 31
0.0
  0
LINE
  5
1861D
  8
ﾁｭｳｼﾝｾﾝ1
 10
669.06979717786749
 20
183.15503298966729
 30
0.0
 11
645.06979717788624
 21
183.15503298966729
 31
0.0
  0
ARC
  5
1861E
  8
AM_0
 10
657.06979717787692
 20
183.15503298966729
 30
0.0
 40
9.3000000000000007
 50
180.0
 51
0.000000000000007
  0
LINE
  5
1861F
  8
AM_0
 10
669.65122096208802
 20
171.15503298966729
 30
0.0
 11
637.67315122335583
 21
176.60345902641129
 31
0.0
  0
LINE
  5
18620
  8
AM_0
 10
669.56979717787692
 20
170.15503298966729
 30
0.0
 11
593.26979717787685
 21
183.15503298966729
 31
0.0
  0
LINE
  5
18621
  8
AM_0
 10
669.56979717787692
 20
170.15503298966729
 30
0.0
 11
593.26979717787685
 21
183.15503298966729
 31
0.0
  0
LINE
  5
18622
  8
AM_0
 10
593.76979717787594
 20
166.15503298966729
 30
0.0
 11
669.24410204103583
 21
166.15503298966729
 31
0.0
  0
LINE
  5
18623
  8
AM_0
 10
592.94410204103599
 20
179.15503298966729
 30
0.0
 11
669.24410204103583
 21
166.15503298966729
 31
0.0
  0
LINE
  5
18624
  8
AM_0
 10
678.21193960945573
 20
246.0949729896673
 30
0.0
 11
574.63771960945587
 21
246.0949729896673
 31
0.0
  0
LINE
  5
18625
  8
AM_0
 10
677.99196960945585
 20
306.37500298966728
 30
0.0
 11
574.85194960945591
 21
306.37500298966728
 31
0.0
  0
LINE
  5
18626
  8
AM_0
 10
678.21193960945573
 20
293.21509298966731
 30
0.0
 11
574.63771960945587
 21
293.21509298966731
 31
0.0
  0
POLYLINE
  5
18627
  8
AM_0
 66
     1
 10
0.0
 20
0.0
 30
0.0
  0
VERTEX
  5
18628
  8
AM_0
 10
677.26790960945584
 20
263.38464298966721
 30
0.0
 42
-0.00076695235
  0
VERTEX
  5
18629
  8
AM_0
 10
677.25310960945603
 20
262.76688298966729
 30
0.0
 42
-0.00073263043
  0
VERTEX
  5
1862A
  8
AM_0
 10
677.23646960945598
 20
262.14928298966731
 30
0.0
 42
-0.00076525988
  0
VERTEX
  5
1862B
  8
AM_0
 10
677.21797960945605
 20
261.53161298966722
 30
0.0
 42
-0.00075144488
  0
VERTEX
  5
1862C
  8
AM_0
 10
677.19760960945575
 20
260.9140129896673
 30
0.0
 42
-0.00076035096
  0
VERTEX
  5
1862D
  8
AM_0
 10
677.17536960945574
 20
260.29658298966729
 30
0.0
 42
-0.00075543154
  0
VERTEX
  5
1862E
  8
AM_0
 10
677.15126960945599
 20
259.6792029896672
 30
0.0
 42
-0.0007577325
  0
VERTEX
  5
1862F
  8
AM_0
 10
677.12528960945588
 20
259.0618029896674
 30
0.0
 42
-0.00076034585
  0
VERTEX
  5
18630
  8
AM_0
 10
677.09743960945582
 20
258.44441298966723
 30
0.0
 42
-0.00074823143
  0
VERTEX
  5
18631
  8
AM_0
 10
677.06770960945585
 20
257.82702298966728
 30
0.0
 42
-0.00074896605
  0
VERTEX
  5
18632
  8
AM_0
 10
677.03614960945595
 20
257.2098929896672
 30
0.0
 42
-0.00076039763
  0
VERTEX
  5
18633
  8
AM_0
 10
677.00272960945574
 20
256.59286298966742
 30
0.0
 42
-0.00075616127
  0
VERTEX
  5
18634
  8
AM_0
 10
676.96742960945573
 20
255.97583298966731
 30
0.0
  0
SEQEND
  5
18635
  8
AM_0
  0
LINE
  5
18636
  8
AM_0
 10
687.67195960945571
 20
328.4050329896674
 30
0.0
 11
687.67195960945571
 21
210.90503298966729
 31
0.0
  0
LINE
  5
18637
  8
AM_0
 10
679.67195960945571
 20
322.6550329896674
 30
0.0
 11
679.67195960945571
 21
216.65503298966729
 31
0.0
  0
LINE
  5
18638
  8
AM_0
 10
692.67195960945571
 20
232.4699729896673
 30
0.0
 11
692.67195960945571
 21
306.84106298966708
 31
0.0
  0
LINE
  5
18639
  8
AM_0
 10
743.17338970945582
 20
325.65503298966729
 30
0.0
 11
743.17338970945582
 21
274.6550329896674
 31
0.0
  0
LINE
  5
1863A
  8
AM_0
 10
737.67195960945571
 20
235.12597298966719
 30
0.0
 11
737.67195960945571
 21
304.18408298966727
 31
0.0
  0
LINE
  5
1863C
  8
AM_0
 10
735.1719596094556
 20
216.87304298966731
 30
0.0
 11
735.1719596094556
 21
322.40503298966701
 31
0.0
  0
LINE
  5
1863D
  8
AM_0
 10
672.16979717787694
 20
199.15503298966729
 30
0.0
 11
672.16979717787694
 21
176.15503298966729
 31
0.0
  0
LINE
  5
1863E
  8
AM_0
 10
666.36979717787699
 20
200.15503298966729
 30
0.0
 11
666.36979717787699
 21
183.15503298966729
 31
0.0
  0
LINE
  5
1863F
  8
AM_0
 10
672.46979717787701
 20
171.15503298966729
 30
0.0
 11
672.46979717787701
 21
172.15067567038329
 31
0.0
  0
LINE
  5
18640
  8
AM_0
 10
672.16979717787694
 20
176.15503298966729
 30
0.0
 11
672.16979717787785
 21
171.15503298966729
 31
0.0
  0
LINE
  5
18641
  8
AM_0
 10
672.66979717787694
 20
171.15503298966729
 30
0.0
 11
672.66979717787694
 21
174.8550329896683
 31
0.0
  0
LINE
  5
18642
  8
AM_0
 10
674.16979717787592
 20
174.8550329896683
 30
0.0
 11
674.16979717787592
 21
167.65503298966729
 31
0.0
  0
LINE
  5
18643
  8
AM_0
 10
672.16979717787694
 20
166.15503298966729
 30
0.0
 11
669.24410204103583
 21
166.15503298966729
 31
0.0
  0
LINE
  5
18644
  8
AM_0
 10
673.66979717787694
 20
170.15503298966729
 30
0.0
 11
669.56979717787692
 21
170.15503298966729
 31
0.0
  0
LINE
  5
18645
  8
AM_0
 10
673.36979717787676
 20
170.15503298966729
 30
0.0
 11
669.56979717787692
 21
170.15503298966729
 31
0.0
  0
LINE
  5
18646
  8
AM_0
 10
672.66979717787592
 20
166.15503298966729
 30
0.0
 11
672.37131128171893
 21
166.15503298966851
 31
0.0
  0
LINE
  5
18647
  8
AM_0
 10
673.66979717787694
 20
170.8550329896683
 30
0.0
 11
673.66979717787694
 21
170.15503298966729
 31
0.0
  0
ARC
  5
18648
  8
AM_0
 10
673.36979717787676
 20
169.8550329896683
 30
0.0
 40
0.3
 50
0.000000000000007
 51
90.0
  0
ARC
  5
18649
  8
AM_0
 10
673.36979717787676
 20
170.8550329896683
 30
0.0
 40
0.3
 50
0.000000000000007
 51
90.0
  0
LINE
  5
1864A
  8
AM_0
 10
673.66979717787694
 20
169.8550329896683
 30
0.0
 11
673.66979717787694
 21
167.65503298966729
 31
0.0
  0
LINE
  5
1864B
  8
AM_0
 10
669.65122096208802
 20
171.15503298966729
 30
0.0
 11
673.36979717787676
 21
171.15503298966729
 31
0.0
  0
ARC
  5
1864C
  8
AM_0
 10
672.66979717787592
 20
167.65503298966851
 30
0.0
 40
1.5
 50
270.00000000000648
 51
359.99999999999352
  0
ARC
  5
1864D
  8
AM_0
 10
672.16979717787694
 20
167.65503298966729
 30
0.0
 40
1.5
 50
270.0
 51
0.000000000000007
  0
ARC
  5
1864E
  8
AM_0
 10
672.96979717787701
 20
174.8550329896683
 30
0.0
 40
0.3
 50
90.0
 51
180.0
  0
LINE
  5
1864F
  8
AM_0
 10
672.26979717787685
 20
176.15503298966729
 30
0.0
 11
672.16979717787694
 21
176.15503298966729
 31
0.0
  0
LINE
  5
18650
  8
AM_0
 10
672.46979717787701
 20
175.95503298966821
 30
0.0
 11
672.26979717787685
 21
176.15503298966729
 31
0.0
  0
LINE
  5
18651
  8
AM_0
 10
672.46979717787701
 20
172.15067567038329
 30
0.0
 11
672.46979717787701
 21
173.35067567038331
 31
0.0
  0
LINE
  5
18652
  8
AM_0
 10
672.46979717787701
 20
172.15067567038329
 30
0.0
 11
672.66979717787694
 21
172.15067567038329
 31
0.0
  0
LINE
  5
18653
  8
AM_0
 10
672.66979717787694
 20
173.35067567038331
 30
0.0
 11
672.46979717787701
 21
173.35067567038331
 31
0.0
  0
LINE
  5
18654
  8
AM_0
 10
672.46979717787701
 20
173.35067567038331
 30
0.0
 11
672.46979717787701
 21
175.95503298966821
 31
0.0
  0
ARC
  5
18655
  8
AM_0
 10
673.86979717787585
 20
174.8550329896683
 30
0.0
 40
0.3
 50
0.000000000000007
 51
90.0
  0
LINE
  5
18656
  8
AM_0
 10
673.36979717787676
 20
175.15503298966729
 30
0.0
 11
673.86979717787585
 21
175.15503298966729
 31
0.0
  0
LINE
  5
18657
  8
AM_0
 10
672.96979717787701
 20
175.15503298966729
 30
0.0
 11
673.36979717787676
 21
175.15503298966729
 31
0.0
  0
LINE
  5
18658
  8
AM_0
 10
735.6719596094556
 20
216.90503298966729
 30
0.0
 11
687.67195960945571
 21
216.90503298966729
 31
0.0
  0
LINE
  5
18659
  8
AM_0
 10
735.1719596094556
 20
236.01404298966719
 30
0.0
 11
692.67195960945571
 21
236.01404298966719
 31
0.0
  0
LINE
  5
1865A
  8
AM_0
 10
735.1719596094556
 20
225.76404298966719
 30
0.0
 11
692.67195960945571
 21
225.76404298966719
 31
0.0
  0
LINE
  5
1865B
  8
AM_0
 10
712.67195960945571
 20
210.90503298966729
 30
0.0
 11
687.67195960945571
 21
210.90503298966729
 31
0.0
  0
LINE
  5
1865C
  8
AM_0
 10
734.17338970945582
 20
204.65503298966729
 30
0.0
 11
696.67195960945571
 21
204.65503298966729
 31
0.0
  0
LINE
  5
1865D
  8
AM_0
 10
737.67195960945571
 20
226.40210298966721
 30
0.0
 11
737.67195960945571
 21
218.90503298966729
 31
0.0
  0
LINE
  5
1865F
  8
AM_0
 10
733.17338970945582
 20
209.65503298966729
 30
0.0
 11
709.67195960945571
 21
209.65503298966729
 31
0.0
  0
ARC
  5
18660
  8
AM_0
 10
734.17338970945582
 20
213.65503298966729
 30
0.0
 40
9.0
 50
270.00004999999851
 51
0.0000200000020199
  0
ARC
  5
18661
  8
AM_0
 10
733.17338970945582
 20
214.65503298966729
 30
0.0
 40
5.0
 50
270.00004999999851
 51
0.0000200000020199
  0
ARC
  5
18662
  8
AM_0
 10
735.6719596094556
 20
218.90503298966729
 30
0.0
 40
2.0
 50
270.00004999999851
 51
0.0000200000020199
  0
LINE
  5
18663
  8
AM_0
 10
709.67195960945571
 20
210.90503298966729
 30
0.0
 11
709.67195960945571
 21
204.65503298966729
 31
0.0
  0
LINE
  5
18664
  8
AM_0
 10
712.67195960945571
 20
210.90503298966729
 30
0.0
 11
712.67195960945571
 21
216.90503298966729
 31
0.0
  0
LINE
  5
18665
  8
AM_0
 10
736.47194960945603
 20
235.3640129896672
 30
0.0
 11
736.47194960945603
 21
226.1640629896672
 31
0.0
  0
ARC
  5
18667
  8
AM_0
 10
736.77192960945604
 20
229.26404298966719
 30
0.0
 40
3.0
 50
270.00004999999851
 51
297.84967349719727
  0
LINE
  5
18668
  8
AM_0
 10
736.47194960945603
 20
226.1640629896672
 30
0.0
 11
735.1719596094556
 21
226.1640629896672
 31
0.0
  0
LINE
  5
18669
  8
AM_0
 10
736.77192960945604
 20
226.26404298966719
 30
0.0
 11
736.47194960945603
 21
226.26404298966719
 31
0.0
  0
ARC
  5
1866A
  8
AM_0
 10
736.77192960945604
 20
232.26404298966719
 30
0.0
 40
3.0
 50
62.150326502802699
 51
90.000011000002416
  0
LINE
  5
1866B
  8
AM_0
 10
736.47194960945603
 20
235.3640129896672
 30
0.0
 11
735.1719596094556
 21
235.3640129896672
 31
0.0
  0
LINE
  5
1866C
  8
AM_0
 10
736.77192960945604
 20
235.26404298966719
 30
0.0
 11
736.47194960945603
 21
235.26404298966719
 31
0.0
  0
LINE
  5
1866D
  8
AM_0
 10
692.67195960945571
 20
225.76404298966719
 30
0.0
 11
692.67195960945571
 21
216.90503298966729
 31
0.0
  0
LINE
  5
1866E
  8
AM_0
 10
674.31196960945567
 20
233.0050329896672
 30
0.0
 11
679.67195960945571
 21
221.5650329896674
 31
0.0
  0
LINE
  5
1866F
  8
AM_0
 10
687.67195960945571
 20
216.65503298966729
 30
0.0
 11
679.67195960945571
 21
216.65503298966729
 31
0.0
  0
LINE
  5
18670
  8
AM_0
 10
699.67195960945571
 20
210.90503298966729
 30
0.0
 11
699.67195960945571
 21
204.65503298966729
 31
0.0
  0
LINE
  5
18671
  8
AM_0
 10
696.67195960945571
 20
209.65503298966729
 30
0.0
 11
696.67195960945571
 21
204.65503298966729
 31
0.0
  0
LINE
  5
18672
  8
AM_0
 10
699.67195960945571
 20
209.65503298966729
 30
0.0
 11
696.67195960945571
 21
209.65503298966729
 31
0.0
  0
LINE
  5
18673
  8
AM_0
 10
671.16979717787694
 20
200.15503298966729
 30
0.0
 11
666.36979717787699
 21
200.15503298966729
 31
0.0
  0
ARC
  5
18674
  8
AM_0
 10
671.16979717787694
 20
199.15503298966729
 30
0.0
 40
1.0
 50
0.000000000000007
 51
90.0
  0
ARC
  5
18675
  8
AM_0
 10
676.46711960945595
 20
215.37427298966719
 30
0.0
 40
1.9992490000000001
 50
269.85256999999859
 51
349.35689999999892
  0
LINE
  5
18676
  8
AM_0
 10
679.67195960945571
 20
220.21496298966721
 30
0.0
 11
678.391989609456
 21
212.21502298966729
 31
0.0
  0
LINE
  5
18677
  8
AM_0
 10
679.67195960945571
 20
218.87497298966721
 30
0.0
 11
678.66273960945591
 21
212.2249429896672
 31
0.0
  0
LINE
  5
18678
  8
AM_0
 10
679.67195960945571
 20
218.87503298966729
 30
0.0
 11
678.74647960945583
 21
212.24841298966729
 31
0.0
  0
ARC
  5
18679
  8
AM_0
 10
676.41578960945583
 20
212.52539298966721
 30
0.0
 40
2.000420099999999
 50
270.17729000000389
 51
351.07317999999862
  0
ARC
  5
1867A
  8
AM_0
 10
676.68532960945583
 20
212.52502298966721
 30
0.0
 40
2.0
 50
270.000010000001
 51
351.37037999999581
  0
ARC
  5
1867B
  8
AM_0
 10
676.76570960945571
 20
212.52502298966721
 30
0.0
 40
2.0
 50
270.000010000001
 51
352.04955999999657
  0
LINE
  5
1867C
  8
AM_0
 10
679.67195960945571
 20
221.5649729896673
 30
0.0
 11
678.43196960945568
 21
215.00497298966729
 31
0.0
  0
LINE
  5
1867D
  8
AM_0
 10
686.97194960945603
 20
226.46509298966731
 30
0.0
 11
680.74196960945596
 21
226.46509298966731
 31
0.0
  0
POLYLINE
  5
1867E
  8
AM_0
 66
     1
 10
0.0
 20
0.0
 30
0.0
  0
VERTEX
  5
1867F
  8
AM_0
 10
675.81105960945592
 20
243.17199298966719
 30
0.0
 42
-0.00068900015
  0
VERTEX
  5
18680
  8
AM_0
 10
675.74017960945582
 20
242.59724298966719
 30
0.0
 42
-0.00070644648
  0
VERTEX
  5
18681
  8
AM_0
 10
675.66767960945583
 20
242.02256298966731
 30
0.0
 42
-0.00069245587
  0
VERTEX
  5
18682
  8
AM_0
 10
675.59358960945565
 20
241.44824298966731
 30
0.0
 42
-0.00069587802
  0
VERTEX
  5
18683
  8
AM_0
 10
675.51790960945584
 20
240.87410298966719
 30
0.0
 42
-0.00068980012
  0
VERTEX
  5
18684
  8
AM_0
 10
675.44060960945603
 20
240.30010298966729
 30
0.0
 42
-0.00072079193
  0
VERTEX
  5
18685
  8
AM_0
 10
675.36171960945558
 20
239.72632298966741
 30
0.0
 42
-0.00071003147
  0
VERTEX
  5
18686
  8
AM_0
 10
675.28117960945565
 20
239.15284298966711
 30
0.0
 42
-0.00072658712
  0
VERTEX
  5
18687
  8
AM_0
 10
675.19901960945583
 20
238.5797529896673
 30
0.0
 42
-0.00069571059
  0
VERTEX
  5
18688
  8
AM_0
 10
675.11519960945577
 20
238.00671298966731
 30
0.0
 42
-0.0007126617
  0
VERTEX
  5
18689
  8
AM_0
 10
675.02976960945557
 20
237.43395298966729
 30
0.0
 42
-0.00071614574
  0
VERTEX
  5
1868A
  8
AM_0
 10
674.94273960945566
 20
236.86160298966729
 30
0.0
 42
-0.00072290803
  0
VERTEX
  5
1868B
  8
AM_0
 10
674.85402960945567
 20
236.28930298966731
 30
0.0
  0
SEQEND
  5
1868C
  8
AM_0
  0
ARC
  5
1868D
  8
AM_0
 10
677.99879960945589
 20
234.60998298966729
 30
0.0
 40
1.675014
 50
269.7664900000006
 51
90.233501000003244
  0
ARC
  5
1868E
  8
AM_0
 10
677.1273396094557
 20
234.65503298966729
 30
0.0
 40
1.0000138999999999
 50
269.69165999999939
 51
90.308340000000754
  0
POLYLINE
  5
1868F
  8
AM_0
 66
     1
 10
0.0
 20
0.0
 30
0.0
  0
VERTEX
  5
18690
  8
AM_0
 10
676.79371960945571
 20
253.31445298966719
 30
0.0
 42
-0.00073721992
  0
VERTEX
  5
18691
  8
AM_0
 10
676.74956960945588
 20
252.71204298966731
 30
0.0
 42
-0.00074398496
  0
VERTEX
  5
18692
  8
AM_0
 10
676.70363960945576
 20
252.10977298966719
 30
0.0
 42
-0.00073322625
  0
VERTEX
  5
18693
  8
AM_0
 10
676.65590960945576
 20
251.50744298966731
 30
0.0
 42
-0.00073594289
  0
VERTEX
  5
18694
  8
AM_0
 10
676.60642960945574
 20
250.90545298966711
 30
0.0
 42
-0.00074742568
  0
VERTEX
  5
18695
  8
AM_0
 10
676.5551596094557
 20
250.30359298966721
 30
0.0
 42
-0.00073216749
  0
VERTEX
  5
18696
  8
AM_0
 10
676.50209960945574
 20
249.70178298966729
 30
0.0
 42
-0.00074184065
  0
VERTEX
  5
18697
  8
AM_0
 10
676.44727960945602
 20
249.10025298966741
 30
0.0
 42
-0.00072077528
  0
VERTEX
  5
18698
  8
AM_0
 10
676.39069960945574
 20
248.49902298966731
 30
0.0
 42
-0.00074978179
  0
VERTEX
  5
18699
  8
AM_0
 10
676.33235960945603
 20
247.8978229896673
 30
0.0
 42
-0.00074288888
  0
VERTEX
  5
1869A
  8
AM_0
 10
676.2722096094559
 20
247.29680298966721
 30
0.0
 42
-0.00072503679
  0
VERTEX
  5
1869B
  8
AM_0
 10
676.21029960945589
 20
246.6960629896671
 30
0.0
 42
-0.00074640584
  0
VERTEX
  5
1869C
  8
AM_0
 10
676.14662960945589
 20
246.0954629896672
 30
0.0
  0
SEQEND
  5
1869D
  8
AM_0
  0
ARC
  5
1869E
  8
AM_0
 10
677.1273396094557
 20
244.65503298966729
 30
0.0
 40
1.0000138999999999
 50
269.69165999999939
 51
90.308340000000754
  0
ARC
  5
1869F
  8
AM_0
 10
678.21193960945573
 20
244.6300029896673
 30
0.0
 40
1.465004
 50
270.0
 51
89.999997000002296
  0
ARC
  5
186A0
  8
AM_0
 10
678.34193960945584
 20
254.6450229896673
 30
0.0
 40
1.3300049999999981
 50
270.0
 51
89.999997000002296
  0
ARC
  5
186A1
  8
AM_0
 10
677.1273396094557
 20
254.65503298966729
 30
0.0
 40
1.0000138999999999
 50
269.69165999999939
 51
90.308340000000754
  0
LINE
  5
186A2
  8
AM_0
 10
679.67195960945571
 20
320.44504298966717
 30
0.0
 11
678.38197960945604
 21
328.93500298966728
 31
0.0
  0
LINE
  5
186A3
  8
AM_0
 10
679.67195960945571
 20
319.09506298966721
 30
0.0
 11
678.391989609456
 21
327.10501298966722
 31
0.0
  0
LINE
  5
186A4
  8
AM_0
 10
679.67195960945571
 20
320.44504298966717
 30
0.0
 11
678.36195960945588
 21
329.82507298966732
 31
0.0
  0
LINE
  5
186A5
  8
AM_0
 10
712.67195960945571
 20
328.40503298966712
 30
0.0
 11
712.67195960945571
 21
322.40503298966701
 31
0.0
  0
ARC
  5
186A6
  8
AM_0
 10
733.17338970945582
 20
324.6550329896674
 30
0.0
 40
5.0
 50
0.000000000000007
 51
90.000011000002416
  0
ARC
  5
186A7
  8
AM_0
 10
734.17338970945582
 20
325.65503298966729
 30
0.0
 40
9.0
 50
0.0000200000020199
 51
90.000011000002416
  0
LINE
  5
186A8
  8
AM_0
 10
735.1719596094556
 20
313.54602298966722
 30
0.0
 11
692.67195960945571
 21
313.54602298966722
 31
0.0
  0
LINE
  5
186A9
  8
AM_0
 10
735.1719596094556
 20
303.29602298966722
 30
0.0
 11
692.67195960945571
 21
303.29602298966722
 31
0.0
  0
LINE
  5
186AA
  8
AM_0
 10
735.6719596094556
 20
322.40503298966701
 30
0.0
 11
687.67195960945571
 21
322.40503298966701
 31
0.0
  0
LINE
  5
186AD
  8
AM_0
 10
744.1719296094559
 20
264.65503298966729
 30
0.0
 11
744.1719296094559
 21
274.6550329896674
 31
0.0
  0
LINE
  5
186AE
  8
AM_0
 10
737.67195960945571
 20
264.65503298966729
 30
0.0
 11
744.1719296094559
 21
264.65503298966729
 31
0.0
  0
LINE
  5
186AF
  8
AM_0
 10
737.67195960945571
 20
274.6550329896674
 30
0.0
 11
744.1719296094559
 21
274.6550329896674
 31
0.0
  0
LINE
  5
186B0
  8
AM_0
 10
736.47194960945603
 20
303.94605298966718
 30
0.0
 11
736.47194960945603
 21
313.14600298966712
 31
0.0
  0
ARC
  5
186B2
  8
AM_0
 10
736.77192960945604
 20
307.04602298966722
 30
0.0
 40
3.0
 50
269.99998899999758
 51
297.84967349719761
  0
LINE
  5
186B3
  8
AM_0
 10
736.47194960945603
 20
303.94605298966718
 30
0.0
 11
735.1719596094556
 21
303.94605298966718
 31
0.0
  0
LINE
  5
186B4
  8
AM_0
 10
736.77192960945604
 20
304.04602298966722
 30
0.0
 11
736.47194960945603
 21
304.04602298966722
 31
0.0
  0
LINE
  5
186B5
  8
AM_0
 10
737.67195960945571
 20
312.90796298966723
 30
0.0
 11
737.67195960945571
 21
320.40503298966701
 31
0.0
  0
LINE
  5
186B6
  8
AM_0
 10
738.17338970945582
 20
274.65503298966718
 30
0.0
 11
738.17338970945582
 21
324.65503298966712
 31
0.0
  0
ARC
  5
186B7
  8
AM_0
 10
736.77192960945604
 20
310.04602298966722
 30
0.0
 40
3.0
 50
62.150326502802429
 51
89.99995000000149
  0
LINE
  5
186B8
  8
AM_0
 10
736.47194960945603
 20
313.14600298966712
 30
0.0
 11
735.1719596094556
 21
313.14600298966712
 31
0.0
  0
LINE
  5
186B9
  8
AM_0
 10
736.77192960945604
 20
313.04602298966722
 30
0.0
 11
736.47194960945603
 21
313.04602298966722
 31
0.0
  0
ARC
  5
186BA
  8
AM_0
 10
735.6719596094556
 20
320.40503298966701
 30
0.0
 40
2.0
 50
359.999979999998
 51
89.99995000000149
  0
POLYLINE
  5
186BB
  8
AM_0
 66
     1
 10
0.0
 20
0.0
 30
0.0
  0
VERTEX
  5
186BC
  8
AM_0
 10
676.79371960945571
 20
285.9956029896673
 30
0.0
 42
0.0007337051
  0
VERTEX
  5
186BD
  8
AM_0
 10
676.74957960945574
 20
286.5980229896673
 30
0.0
 42
0.00075211323
  0
VERTEX
  5
186BE
  8
AM_0
 10
676.70363960945576
 20
287.20041298966731
 30
0.0
 42
0.0007297491
  0
VERTEX
  5
186BF
  8
AM_0
 10
676.65590960945576
 20
287.80261298966741
 30
0.0
 42
0.00073593041
  0
VERTEX
  5
186C0
  8
AM_0
 10
676.60642960945574
 20
288.40460298966718
 30
0.0
 42
0.00074742739
  0
VERTEX
  5
186C1
  8
AM_0
 10
676.5551596094557
 20
289.0064729896672
 30
0.0
 42
0.00073217363
  0
VERTEX
  5
186C2
  8
AM_0
 10
676.50209960945574
 20
289.60827298966711
 30
0.0
 42
0.00073754168
  0
VERTEX
  5
186C3
  8
AM_0
 10
676.44727960945602
 20
290.20981298966723
 30
0.0
 42
0.00073075073
  0
VERTEX
  5
186C4
  8
AM_0
 10
676.39069960945574
 20
290.81117298966711
 30
0.0
 42
0.00074550816
  0
VERTEX
  5
186C5
  8
AM_0
 10
676.33235960945603
 20
291.4122329896673
 30
0.0
 42
0.00074288416
  0
VERTEX
  5
186C6
  8
AM_0
 10
676.2722096094559
 20
292.01325298966742
 30
0.0
 42
0.00072504001
  0
VERTEX
  5
186C7
  8
AM_0
 10
676.21029960945589
 20
292.6140029896672
 30
0.0
 42
0.00074640667
  0
VERTEX
  5
186C8
  8
AM_0
 10
676.14662960945589
 20
293.21460298966718
 30
0.0
  0
SEQEND
  5
186C9
  8
AM_0
  0
ARC
  5
186CA
  8
AM_0
 10
677.1273396094557
 20
274.6550329896674
 30
0.0
 40
1.0000138999999999
 50
269.69165999999939
 51
90.308340000000754
  0
ARC
  5
186CB
  8
AM_0
 10
678.40779960945565
 20
274.66003298966717
 30
0.0
 40
1.2650129999999991
 50
269.7355899999975
 51
90.264420999998279
  0
POLYLINE
  5
186CC
  8
AM_0
 66
     1
 10
0.0
 20
0.0
 30
0.0
  0
VERTEX
  5
186CD
  8
AM_0
 10
677.3119696094559
 20
269.65503298966729
 30
0.0
 42
-0.00039106589
  0
VERTEX
  5
186CE
  8
AM_0
 10
677.31432960945574
 20
269.34389298966721
 30
0.0
 42
-0.00035488584
  0
VERTEX
  5
186CF
  8
AM_0
 10
677.31621960945574
 20
269.03278298966723
 30
0.0
 42
-0.00039705232
  0
VERTEX
  5
186D0
  8
AM_0
 10
677.31764960945566
 20
268.72168298966727
 30
0.0
 42
-0.0003876649
  0
VERTEX
  5
186D1
  8
AM_0
 10
677.31857960945604
 20
268.41054298966731
 30
0.0
 42
-0.00040613779
  0
VERTEX
  5
186D2
  8
AM_0
 10
677.31902960945604
 20
268.09943298966738
 30
0.0
 42
-0.00035571855
  0
VERTEX
  5
186D3
  8
AM_0
 10
677.31898960945568
 20
267.78833298966731
 30
0.0
 42
-0.00038547358
  0
VERTEX
  5
186D4
  8
AM_0
 10
677.31849960945601
 20
267.47719298966717
 30
0.0
 42
-0.000355015
  0
VERTEX
  5
186D5
  8
AM_0
 10
677.31753960945582
 20
267.16609298966739
 30
0.0
 42
-0.00040118616
  0
VERTEX
  5
186D6
  8
AM_0
 10
677.31611960945588
 20
266.85486298966731
 30
0.0
 42
-0.00038319867
  0
VERTEX
  5
186D7
  8
AM_0
 10
677.31420960945582
 20
266.54372298966729
 30
0.0
 42
-0.00035656356
  0
VERTEX
  5
186D8
  8
AM_0
 10
677.31182960945603
 20
266.23249298966732
 30
0.0
 42
-0.00040140992
  0
VERTEX
  5
186D9
  8
AM_0
 10
677.30897960945583
 20
265.92138298966722
 30
0.0
  0
SEQEND
  5
186DA
  8
AM_0
  0
ARC
  5
186DB
  8
AM_0
 10
678.40779960945565
 20
264.65503298966729
 30
0.0
 40
1.2700129999999981
 50
269.73663000000079
 51
90.263382999998399
  0
ARC
  5
186DC
  8
AM_0
 10
677.1273396094557
 20
264.65503298966729
 30
0.0
 40
1.0000138999999999
 50
269.69165999999939
 51
90.308340000000754
  0
POLYLINE
  5
186DD
  8
AM_0
 66
     1
 10
0.0
 20
0.0
 30
0.0
  0
VERTEX
  5
186DE
  8
AM_0
 10
677.3119696094559
 20
269.65503298966729
 30
0.0
 42
0.00039106649
  0
VERTEX
  5
186DF
  8
AM_0
 10
677.31432960945574
 20
269.96616298966728
 30
0.0
 42
0.00035488198
  0
VERTEX
  5
186E0
  8
AM_0
 10
677.31621960945574
 20
270.27727298966721
 30
0.0
 42
0.00039706113
  0
VERTEX
  5
186E1
  8
AM_0
 10
677.31764960945566
 20
270.58838298966731
 30
0.0
 42
0.00038765718
  0
VERTEX
  5
186E2
  8
AM_0
 10
677.31857960945604
 20
270.89952298966728
 30
0.0
 42
0.00040613432
  0
VERTEX
  5
186E3
  8
AM_0
 10
677.31902960945604
 20
271.21062298966717
 30
0.0
 42
0.00035573434
  0
VERTEX
  5
186E4
  8
AM_0
 10
677.31898960945568
 20
271.52173298966733
 30
0.0
 42
0.00038545884
  0
VERTEX
  5
186E5
  8
AM_0
 10
677.31849960945601
 20
271.83286298966709
 30
0.0
 42
0.00035501205
  0
VERTEX
  5
186E6
  8
AM_0
 10
677.31753960945582
 20
272.1439729896673
 30
0.0
 42
0.00040120779
  0
VERTEX
  5
186E7
  8
AM_0
 10
677.31611960945588
 20
272.45520298966733
 30
0.0
 42
0.00038317817
  0
VERTEX
  5
186E8
  8
AM_0
 10
677.31420960945582
 20
272.76633298966732
 30
0.0
 42
0.00035656084
  0
VERTEX
  5
186E9
  8
AM_0
 10
677.31182960945603
 20
273.07757298966732
 30
0.0
 42
0.00040143615
  0
VERTEX
  5
186EA
  8
AM_0
 10
677.30897960945583
 20
273.38867298966721
 30
0.0
  0
SEQEND
  5
186EB
  8
AM_0
  0
ARC
  5
186EC
  8
AM_0
 10
678.34193960945584
 20
284.66504298966731
 30
0.0
 40
1.3300049999999981
 50
270.0
 51
89.999997000002296
  0
POLYLINE
  5
186ED
  8
AM_0
 66
     1
 10
0.0
 20
0.0
 30
0.0
  0
VERTEX
  5
186EE
  8
AM_0
 10
677.26790960945584
 20
275.92541298966722
 30
0.0
 42
0.00076691992
  0
VERTEX
  5
186EF
  8
AM_0
 10
677.25310960945603
 20
276.5431829896674
 30
0.0
 42
0.00073262792
  0
VERTEX
  5
186F0
  8
AM_0
 10
677.23646960945598
 20
277.16077298966741
 30
0.0
 42
0.00076529537
  0
VERTEX
  5
186F1
  8
AM_0
 10
677.21797960945605
 20
277.77844298966721
 30
0.0
 42
0.00075141097
  0
VERTEX
  5
186F2
  8
AM_0
 10
677.19760960945575
 20
278.39604298966719
 30
0.0
 42
0.00075841687
  0
VERTEX
  5
186F3
  8
AM_0
 10
677.17537960945572
 20
279.01347298966721
 30
0.0
 42
0.00075711788
  0
VERTEX
  5
186F4
  8
AM_0
 10
677.15126960945599
 20
279.6309829896673
 30
0.0
 42
0.00075976003
  0
VERTEX
  5
186F5
  8
AM_0
 10
677.12527960945556
 20
280.24837298966719
 30
0.0
 42
0.00075797311
  0
VERTEX
  5
186F6
  8
AM_0
 10
677.09743960945582
 20
280.86565298966741
 30
0.0
 42
0.0007482613
  0
VERTEX
  5
186F7
  8
AM_0
 10
677.06770960945585
 20
281.48303298966732
 30
0.0
 42
0.00074893561
  0
VERTEX
  5
186F8
  8
AM_0
 10
677.03614960945595
 20
282.10016298966741
 30
0.0
 42
0.00076039839
  0
VERTEX
  5
186F9
  8
AM_0
 10
677.00272960945574
 20
282.71719298966718
 30
0.0
 42
0.00075618786
  0
VERTEX
  5
186FA
  8
AM_0
 10
676.96742960945573
 20
283.33423298966733
 30
0.0
  0
SEQEND
  5
186FB
  8
AM_0
  0
ARC
  5
186FC
  8
AM_0
 10
677.1273396094557
 20
284.6550329896674
 30
0.0
 40
1.0000138999999999
 50
269.69165999999939
 51
90.308340000000754
  0
LINE
  5
186FD
  8
AM_0
 10
687.67195960945571
 20
322.6550329896674
 30
0.0
 11
679.67195960945571
 21
322.6550329896674
 31
0.0
  0
LINE
  5
186FE
  8
AM_0
 10
686.97194960945603
 20
312.84497298966733
 30
0.0
 11
680.74196960945596
 21
312.84497298966733
 31
0.0
  0
LINE
  5
186FF
  8
AM_0
 10
692.67195960945571
 20
313.54602298966722
 30
0.0
 11
692.67195960945571
 21
322.40503298966701
 31
0.0
  0
LINE
  5
18700
  8
AM_0
 10
674.31196960945567
 20
306.30502298966718
 30
0.0
 11
679.67195960945571
 21
317.75500298966728
 31
0.0
  0
POLYLINE
  5
18701
  8
AM_0
 66
     1
 10
0.0
 20
0.0
 30
0.0
  0
VERTEX
  5
18702
  8
AM_0
 10
675.81105960945592
 20
296.13806298966722
 30
0.0
 42
0.00068898288
  0
VERTEX
  5
18703
  8
AM_0
 10
675.74017960945582
 20
296.7128129896671
 30
0.0
 42
0.00070644354
  0
VERTEX
  5
18704
  8
AM_0
 10
675.66767960945583
 20
297.2875029896673
 30
0.0
 42
0.00069248071
  0
VERTEX
  5
18705
  8
AM_0
 10
675.59358960945565
 20
297.86181298966733
 30
0.0
 42
0.00069585665
  0
VERTEX
  5
18706
  8
AM_0
 10
675.51790960945584
 20
298.43595298966721
 30
0.0
 42
0.00068980191
  0
VERTEX
  5
18707
  8
AM_0
 10
675.44060960945603
 20
299.00995298966728
 30
0.0
 42
0.00072080104
  0
VERTEX
  5
18708
  8
AM_0
 10
675.36171960945558
 20
299.5837429896672
 30
0.0
 42
0.00071002307
  0
VERTEX
  5
18709
  8
AM_0
 10
675.28117960945565
 20
300.15721298966719
 30
0.0
 42
0.00072659056
  0
VERTEX
  5
1870A
  8
AM_0
 10
675.19901960945583
 20
300.73031298966731
 30
0.0
 42
0.00069570481
  0
VERTEX
  5
1870B
  8
AM_0
 10
675.11519960945577
 20
301.30334298966733
 30
0.0
 42
0.00071266935
  0
VERTEX
  5
1870C
  8
AM_0
 10
675.02976960945557
 20
301.87611298966732
 30
0.0
 42
0.00071614426
  0
VERTEX
  5
1870D
  8
AM_0
 10
674.94273960945566
 20
302.4484529896672
 30
0.0
 42
0.00072288975
  0
VERTEX
  5
1870E
  8
AM_0
 10
674.85402960945567
 20
303.0207529896673
 30
0.0
  0
SEQEND
  5
1870F
  8
AM_0
  0
ARC
  5
18710
  8
AM_0
 10
677.1273396094557
 20
294.65503298966729
 30
0.0
 40
1.0000138999999999
 50
269.69165999999939
 51
90.308340000000754
  0
ARC
  5
18711
  8
AM_0
 10
678.21193960945573
 20
294.68005298966727
 30
0.0
 40
1.465004
 50
270.0
 51
89.999997000002296
  0
ARC
  5
18712
  8
AM_0
 10
677.99934960945598
 20
304.70007298966732
 30
0.0
 40
1.6750160000000001
 50
269.74612999999908
 51
90.253854999995511
  0
ARC
  5
18713
  8
AM_0
 10
677.1273396094557
 20
304.65503298966729
 30
0.0
 40
1.0000138999999999
 50
269.69165999999939
 51
90.308340000000754
  0
LINE
  5
18714
  8
AM_0
 10
679.67195960945571
 20
317.75506298966741
 30
0.0
 11
678.43196960945568
 21
324.31503298966737
 31
0.0
  0
ARC
  5
18715
  8
AM_0
 10
676.47322960945587
 20
323.94092298966729
 30
0.0
 40
1.994108999999999
 50
10.812230000001181
 51
90.324451999997237
  0
LINE
  5
18716
  8
AM_0
 10
734.17338970945582
 20
334.6550329896674
 30
0.0
 11
696.67195960945571
 21
334.6550329896674
 31
0.0
  0
LINE
  5
18717
  8
AM_0
 10
712.67195960945571
 20
328.40503298966712
 30
0.0
 11
687.67195960945571
 21
328.40503298966712
 31
0.0
  0
LINE
  5
18718
  8
AM_0
 10
733.17338970945582
 20
329.65503298966729
 30
0.0
 11
709.67195960945571
 21
329.65503298966729
 31
0.0
  0
LINE
  5
18719
  8
AM_0
 10
709.67195960945571
 20
328.4050329896674
 30
0.0
 11
709.67195960945571
 21
334.6550329896674
 31
0.0
  0
LINE
  5
1871A
  8
AM_0
 10
699.67195960945571
 20
329.65503298966729
 30
0.0
 11
696.67195960945571
 21
329.65503298966729
 31
0.0
  0
LINE
  5
1871B
  8
AM_0
 10
699.67195960945571
 20
328.4050329896674
 30
0.0
 11
699.67195960945571
 21
334.6550329896674
 31
0.0
  0
LINE
  5
1871C
  8
AM_0
 10
696.67195960945571
 20
329.65503298966729
 30
0.0
 11
696.67195960945571
 21
334.6550329896674
 31
0.0
  0
ARC
  5
1871D
  8
AM_0
 10
676.38545960945567
 20
329.54944298966723
 30
0.0
 40
1.995633
 50
7.9388700000004402
 51
90.100291999997694
  0
ARC
  5
1871E
  8
AM_0
 10
676.421709609456
 20
326.78979298966721
 30
0.0
 40
1.9952829999999999
 50
9.0916499999993263
 51
89.993796000003144
  0
ARC
  5
1871F
  8
AM_0
 10
676.4073696094556
 20
328.63830298966718
 30
0.0
 40
1.9967330000000001
 50
8.5461200000027322
 51
90.156033000001074
  0
LINE
  5
18720
  8
AM_0
 10
571.67195960945583
 20
325.65503298966729
 30
0.0
 11
571.67195960945583
 21
213.65503298966729
 31
0.0
  0
ARC
  5
18721
  8
AM_0
 10
572.01875960945574
 20
229.93225298966721
 30
0.0
 40
1.5027759999999999
 50
14.756429999999421
 51
89.877586999998414
  0
LINE
  5
18722
  8
AM_0
 10
577.12990960945569
 20
216.65503298966729
 30
0.0
 11
571.67195960945583
 21
216.65503298966729
 31
0.0
  0
LINE
  5
18723
  8
AM_0
 10
572.67195960945583
 20
216.65500298966711
 30
0.0
 11
578.39775960945576
 21
207.83804298966729
 31
0.0
  0
LINE
  5
18724
  8
AM_0
 10
599.89467091202982
 20
183.04015947263909
 30
0.0
 11
599.89467091202982
 21
200.15503298966729
 31
0.0
  0
LINE
  5
18725
  8
AM_0
 10
584.89467091202982
 20
183.15503298966729
 30
0.0
 11
584.89467091202982
 21
199.15503298966729
 31
0.0
  0
LINE
  5
18726
  8
AM_0
 10
611.25638099596904
 20
195.15503298966729
 30
0.0
 11
611.25638099596904
 21
181.10435041508711
 31
0.0
  0
LINE
  5
18727
  8
AM_0
 10
622.36644313240095
 20
195.15503298966729
 30
0.0
 11
622.36644313240095
 21
179.2114171546215
 31
0.0
  0
LINE
  5
18728
  8
AM_0
 10
620.86644313240095
 20
179.46698727257629
 30
0.0
 11
620.86644313240095
 21
195.15503298966729
 31
0.0
  0
LINE
  5
18729
  8
AM_0
 10
618.66308908692292
 20
195.15503298966729
 30
0.0
 11
618.66308908692292
 21
179.84239490811029
 31
0.0
  0
LINE
  5
1872A
  8
AM_0
 10
617.16308908692292
 20
180.09796502606511
 30
0.0
 11
617.16308908692292
 21
195.15503298966729
 31
0.0
  0
LINE
  5
1872B
  8
AM_0
 10
614.95973504144581
 20
195.15503298966729
 30
0.0
 11
614.95973504144581
 21
180.47337266159821
 31
0.0
  0
LINE
  5
1872C
  8
AM_0
 10
613.45973504144581
 20
180.7289427795543
 30
0.0
 11
613.45973504144581
 21
195.15503298966729
 31
0.0
  0
LINE
  5
1872D
  8
AM_0
 10
628.27315122335585
 20
178.20503176559839
 30
0.0
 11
628.27315122335585
 21
195.15503298966729
 31
0.0
  0
LINE
  5
1872E
  8
AM_0
 10
626.06979717787783
 20
195.15503298966729
 30
0.0
 11
626.06979717787783
 21
178.58043940113231
 31
0.0
  0
LINE
  5
1872F
  8
AM_0
 10
635.67315122335583
 20
176.94421918368519
 30
0.0
 11
635.67315122335583
 21
195.1550329896684
 31
0.0
  0
LINE
  5
18730
  8
AM_0
 10
633.47315122335601
 20
195.15503298966729
 30
0.0
 11
633.47315122335499
 21
177.31905535668631
 31
0.0
  0
LINE
  5
18731
  8
AM_0
 10
631.97315122335601
 20
177.5746254746424
 30
0.0
 11
631.97315122335601
 21
195.15503298966729
 31
0.0
  0
LINE
  5
18732
  8
AM_0
 10
629.77315122335597
 20
195.15503298966729
 30
0.0
 11
629.77315122335597
 21
177.9494616476432
 31
0.0
  0
LINE
  5
18733
  8
AM_0
 10
609.75638099596904
 20
181.35992053304309
 30
0.0
 11
609.75638099596904
 21
195.15503298966729
 31
0.0
  0
LINE
  5
18734
  8
AM_0
 10
637.67315122335583
 20
192.44365681046929
 30
0.0
 11
637.67315122335583
 21
176.60345902641129
 31
0.0
  0
LINE
  5
18735
  8
AM_0
 10
624.06979717787476
 20
178.9211995584063
 30
0.0
 11
624.06979717787476
 21
192.44365681046929
 31
0.0
  0
LINE
  5
18736
  8
ﾁｭｳｼﾝｾﾝ1
 10
657.06979717787692
 20
195.1550479896672
 30
0.0
 11
657.06979717787692
 21
171.1550479896672
 31
0.0
  0
LINE
  5
18737
  8
AM_0
 10
647.76979717787685
 20
200.15503298966729
 30
0.0
 11
647.76979717787685
 21
183.15503298966729
 31
0.0
  0
CIRCLE
  5
18738
  8
AM_0
 10
657.06979717787692
 20
183.15503298966729
 30
0.0
 40
6.299999999999998
  0
CIRCLE
  5
18739
  8
AM_0
 10
642.56979717787692
 20
183.15503298966729
 30
0.0
 40
0.75
  0
LINE
  5
1873A
  8
AM_0
 10
631.97315122335601
 20
177.5746254746424
 30
0.0
 11
629.77315122335597
 21
177.9494616476432
 31
0.0
  0
LINE
  5
1873B
  8
AM_0
 10
635.67315122335583
 20
176.94421918368519
 30
0.0
 11
633.47315122335499
 21
177.31905535668631
 31
0.0
  0
LINE
  5
1873C
  8
AM_0
 10
628.27315122335585
 20
178.20503176559839
 30
0.0
 11
626.06979717787783
 21
178.58043940113231
 31
0.0
  0
LINE
  5
1873D
  8
AM_0
 10
620.86644313240095
 20
179.46698727257629
 30
0.0
 11
618.66308908692292
 21
179.84239490811029
 31
0.0
  0
LINE
  5
1873E
  8
AM_0
 10
624.06979717787476
 20
178.9211995584063
 30
0.0
 11
622.36644313240095
 21
179.2114171546215
 31
0.0
  0
LINE
  5
1873F
  8
AM_0
 10
601.53964565885894
 20
166.15503298966729
 30
0.0
 11
601.53964565885894
 21
177.69052359213549
 31
0.0
  0
LINE
  5
18740
  8
AM_0
 10
609.75638099596904
 20
181.35992053304309
 30
0.0
 11
599.89467091202982
 21
183.04015947263909
 31
0.0
  0
LINE
  5
18741
  8
AM_0
 10
617.16308908692292
 20
180.09796502606511
 30
0.0
 11
614.95973504144581
 21
180.47337266159821
 31
0.0
  0
LINE
  5
18742
  8
AM_0
 10
613.45973504144581
 20
180.7289427795543
 30
0.0
 11
611.25638099596904
 21
181.10435041508711
 31
0.0
  0
CIRCLE
  5
18743
  8
AM_0
 10
608.06979717787692
 20
183.15503298966729
 30
0.0
 40
0.75
  0
LINE
  5
18744
  8
AM_0
 10
600.66979717787592
 20
177.8408277623704
 30
0.0
 11
600.66979717787592
 21
181.8942204077542
 31
0.0
  0
LINE
  5
18745
  8
AM_0
 10
591.26979717787594
 20
178.65503298966729
 30
0.0
 11
591.26979717787594
 21
168.65503298966729
 31
0.0
  0
ARC
  5
18746
  8
AM_0
 10
593.76979717787594
 20
168.65503298966729
 30
0.0
 40
2.5
 50
180.0
 51
270.0
  0
LINE
  5
18747
  8
AM_0
 10
584.89467091202982
 20
183.15503298966729
 30
0.0
 11
584.89467091202982
 21
179.65503298966729
 31
0.0
  0
LINE
  5
18748
  8
AM_0
 10
590.76979717787594
 20
179.15503298966729
 30
0.0
 11
585.39467091202982
 21
179.15503298966729
 31
0.0
  0
ARC
  5
18749
  8
AM_0
 10
590.76979717787594
 20
178.65503298966729
 30
0.0
 40
0.5
 50
0.000000000000007
 51
90.0
  0
LINE
  5
1874A
  8
AM_0
 10
590.76979717787594
 20
179.15503298966729
 30
0.0
 11
592.94410204103599
 21
179.15503298966729
 31
0.0
  0
ARC
  5
1874B
  8
AM_0
 10
585.39467091202982
 20
179.65503298966729
 30
0.0
 40
0.5
 50
180.0
 51
270.0
  0
LINE
  5
1874C
  8
AM_0
 10
584.89467091202982
 20
183.15503298966729
 30
0.0
 11
593.26979717787685
 21
183.15503298966729
 31
0.0
  0
LINE
  5
1874D
  8
AM_0
 10
578.33192960945598
 20
235.65503298966729
 30
0.0
 11
622.67195960945583
 21
235.65503298966729
 31
0.0
  0
LINE
  5
1874E
  8
AM_0
 10
578.33192960945598
 20
233.65503298966729
 30
0.0
 11
622.67195960945583
 21
233.65503298966729
 31
0.0
  0
LINE
  5
1874F
  8
AM_0
 10
617.16308908692292
 20
191.15503298966729
 30
0.0
 11
618.66308908692292
 21
191.15503298966729
 31
0.0
  0
LINE
  5
18750
  8
AM_0
 10
617.16308908692292
 20
195.15503298966729
 30
0.0
 11
618.66308908692292
 21
195.15503298966729
 31
0.0
  0
LINE
  5
18751
  8
AM_0
 10
589.17195960945583
 20
202.65503298966729
 30
0.0
 11
656.1719596094556
 21
202.65503298966729
 31
0.0
  0
LINE
  5
18752
  8
AM_0
 10
603.76979717787685
 20
200.15503298966729
 30
0.0
 11
641.56979717787692
 21
200.15503298966729
 31
0.0
  0
LINE
  5
18753
  8
AM_0
 10
622.67195960945583
 20
232.93506298966719
 30
0.0
 11
574.85194960945591
 21
232.93506298966719
 31
0.0
  0
LINE
  5
18754
  8
AM_0
 10
652.6720196094559
 20
202.65500298966711
 30
0.0
 11
652.95268379679476
 21
213.37500298966719
 31
0.0
  0
LINE
  5
18755
  8
AM_0
 10
656.1719596094556
 20
200.15503298966729
 30
0.0
 11
656.1719596094556
 21
202.65503298966729
 31
0.0
  0
LINE
  5
18756
  8
AM_0
 10
641.56979717787692
 20
200.15503298966729
 30
0.0
 11
647.76979717787685
 21
200.15503298966729
 31
0.0
  0
LINE
  5
18757
  8
AM_0
 10
648.76979717787697
 20
200.15503298966729
 30
0.0
 11
647.76979717787685
 21
200.15503298966729
 31
0.0
  0
ARC
  5
18758
  8
AM_0
 10
654.33930941078916
 20
209.02502298966721
 30
0.0
 40
1.5
 50
90.0
 51
178.50026113613271
1001
GENIUS_GENODEF_13
1002
{
1000
HIER
1070
     0
1002
}
1002
{
1000
MANEDIT
1070
     0
1002
}
1002
{
1000
NOSEL
1070
     0
1002
}
1002
{
1000
BEHIND
1070
     0
1002
}
1002
{
1000
REACTOR
1002
}
1001
GENIUS_GENOBJ-N-FIL_13
1002
{
1000
OWNER
1000
GEN
1002
}
  0
LINE
  5
18759
  8
AM_0
 10
636.97315122335601
 20
195.15503298966729
 30
0.0
 11
636.97315122335601
 21
193.11100886707331
 31
0.0
  0
LINE
  5
1875A
  8
AM_0
 10
635.67315122335583
 20
195.1550329896684
 30
0.0
 11
636.97315122335601
 21
195.15503298966729
 31
0.0
  0
LINE
  5
1875B
  8
AM_0
 10
635.67315122335583
 20
191.15503298966729
 30
0.0
 11
637.67315122335583
 21
191.15503298966729
 31
0.0
  0
LINE
  5
1875C
  8
AM_0
 10
636.97315122335601
 20
193.11100886707331
 30
0.0
 11
637.67315122335583
 21
192.44365681046929
 31
0.0
  0
LINE
  5
1875D
  8
AM_0
 10
631.97315122335601
 20
191.15503298966729
 30
0.0
 11
633.47315122335601
 21
191.15503298966729
 31
0.0
  0
LINE
  5
1875E
  8
AM_0
 10
631.97315122335601
 20
195.15503298966729
 30
0.0
 11
633.47315122335601
 21
195.15503298966729
 31
0.0
  0
LINE
  5
1875F
  8
AM_0
 10
624.06979717787476
 20
192.44365681046929
 30
0.0
 11
624.76979717787776
 21
193.11100886707331
 31
0.0
  0
LINE
  5
18760
  8
AM_0
 10
624.06979717787476
 20
191.15503298966729
 30
0.0
 11
626.06979717787783
 21
191.15503298966729
 31
0.0
  0
LINE
  5
18761
  8
AM_0
 10
624.76979717787776
 20
193.11100886707331
 30
0.0
 11
624.76979717787776
 21
195.15503298966729
 31
0.0
  0
LINE
  5
18762
  8
AM_0
 10
628.27315122335585
 20
191.15503298966729
 30
0.0
 11
629.77315122335597
 21
191.15503298966729
 31
0.0
  0
LINE
  5
18763
  8
AM_0
 10
628.27315122335585
 20
195.15503298966729
 30
0.0
 11
629.77315122335597
 21
195.15503298966729
 31
0.0
  0
LINE
  5
18764
  8
AM_0
 10
624.76979717787776
 20
195.15503298966729
 30
0.0
 11
626.06979717787783
 21
195.15503298966729
 31
0.0
  0
LINE
  5
18765
  8
AM_0
 10
620.86644313240095
 20
191.15503298966729
 30
0.0
 11
622.36644313240095
 21
191.15503298966729
 31
0.0
  0
LINE
  5
18766
  8
AM_0
 10
620.86644313240095
 20
195.15503298966729
 30
0.0
 11
622.36644313240095
 21
195.15503298966729
 31
0.0
  0
ARC
  5
18767
  8
AM_0
 10
642.00697960945604
 20
254.6450229896673
 30
0.0
 40
1.3300148000000001
 50
89.729432999998991
 51
270.27058000000142
  0
ARC
  5
18768
  8
AM_0
 10
643.23323960945584
 20
254.65503298966729
 30
0.0
 40
1.000005699999998
 50
89.999997000002296
 51
270.000010000001
  0
LINE
  5
18769
  8
AM_0
 10
573.46626960945571
 20
230.33609298966721
 30
0.0
 11
577.61201960945584
 21
214.85498298966721
 31
0.0
  0
LINE
  5
1876A
  8
AM_0
 10
585.89467091202982
 20
200.15503298966729
 30
0.0
 11
596.56979717787692
 21
200.15503298966729
 31
0.0
  0
LINE
  5
1876B
  8
AM_0
 10
613.45973504144581
 20
191.15503298966729
 30
0.0
 11
614.95973504144581
 21
191.15503298966729
 31
0.0
  0
LINE
  5
1876C
  8
AM_0
 10
613.45973504144581
 20
195.15503298966729
 30
0.0
 11
614.95973504144581
 21
195.15503298966729
 31
0.0
  0
LINE
  5
1876D
  8
AM_0
 10
609.75638099596904
 20
191.15503298966729
 30
0.0
 11
611.25638099596904
 21
191.15503298966729
 31
0.0
  0
LINE
  5
1876E
  8
AM_0
 10
609.75638099596904
 20
195.15503298966729
 30
0.0
 11
611.25638099596904
 21
195.15503298966729
 31
0.0
  0
LINE
  5
1876F
  8
AM_0
 10
596.56979717787692
 20
200.15503298966729
 30
0.0
 11
603.76979717787685
 21
200.15503298966729
 31
0.0
  0
LINE
  5
18770
  8
AM_0
 10
592.67195960945583
 20
202.65497298966719
 30
0.0
 11
592.39122048639274
 21
213.37500298966719
 31
0.0
  0
ARC
  5
18771
  8
AM_0
 10
591.09287892367092
 20
205.65503298966729
 30
0.0
 40
1.5
 50
1.500134906353136
 51
90.0
1001
GENIUS_GENODEF_13
1002
{
1000
HIER
1070
     0
1002
}
1002
{
1000
MANEDIT
1070
     0
1002
}
1002
{
1000
NOSEL
1070
     0
1002
}
1002
{
1000
BEHIND
1070
     0
1002
}
1002
{
1000
REACTOR
1002
}
1001
GENIUS_GENOBJ-N-FIL_13
1002
{
1000
OWNER
1000
GEN
1002
}
  0
LINE
  5
18772
  8
AM_0
 10
589.17195960945583
 20
200.15503298966729
 30
0.0
 11
589.17195960945583
 21
202.65503298966729
 31
0.0
  0
ARC
  5
18773
  8
AM_0
 10
585.89467091202982
 20
199.15503298966729
 30
0.0
 40
1.0
 50
90.0
 51
180.0
  0
LINE
  5
18774
  8
AM_0
 10
591.09287892367092
 20
207.15503298966729
 30
0.0
 11
579.65577960945598
 21
207.15503298966729
 31
0.0
  0
ARC
  5
18775
  8
AM_0
 10
579.54677960945583
 20
215.3797629896672
 30
0.0
 40
2.0047290000000002
 50
195.17349999999811
 51
269.86167999999577
  0
ARC
  5
18776
  8
AM_0
 10
579.65577960945598
 20
208.65503298966729
 30
0.0
 40
1.5
 50
213.00000000000151
 51
270.000010000001
  0
LINE
  5
18777
  8
AM_0
 10
609.17195960945583
 20
242.15503298966729
 30
0.0
 11
609.17195960945583
 21
237.15503298966729
 31
0.0
  0
CIRCLE
  5
18778
  8
AM_0
 10
604.17195960945583
 20
241.15503298966729
 30
0.0
 40
1.149999999999999
  0
CIRCLE
  5
18779
  8
AM_0
 10
604.17195960945583
 20
241.15503298966729
 30
0.0
 40
1.1000000000000001
  0
CIRCLE
  5
1877A
  8
AM_0
 10
599.17195960945583
 20
241.15503298966729
 30
0.0
 40
1.0
  0
LINE
  5
1877B
  8
AM_0
 10
609.65193960945555
 20
242.15503298966729
 30
0.0
 11
609.65193960945555
 21
237.29504298966711
 31
0.0
  0
ARC
  5
1877C
  8
AM_0
 10
610.65193960945589
 20
237.29504298966711
 30
0.0
 40
1.0
 50
179.99999931675049
 51
270.000010000001
  0
ARC
  5
1877D
  8
AM_0
 10
610.67195960945583
 20
237.15503298966729
 30
0.0
 40
1.5
 50
179.99999931675049
 51
270.000010000001
  0
ARC
  5
1877E
  8
AM_0
 10
610.67195960945583
 20
242.15503298966729
 30
0.0
 40
1.02
 50
89.999997000002296
 51
180.0
  0
ARC
  5
1877F
  8
AM_0
 10
610.67195960945583
 20
242.15503298966729
 30
0.0
 40
1.5
 50
89.999997000002296
 51
180.0
  0
LINE
  5
18780
  8
AM_0
 10
593.69197960945576
 20
242.15503298966729
 30
0.0
 11
593.69197960945576
 21
237.29504298966711
 31
0.0
  0
LINE
  5
18781
  8
AM_0
 10
594.17195960945583
 20
242.15503298966729
 30
0.0
 11
594.17195960945583
 21
237.15503298966729
 31
0.0
  0
LINE
  5
18782
  8
AM_0
 10
574.85194960945591
 20
236.2850329896672
 30
0.0
 11
592.69197960945576
 21
236.2850329896672
 31
0.0
  0
ARC
  5
18783
  8
AM_0
 10
592.69197960945576
 20
237.29504298966711
 30
0.0
 40
1.0
 50
270.0
 51
0.0000100000010134
  0
ARC
  5
18784
  8
AM_0
 10
592.67195960945583
 20
237.15503298966729
 30
0.0
 40
1.5
 50
270.0
 51
0.0000100000010134
  0
ARC
  5
18785
  8
AM_0
 10
578.33192960945598
 20
234.65503298966729
 30
0.0
 40
1.0
 50
89.999997000002296
 51
270.000010000001
  0
ARC
  5
18786
  8
AM_0
 10
574.85194960945591
 20
234.60998298966729
 30
0.0
 40
1.6750020000000001
 50
89.999997000002296
 51
270.000010000001
  0
LINE
  5
18787
  8
AM_0
 10
578.33912960945599
 20
243.65503298966729
 30
0.0
 11
592.67195960945583
 21
243.65503298966729
 31
0.0
  0
LINE
  5
18788
  8
AM_0
 10
592.67195960945583
 20
243.17505298966719
 30
0.0
 11
574.63771960945587
 21
243.17505298966719
 31
0.0
  0
ARC
  5
18789
  8
AM_0
 10
592.67195960945583
 20
242.15503298966729
 30
0.0
 40
1.5
 50
359.999989999999
 51
89.999997000002296
  0
ARC
  5
1878A
  8
AM_0
 10
592.67195960945583
 20
242.15503298966729
 30
0.0
 40
1.02
 50
359.999989999999
 51
89.999997000002296
  0
ARC
  5
1878B
  8
AM_0
 10
578.33198960945572
 20
244.65503298966729
 30
0.0
 40
1.0000255999999981
 50
89.589469000002211
 51
270.41052999999681
  0
ARC
  5
1878C
  8
AM_0
 10
574.63197960945593
 20
244.62500298966719
 30
0.0
 40
1.460011199999999
 50
89.77525000000314
 51
270.22475000000333
  0
LINE
  5
1878D
  8
AM_0
 10
571.67195960945583
 20
213.65503298966729
 30
0.0
 11
563.67195960945571
 21
213.65503298966729
 31
0.0
  0
LINE
  5
1878E
  8
AM_0
 10
571.67195960945583
 20
223.65503298966729
 30
0.0
 11
563.67195960945571
 21
223.65503298966729
 31
0.0
  0
LINE
  5
1878F
  8
AM_0
 10
571.67195960945583
 20
237.71509298966731
 30
0.0
 11
563.67195960945571
 21
237.71509298966731
 31
0.0
  0
LINE
  5
18790
  8
AM_0
 10
577.13197960945593
 20
322.6550329896674
 30
0.0
 11
571.67195960945583
 21
322.6550329896674
 31
0.0
  0
ARC
  5
18791
  8
AM_0
 10
572.01875960945574
 20
314.9877929896673
 30
0.0
 40
1.5027759999999999
 50
270.12242000000128
 51
345.2435700000006
  0
ARC
  5
18792
  8
AM_0
 10
572.01875960945574
 20
312.22778298966739
 30
0.0
 40
1.5027759999999999
 50
270.12242000000128
 51
345.2435700000006
  0
ARC
  5
18793
  8
AM_0
 10
572.01875960945574
 20
309.37781298966729
 30
0.0
 40
1.5027759999999999
 50
270.12242000000128
 51
345.2435700000006
  0
ARC
  5
18794
  8
AM_0
 10
572.01875960945574
 20
314.07776298966729
 30
0.0
 40
1.5027759999999999
 50
270.12242000000128
 51
345.2435700000006
  0
LINE
  5
18795
  8
AM_0
 10
573.4662396094559
 20
311.82388298966731
 30
0.0
 11
577.61195960945588
 21
327.30502298966718
 31
0.0
  0
LINE
  5
18796
  8
AM_0
 10
573.46620960945597
 20
314.5838629896673
 30
0.0
 11
577.61192960945584
 21
330.0649729896673
 31
0.0
  0
LINE
  5
18797
  8
AM_0
 10
573.4662396094559
 20
313.67386298966733
 30
0.0
 11
577.61195960945588
 21
329.15497298966721
 31
0.0
  0
ARC
  5
18798
  8
AM_0
 10
641.94502960945579
 20
274.66504298966731
 30
0.0
 40
1.2700266
 50
89.629329999995278
 51
270.37067999999999
  0
ARC
  5
18799
  8
AM_0
 10
641.94502960945579
 20
264.65503298966729
 30
0.0
 40
1.2700266
 50
89.629329999995278
 51
270.37067999999999
  0
ARC
  5
1879A
  8
AM_0
 10
642.00697960945604
 20
284.67004298966708
 30
0.0
 40
1.3350147999999999
 50
89.730443999998613
 51
270.2695700000001
  0
ARC
  5
1879B
  8
AM_0
 10
643.23323960945584
 20
274.6550329896674
 30
0.0
 40
1.000005699999998
 50
89.999997000002296
 51
270.000010000001
  0
ARC
  5
1879C
  8
AM_0
 10
643.23323960945584
 20
264.65503298966729
 30
0.0
 40
1.000005699999998
 50
89.999997000002296
 51
270.000010000001
  0
ARC
  5
1879D
  8
AM_0
 10
643.23323960945584
 20
284.6550329896674
 30
0.0
 40
1.000005699999998
 50
89.999997000002296
 51
270.000010000001
  0
LINE
  5
1879E
  8
AM_0
 10
609.17195960945583
 20
297.1550329896674
 30
0.0
 11
609.17195960945583
 21
302.15503298966729
 31
0.0
  0
LINE
  5
1879F
  8
AM_0
 10
609.65193960945555
 20
297.1550329896674
 30
0.0
 11
609.65193960945555
 21
302.0150129896673
 31
0.0
  0
ARC
  5
187A0
  8
AM_0
 10
610.67195960945583
 20
297.1550329896674
 30
0.0
 40
1.5
 50
179.99999931675049
 51
270.000010000001
  0
ARC
  5
187A1
  8
AM_0
 10
610.67195960945583
 20
297.1550329896674
 30
0.0
 40
1.02
 50
179.999999316757
 51
270.000010000001
  0
ARC
  5
187A2
  8
AM_0
 10
610.65193960945589
 20
302.0150129896673
 30
0.0
 40
1.0
 50
89.999997000002296
 51
180.0
  0
ARC
  5
187A3
  8
AM_0
 10
610.67195960945583
 20
302.15503298966729
 30
0.0
 40
1.5
 50
89.999997000002296
 51
180.0
  0
CIRCLE
  5
187A4
  8
AM_0
 10
604.17195960945583
 20
298.15503298966729
 30
0.0
 40
1.1000000000000001
  0
CIRCLE
  5
187A5
  8
AM_0
 10
604.17195960945583
 20
298.15503298966729
 30
0.0
 40
1.149999999999999
  0
CIRCLE
  5
187A6
  8
AM_0
 10
599.17195960945583
 20
298.15503298966729
 30
0.0
 40
1.0
  0
LINE
  5
187A7
  8
AM_0
 10
573.47194960945603
 20
308.9949629896671
 30
0.0
 11
577.61195960945588
 21
324.45498298966743
 31
0.0
  0
LINE
  5
187A8
  8
AM_0
 10
578.32478960945571
 20
295.65503298966729
 30
0.0
 11
592.67195960945583
 21
295.65503298966729
 31
0.0
  0
LINE
  5
187A9
  8
AM_0
 10
592.69197960945576
 20
303.01501298966718
 30
0.0
 11
574.85194960945591
 21
303.01501298966718
 31
0.0
  0
LINE
  5
187AA
  8
AM_0
 10
592.67195960945583
 20
296.14502298966732
 30
0.0
 11
574.62629960945583
 21
296.14502298966732
 31
0.0
  0
LINE
  5
187AB
  8
AM_0
 10
593.69197960945576
 20
297.1550329896674
 30
0.0
 11
593.69197960945576
 21
302.0150129896673
 31
0.0
  0
LINE
  5
187AC
  8
AM_0
 10
594.17195960945583
 20
297.1550329896674
 30
0.0
 11
594.17195960945583
 21
302.15503298966729
 31
0.0
  0
ARC
  5
187AD
  8
AM_0
 10
592.67195960945583
 20
297.1550329896674
 30
0.0
 40
1.5
 50
270.0
 51
0.0000100000010134
  0
ARC
  5
187AE
  8
AM_0
 10
592.67195960945583
 20
297.1550329896674
 30
0.0
 40
1.02
 50
270.0
 51
0.0000100000010134
  0
ARC
  5
187AF
  8
AM_0
 10
592.67195960945583
 20
302.15503298966729
 30
0.0
 40
1.5
 50
359.999989999999
 51
89.999997000002296
  0
ARC
  5
187B0
  8
AM_0
 10
592.69197960945576
 20
302.0150129896673
 30
0.0
 40
1.0
 50
359.999989999999
 51
89.999997000002296
  0
ARC
  5
187B1
  8
AM_0
 10
578.33198960945572
 20
294.65503298966729
 30
0.0
 40
1.0000255999999981
 50
89.589469000002211
 51
270.41052999999681
  0
ARC
  5
187B2
  8
AM_0
 10
574.63197960945593
 20
294.68506298966719
 30
0.0
 40
1.460011199999999
 50
89.77525000000314
 51
270.22475000000333
  0
ARC
  5
187B3
  8
AM_0
 10
578.33192960945598
 20
304.65503298966729
 30
0.0
 40
1.0
 50
89.999997000002296
 51
270.000010000001
  0
ARC
  5
187B4
  8
AM_0
 10
574.85194960945591
 20
304.70007298966732
 30
0.0
 40
1.6750020000000001
 50
89.999997000002296
 51
270.000010000001
  0
ARC
  5
187B5
  8
AM_0
 10
579.54188960945589
 20
323.93677298966719
 30
0.0
 40
1.9982919999999991
 50
89.997367999998644
 51
164.96745200000379
  0
ARC
  5
187B6
  8
AM_0
 10
579.54677960945583
 20
329.54028298966728
 30
0.0
 40
2.0047290000000002
 50
90.138321999999846
 51
164.8265040000035
  0
ARC
  5
187B7
  8
AM_0
 10
579.54677960945583
 20
326.7802729896672
 30
0.0
 40
2.0047290000000002
 50
90.138321999999846
 51
164.8265040000035
  0
ARC
  5
187B8
  8
AM_0
 10
579.54677960945583
 20
328.63025298966733
 30
0.0
 40
2.0047290000000002
 50
90.138321999999846
 51
164.8265040000035
  0
LINE
  5
187B9
  8
AM_0
 10
571.67195960945583
 20
301.59497298966733
 30
0.0
 11
563.67195960945571
 21
301.59497298966733
 31
0.0
  0
LINE
  5
187BA
  8
AM_0
 10
571.67195960945583
 20
315.6550329896674
 30
0.0
 11
563.67195960945571
 21
315.6550329896674
 31
0.0
  0
LINE
  5
187BB
  8
AM_0
 10
571.67195960945583
 20
325.65503298966729
 30
0.0
 11
563.67195960945571
 21
325.65503298966729
 31
0.0
  0
LINE
  5
187BC
  8
AM_0
 10
737.67195960945571
 20
563.07272504291245
 30
0.0
 11
737.67195960945571
 21
574.81271504291271
 31
0.0
  0
LINE
  5
187BD
  8
AM_0
 10
692.67195960945571
 20
527.81274104291265
 30
0.0
 11
692.67195960945571
 21
576.81275504291261
 31
0.0
  0
LINE
  5
187BE
  8
AM_0
 10
735.17196960945569
 20
495.8327290429126
 30
0.0
 11
735.17196960945546
 21
576.81275504291261
 31
0.0
  0
LINE
  5
187BF
  8
AM_0
 10
735.17196960945569
 20
479.65272104291262
 30
0.0
 11
735.17196960945569
 21
462.8127370429126
 31
0.0
  0
LINE
  5
187C0
  8
AM_0
 10
728.59194960945592
 20
516.09273704291263
 30
0.0
 11
743.05194960945585
 21
471.58272704291272
 31
0.0
  0
LINE
  5
187C1
  8
AM_0
 10
723.83199960945592
 20
514.55272904291246
 30
0.0
 11
738.29193960945565
 21
470.04273404291268
 31
0.0
  0
LINE
  5
187C2
  8
AM_0
 10
735.67194960945574
 20
462.8127370429126
 30
0.0
 11
687.67194960945574
 21
462.8127370429126
 31
0.0
  0
LINE
  5
187C3
  8
AM_0
 10
735.17196960945569
 20
475.92272504291259
 30
0.0
 11
687.67194960945574
 21
475.92272504291259
 31
0.0
  0
ARC
  5
187C4
  8
AM_0
 10
735.67422960945555
 20
464.8104190429126
 30
0.0
 40
1.9976960999999991
 50
269.93383000000301
 51
0.0661700000034912
  0
ARC
  5
187C5
  8
AM_0
 10
740.67195960945571
 20
470.81273804291249
 30
0.0
 40
2.5014601500000002
 50
197.9279300000014
 51
17.92792000000156
  0
ARC
  5
187C6
  8
AM_0
 10
740.67300960945556
 20
470.81119604291268
 30
0.0
 40
3.001016099999998
 50
179.9708539990001
 51
354.86740000000231
  0
ARC
  5
187C7
  8
AM_0
 10
743.96157960945573
 20
470.51168204291253
 30
0.0
 40
0.30119199
 50
91.824012999999795
 51
174.08517019999809
  0
LINE
  5
187C8
  8
AM_0
 10
744.17196960945557
 20
471.31272404291269
 30
0.0
 11
744.17196960945557
 21
470.81273804291249
 31
0.0
  0
LINE
  5
187C9
  8
AM_0
 10
744.17196960945557
 20
471.31272404291269
 30
0.0
 11
743.9519196094559
 21
471.31272404291269
 31
0.0
  0
ARC
  5
187CA
  8
AM_0
 10
743.96010960945557
 20
470.51038604291261
 30
0.0
 40
0.8023920299999998
 50
90.582441999999929
 51
174.10916499999999
  0
LINE
  5
187CB
  8
AM_0
 10
737.67195960945571
 20
471.96273104291248
 30
0.0
 11
737.67195960945571
 21
464.8127380429126
 31
0.0
  0
LINE
  5
187CC
  8
AM_0
 10
692.67195960945571
 20
475.92272504291259
 30
0.0
 11
692.67195960945571
 21
462.8127370429126
 31
0.0
  0
LINE
  5
187CD
  8
AM_0
 10
735.17196960945569
 20
553.45272404291268
 30
0.0
 11
692.67195960945571
 21
553.45272404291268
 31
0.0
  0
LINE
  5
187CE
  8
AM_0
 10
735.17196960945569
 20
563.70272504291268
 30
0.0
 11
687.67194960945574
 21
563.70272504291268
 31
0.0
  0
LINE
  5
187CF
  8
AM_0
 10
737.67195960945571
 20
488.1427240429125
 30
0.0
 11
737.67195960945571
 21
554.34271004291236
 31
0.0
  0
ARC
  5
187D0
  8
AM_0
 10
737.62323960945571
 20
482.31264704291272
 30
0.0
 40
4.0507442999999981
 50
315.08765999999451
 51
80.928209000001658
  0
LINE
  5
187D1
  8
AM_0
 10
736.47195960945555
 20
554.10274904291259
 30
0.0
 11
736.47195960945555
 21
563.30273504291245
 31
0.0
  0
ARC
  5
187D2
  8
AM_0
 10
736.77627960945574
 20
557.20289504291259
 30
0.0
 40
2.9956880400000001
 50
264.1696299999968
 51
359.99636000000248
  0
LINE
  5
187D3
  8
AM_0
 10
736.47195960945555
 20
554.10274904291259
 30
0.0
 11
735.17196960945569
 21
554.10274904291259
 31
0.0
  0
ARC
  5
187D4
  8
AM_0
 10
736.77027960945566
 20
560.20592504291255
 30
0.0
 40
3.0016479
 50
359.93865000000221
 51
95.704386999996927
  0
LINE
  5
187D5
  8
AM_0
 10
736.47195960945555
 20
563.30273504291245
 30
0.0
 11
735.17196960945569
 21
563.30273504291245
 31
0.0
  0
LINE
  5
187D6
  8
AM_0
 10
739.7719296094557
 20
557.20271504291259
 30
0.0
 11
739.7719296094557
 21
560.20271504291236
 31
0.0
  0
LINE
  5
187D7
  8
AM_0
 10
699.17196960945557
 20
517.31274104291276
 30
0.0
 11
699.17196960945557
 21
522.31270904291262
 31
0.0
  0
LINE
  5
187D8
  8
AM_0
 10
696.67194960945574
 20
517.31274104291276
 30
0.0
 11
696.67194960945574
 21
522.31270904291262
 31
0.0
  0
LINE
  5
187D9
  8
AM_0
 10
710.17194960945574
 20
517.31274104291276
 30
0.0
 11
710.17194960945574
 21
522.31270904291262
 31
0.0
  0
LINE
  5
187DA
  8
ﾁｭｳｼﾝｾﾝ1
 10
704.67195960945571
 20
507.60072904291241
 30
0.0
 11
704.67195960945571
 21
532.02072504291255
 31
0.0
  0
ARC
  5
187DB
  8
AM_0
 10
720.02418960945602
 20
513.31564004291249
 30
0.0
 40
8.9970875999999969
 50
17.978799999997101
 51
90.014225000001474
  0
ARC
  5
187DC
  8
AM_0
 10
704.6743896094556
 20
519.81029804291245
 30
0.0
 40
7.9975721999999996
 50
269.98269000000079
 51
341.80265000000122
  0
LINE
  5
187DD
  8
AM_0
 10
720.02199960945575
 20
517.31274104291276
 30
0.0
 11
710.17194960945574
 21
517.31274104291276
 31
0.0
  0
ARC
  5
187DE
  8
AM_0
 10
720.02871960945561
 20
513.31234304291263
 30
0.0
 40
4.0003919999999971
 50
18.06320999999987
 51
90.096945000002066
  0
LINE
  5
187DF
  8
AM_0
 10
699.17196960945557
 20
517.31274104291276
 30
0.0
 11
696.67194960945574
 21
517.31274104291276
 31
0.0
  0
LINE
  5
187E0
  8
AM_0
 10
704.67195960945571
 20
511.81270904291239
 30
0.0
 11
687.67194960945574
 21
511.81270904291239
 31
0.0
  0
LINE
  5
187E1
  8
AM_0
 10
710.17194960945574
 20
517.81270904291262
 30
0.0
 11
699.17196960945557
 21
517.81270904291262
 31
0.0
  0
ARC
  5
187E2
  8
AM_0
 10
704.67195960945571
 20
519.81072704291262
 30
0.0
 40
4.9968401999999976
 50
203.5689799999993
 51
336.43102000000061
  0
LINE
  5
187E3
  8
AM_0
 10
720.02199960945575
 20
522.31270904291262
 30
0.0
 11
710.17194960945574
 21
522.31270904291262
 31
0.0
  0
ARC
  5
187E4
  8
AM_0
 10
704.67243960945586
 20
519.81252704291262
 30
0.0
 40
8.000195699999999
 50
18.210970000003979
 51
90.003699000002214
  0
LINE
  5
187E5
  8
AM_0
 10
699.17196960945557
 20
522.31270904291262
 30
0.0
 11
696.67194960945574
 21
522.31270904291262
 31
0.0
  0
LINE
  5
187E6
  8
AM_0
 10
704.67195960945571
 20
527.81274104291265
 30
0.0
 11
687.67194960945574
 21
527.81274104291265
 31
0.0
  0
LINE
  5
187E7
  8
AM_0
 10
710.17194960945574
 20
521.81274104291265
 30
0.0
 11
699.17196960945557
 21
521.81274104291265
 31
0.0
  0
ARC
  5
187E8
  8
AM_0
 10
704.67195960945571
 20
519.81072704291262
 30
0.0
 40
4.998440399999998
 50
23.610999999994711
 51
156.38900099999839
  0
LINE
  5
187E9
  8
AM_0
 10
735.67194960945574
 20
576.81275504291261
 30
0.0
 11
687.67194960945574
 21
576.81275504291261
 31
0.0
  0
ARC
  5
187EA
  8
AM_0
 10
735.67245960945593
 20
574.81322504291245
 30
0.0
 40
1.9994960399999999
 50
359.98554000000013
 51
90.014457000002096
  0
LINE
  5
187EB
  8
AM_0
 10
687.67194960945574
 20
576.81275504291261
 30
0.0
 11
687.67194960945574
 21
462.8127370429126
 31
0.0
  0
LINE
  5
187EC
  8
AM_0
 10
182.27638580534369
 20
297.15503380923121
 30
0.0
 11
182.27638580534369
 21
242.15503217010351
 31
0.0
  0
LINE
  5
187ED
  8
AM_0
 10
182.27638580534389
 20
242.15503217010351
 30
0.0
 11
186.2763859245531
 21
242.15503217010351
 31
0.0
  0
LINE
  5
187EE
  8
AM_0
 10
182.27638580534389
 20
297.15503380923121
 30
0.0
 11
186.2763859245531
 21
297.15503380923121
 31
0.0
  0
LINE
  5
187F2
  8
AM_0
 10
738.17338970945582
 20
264.65503298966729
 30
0.0
 11
738.17338970945582
 21
214.65503298966729
 31
0.0
  0
LINE
  5
187F4
  8
AM_0
 10
743.17338970945582
 20
264.65503298966729
 30
0.0
 11
743.17338970945582
 21
213.65503298966729
 31
0.0
  0
LINE
  5
18870
  8
AM_0
 10
400.16585201091277
 20
309.65503418176007
 30
0.0
 11
400.16585201091277
 21
229.65503146974879
 31
0.0
  0
ARC
  5
18871
  8
AM_0
 10
411.16585201091272
 20
309.65503450958568
 30
0.0
 40
11.0
 50
90.0
 51
180.0
1001
GENIUS_GENOREF_13
1005
18888
  0
POINT
  5
18888
  8
0
 10
0.0
 20
0.0
 30
0.0
1001
GENIUS_GENODEF_13
1002
{
1000
HIER
1070
     1
1002
}
1002
{
1000
MANEDIT
1070
     0
1002
}
1002
{
1000
NOSEL
1070
     0
1002
}
1002
{
1000
BEHIND
1070
     0
1002
}
1002
{
1000
OTHER
1070
     0
1002
}
1002
{
1000
REACTOR
1002
}
1001
GENIUS_GENOENT_13
1002
{
1000
MYREF
1005
18888
1002
}
1002
{
1000
GRP
1005
0
1002
}
1001
GENIUS_GENOBJ-N-FIL_13
1002
{
1000
OWNER
1000
GEN
1002
}
1001
GENIUS_GENOLIS_13
1002
{
1000
ENT
1005
18871
1002
}
  0
ARC
  5
18889
  8
AM_0
 10
411.16585201091272
 20
229.65503146974879
 30
0.0
 40
11.0
 50
180.0
 51
270.0
1001
GENIUS_GENOREF_13
1005
188A0
  0
POINT
  5
188A0
  8
0
 10
0.0
 20
0.0
 30
0.0
1001
GENIUS_GENOBJ-N-FIL_13
1002
{
1000
OWNER
1000
GEN
1002
}
1001
GENIUS_GENOLIS_13
1002
{
1000
ENT
1005
18889
1002
}
1001
GENIUS_GENOENT_13
1002
{
1000
MYREF
1005
188A0
1002
}
1002
{
1000
GRP
1005
0
1002
}
1001
GENIUS_GENODEF_13
1002
{
1000
HIER
1070
     1
1002
}
1002
{
1000
MANEDIT
1070
     0
1002
}
1002
{
1000
NOSEL
1070
     0
1002
}
1002
{
1000
BEHIND
1070
     0
1002
}
1002
{
1000
OTHER
1070
     0
1002
}
1002
{
1000
REACTOR
1002
}
  0
TEXT
  5
18954
  8
AM_0
 10
124.23544957396371
 20
514.76668611338039
 30
0.0
 40
10.0
  1
VC01-007BR~VC01-060BR
1001
ACAD
1000
MTEXTBEGIN
1070
    73
1070
     1
1070
    44
1040
1.0
1070
    74
1070
     0
1000
MTEXTEND
  0
VIEWPORT
  5
89
 67
     1
  8
0
 10
210.0
 20
148.5
 30
0.0
 40
420.0
 41
297.0
 68
     1
 69
     1
1001
ACAD
1000
MVIEW
1002
{
1070
    16
1010
0.0
1020
0.0
1030
0.0
1010
0.0
1020
0.0
1030
1.0
1040
0.0
1040
297.0
1040
221.70154043645701
1040
148.5
1040
50.0
1040
0.0
1040
0.0
1070
     0
1070
   100
1070
     1
1070
     1
1070
     0
1070
     0
1070
     0
1070
     0
1040
0.0
1040
0.0
1040
0.0
1040
10.0
1040
10.0
1040
10.0
1040
10.0
1070
     0
1002
{
1002
}
1002
}
1001
GENIUS_GENOREF_13
1005
1B94
1001
GENIUS_GENSCREG_15
1000
PF
1040
1.0
1000
DF
1040
1.0
1000
MIN
1011
0.0
1021
0.0
1031
0.0
1021
0.0
1031
0.0
1000
MAX
1011
420.0
1021
0.0
1031
0.0
1021
297.0
1031
0.0
1000
FLAGS
1070
     4
  0
ENDSEC
  0
EOF
