  0
SECTION
  2
HEADER
  9
$ACADVER
  1
AC1009
  9
$INSBASE
 10
0.0
 20
0.0
 30
0.0
  9
$EXTMIN
 10
113.0724249055597
 20
162.93751164941111
 30
-0.0015258207003583
  9
$EXTMAX
 10
769.88609230020745
 20
581.84485163884733
 30
0.0000000349246037
  9
$LIMMIN
 10
0.0
 20
0.0
  9
$LIMMAX
 10
853.5
 20
555.00000000000011
  9
$ORTHOMODE
 70
     0
  9
$REGENMODE
 70
     1
  9
$FILLMODE
 70
     1
  9
$QTEXTMODE
 70
     0
  9
$MIRRTEXT
 70
     1
  9
$DRAGMODE
 70
     2
  9
$LTSCALE
 40
3.0
  9
$OSMODE
 70
   551
  9
$ATTMODE
 70
     1
  9
$TEXTSIZE
 40
2.5
  9
$TRACEWID
 40
1.0
  9
$TEXTSTYLE
  7
STANDARD
  9
$CLAYER
  8
AM_0
  9
$CELTYPE
  6
BYLAYER
  9
$CECOLOR
 62
   256
  9
$DIMSCALE
 40
3.0
  9
$DIMASZ
 40
2.5
  9
$DIMEXO
 40
1.0
  9
$DIMDLI
 40
7.0
  9
$DIMRND
 40
0.0
  9
$DIMDLE
 40
0.0
  9
$DIMEXE
 40
1.0
  9
$DIMTP
 40
0.1
  9
$DIMTM
 40
0.1000000001
  9
$DIMTXT
 40
2.5
  9
$DIMCEN
 40
0.0
  9
$DIMTSZ
 40
0.0
  9
$DIMTOL
 70
     0
  9
$DIMLIM
 70
     0
  9
$DIMTIH
 70
     0
  9
$DIMTOH
 70
     0
  9
$DIMSE1
 70
     0
  9
$DIMSE2
 70
     0
  9
$DIMTAD
 70
     3
  9
$DIMZIN
 70
     8
  9
$DIMBLK
  1

  9
$DIMASO
 70
     1
  9
$DIMSHO
 70
     1
  9
$DIMPOST
  1

  9
$DIMAPOST
  1
"
  9
$DIMALT
 70
     0
  9
$DIMALTD
 70
     2
  9
$DIMALTF
 40
0.0393701
  9
$DIMLFAC
 40
1.0
  9
$DIMTOFL
 70
     1
  9
$DIMTVP
 40
0.0
  9
$DIMTIX
 70
     0
  9
$DIMSOXD
 70
     0
  9
$DIMSAH
 70
     0
  9
$DIMBLK1
  1

  9
$DIMBLK2
  1

  9
$DIMSTYLE
  2
AM_JIS
  9
$DIMCLRD
 70
   256
  9
$DIMCLRE
 70
   256
  9
$DIMCLRT
 70
     4
  9
$DIMTFAC
 40
0.71
  9
$DIMGAP
 40
1.0
  9
$LUNITS
 70
     2
  9
$LUPREC
 70
     2
  9
$SKETCHINC
 40
1.0
  9
$FILLETRAD
 40
1.0
  9
$AUNITS
 70
     0
  9
$AUPREC
 70
     3
  9
$MENU
  1
.
  9
$ELEVATION
 40
0.0
  9
$PELEVATION
 40
0.0
  9
$THICKNESS
 40
0.0
  9
$LIMCHECK
 70
     0
  9
$BLIPMODE
 70
     0
  9
$CHAMFERA
 40
7.5
  9
$CHAMFERB
 40
7.5
  9
$SKPOLY
 70
     0
  9
$TDCREATE
 40
2452753.643349607
  9
$TDUPDATE
 40
2458543.4884954751
  9
$TDINDWG
 40
0.3308918634
  9
$TDUSRTIMER
 40
0.3308916667
  9
$USRTIMER
 70
     1
  9
$ANGBASE
 50
0.0
  9
$ANGDIR
 70
     0
  9
$PDMODE
 70
     0
  9
$PDSIZE
 40
0.0
  9
$PLINEWID
 40
0.0
  9
$COORDS
 70
     1
  9
$SPLFRAME
 70
     0
  9
$SPLINETYPE
 70
     6
  9
$SPLINESEGS
 70
     8
  9
$ATTDIA
 70
     1
  9
$ATTREQ
 70
     1
  9
$HANDLING
 70
     1
  9
$HANDSEED
  5
18BFB
  9
$SURFTAB1
 70
     6
  9
$SURFTAB2
 70
     6
  9
$SURFTYPE
 70
     6
  9
$SURFU
 70
     6
  9
$SURFV
 70
     6
  9
$UCSNAME
  2

  9
$UCSORG
 10
0.0
 20
0.0
 30
0.0
  9
$UCSXDIR
 10
1.0
 20
0.0
 30
0.0
  9
$UCSYDIR
 10
0.0
 20
1.0
 30
0.0
  9
$PUCSNAME
  2

  9
$PUCSORG
 10
0.0
 20
0.0
 30
0.0
  9
$PUCSXDIR
 10
1.0
 20
0.0
 30
0.0
  9
$PUCSYDIR
 10
0.0
 20
1.0
 30
0.0
  9
$USERI1
 70
     0
  9
$USERI2
 70
     0
  9
$USERI3
 70
     0
  9
$USERI4
 70
     0
  9
$USERI5
 70
     0
  9
$USERR1
 40
0.0
  9
$USERR2
 40
0.0
  9
$USERR3
 40
0.0
  9
$USERR4
 40
0.0
  9
$USERR5
 40
0.0
  9
$WORLDVIEW
 70
     1
  9
$SHADEDGE
 70
     3
  9
$SHADEDIF
 70
    70
  9
$TILEMODE
 70
     1
  9
$MAXACTVP
 70
    48
  9
$PLIMCHECK
 70
     0
  9
$PEXTMIN
 10
1.0000000000000000E+020
 20
1.0000000000000000E+020
 30
1.0000000000000000E+020
  9
$PEXTMAX
 10
-1.0000000000000000E+020
 20
-1.0000000000000000E+020
 30
-1.0000000000000000E+020
  9
$PLIMMIN
 10
0.0
 20
0.0
  9
$PLIMMAX
 10
420.0
 20
297.0
  9
$UNITMODE
 70
     0
  9
$VISRETAIN
 70
     1
  9
$PLINEGEN
 70
     0
  9
$PSLTSCALE
 70
     1
  0
ENDSEC
  0
SECTION
  2
TABLES
  0
TABLE
  2
VPORT
 70
     1
  0
VPORT
  2
*ACTIVE
 70
     0
 10
0.0
 20
0.0
 11
1.0
 21
1.0
 12
441.47925860288359
 22
372.39118164412918
 13
0.0
 23
0.0
 14
7.5
 24
7.5
 15
30.0
 25
30.0
 16
0.0
 26
0.0
 36
1.0
 17
0.0
 27
0.0
 37
0.0
 40
421.78313408547342
 41
1.7571592210767459
 42
50.0
 43
0.0
 44
0.0
 50
0.0
 51
0.0
 71
    16
 72
   100
 73
     1
 74
     1
 75
     0
 76
     0
 77
     0
 78
     0
  0
ENDTAB
  0
TABLE
  2
LTYPE
 70
    21
  0
LTYPE
  2
CONTINUOUS
 70
     0
  3
Solid line
 72
    65
 73
     0
 40
0.0
  0
LTYPE
  2
PHANTOM2
 70
     0
  3
Phantom (.5x) ___ _ _ ___ _ _ ___ _ _ ___ _ _
 72
    65
 73
     6
 40
31.75
 49
15.875
 49
-3.174999999999998
 49
3.174999999999998
 49
-3.174999999999998
 49
3.174999999999998
 49
-3.174999999999998
  0
LTYPE
  2
CENTER
 70
     0
  3
Center ____ _ ____ _ ____ _ ____ _ ____ _ ____
 72
    65
 73
     4
 40
50.799999999999997
 49
31.75
 49
-6.3499999999999979
 49
6.3499999999999979
 49
-6.3499999999999979
  0
LTYPE
  2
ACANSTGBM
 70
     0
  3
__ . . __ . .
 72
    65
 73
     6
 40
9.0
 49
4.0
 49
-1.0
 49
1.0
 49
-1.0
 49
1.0
 49
-1.0
  0
LTYPE
  2
ACANSTGLM
 70
     0
  3
_ _ _ _ _
 72
    65
 73
     2
 40
3.0
 49
2.0
 49
-1.0
  0
LTYPE
  2
GEN3B
 70
     0
  3
 - - - - -
 72
    65
 73
     2
 40
1.0
 49
0.5
 49
-0.5
  0
LTYPE
  2
GEN7A
 70
     0
  3
__ . __ . __
 72
    65
 73
     4
 40
7.375
 49
4.75
 49
-0.875
 49
0.875
 49
-0.875
  0
LTYPE
  2
AM_ISO02W050
 70
     0
  3
__ __ __ __ __ __ __ __ __ __ __ __ __ __ __
 72
    65
 73
     2
 40
7.5
 49
6.0
 49
-1.5
  0
LTYPE
  2
AM_ISO08W050
 70
     0
  3
____ . ____ . ____ . ____ . ____ . ____ . ____
 72
    65
 73
     4
 40
18.0
 49
12.0
 49
-1.5
 49
3.0
 49
-1.5
  0
LTYPE
  2
AM_ISO09W050
 70
     0
  3
_____ . . _____ . . _____ . . ____ .. ____
 72
    65
 73
     6
 40
22.5
 49
12.0
 49
-1.5
 49
3.0
 49
-1.5
 49
3.0
 49
-1.5
  0
LTYPE
  2
AMCONSTR
 70
     0
  3
_______________________
 72
    65
 73
     2
 40
9999.0
 49
9999.0
 49
0.0
  0
LTYPE
  2
AM_ISO02W050X2
 70
     0
  3
 _ _ _ _ _ _ _ _ _ _ _ _
 72
    65
 73
     2
 40
3.75
 49
3.0
 49
-0.75
  0
LTYPE
  2
AM_ISO08W050X2
 70
     0
  3
__ . __ . __ . __ . __ . __
 72
    65
 73
     4
 40
9.0
 49
6.0
 49
-0.75
 49
1.5
 49
-0.75
  0
LTYPE
  2
AMZIGZAG
 70
     0
  3
/\/-/\/-/\/-/\/-/\/-/\/
 72
    65
 73
     2
 40
11.0001
 49
0.0001
 49
-11.0
  0
LTYPE
  2
ACJISTGB
 70
     0
  3
__ . . __ . .
 72
    65
 73
     6
 40
9.0
 49
4.0
 49
-1.0
 49
1.0
 49
-1.0
 49
1.0
 49
-1.0
  0
LTYPE
  2
ACJISTGL
 70
     0
  3
_ _ _ _ _
 72
    65
 73
     2
 40
3.0
 49
2.0
 49
-1.0
  0
LTYPE
  2
ACISOWELD
 70
     0
  3
_ _ _ _ _
 72
    65
 73
     2
 40
2.0
 49
2.0
 49
-1.0
  0
LTYPE
  2
ACISOTGB
 70
     0
  3
__ . . __ . .
 72
    65
 73
     6
 40
9.0
 49
4.0
 49
-1.0
 49
1.0
 49
-1.0
 49
1.0
 49
-1.0
  0
LTYPE
  2
ACISOTGL
 70
     0
  3
_ _ _ _ _
 72
    65
 73
     2
 40
3.0
 49
2.0
 49
-1.0
  0
LTYPE
  2
HIDDEN
 70
     0
  3
Hidden __ __ __ __ __ __ __ __ __ __ __ __ __ _
 72
    65
 73
     2
 40
9.5249999999999968
 49
6.3499999999999979
 49
-3.174999999999998
  0
ENDTAB
  0
TABLE
  2
LAYER
 70
     8
  0
LAYER
  2
0
 70
     0
 62
     7
  6
CONTINUOUS
  0
LAYER
  2
ｽﾝﾎﾟｳｾﾝ
 70
     0
 62
     2
  6
CONTINUOUS
  0
LAYER
  2
DEFPOINTS
 70
     0
 62
     7
  6
CONTINUOUS
  0
LAYER
  2
ｶｸﾚｾﾝ2
 70
     0
 62
     3
  6
GEN3B
  0
LAYER
  2
ﾁｭｳｼﾝｾﾝ1
 70
     0
 62
     1
  6
GEN7A
  0
LAYER
  2
AM_0
 70
     0
 62
     7
  6
CONTINUOUS
  0
LAYER
  2
AM_0N
 70
     0
 62
     7
  6
CONTINUOUS
  0
LAYER
  2
AM_5
 70
     0
 62
     2
  6
CONTINUOUS
  0
ENDTAB
  0
TABLE
  2
STYLE
 70
     8
  0
STYLE
  2
STANDARD
 70
     0
 40
0.0
 41
0.8299999999999999
 50
0.0
 71
     0
 42
2.5
  3
txt.shx
  4
bigfont.shx
  0
STYLE
  2
ACANSTS
 70
     0
 40
1.0
 41
1.0
 50
0.0
 71
     0
 42
2.5
  3
romans.shx
  4
bigfont.shx
  0
STYLE
  2
ACANSGDT
 70
     0
 40
0.0
 41
1.0
 50
0.0
 71
     0
 42
2.5
  3
amgdtans.shx
  4

  0
STYLE
  2

 70
     1
 40
0.0
 41
1.0
 50
0.0
 71
     0
 42
2.5
  3
ltypeshp.shx
  4

  0
STYLE
  2
ACJISTS
 70
     0
 40
1.0
 41
1.0
 50
0.0
 71
     0
 42
2.5
  3
isocp.shx
  4
bigfont.shx
  0
STYLE
  2
ACJISGDT
 70
     0
 40
0.0
 41
1.0
 50
0.0
 71
     0
 42
2.5
  3
amgdt.shx
  4

  0
STYLE
  2
ACISOTS
 70
     0
 40
3.0
 41
1.0
 50
0.0
 71
     0
 42
2.5
  3
isocp.shx
  4
extfont.shx
  0
STYLE
  2
ACISOGDT
 70
     0
 40
0.0
 41
1.0
 50
0.0
 71
     0
 42
2.5
  3
amgdt.shx
  4

  0
ENDTAB
  0
TABLE
  2
VIEW
 70
    12
  0
VIEW
  2
GEN1
 70
     0
 40
95.824742268041234
 10
71.5
 20
137.08762886597941
 41
143.0
 11
0.0
 21
0.0
 31
1.0
 12
0.0
 22
0.0
 32
0.0
 42
50.0
 43
0.0
 44
0.0
 50
0.0
 71
     0
  0
VIEW
  2
GEN2
 70
     0
 40
95.824742268041234
 10
214.5
 20
137.08762886597941
 41
143.0
 11
0.0
 21
0.0
 31
1.0
 12
0.0
 22
0.0
 32
0.0
 42
50.0
 43
0.0
 44
0.0
 50
0.0
 71
     0
  0
VIEW
  2
GEN3
 70
     0
 40
95.824742268041234
 10
71.5
 20
47.912371134020603
 41
143.0
 11
0.0
 21
0.0
 31
1.0
 12
0.0
 22
0.0
 32
0.0
 42
50.0
 43
0.0
 44
0.0
 50
0.0
 71
     0
  0
VIEW
  2
GEN4
 70
     0
 40
95.824742268041234
 10
214.5
 20
47.912371134020603
 41
143.0
 11
0.0
 21
0.0
 31
1.0
 12
0.0
 22
0.0
 32
0.0
 42
50.0
 43
0.0
 44
0.0
 50
0.0
 71
     0
  0
VIEW
  2
GEN5
 70
     0
 40
95.824742268041234
 10
143.0
 20
92.500000000000057
 41
143.0
 11
0.0
 21
0.0
 31
1.0
 12
0.0
 22
0.0
 32
0.0
 42
50.0
 43
0.0
 44
0.0
 50
0.0
 71
     0
  0
VIEW
  2
GEN6
 70
     0
 40
191.64756804123709
 10
143.0
 20
92.5
 41
285.99714
 11
0.0
 21
0.0
 31
1.0
 12
0.0
 22
0.0
 32
0.0
 42
50.0
 43
0.0
 44
0.0
 50
0.0
 71
     0
  0
VIEW
  2
AM_VIEW1
 70
     0
 40
277.50000000000011
 10
249.64779005524869
 20
416.25000000000011
 41
499.29558011049721
 11
0.0
 21
0.0
 31
1.0
 12
0.0
 22
0.0
 32
0.0
 42
50.0
 43
0.0
 44
0.0
 50
0.0
 71
    16
  0
VIEW
  2
AM_VIEW2
 70
     0
 40
277.50000000000011
 10
603.85220994475117
 20
416.25000000000011
 41
499.29558011049721
 11
0.0
 21
0.0
 31
1.0
 12
0.0
 22
0.0
 32
0.0
 42
50.0
 43
0.0
 44
0.0
 50
0.0
 71
    16
  0
VIEW
  2
AM_VIEW3
 70
     0
 40
277.50000000000011
 10
249.64779005524869
 20
138.75
 41
499.29558011049721
 11
0.0
 21
0.0
 31
1.0
 12
0.0
 22
0.0
 32
0.0
 42
50.0
 43
0.0
 44
0.0
 50
0.0
 71
    16
  0
VIEW
  2
AM_VIEW4
 70
     0
 40
277.50000000000011
 10
603.85220994475117
 20
138.75
 41
499.29558011049721
 11
0.0
 21
0.0
 31
1.0
 12
0.0
 22
0.0
 32
0.0
 42
50.0
 43
0.0
 44
0.0
 50
0.0
 71
    16
  0
VIEW
  2
AM_VIEW5
 70
     0
 40
277.50000000000011
 10
426.75
 20
277.50000000000011
 41
499.2955801104971
 11
0.0
 21
0.0
 31
1.0
 12
0.0
 22
0.0
 32
0.0
 42
50.0
 43
0.0
 44
0.0
 50
0.0
 71
    16
  0
VIEW
  2
AM_VIEW6
 70
     0
 40
554.99445000000014
 10
426.75
 20
277.5
 41
998.5811743093924
 11
0.0
 21
0.0
 31
1.0
 12
0.0
 22
0.0
 32
0.0
 42
50.0
 43
0.0
 44
0.0
 50
0.0
 71
    16
  0
ENDTAB
  0
TABLE
  2
UCS
 70
     0
  0
ENDTAB
  0
TABLE
  2
APPID
 70
    98
  0
APPID
  2
ACAD
 70
     0
  0
APPID
  2
MCAD_NO_VIS
 70
     0
  0
APPID
  2
ACAD_TEMP_GRAPHIC
 70
     0
  0
APPID
  2
AD_DRAW
 70
     0
  0
APPID
  2
DESIGNERASSEMBLIES
 70
     0
  0
APPID
  2
ASURF_PCURVE_APPNAME
 70
     0
  0
APPID
  2
GENIUS_GE3SECT_13
 70
     0
  0
APPID
  2
GENIUS_GENCFG_13
 70
     0
  0
APPID
  2
GENIUS_GE3CFG0_13
 70
     0
  0
APPID
  2
GENIUS_GENCFG0_13
 70
     0
  0
APPID
  2
GENIUS_GENCFG1_13
 70
     0
  0
APPID
  2
GENIUS_GENCFG2_13
 70
     0
  0
APPID
  2
GENIUS_GENCFG3_13
 70
     0
  0
APPID
  2
GENIUS_GENCFG4_13
 70
     0
  0
APPID
  2
GENIUS_GEVCFG0_13
 70
     0
  0
APPID
  2
GENIUS_GENOENT_13
 70
     0
  0
APPID
  2
GENIUS_GENREC_14
 70
     0
  0
APPID
  2
GENIUS_GENODEF_13
 70
     0
  0
APPID
  2
GENIUS_GENOBJ-N-REC_13
 70
     0
  0
APPID
  2
GENIUS_GENHINW_13
 70
     0
  0
APPID
  2
GENIUS_FIRSTVISTXT_14
 70
     0
  0
APPID
  2
GENIUS_GENOBJ-N-LEADER_13
 70
     0
  0
APPID
  2
GENIUS_GENOREF_13
 70
     0
  0
APPID
  2
GENIUS_GENOLIS_13
 70
     0
  0
APPID
  2
GEV_VCCNULL_SWITCH_OFF
 70
     0
  0
APPID
  2
GENIUS_GENDTOL_13
 70
     0
  0
APPID
  2
GENIUS_GEFCFG0_13
 70
     0
  0
APPID
  2
GENIUS_GENOBJ-N-TIT_13
 70
     0
  0
APPID
  2
GENIUS_GENTITLE_13
 70
     0
  0
APPID
  2
GENIUS_GENZVEED_13
 70
     0
  0
APPID
  2
GENIUS_GENOBJ-N-SDF_13
 70
     0
  0
APPID
  2
GENIUS_GENSCREG_13
 70
     0
  0
APPID
  2
GENIUS_DUMCFG0_13
 70
     0
  0
APPID
  2
GEVID936201362
 70
     0
  0
APPID
  2
GEVDC
 70
     0
  0
APPID
  2
GEVCON
 70
     0
  0
APPID
  2
VCC
 70
     0
  0
APPID
  2
GEVPT
 70
     0
  0
APPID
  2
GEVIT
 70
     0
  0
APPID
  2
GENBH
 70
     0
  0
APPID
  2
GEVMK
 70
     0
  0
APPID
  2
GENIUS_GENBH_13
 70
     0
  0
APPID
  2
GENIUS_GENOBJ-NBEHI-BHF_13
 70
     0
  0
APPID
  2
GENIUS_GENOBJ-NBEHI-BHB_13
 70
     0
  0
APPID
  2
GENIUS_GENOBJ-F-DESC_13
 70
     0
  0
APPID
  2
GENIUS_GEFDESC_14
 70
     0
  0
APPID
  2
GENIUS_GENOBJ-F-PART_13
 70
     0
  0
APPID
  2
GENIUS_GEFSTDP_13
 70
     0
  0
APPID
  2
GENIUS_GEFPARTINS_13
 70
     0
  0
APPID
  2
GENIUS_GENTRA_14
 70
     0
  0
APPID
  2
GENIUS_GENINF13_13
 70
     0
  0
APPID
  2
GENIUS_GENOBJ-N-INFOPT_13
 70
     0
  0
APPID
  2
GENIUS_GENOBJ-N-RSSYM_13
 70
     0
  0
APPID
  2
GENIUS_GENSYMENT_13
 70
     0
  0
APPID
  2
GENIUS_GENSCSYM_13
 70
     0
  0
APPID
  2
GENIUS_GEFINFNAM_13
 70
     0
  0
APPID
  2
GENIUS_GENSCREG_15
 70
     0
  0
APPID
  2
GENIUS_GENOBJ-N-CEN_13
 70
     0
  0
APPID
  2
GENIUS_GENOBJ-N-CRS_13
 70
     0
  0
APPID
  2
GENIUS_GENOBJ-N-CRC_13
 70
     0
  0
APPID
  2
GENIUS_GENCRC_14
 70
     0
  0
APPID
  2
GEVID942827039
 70
     0
  0
APPID
  2
GEVID942827040
 70
     0
  0
APPID
  2
GEVID942827041
 70
     0
  0
APPID
  2
GENIUS_GENOBJ-F-SCPASSM_13
 70
     0
  0
APPID
  2
GENIUS_GENDIMSH_14
 70
     0
  0
APPID
  2
GENIUS_GENFIL_13
 70
     0
  0
APPID
  2
GENIUS_GENOBJ-N-CHA_13
 70
     0
  0
APPID
  2
GENIUS_GENOBJ-N-FIL_13
 70
     0
  0
APPID
  2
GEVID942827042
 70
     0
  0
APPID
  2
GEVID946020473
 70
     0
  0
APPID
  2
GEVID946020474
 70
     0
  0
APPID
  2
GEVID946020475
 70
     0
  0
APPID
  2
GENIUS_GENOBJ-N-HTC_13
 70
     0
  0
APPID
  2
GENIUS_GENHATCH_13
 70
     0
  0
APPID
  2
GEVID948854295
 70
     0
  0
APPID
  2
GEVID939402019
 70
     0
  0
APPID
  2
GEVID952919491
 70
     0
  0
APPID
  2
GEVID952919492
 70
     0
  0
APPID
  2
GENIUS_GEFWELD_13
 70
     0
  0
APPID
  2
GENIUS_GENOBJ-F-WELS_13
 70
     0
  0
APPID
  2
GEVID952919493
 70
     0
  0
APPID
  2
GENIUS_GENOBJ-N-RSBK_13
 70
     0
  0
APPID
  2
GENIUS_GENOBJ-N-LIB_13
 70
     0
  0
APPID
  2
GENIUS_GENSCALE_13
 70
     0
  0
APPID
  2
GEVID986376691
 70
     0
  0
APPID
  2
ACATTRIBSERVICES
 70
     0
  0
APPID
  2
DCO15
 70
     0
  0
APPID
  2
GENIUS_GENOBJ-N-DIM_13
 70
     0
  0
APPID
  2
GENIUS_GENDIM_13
 70
     0
  0
APPID
  2
ACADM_DIM_EDIT
 70
     0
  0
APPID
  2
AMDT_DM_ADJ
 70
     0
  0
APPID
  2
ACAD_MLEADERVER
 70
     0
  0
APPID
  2
ACAD_DSTYLE_DIMBREAK
 70
     0
  0
APPID
  2
ACAD_DSTYLE_DIMJAG
 70
     0
  0
APPID
  2
ACAD_NAV_VCDISPLAY
 70
     0
  0
APPID
  2
ACADANNOPO
 70
     0
  0
APPID
  2
ACAD_EXEMPT_FROM_CAD_STANDARDS
 70
     0
  0
ENDTAB
  0
TABLE
  2
DIMSTYLE
 70
    16
  0
DIMSTYLE
  2
STANDARD
 70
     0
  3

  4

  5

  6

  7

 40
1.0
 41
0.18
 42
0.0625
 43
0.38
 44
0.18
 45
0.0
 46
0.0
 47
0.0
 48
0.0
140
0.18
141
0.09
142
0.0
143
25.399999999999999
144
1.0
145
0.0
146
1.0
147
0.09
 71
     0
 72
     0
 73
     1
 74
     1
 75
     0
 76
     0
 77
     0
 78
     0
170
     0
171
     2
172
     0
173
     0
174
     0
175
     0
176
     0
177
     0
178
     0
  0
DIMSTYLE
  2
AM_JIS
 70
     0
  3

  4
"
  5

  6

  7

 40
1.0
 41
2.5
 42
1.0
 43
7.0
 44
1.0
 45
0.0
 46
0.0
 47
0.1
 48
0.1000000001
140
2.5
141
0.0
142
0.0
143
0.0393701
144
1.0
145
0.0
146
0.71
147
1.0
 71
     0
 72
     0
 73
     0
 74
     0
 75
     0
 76
     0
 77
     3
 78
     8
170
     0
171
     2
172
     1
173
     0
174
     0
175
     0
176
   256
177
   256
178
     4
  0
DIMSTYLE
  2
AM_JIS$3
 70
     0
  3

  4
"
  5

  6

  7

 40
1.0
 41
2.5
 42
1.0
 43
7.0
 44
1.0
 45
0.0
 46
0.0
 47
0.1
 48
0.1000000001
140
2.5
141
0.0
142
0.0
143
0.0393701
144
1.0
145
0.0
146
0.71
147
1.0
 71
     0
 72
     0
 73
     0
 74
     1
 75
     0
 76
     0
 77
     3
 78
     8
170
     0
171
     2
172
     0
173
     0
174
     0
175
     0
176
   256
177
   256
178
     4
  0
DIMSTYLE
  2
AM_JIS$4
 70
     0
  3

  4
"
  5

  6

  7

 40
1.0
 41
2.5
 42
1.0
 43
7.0
 44
1.0
 45
0.0
 46
0.0
 47
0.1
 48
0.1000000001
140
2.5
141
0.0
142
0.0
143
0.0393701
144
1.0
145
0.0
146
0.71
147
1.0
 71
     0
 72
     0
 73
     0
 74
     0
 75
     0
 76
     0
 77
     3
 78
     8
170
     0
171
     2
172
     0
173
     0
174
     0
175
     0
176
   256
177
   256
178
     4
  0
DIMSTYLE
  2
AM_JIS$6
 70
     0
  3

  4
"
  5

  6

  7

 40
1.0
 41
2.5
 42
1.0
 43
7.0
 44
1.0
 45
0.0
 46
0.0
 47
0.1
 48
0.1000000001
140
2.5
141
0.0
142
0.0
143
0.0393701
144
1.0
145
0.0
146
0.71
147
1.0
 71
     0
 72
     0
 73
     0
 74
     0
 75
     0
 76
     0
 77
     0
 78
     8
170
     0
171
     2
172
     1
173
     0
174
     0
175
     0
176
   256
177
   256
178
     4
  0
DIMSTYLE
  2
AM_JIS$7
 70
     0
  3

  4
"
  5

  6

  7

 40
1.0
 41
2.5
 42
1.0
 43
7.0
 44
1.0
 45
0.0
 46
0.0
 47
0.1
 48
0.1000000001
140
2.5
141
0.0
142
0.0
143
0.0393701
144
1.0
145
0.0
146
0.71
147
1.0
 71
     0
 72
     0
 73
     0
 74
     0
 75
     0
 76
     0
 77
     3
 78
     8
170
     0
171
     2
172
     1
173
     0
174
     0
175
     0
176
   256
177
   256
178
     4
  0
DIMSTYLE
  2
AM_JIS$SF
 70
     0
  3

  4
"
  5
OPEN30
  6
OPEN30
  7
OPEN30
 40
1.0
 41
2.5
 42
1.0
 43
10.0
 44
1.0
 45
0.0
 46
0.0
 47
0.1
 48
0.1
140
3.5
141
0.0
142
0.0
143
0.0393701
144
1.0
145
0.0
146
0.71
147
1.5
 71
     0
 72
     0
 73
     0
 74
     0
 75
     1
 76
     1
 77
     3
 78
     8
170
     0
171
     2
172
     1
173
     0
174
     0
175
     0
176
   256
177
   256
178
     4
  0
DIMSTYLE
  2
AM_JIS$SH
 70
     0
  3

  4
"
  5

  6
NONE
  7

 40
1.0
 41
2.5
 42
1.0
 43
10.0
 44
1.0
 45
0.0
 46
0.0
 47
0.1
 48
0.1
140
3.5
141
0.0
142
0.0
143
0.0393701
144
1.0
145
0.0
146
0.71
147
1.5
 71
     0
 72
     0
 73
     0
 74
     0
 75
     1
 76
     0
 77
     3
 78
     8
170
     0
171
     2
172
     1
173
     1
174
     0
175
     0
176
   256
177
   256
178
     4
  0
DIMSTYLE
  2
AM_ISO
 70
     0
  3

  4
"
  5

  6

  7

 40
1.0
 41
2.5
 42
1.0
 43
10.0
 44
1.0
 45
0.0
 46
0.0
 47
0.0
 48
0.000000001
140
3.0
141
0.0
142
0.0
143
0.0393701
144
1.0
145
0.0
146
0.71
147
1.299999999999998
 71
     1
 72
     0
 73
     0
 74
     0
 75
     0
 76
     0
 77
     1
 78
     8
170
     0
171
     2
172
     1
173
     0
174
     0
175
     0
176
   256
177
   256
178
     4
  0
DIMSTYLE
  2
AM_ISO$3
 70
     0
  3

  4
"
  5

  6

  7

 40
1.0
 41
2.5
 42
1.0
 43
10.0
 44
1.0
 45
0.0
 46
0.0
 47
0.0
 48
0.000000001
140
2.5
141
0.0
142
0.0
143
0.0393701
144
1.0
145
0.0
146
0.71
147
1.299999999999998
 71
     1
 72
     0
 73
     0
 74
     1
 75
     0
 76
     0
 77
     1
 78
     8
170
     0
171
     2
172
     0
173
     0
174
     0
175
     0
176
   256
177
   256
178
     4
  0
DIMSTYLE
  2
AM_ISO$4
 70
     0
  3

  4
"
  5

  6

  7

 40
1.0
 41
2.5
 42
1.0
 43
10.0
 44
1.0
 45
0.0
 46
0.0
 47
0.0
 48
0.000000001
140
2.5
141
0.0
142
0.0
143
0.0393701
144
1.0
145
0.0
146
0.71
147
1.299999999999998
 71
     1
 72
     0
 73
     0
 74
     1
 75
     0
 76
     0
 77
     1
 78
     8
170
     0
171
     2
172
     0
173
     0
174
     0
175
     0
176
   256
177
   256
178
     4
  0
DIMSTYLE
  2
AM_ISO$6
 70
     0
  3

  4
"
  5

  6

  7

 40
1.0
 41
2.5
 42
1.0
 43
10.0
 44
1.0
 45
0.0
 46
0.0
 47
0.0
 48
0.000000001
140
2.5
141
0.0
142
0.0
143
0.0393701
144
1.0
145
0.0
146
0.71
147
1.299999999999998
 71
     1
 72
     0
 73
     0
 74
     0
 75
     0
 76
     0
 77
     0
 78
     8
170
     0
171
     2
172
     1
173
     0
174
     0
175
     0
176
   256
177
   256
178
     4
  0
DIMSTYLE
  2
AM_ISO$7
 70
     0
  3

  4
"
  5

  6

  7

 40
1.0
 41
2.5
 42
1.0
 43
10.0
 44
1.0
 45
0.0
 46
0.0
 47
0.0
 48
0.000000001
140
2.5
141
0.0
142
0.0
143
0.0393701
144
1.0
145
0.0
146
0.71
147
1.299999999999998
 71
     1
 72
     0
 73
     0
 74
     0
 75
     0
 76
     0
 77
     1
 78
     8
170
     0
171
     2
172
     1
173
     0
174
     0
175
     0
176
   256
177
   256
178
     4
  0
DIMSTYLE
  2
AM_ISO$SF
 70
     0
  3

  4
"
  5

  6

  7

 40
1.0
 41
2.5
 42
1.0
 43
10.0
 44
1.0
 45
0.0
 46
0.0
 47
0.1
 48
0.1
140
3.5
141
0.0
142
0.0
143
0.0393701
144
1.0
145
0.0
146
0.71
147
1.5
 71
     0
 72
     0
 73
     0
 74
     0
 75
     1
 76
     1
 77
     1
 78
     8
170
     0
171
     2
172
     1
173
     0
174
     0
175
     0
176
   256
177
   256
178
     4
  0
DIMSTYLE
  2
AM_ISO$SH
 70
     0
  3

  4
"
  5

  6
GENAXEH
  7

 40
1.0
 41
2.5
 42
1.0
 43
10.0
 44
1.0
 45
0.0
 46
0.0
 47
0.1
 48
0.1
140
3.5
141
0.0
142
0.0
143
0.0393701
144
2.0
145
0.0
146
0.71
147
1.5
 71
     0
 72
     0
 73
     0
 74
     0
 75
     1
 76
     1
 77
     1
 78
     8
170
     0
171
     2
172
     1
173
     1
174
     0
175
     0
176
   256
177
   256
178
     4
  0
DIMSTYLE
  2
AM_JIS$0
 70
     0
  3

  4
"
  5

  6

  7

 40
1.0
 41
2.5
 42
1.0
 43
7.0
 44
1.0
 45
0.0
 46
0.0
 47
0.1
 48
0.1000000001
140
2.5
141
0.0
142
0.0
143
0.0393701
144
1.0
145
0.0
146
0.71
147
1.0
 71
     0
 72
     0
 73
     0
 74
     0
 75
     0
 76
     0
 77
     3
 78
     8
170
     0
171
     2
172
     1
173
     0
174
     0
175
     0
176
   256
177
   256
178
     4
  0
ENDTAB
  0
ENDSEC
  0
SECTION
  2
BLOCKS
  0
BLOCK
  8
0
  2
$MODEL_SPACE
 70
     0
 10
0.0
 20
0.0
 30
0.0
  3
$MODEL_SPACE
  1

  0
ENDBLK
  5
1A
  8
0
  0
BLOCK
 67
     1
  8
0
  2
$PAPER_SPACE
 70
     0
 10
0.0
 20
0.0
 30
0.0
  3
$PAPER_SPACE
  1

  0
ENDBLK
  5
17
 67
     1
  8
0
  0
BLOCK
  8
0
  2
_OPEN30
 70
     0
 10
0.0
 20
0.0
 30
0.0
  3
_OPEN30
  1

  0
LINE
  5
21C5
  8
0
 62
     0
 10
-1.0
 20
0.26794919
 30
0.0
 11
0.0
 21
0.0
 31
0.0
  0
LINE
  5
21C6
  8
0
 62
     0
 10
0.0
 20
0.0
 30
0.0
 11
-1.0
 21
-0.26794919
 31
0.0
  0
LINE
  5
21C7
  8
0
 62
     0
 10
0.0
 20
0.0
 30
0.0
 11
-1.0
 21
0.0
 31
0.0
  0
ENDBLK
  5
21C9
  8
0
  0
BLOCK
  8
0
  2
GENAXEH
 70
     0
 10
0.0
 20
0.0
 30
0.0
  3
GENAXEH
  1

  0
LINE
  5
21D0
  8
0
 10
-1.0
 20
0.0
 30
0.0
 11
1.0
 21
0.0
 31
0.0
  0
ENDBLK
  5
21D2
  8
0
  0
BLOCK
  8
0
  2
_NONE
 70
     0
 10
0.0
 20
0.0
 30
0.0
  3
_NONE
  1

  0
ENDBLK
  5
8193
  8
0
  0
ENDSEC
  0
SECTION
  2
ENTITIES
  0
POINT
  5
1B94
  8
0
 10
0.0
 20
0.0
 30
0.0
1001
GENIUS_GENODEF_13
1002
{
1000
HIER
1070
     1
1002
}
1002
{
1000
MANEDIT
1070
     0
1002
}
1002
{
1000
NOSEL
1070
     0
1002
}
1002
{
1000
BEHIND
1070
     0
1002
}
1002
{
1000
REACTOR
1002
}
1001
GENIUS_GENOBJ-N-SDF_13
1002
{
1000
OWNER
1000
GEN
1002
}
1001
GENIUS_GENOENT_13
1002
{
1000
MYREF
1005
1B94
1002
}
1002
{
1000
GRP
1005
0
1002
}
1001
GENIUS_GENOLIS_13
1002
{
1000
ENT
1005
89
1002
}
  0
LINE
  5
16F39
  8
0
 10
428.3297505293782
 20
200.96701405069859
 30
0.0
 11
428.3297505293782
 21
193.96701405069851
 31
0.0
  0
LINE
  5
16F3A
  8
0
 10
439.3297505293782
 20
200.96701405069859
 30
0.0
 11
439.3297505293782
 21
193.96701405069851
 31
0.0
  0
LINE
  5
16F3C
  8
0
  6
CONTINUOUS
 62
     7
 10
436.8297505293782
 20
199.23495838663629
 30
0.0
 11
436.8297505293782
 21
202.69906971476121
 31
0.0
  0
ARC
  5
16F3D
  8
0
  6
CONTINUOUS
 62
     7
 10
449.8375630293782
 20
204.9670140506984
 30
0.0
 40
4.9999999999999742
 50
194.02966532410429
 51
270.00000250447852
  0
LINE
  5
16F3E
  8
0
  6
CONTINUOUS
 62
     7
 10
430.8297505293782
 20
199.23495838663629
 30
0.0
 11
430.8297505293782
 21
202.69906971476121
 31
0.0
  0
CIRCLE
  5
16F3F
  8
0
  6
CONTINUOUS
 62
     7
 10
433.82975052937809
 20
200.96701405069871
 30
0.0
 40
4.9999999999999991
  0
ARC
  5
16F40
  8
0
  6
CONTINUOUS
 62
     7
 10
536.68940018758133
 20
204.9670140506984
 30
0.0
 40
5.0000000000000018
 50
270.00000250447852
 51
350.27356974404807
  0
LINE
  5
16F41
  8
0
  6
CONTINUOUS
 62
     7
 10
433.82975052937809
 20
197.50291798136291
 30
0.0
 11
436.8297505293782
 21
199.23495838663629
 31
0.0
  0
LINE
  5
16F42
  8
0
  6
CONTINUOUS
 62
     7
 10
430.8297505293782
 20
199.23495838663629
 30
0.0
 11
433.82975052937809
 21
197.50291798136291
 31
0.0
  0
LINE
  5
16F43
  8
0
  6
CONTINUOUS
 62
     7
 10
536.68940018758099
 20
199.96701405069831
 30
0.0
 11
449.83756302937809
 21
199.9670140506984
 31
0.0
  0
LINE
  5
16F44
  8
0
  6
CONTINUOUS
 62
     7
 10
536.68940018758099
 20
307.96701405069871
 30
0.0
 11
449.8375630293782
 21
307.96701405069882
 31
0.0
  0
LINE
  5
16F45
  8
0
  6
CONTINUOUS
 62
     7
 10
414.8297505293782
 20
220.10736439249561
 30
0.0
 11
414.8297505293782
 21
287.82667133829659
 31
0.0
  0
LINE
  5
16F46
  8
0
  6
CONTINUOUS
 62
     7
 10
433.82975052937809
 20
204.43111012003459
 30
0.0
 11
436.8297505293782
 21
202.69906971476121
 31
0.0
  0
ARC
  5
16F47
  8
0
  6
CONTINUOUS
 62
     7
 10
433.82975052937809
 20
200.96701405069871
 30
0.0
 40
11.49999999999998
 50
14.0296679991116
 51
80.273569060800796
  0
ARC
  5
16F49
  8
0
  6
CONTINUOUS
 62
     7
 10
433.82975052937809
 20
200.96701405069871
 30
0.0
 40
5.4999999999999991
 50
0.0
 51
180.0
  0
LINE
  5
16F4A
  8
0
  6
CONTINUOUS
 62
     7
 10
435.77259110554979
 20
212.3017155887847
 30
0.0
 11
418.9850239668782
 21
215.1792332889801
 31
0.0
  0
ARC
  5
16F4B
  8
0
  6
CONTINUOUS
 62
     7
 10
419.8297505293782
 20
220.1073643924957
 30
0.0
 40
4.9999999999999991
 50
180.0
 51
260.27356723957189
  0
LINE
  5
16F4C
  8
0
  6
CONTINUOUS
 62
     7
 10
430.8297505293782
 20
202.69906971476121
 30
0.0
 11
433.82975052937809
 21
204.43111012003459
 31
0.0
  0
LINE
  5
16F4D
  8
0
  6
CONTINUOUS
 62
     7
 10
433.82975052937809
 20
303.50291798136271
 30
0.0
 11
436.8297505293782
 21
305.23496601603091
 31
0.0
  0
ARC
  5
16F4E
  8
0
  6
CONTINUOUS
 62
     7
 10
433.8297505293782
 20
306.96701405069882
 30
0.0
 40
11.499999999999989
 50
279.72643093919919
 51
345.97033200088208
  0
LINE
  5
16F50
  8
0
  6
CONTINUOUS
 62
     7
 10
433.82975052937809
 20
310.43111774942918
 30
0.0
 11
436.8297505293782
 21
308.69906971476132
 31
0.0
  0
ARC
  5
16F51
  8
0
  6
CONTINUOUS
 62
     7
 10
433.8297505293782
 20
306.96701405069882
 30
0.0
 40
5.4999999999999991
 50
180.0
 51
0.0000050089569292
  0
CIRCLE
  5
16F52
  8
0
  6
CONTINUOUS
 62
     7
 10
433.8297505293782
 20
306.96701405069882
 30
0.0
 40
4.9999999999999991
  0
LINE
  5
16F54
  8
0
  6
CONTINUOUS
 62
     7
 10
428.3297505293782
 20
313.96701405069882
 30
0.0
 11
428.3297505293782
 21
306.96701405069871
 31
0.0
  0
LINE
  5
16F55
  8
0
  6
CONTINUOUS
 62
     7
 10
430.8297505293782
 20
305.23496601603091
 30
0.0
 11
430.8297505293782
 21
308.69906971476132
 31
0.0
  0
LINE
  5
16F56
  8
0
  6
CONTINUOUS
 62
     7
 10
435.77259110554979
 20
295.63232014200742
 30
0.0
 11
418.9850239668782
 21
292.75479481241757
 31
0.0
  0
ARC
  5
16F57
  8
0
  6
CONTINUOUS
 62
     7
 10
419.8297505293782
 20
287.82667133829659
 30
0.0
 40
4.9999999999999947
 50
99.726432760428096
 51
180.0
  0
LINE
  5
16F58
  8
0
  6
CONTINUOUS
 62
     7
 10
430.8297505293782
 20
305.23496601603091
 30
0.0
 11
433.82975052937809
 21
303.50291798136271
 31
0.0
  0
LINE
  5
16F59
  8
0
  6
CONTINUOUS
 62
     7
 10
430.8297505293782
 20
308.69906971476132
 30
0.0
 11
433.82975052937809
 21
310.43111774942918
 31
0.0
  0
LINE
  5
16F5A
  8
0
  6
CONTINUOUS
 62
     7
 10
439.3297505293782
 20
313.96701405069882
 30
0.0
 11
439.3297505293782
 21
306.96701405069871
 31
0.0
  0
LINE
  5
16F5B
  8
0
  6
CONTINUOUS
 62
     7
 10
436.8297505293782
 20
305.23496601603091
 30
0.0
 11
436.8297505293782
 21
308.69906971476132
 31
0.0
  0
ARC
  5
16F5C
  8
0
  6
CONTINUOUS
 62
     7
 10
449.8375630293782
 20
302.96701405069871
 30
0.0
 40
5.0000000000000018
 50
89.999997495521541
 51
165.97033467589571
  0
LINE
  5
16F5D
  8
0
  6
CONTINUOUS
 62
     7
 10
555.8297505293782
 20
285.50291798136249
 30
0.0
 11
558.82975052937797
 21
287.2349660160308
 31
0.0
  0
ARC
  5
16F5E
  8
0
  6
CONTINUOUS
 62
     7
 10
555.8297505293782
 20
288.96701405069871
 30
0.0
 40
5.5000000000000044
 50
89.999997495521541
 51
270.00000250447852
  0
CIRCLE
  5
16F5F
  8
0
  6
CONTINUOUS
 62
     7
 10
555.8297505293782
 20
288.96701405069871
 30
0.0
 40
4.9999999999999991
  0
ARC
  5
16F60
  8
0
  6
CONTINUOUS
 62
     7
 10
555.8297505293782
 20
288.96701405069871
 30
0.0
 40
11.5
 50
189.72643355735741
 51
255.97033632659949
  0
LINE
  5
16F61
  8
0
  6
CONTINUOUS
 62
     7
 10
552.8297505293782
 20
287.2349660160308
 30
0.0
 11
555.8297505293782
 21
285.50291798136249
 31
0.0
  0
LINE
  5
16F63
  8
0
  6
CONTINUOUS
 62
     7
 10
556.8297505293782
 20
234.97482655069851
 30
0.0
 11
556.8297505293782
 21
272.95920155069859
 31
0.0
  0
LINE
  5
16F64
  8
0
  6
CONTINUOUS
 62
     7
 10
555.82975052937775
 20
222.43111012003459
 30
0.0
 11
558.82975052937786
 21
220.69906971476109
 31
0.0
  0
ARC
  5
16F65
  8
0
  6
CONTINUOUS
 62
     7
 10
555.8297505293782
 20
218.96701405069859
 30
0.0
 40
5.5000000000000044
 50
89.999997495521541
 51
270.00000250447852
  0
CIRCLE
  5
16F66
  8
0
  6
CONTINUOUS
 62
     7
 10
555.8297505293782
 20
218.96701405069859
 30
0.0
 40
4.9999999999999991
  0
LINE
  5
16F68
  8
0
  6
CONTINUOUS
 62
     7
 10
552.82975052937775
 20
220.69906971476109
 30
0.0
 11
555.82975052937775
 21
222.43111012003459
 31
0.0
  0
ARC
  5
16F69
  8
0
  6
CONTINUOUS
 62
     7
 10
555.8297505293782
 20
218.96701405069859
 30
0.0
 40
11.499999999999989
 50
104.02966367340041
 51
170.27356644264239
  0
LINE
  5
16F6B
  8
0
  6
CONTINUOUS
 62
     7
 10
552.82975052937775
 20
217.23495838663621
 30
0.0
 11
555.82975052937775
 21
215.5029179813628
 31
0.0
  0
LINE
  5
16F6C
  8
0
  6
CONTINUOUS
 62
     7
 10
544.4950337325032
 20
220.9098698856595
 30
0.0
 11
541.61753129109672
 21
204.12230274698771
 31
0.0
  0
LINE
  5
16F6D
  8
0
  6
CONTINUOUS
 62
     7
 10
552.82975052937775
 20
217.23495838663621
 30
0.0
 11
552.82975052937775
 21
220.69906971476109
 31
0.0
  0
LINE
  5
16F6E
  8
0
  6
CONTINUOUS
 62
     7
 10
562.82975052937797
 20
213.46701405069871
 30
0.0
 11
555.82975052937775
 21
213.46701405069871
 31
0.0
  0
LINE
  5
16F6F
  8
0
  6
CONTINUOUS
 62
     7
 10
555.82975052937775
 20
215.5029179813628
 30
0.0
 11
558.82975052937786
 21
217.23495838663621
 31
0.0
  0
LINE
  5
16F70
  8
0
  6
CONTINUOUS
 62
     7
 10
558.82975052937786
 20
217.23495838663621
 30
0.0
 11
558.82975052937786
 21
220.69906971476109
 31
0.0
  0
ARC
  5
16F71
  8
0
  6
CONTINUOUS
 62
     7
 10
551.8297505293782
 20
234.97482655069859
 30
0.0
 40
5.0000000000000089
 50
284.02966868235637
 51
0.0000050089569292
  0
LINE
  5
16F72
  8
0
  6
CONTINUOUS
 62
     7
 10
562.82975052937797
 20
224.46701405069859
 30
0.0
 11
555.82975052937775
 21
224.46701405069859
 31
0.0
  0
ARC
  5
16F73
  8
0
  6
CONTINUOUS
 62
     7
 10
551.8297505293782
 20
272.95920155069871
 30
0.0
 40
5.000000000000016
 50
0.0000050089569292
 51
75.970327675174289
  0
LINE
  5
16F74
  8
0
  6
CONTINUOUS
 62
     7
 10
562.82975052937797
 20
283.46701405069859
 30
0.0
 11
555.8297505293782
 21
283.46701405069859
 31
0.0
  0
ARC
  5
16F75
  8
0
  6
CONTINUOUS
 62
     7
 10
536.68940018758133
 20
302.96701405069871
 30
0.0
 40
4.9999999999999876
 50
9.7264302559517546
 51
89.999997495521541
  0
LINE
  5
16F77
  8
0
  6
CONTINUOUS
 62
     7
 10
552.8297505293782
 20
290.69906971476121
 30
0.0
 11
555.8297505293782
 21
292.43111774942912
 31
0.0
  0
LINE
  5
16F78
  8
0
  6
CONTINUOUS
 62
     7
 10
544.4950337325032
 20
287.0241582157376
 30
0.0
 11
541.61753129109672
 21
303.81173298380418
 31
0.0
  0
LINE
  5
16F79
  8
0
  6
CONTINUOUS
 62
     7
 10
552.8297505293782
 20
287.2349660160308
 30
0.0
 11
552.8297505293782
 21
290.69906971476121
 31
0.0
  0
LINE
  5
16F7A
  8
0
  6
CONTINUOUS
 62
     7
 10
562.82975052937797
 20
294.46701405069871
 30
0.0
 11
555.8297505293782
 21
294.46701405069871
 31
0.0
  0
LINE
  5
16F7B
  8
0
  6
CONTINUOUS
 62
     7
 10
555.8297505293782
 20
292.43111774942912
 30
0.0
 11
558.82975052937797
 21
290.69906971476121
 31
0.0
  0
LINE
  5
16F7C
  8
0
  6
CONTINUOUS
 62
     7
 10
558.82975052937797
 20
287.2349660160308
 30
0.0
 11
558.82975052937797
 21
290.69906971476121
 31
0.0
  0
LINE
  5
180C2
  8
ﾁｭｳｼﾝｾﾝ1
 10
576.0291872716075
 20
253.9670138658098
 30
0.0
 11
403.82974881574438
 21
253.9670138658098
 31
0.0
  0
LINE
  5
180C3
  8
AM_0
 10
408.82974881574438
 20
303.96701535592581
 30
0.0
 11
408.82974881574438
 21
203.96701237569371
 31
0.0
  0
LINE
  5
180C5
  8
ﾁｭｳｼﾝｾﾝ1
 10
466.32975052937809
 20
318.96701500574858
 30
0.0
 11
466.32975052937809
 21
188.96701272587089
 31
0.0
  0
LINE
  5
180C6
  8
AM_0
 10
562.82975340530209
 20
303.96701535592581
 30
0.0
 11
562.82975340530209
 21
203.96701237569371
 31
0.0
  0
LINE
  5
180C8
  8
AM_0
 10
580.32975340530209
 20
326.46701435754812
 30
0.0
 11
580.32975340530209
 21
214.46701435754809
 31
0.0
  0
LINE
  5
180C9
  8
AM_0
 10
568.82364988967697
 20
324.46701435754801
 30
0.0
 11
568.82364988967686
 21
216.46701435754809
 31
0.0
  0
ARC
  5
180CA
  8
AM_0
 10
336.82366514846638
 20
270.46701435754812
 30
0.0
 40
236.0
 50
0.0000050089569522
 51
10.563971730266459
  0
CIRCLE
  5
180CB
  8
AM_0
 10
466.32975052937809
 20
253.9670138658098
 30
0.0
 40
37.500001117587097
  0
LINE
  5
180CC
  8
ﾁｭｳｼﾝｾﾝ1
 10
545.19879626076431
 20
270.46701435754812
 30
0.0
 11
769.88531893418462
 21
270.46701435754812
 31
0.0
  0
LINE
  5
180CE
  8
AM_0
 10
552.82975310727875
 20
193.96701207767049
 30
0.0
 11
418.82974911376749
 21
193.96701207767049
 31
0.0
  0
LINE
  5
180CF
  8
AM_0
 10
552.82975310727875
 20
193.9670120776704
 30
0.0
 11
418.82974911376749
 21
193.9670120776704
 31
0.0
  0
ARC
  5
180D0
  8
AM_0
 10
336.82366514846638
 20
270.46701435754812
 30
0.0
 40
236.0
 50
349.4360382876414
 51
0.0000050089569522
  0
LINE
  5
180D1
  8
AM_0
 10
580.32975340530209
 20
224.46701435754801
 30
0.0
 11
568.82364988967686
 21
224.46701435754809
 31
0.0
  0
LINE
  5
180D2
  8
AM_0
 10
580.32975340530209
 20
214.46701435754809
 30
0.0
 11
570.82364988967709
 21
214.46701435754809
 31
0.0
  0
LINE
  5
180D3
  8
ﾁｭｳｼﾝｾﾝ1
 10
552.3297530923777
 20
196.9670121670774
 30
0.0
 11
552.3297530923777
 21
211.96701261411229
 31
0.0
  0
CIRCLE
  5
180D5
  8
AM_0
 10
552.3297530923777
 20
204.4670123905949
 30
0.0
 40
4.5000001341104507
  0
ARC
  5
180D6
  8
AM_0
 10
552.82975310727875
 20
203.96701237569371
 30
0.0
 40
10.000000298023259
 50
270.0000025044817
 51
0.0000050089569522
  0
LINE
  5
180D7
  8
ﾁｭｳｼﾝｾﾝ1
 10
544.82975286886028
 20
204.4670123905949
 30
0.0
 11
559.82975331589512
 21
204.4670123905949
 31
0.0
  0
ARC
  5
180D9
  8
AM_0
 10
567.35954827453918
 20
214.46701435754809
 30
0.0
 40
2.0
 50
30.00000000000124
 51
90.0
1001
GENIUS_GENOBJ-N-FIL_13
1002
{
1000
OWNER
1000
GEN
1002
}
1001
GENIUS_GENODEF_13
1002
{
1000
HIER
1070
     0
1002
}
1002
{
1000
MANEDIT
1070
     0
1002
}
1002
{
1000
NOSEL
1070
     0
1002
}
1002
{
1000
BEHIND
1070
     0
1002
}
1002
{
1000
OTHER
1070
     0
1002
}
1002
{
1000
REACTOR
1002
}
  0
ARC
  5
180DA
  8
AM_0
 10
564.82975340530186
 20
214.46701435754809
 30
0.0
 40
2.0
 50
90.0
 51
180.0
1001
GENIUS_GENODEF_13
1002
{
1000
HIER
1070
     0
1002
}
1002
{
1000
MANEDIT
1070
     0
1002
}
1002
{
1000
NOSEL
1070
     0
1002
}
1002
{
1000
BEHIND
1070
     0
1002
}
1002
{
1000
OTHER
1070
     0
1002
}
1002
{
1000
REACTOR
1002
}
1001
GENIUS_GENOBJ-N-FIL_13
1002
{
1000
OWNER
1000
GEN
1002
}
  0
LINE
  5
180DB
  8
AM_0
 10
564.82975340530186
 20
216.46701435754809
 30
0.0
 11
567.35954827453918
 21
216.46701435754809
 31
0.0
  0
ARC
  5
180DC
  8
AM_0
 10
570.82364988967709
 20
216.46701435754809
 30
0.0
 40
2.0
 50
210.00000000000119
 51
270.0
1001
GENIUS_GENOBJ-N-FIL_13
1002
{
1000
OWNER
1000
GEN
1002
}
1001
GENIUS_GENODEF_13
1002
{
1000
HIER
1070
     0
1002
}
1002
{
1000
MANEDIT
1070
     0
1002
}
1002
{
1000
NOSEL
1070
     0
1002
}
1002
{
1000
BEHIND
1070
     0
1002
}
1002
{
1000
OTHER
1070
     0
1002
}
1002
{
1000
REACTOR
1002
}
  0
LINE
  5
180DD
  8
AM_0
 10
568.32364988967697
 20
227.200397536259
 30
0.0
 11
562.82975340530209
 21
227.200397536259
 31
0.0
  0
LINE
  5
180DE
  8
AM_0
 10
580.32975340530209
 20
238.5270643575482
 30
0.0
 11
570.72373726933915
 21
238.5270643575482
 31
0.0
  0
CIRCLE
  5
180E0
  8
AM_0
 10
419.3297491286686
 20
204.4670123905949
 30
0.0
 40
4.5000001341104507
  0
LINE
  5
180E2
  8
ﾁｭｳｼﾝｾﾝ1
 10
419.3297491286686
 20
196.9670121670774
 30
0.0
 11
419.3297491286686
 21
211.96701261411229
 31
0.0
  0
LINE
  5
180E3
  8
ﾁｭｳｼﾝｾﾝ1
 10
426.8297493521863
 20
204.4670123905949
 30
0.0
 11
411.82974890515129
 21
204.4670123905949
 31
0.0
  0
ARC
  5
180E5
  8
AM_0
 10
418.82974911376749
 20
203.96701237569371
 30
0.0
 40
10.000000298023229
 50
180.0
 51
270.0000025044817
  0
LINE
  5
180E8
  8
AM_0
 10
566.82364988967731
 20
313.96701435754812
 30
0.0
 11
418.82975340530209
 21
313.96701435754812
 31
0.0
  0
ARC
  5
180E9
  8
AM_0
 10
566.82364988967731
 20
315.96701435754812
 30
0.0
 40
2.0
 50
270.0
 51
0.000000000000007
1001
GENIUS_GENOBJ-N-FIL_13
1002
{
1000
OWNER
1000
GEN
1002
}
1001
GENIUS_GENODEF_13
1002
{
1000
HIER
1070
     0
1002
}
1002
{
1000
MANEDIT
1070
     0
1002
}
1002
{
1000
NOSEL
1070
     0
1002
}
1002
{
1000
BEHIND
1070
     0
1002
}
1002
{
1000
OTHER
1070
     0
1002
}
1002
{
1000
REACTOR
1002
}
  0
ARC
  5
180EA
  8
AM_0
 10
552.82975310727875
 20
303.96701535592581
 30
0.0
 40
10.000000298023229
 50
359.99999499104968
 51
89.999997495524809
  0
LINE
  5
180EB
  8
AM_0
 10
580.32975340530209
 20
302.40695435754822
 30
0.0
 11
570.64900304430842
 21
302.40695435754822
 31
0.0
  0
LINE
  5
180EE
  8
ﾁｭｳｼﾝｾﾝ1
 10
544.82975286886028
 20
303.46701534102482
 30
0.0
 11
559.82975331589512
 21
303.46701534102482
 31
0.0
  0
CIRCLE
  5
180EF
  8
AM_0
 10
552.3297530923777
 20
303.46701534102482
 30
0.0
 40
4.5000001341104507
  0
LINE
  5
180F0
  8
ﾁｭｳｼﾝｾﾝ1
 10
552.3297530923777
 20
310.96701556454218
 30
0.0
 11
552.3297530923777
 21
295.96701511750729
 31
0.0
  0
LINE
  5
180F1
  8
AM_0
 10
580.32975340530209
 20
316.46701435754812
 30
0.0
 11
568.82364988967697
 21
316.46701435754812
 31
0.0
  0
LINE
  5
180F2
  8
AM_0
 10
580.32975340530209
 20
326.46701435754812
 30
0.0
 11
570.82364988967731
 21
326.46701435754801
 31
0.0
  0
ARC
  5
180F3
  8
AM_0
 10
570.82364988967731
 20
324.46701435754801
 30
0.0
 40
2.0
 50
90.0
 51
180.0
1001
GENIUS_GENOBJ-N-FIL_13
1002
{
1000
OWNER
1000
GEN
1002
}
1001
GENIUS_GENODEF_13
1002
{
1000
HIER
1070
     0
1002
}
1002
{
1000
MANEDIT
1070
     0
1002
}
1002
{
1000
NOSEL
1070
     0
1002
}
1002
{
1000
BEHIND
1070
     0
1002
}
1002
{
1000
OTHER
1070
     0
1002
}
1002
{
1000
REACTOR
1002
}
  0
ARC
  5
180F5
  8
AM_0
 10
418.82974911376749
 20
303.96701535592581
 30
0.0
 40
10.00000029802322
 50
89.999997495524809
 51
180.0
  0
CIRCLE
  5
180F8
  8
AM_0
 10
419.3297491286686
 20
303.46701534102482
 30
0.0
 40
4.5000001341104507
  0
LINE
  5
180F9
  8
ﾁｭｳｼﾝｾﾝ1
 10
426.8297493521863
 20
303.46701534102482
 30
0.0
 11
411.82974890515129
 21
303.46701534102482
 31
0.0
  0
LINE
  5
180FB
  8
ﾁｭｳｼﾝｾﾝ1
 10
419.3297491286686
 20
310.96701556454218
 30
0.0
 11
419.3297491286686
 21
295.96701511750729
 31
0.0
  0
LINE
  5
180FC
  8
AM_0
 10
256.1595977473695
 20
291.46701498339672
 30
0.0
 11
256.1595977473695
 21
216.46701274822269
 31
0.0
  0
LINE
  5
180FD
  8
AM_0
 10
158.15959482674199
 20
291.46701498339672
 30
0.0
 11
158.15959482674199
 21
216.46701274822269
 31
0.0
  0
ARC
  5
180FE
  8
AM_0
 10
207.15959628705559
 20
270.4670138658098
 30
0.0
 40
56.5
 50
144.9813717379154
 51
209.85860575792421
  0
LINE
  5
180FF
  8
AM_0
 10
232.15959724073011
 20
313.96701565394892
 30
0.0
 11
232.15959724073011
 21
193.9670120776704
 31
0.0
  0
LINE
  5
18100
  8
AM_0
 10
252.1595976281603
 20
194.31613317818301
 30
0.0
 11
252.15959762816041
 21
313.61789455343637
 31
0.0
  0
LINE
  5
18101
  8
AM_0
 10
162.1595949459512
 20
312.74514727227393
 30
0.0
 11
162.15959494595131
 21
195.18885271609199
 31
0.0
  0
ARC
  5
18102
  8
AM_0
 10
207.15959628705559
 20
270.4670138658098
 30
0.0
 40
56.5
 50
2.3832490322977522
 51
35.018628262082693
  0
LINE
  5
18103
  8
ﾁｭｳｼﾝｾﾝ1
 10
207.15959628705579
 20
162.93861316037101
 30
0.0
 11
207.15959628705579
 21
336.9670138658098
 31
0.0
  0
LINE
  5
18104
  8
AM_0
 10
232.15959724073011
 20
193.9670120776704
 30
0.0
 11
162.15959494595111
 21
195.1888527160919
 31
0.0
  0
LINE
  5
18105
  8
ｶｸﾚｾﾝ2
 10
162.1595949459512
 20
208.9670125247053
 30
0.0
 11
252.1595976281603
 21
208.9670125247053
 31
0.0
  0
LINE
  5
18106
  8
ｶｸﾚｾﾝ2
 10
162.1595949459512
 20
199.9670122564844
 30
0.0
 11
252.1595976281603
 21
199.9670122564844
 31
0.0
  0
LINE
  5
18107
  8
ﾁｭｳｼﾝｾﾝ1
 10
159.15959494595111
 20
204.4670123905949
 30
0.0
 11
255.1595976281603
 21
204.4670123905949
 31
0.0
  0
LINE
  5
18108
  8
ﾁｭｳｼﾝｾﾝ1
 10
320.6232178805119
 20
253.9670138658098
 30
0.0
 11
149.1595947075327
 21
253.9670138658098
 31
0.0
  0
LINE
  5
18109
  8
ﾁｭｳｼﾝｾﾝ1
 10
143.59010159241731
 20
270.46701435754812
 30
0.0
 11
270.72909098169418
 21
270.46701435754812
 31
0.0
  0
LINE
  5
1810A
  8
AM_0
 10
162.1595949459512
 20
216.46701274822269
 30
0.0
 11
158.15959482674199
 21
216.46701274822269
 31
0.0
  0
LINE
  5
1810B
  8
AM_0
 10
252.1595976281603
 20
194.31613317818309
 30
0.0
 11
232.15959724073011
 21
193.9670120776704
 31
0.0
  0
LINE
  5
1810C
  8
AM_0
 10
252.1595976281603
 20
216.46701274822269
 30
0.0
 11
256.1595977473695
 21
216.46701274822269
 31
0.0
  0
LINE
  5
1810D
  8
AM_0
 10
153.15959628705511
 20
236.56006247695359
 30
0.0
 11
153.15959628705511
 21
244.2954830046458
 31
0.0
  0
LINE
  5
1810E
  8
AM_0
 10
151.82564100988461
 20
236.51347973220729
 30
0.0
 11
158.1595948267412
 21
236.73466627341659
 31
0.0
  0
ARC
  5
1810F
  8
AM_0
 10
151.88462441092739
 20
235.44230487012081
 30
0.0
 40
1.0
 50
198.56658080190201
 51
267.9999999999954
1001
GENIUS_GENODEF_13
1002
{
1000
HIER
1070
     0
1002
}
1002
{
1000
MANEDIT
1070
     0
1002
}
1002
{
1000
NOSEL
1070
     0
1002
}
1002
{
1000
BEHIND
1070
     0
1002
}
1002
{
1000
REACTOR
1002
}
1001
GENIUS_GENOBJ-N-FIL_13
1002
{
1000
OWNER
1000
GEN
1002
}
  0
ARC
  5
18110
  8
AM_0
 10
256.15959628705548
 20
270.46701386580878
 30
0.0
 40
111.0
 50
198.5271423144674
 51
198.56658080189609
  0
LINE
  5
18111
  8
AM_0
 10
151.84972491422479
 20
234.44291404310161
 30
0.0
 11
158.1595948267412
 21
234.2225685303633
 31
0.0
  0
ARC
  5
18112
  8
AM_0
 10
151.8605405065874
 20
235.51408890518809
 30
0.0
 40
1.0
 50
91.999999999996206
 51
198.5271423144674
1001
GENIUS_GENODEF_13
1002
{
1000
HIER
1070
     0
1002
}
1002
{
1000
MANEDIT
1070
     0
1002
}
1002
{
1000
NOSEL
1070
     0
1002
}
1002
{
1000
BEHIND
1070
     0
1002
}
1002
{
1000
REACTOR
1002
}
1001
GENIUS_GENOBJ-N-FIL_13
1002
{
1000
OWNER
1000
GEN
1002
}
  0
LINE
  5
18113
  8
AM_0
 10
148.99329185519341
 20
246.50919978885489
 30
0.0
 11
155.87864222893509
 21
246.7496415221261
 31
0.0
  0
LINE
  5
18114
  8
AM_0
 10
149.0096265895163
 20
244.4404031398513
 30
0.0
 11
157.1599016896223
 21
244.15578926178571
 31
0.0
  0
ARC
  5
18115
  8
AM_0
 10
256.15959628705548
 20
270.46701386580878
 30
0.0
 40
111.0
 50
193.11367014329701
 51
193.15111826064651
  0
ARC
  5
18116
  8
AM_0
 10
149.0281913518962
 20
245.50980896183569
 30
0.0
 40
1.0
 50
92.000000000002714
 51
193.11367014329701
1001
GENIUS_GENODEF_13
1002
{
1000
HIER
1070
     0
1002
}
1002
{
1000
MANEDIT
1070
     0
1002
}
1002
{
1000
NOSEL
1070
     0
1002
}
1002
{
1000
BEHIND
1070
     0
1002
}
1002
{
1000
REACTOR
1002
}
1001
GENIUS_GENOBJ-N-FIL_13
1002
{
1000
OWNER
1000
GEN
1002
}
  0
ARC
  5
18117
  8
AM_0
 10
149.04452608621889
 20
245.43979396687041
 30
0.0
 40
1.0
 50
193.15111826064651
 51
268.00000000000188
1001
GENIUS_GENODEF_13
1002
{
1000
HIER
1070
     0
1002
}
1002
{
1000
MANEDIT
1070
     0
1002
}
1002
{
1000
NOSEL
1070
     0
1002
}
1002
{
1000
BEHIND
1070
     0
1002
}
1002
{
1000
REACTOR
1002
}
1001
GENIUS_GENOBJ-N-FIL_13
1002
{
1000
OWNER
1000
GEN
1002
}
  0
LINE
  5
18118
  8
AM_0
 10
147.15633710408309
 20
254.43776650974459
 30
0.0
 11
153.04230144103209
 21
254.2322241058971
 31
0.0
  0
LINE
  5
18119
  8
AM_0
 10
147.14685495170971
 20
256.50545591971701
 30
0.0
 11
152.36561411763549
 21
256.68769900558351
 31
0.0
  0
ARC
  5
1811A
  8
AM_0
 10
147.19123660078569
 20
255.43715733676351
 30
0.0
 40
1.0
 50
187.85317808880529
 51
268.00000000000188
1001
GENIUS_GENODEF_13
1002
{
1000
HIER
1070
     0
1002
}
1002
{
1000
MANEDIT
1070
     0
1002
}
1002
{
1000
NOSEL
1070
     0
1002
}
1002
{
1000
BEHIND
1070
     0
1002
}
1002
{
1000
REACTOR
1002
}
1001
GENIUS_GENOBJ-N-FIL_13
1002
{
1000
OWNER
1000
GEN
1002
}
  0
ARC
  5
1811B
  8
AM_0
 10
256.15959628705548
 20
270.46701386580878
 30
0.0
 40
111.0
 50
187.81694783169439
 51
187.85317808881169
  0
ARC
  5
1811C
  8
AM_0
 10
147.18175444841219
 20
255.50606509269809
 30
0.0
 40
1.0
 50
91.999999999996206
 51
187.81694783169439
1001
GENIUS_GENODEF_13
1002
{
1000
HIER
1070
     0
1002
}
1002
{
1000
MANEDIT
1070
     0
1002
}
1002
{
1000
NOSEL
1070
     0
1002
}
1002
{
1000
BEHIND
1070
     0
1002
}
1002
{
1000
REACTOR
1002
}
1001
GENIUS_GENOBJ-N-FIL_13
1002
{
1000
OWNER
1000
GEN
1002
}
  0
LINE
  5
1811D
  8
AM_0
 10
146.2398831609388
 20
264.43495638691218
 30
0.0
 11
151.0006165659446
 21
264.26870791306419
 31
0.0
  0
LINE
  5
1811E
  8
AM_0
 10
146.23677298247841
 20
266.50211207506629
 30
0.0
 11
150.78793161025229
 21
266.66104203642732
 31
0.0
  0
ARC
  5
1811F
  8
AM_0
 10
146.27167247918109
 20
265.50272124804741
 30
0.0
 40
1.0
 50
92.000000000002714
 51
182.58663322877891
1001
GENIUS_GENODEF_13
1002
{
1000
HIER
1070
     0
1002
}
1002
{
1000
MANEDIT
1070
     0
1002
}
1002
{
1000
NOSEL
1070
     0
1002
}
1002
{
1000
BEHIND
1070
     0
1002
}
1002
{
1000
REACTOR
1002
}
1001
GENIUS_GENOBJ-N-FIL_13
1002
{
1000
OWNER
1000
GEN
1002
}
  0
ARC
  5
18120
  8
AM_0
 10
256.15959628705548
 20
270.46701386580878
 30
0.0
 40
111.0
 50
182.58663322877891
 51
182.62228408795201
  0
ARC
  5
18121
  8
AM_0
 10
146.2747826576414
 20
265.43434721393129
 30
0.0
 40
1.0
 50
182.62228408795201
 51
268.00000000000188
1001
GENIUS_GENODEF_13
1002
{
1000
HIER
1070
     0
1002
}
1002
{
1000
MANEDIT
1070
     0
1002
}
1002
{
1000
NOSEL
1070
     0
1002
}
1002
{
1000
BEHIND
1070
     0
1002
}
1002
{
1000
REACTOR
1002
}
1001
GENIUS_GENOBJ-N-FIL_13
1002
{
1000
OWNER
1000
GEN
1002
}
  0
ARC
  5
18122
  8
AM_0
 10
222.189452816103
 20
330.43537355207951
 30
0.0
 40
1.0
 50
1.9999999999971581
 51
82.146821911193925
1001
GENIUS_GENODEF_13
1002
{
1000
HIER
1070
     0
1002
}
1002
{
1000
MANEDIT
1070
     0
1002
}
1002
{
1000
NOSEL
1070
     0
1002
}
1002
{
1000
BEHIND
1070
     0
1002
}
1002
{
1000
REACTOR
1002
}
1001
GENIUS_GENOBJ-N-FIL_13
1002
{
1000
OWNER
1000
GEN
1002
}
  0
ARC
  5
18123
  8
AM_0
 10
207.15959628705579
 20
270.4670138658098
 30
0.0
 40
56.5
 50
55.136162045694739
 51
124.8638379543052
  0
LINE
  5
18124
  8
AM_0
 10
232.15959724073011
 20
313.96701565394909
 30
0.0
 11
162.159594945951
 21
312.74514727227393
 31
0.0
  0
LINE
  5
18125
  8
ｶｸﾚｾﾝ2
 10
162.1595949459512
 20
307.96701547513521
 30
0.0
 11
252.1595976281603
 21
307.96701547513521
 31
0.0
  0
LINE
  5
18126
  8
ｶｸﾚｾﾝ2
 10
162.1595949459512
 20
298.96701520691431
 30
0.0
 11
252.1595976281603
 21
298.96701520691431
 31
0.0
  0
LINE
  5
18127
  8
ﾁｭｳｼﾝｾﾝ1
 10
159.15959494595111
 20
303.46701534102482
 30
0.0
 11
255.1595976281603
 21
303.46701534102482
 31
0.0
  0
LINE
  5
18128
  8
AM_0
 10
265.30956598459483
 20
296.4936245917682
 30
0.0
 11
257.159290884489
 21
296.77823846983341
 31
0.0
  0
LINE
  5
18129
  8
AM_0
 10
262.49355156422638
 20
304.42054799941212
 30
0.0
 11
253.1595962870561
 21
304.09459909873181
 31
0.0
  0
LINE
  5
1812A
  8
AM_0
 10
262.46946765988599
 20
306.49111368851783
 30
0.0
 11
253.1595962870561
 21
306.81622156072649
 31
0.0
  0
LINE
  5
1812B
  8
AM_0
 10
268.07930941317233
 20
276.49907134470732
 30
0.0
 11
263.31857600816647
 21
276.66531981855519
 31
0.0
  0
LINE
  5
1812C
  8
AM_0
 10
268.08241959163269
 20
274.43191565655292
 30
0.0
 11
263.53126096385881
 21
274.27298569519229
 31
0.0
  0
ARC
  5
1812D
  8
AM_0
 10
268.04752009492989
 20
275.43130648357192
 30
0.0
 40
1.0
 50
272.00000000000267
 51
2.5866332287723801
1001
GENIUS_GENODEF_13
1002
{
1000
HIER
1070
     0
1002
}
1002
{
1000
MANEDIT
1070
     0
1002
}
1002
{
1000
NOSEL
1070
     0
1002
}
1002
{
1000
BEHIND
1070
     0
1002
}
1002
{
1000
REACTOR
1002
}
1001
GENIUS_GENOBJ-N-FIL_13
1002
{
1000
OWNER
1000
GEN
1002
}
  0
ARC
  5
1812E
  8
AM_0
 10
158.15959628705559
 20
270.4670138658106
 30
0.0
 40
111.0
 50
2.5866332287788949
 51
2.6222840879520262
  0
ARC
  5
1812F
  8
AM_0
 10
268.0444099164697
 20
275.49968051768809
 30
0.0
 40
1.0
 50
2.6222840879520262
 51
87.999999999995438
1001
GENIUS_GENODEF_13
1002
{
1000
HIER
1070
     0
1002
}
1002
{
1000
MANEDIT
1070
     0
1002
}
1002
{
1000
NOSEL
1070
     0
1002
}
1002
{
1000
BEHIND
1070
     0
1002
}
1002
{
1000
REACTOR
1002
}
1001
GENIUS_GENOBJ-N-FIL_13
1002
{
1000
OWNER
1000
GEN
1002
}
  0
LINE
  5
18130
  8
AM_0
 10
267.16285547002792
 20
286.4962612218751
 30
0.0
 11
261.27689113307889
 21
286.70180362572228
 31
0.0
  0
LINE
  5
18131
  8
AM_0
 10
267.17233762240141
 20
284.4285718119022
 30
0.0
 11
261.95357845647561
 21
284.24632872603621
 31
0.0
  0
ARC
  5
18132
  8
AM_0
 10
267.12795597332541
 20
285.4968703948557
 30
0.0
 40
1.0
 50
7.8531780888053113
 51
88.000000000001947
1001
GENIUS_GENODEF_13
1002
{
1000
HIER
1070
     0
1002
}
1002
{
1000
MANEDIT
1070
     0
1002
}
1002
{
1000
NOSEL
1070
     0
1002
}
1002
{
1000
BEHIND
1070
     0
1002
}
1002
{
1000
REACTOR
1002
}
1001
GENIUS_GENOBJ-N-FIL_13
1002
{
1000
OWNER
1000
GEN
1002
}
  0
ARC
  5
18133
  8
AM_0
 10
158.15959628705559
 20
270.4670138658106
 30
0.0
 40
111.0
 50
7.8169478316944092
 51
7.8531780888117764
  0
ARC
  5
18134
  8
AM_0
 10
267.13743812569879
 20
285.4279626389212
 30
0.0
 40
1.0
 50
272.00000000000267
 51
7.8169478316944092
1001
GENIUS_GENODEF_13
1002
{
1000
HIER
1070
     0
1002
}
1002
{
1000
MANEDIT
1070
     0
1002
}
1002
{
1000
NOSEL
1070
     0
1002
}
1002
{
1000
BEHIND
1070
     0
1002
}
1002
{
1000
REACTOR
1002
}
1001
GENIUS_GENOBJ-N-FIL_13
1002
{
1000
OWNER
1000
GEN
1002
}
  0
LINE
  5
18135
  8
AM_0
 10
261.15959628705588
 20
304.37396525466619
 30
0.0
 11
261.15959628705588
 21
296.63854472697358
 31
0.0
  0
ARC
  5
18136
  8
AM_0
 10
265.2746664878922
 20
295.49423376474869
 30
0.0
 40
1.0
 50
13.151118260646561
 51
88.000000000001947
1001
GENIUS_GENODEF_13
1002
{
1000
HIER
1070
     0
1002
}
1002
{
1000
MANEDIT
1070
     0
1002
}
1002
{
1000
NOSEL
1070
     0
1002
}
1002
{
1000
BEHIND
1070
     0
1002
}
1002
{
1000
REACTOR
1002
}
1001
GENIUS_GENOBJ-N-FIL_13
1002
{
1000
OWNER
1000
GEN
1002
}
  0
ARC
  5
18137
  8
AM_0
 10
265.29100122221502
 20
295.42421876978352
 30
0.0
 40
1.0
 50
272.00000000000267
 51
13.11367014329708
1001
GENIUS_GENODEF_13
1002
{
1000
HIER
1070
     0
1002
}
1002
{
1000
MANEDIT
1070
     0
1002
}
1002
{
1000
NOSEL
1070
     0
1002
}
1002
{
1000
BEHIND
1070
     0
1002
}
1002
{
1000
REACTOR
1002
}
1001
GENIUS_GENOBJ-N-FIL_13
1002
{
1000
OWNER
1000
GEN
1002
}
  0
ARC
  5
18138
  8
AM_0
 10
158.15959628705559
 20
270.4670138658106
 30
0.0
 40
111.0
 50
13.11367014329708
 51
13.151118260646561
  0
LINE
  5
18139
  8
AM_0
 10
265.32590071891752
 20
294.42482794276452
 30
0.0
 11
258.44055034517612
 21
294.18438620949331
 31
0.0
  0
ARC
  5
1813A
  8
AM_0
 10
262.4586520675237
 20
305.41993882643078
 30
0.0
 40
1.0
 50
272.00000000000267
 51
18.527142314467351
1001
GENIUS_GENODEF_13
1002
{
1000
HIER
1070
     0
1002
}
1002
{
1000
MANEDIT
1070
     0
1002
}
1002
{
1000
NOSEL
1070
     0
1002
}
1002
{
1000
BEHIND
1070
     0
1002
}
1002
{
1000
REACTOR
1002
}
1001
GENIUS_GENOBJ-N-FIL_13
1002
{
1000
OWNER
1000
GEN
1002
}
  0
ARC
  5
1813B
  8
AM_0
 10
158.15959628705559
 20
270.4670138658106
 30
0.0
 40
111.0
 50
18.527142314467351
 51
18.566580801896102
  0
ARC
  5
1813C
  8
AM_0
 10
262.43456816318371
 20
305.49172286149837
 30
0.0
 40
1.0
 50
18.56658080190202
 51
87.999999999995438
1001
GENIUS_GENODEF_13
1002
{
1000
HIER
1070
     0
1002
}
1002
{
1000
MANEDIT
1070
     0
1002
}
1002
{
1000
NOSEL
1070
     0
1002
}
1002
{
1000
BEHIND
1070
     0
1002
}
1002
{
1000
REACTOR
1002
}
1001
GENIUS_GENOBJ-N-FIL_13
1002
{
1000
OWNER
1000
GEN
1002
}
  0
ARC
  5
1813D
  8
AM_0
 10
166.15959628705559
 20
311.4670138658098
 30
0.0
 40
5.0
 50
90.0
 51
180.0
1001
GENIUS_GENOBJ-N-CEN_13
1002
{
1000
OWNER
1000
GEN
1002
}
1001
GENIUS_GENODEF_13
1002
{
1000
HIER
1070
     0
1002
}
1002
{
1000
MANEDIT
1070
     0
1002
}
1002
{
1000
NOSEL
1070
     0
1002
}
1002
{
1000
BEHIND
1070
     0
1002
}
1002
{
1000
REACTOR
1002
}
1001
GENIUS_GENOBJ-N-FIL_13
1002
{
1000
OWNER
1000
GEN
1002
}
  0
LINE
  5
1813E
  8
AM_0
 10
162.1595949459512
 20
291.46701498339672
 30
0.0
 11
158.15959482674199
 21
291.46701498339672
 31
0.0
  0
ARC
  5
1813F
  8
AM_0
 10
254.6595962870561
 20
303.74989234709392
 30
0.0
 40
1.5
 50
179.99999999999909
 51
215.01862826208631
1001
GENIUS_GENODEF_13
1002
{
1000
HIER
1070
     0
1002
}
1002
{
1000
MANEDIT
1070
     0
1002
}
1002
{
1000
NOSEL
1070
     0
1002
}
1002
{
1000
BEHIND
1070
     0
1002
}
1002
{
1000
REACTOR
1002
}
1001
GENIUS_GENOBJ-N-FIL_13
1002
{
1000
OWNER
1000
GEN
1002
}
  0
LINE
  5
18140
  8
AM_0
 10
253.1595962870561
 20
303.7498923470942
 30
0.0
 11
253.15959628705619
 21
311.46701386580912
 31
0.0
1001
GENIUS_GENODEF_13
1002
{
1000
HIER
1070
     0
1002
}
1002
{
1000
MANEDIT
1070
     0
1002
}
1002
{
1000
NOSEL
1070
     0
1002
}
1002
{
1000
BEHIND
1070
     0
1002
}
1002
{
1000
REACTOR
1002
}
1001
GENIUS_GENOBJ-N-CEN_13
1002
{
1000
OWNER
1000
GEN
1002
}
  0
LINE
  5
18141
  8
AM_0
 10
166.15959628705559
 20
316.4670138658098
 30
0.0
 11
173.7193510726438
 21
316.4670138658098
 31
0.0
  0
ARC
  5
18142
  8
AM_0
 10
172.20667132643339
 20
325.76606964627717
 30
0.0
 40
1.0
 50
1.9999999999971581
 51
108.5271423144752
1001
GENIUS_GENODEF_13
1002
{
1000
HIER
1070
     0
1002
}
1002
{
1000
MANEDIT
1070
     0
1002
}
1002
{
1000
NOSEL
1070
     0
1002
}
1002
{
1000
BEHIND
1070
     0
1002
}
1002
{
1000
REACTOR
1002
}
1001
GENIUS_GENOBJ-N-FIL_13
1002
{
1000
OWNER
1000
GEN
1002
}
  0
LINE
  5
18143
  8
AM_0
 10
171.1354964643466
 20
325.77688523863981
 30
0.0
 11
170.81038859213839
 21
316.4670138658098
 31
0.0
  0
ARC
  5
18144
  8
AM_0
 10
207.15959628705579
 20
221.4670138658098
 30
0.0
 40
111.0
 50
108.5271423144752
 51
108.56658080189619
  0
ARC
  5
18145
  8
AM_0
 10
172.134887291366
 20
325.74198574193719
 30
0.0
 40
1.0
 50
108.5665808019031
 51
177.99999999999631
1001
GENIUS_GENODEF_13
1002
{
1000
HIER
1070
     0
1002
}
1002
{
1000
MANEDIT
1070
     0
1002
}
1002
{
1000
NOSEL
1070
     0
1002
}
1002
{
1000
BEHIND
1070
     0
1002
}
1002
{
1000
REACTOR
1002
}
1001
GENIUS_GENOBJ-N-FIL_13
1002
{
1000
OWNER
1000
GEN
1002
}
  0
LINE
  5
18146
  8
AM_0
 10
181.13298556109649
 20
328.61698356334858
 30
0.0
 11
180.8483716830311
 21
320.46670846324258
 31
0.0
  0
LINE
  5
18147
  8
AM_0
 10
183.20178221009991
 20
328.63331829767128
 30
0.0
 11
183.44222394337129
 21
321.74796792392999
 31
0.0
  0
LINE
  5
18148
  8
AM_0
 10
173.20606215345259
 20
325.80096914298002
 30
0.0
 11
173.53170296873549
 21
316.4758362772709
 31
0.0
  0
ARC
  5
18149
  8
AM_0
 10
173.7193510726438
 20
318.4670138658098
 30
0.0
 40
2.0
 50
270.0
 51
304.86383795430532
1001
GENIUS_GENOBJ-N-FIL_13
1002
{
1000
OWNER
1000
GEN
1002
}
1001
GENIUS_GENODEF_13
1002
{
1000
HIER
1070
     0
1002
}
1002
{
1000
MANEDIT
1070
     0
1002
}
1002
{
1000
NOSEL
1070
     0
1002
}
1002
{
1000
BEHIND
1070
     0
1002
}
1002
{
1000
OTHER
1070
     0
1002
}
1002
{
1000
REACTOR
1002
}
  0
ARC
  5
1814A
  8
AM_0
 10
182.1323763881154
 20
328.58208406664608
 30
0.0
 40
1.0
 50
103.1511182606551
 51
178.00000000000281
1001
GENIUS_GENODEF_13
1002
{
1000
HIER
1070
     0
1002
}
1002
{
1000
MANEDIT
1070
     0
1002
}
1002
{
1000
NOSEL
1070
     0
1002
}
1002
{
1000
BEHIND
1070
     0
1002
}
1002
{
1000
REACTOR
1002
}
1001
GENIUS_GENOBJ-N-FIL_13
1002
{
1000
OWNER
1000
GEN
1002
}
  0
ARC
  5
1814B
  8
AM_0
 10
182.20239138308091
 20
328.5984188009686
 30
0.0
 40
1.0
 50
2.0000000000036691
 51
103.11367014329871
1001
GENIUS_GENODEF_13
1002
{
1000
HIER
1070
     0
1002
}
1002
{
1000
MANEDIT
1070
     0
1002
}
1002
{
1000
NOSEL
1070
     0
1002
}
1002
{
1000
BEHIND
1070
     0
1002
}
1002
{
1000
REACTOR
1002
}
1001
GENIUS_GENOBJ-N-FIL_13
1002
{
1000
OWNER
1000
GEN
1002
}
  0
ARC
  5
1814C
  8
AM_0
 10
207.15959628705579
 20
221.4670138658098
 30
0.0
 40
111.0
 50
103.11367014329871
 51
103.1511182606551
  0
LINE
  5
1814D
  8
AM_0
 10
191.1303489309895
 20
330.47027304878202
 30
0.0
 11
190.9248065271421
 21
324.58430871183282
 31
0.0
  0
ARC
  5
1814E
  8
AM_0
 10
207.15959628705579
 20
221.4670138658098
 30
0.0
 40
111.0
 50
97.816947831694506
 51
97.853178088806132
  0
ARC
  5
1814F
  8
AM_0
 10
192.1297397580085
 20
330.43537355207951
 30
0.0
 40
1.0
 50
97.853178088806132
 51
178.00000000000281
1001
GENIUS_GENODEF_13
1002
{
1000
HIER
1070
     0
1002
}
1002
{
1000
MANEDIT
1070
     0
1002
}
1002
{
1000
NOSEL
1070
     0
1002
}
1002
{
1000
BEHIND
1070
     0
1002
}
1002
{
1000
REACTOR
1002
}
1001
GENIUS_GENOBJ-N-FIL_13
1002
{
1000
OWNER
1000
GEN
1002
}
  0
ARC
  5
18150
  8
AM_0
 10
192.198647513943
 20
330.44485570445272
 30
0.0
 40
1.0
 50
1.9999999999971581
 51
97.816947831694506
1001
GENIUS_GENODEF_13
1002
{
1000
HIER
1070
     0
1002
}
1002
{
1000
MANEDIT
1070
     0
1002
}
1002
{
1000
NOSEL
1070
     0
1002
}
1002
{
1000
BEHIND
1070
     0
1002
}
1002
{
1000
REACTOR
1002
}
1001
GENIUS_GENOBJ-N-FIL_13
1002
{
1000
OWNER
1000
GEN
1002
}
  0
LINE
  5
18151
  8
AM_0
 10
193.19803834096211
 20
330.47975520115551
 30
0.0
 11
193.3802814268285
 21
325.26099603522971
 31
0.0
  0
ARC
  5
18152
  8
AM_0
 10
202.12692963517631
 20
331.35182749522369
 30
0.0
 40
1.0
 50
92.622284087952863
 51
178.00000000000281
1001
GENIUS_GENODEF_13
1002
{
1000
HIER
1070
     0
1002
}
1002
{
1000
MANEDIT
1070
     0
1002
}
1002
{
1000
NOSEL
1070
     0
1002
}
1002
{
1000
BEHIND
1070
     0
1002
}
1002
{
1000
REACTOR
1002
}
1001
GENIUS_GENOBJ-N-FIL_13
1002
{
1000
OWNER
1000
GEN
1002
}
  0
ARC
  5
18153
  8
AM_0
 10
202.19530366929229
 20
331.35493767368422
 30
0.0
 40
1.0
 50
2.0000000000036691
 51
92.586633228773294
1001
GENIUS_GENODEF_13
1002
{
1000
HIER
1070
     0
1002
}
1002
{
1000
MANEDIT
1070
     0
1002
}
1002
{
1000
NOSEL
1070
     0
1002
}
1002
{
1000
BEHIND
1070
     0
1002
}
1002
{
1000
REACTOR
1002
}
1001
GENIUS_GENOBJ-N-FIL_13
1002
{
1000
OWNER
1000
GEN
1002
}
  0
LINE
  5
18154
  8
AM_0
 10
201.12753880815731
 20
331.38672699192631
 30
0.0
 11
200.96129033430921
 21
326.62599358692069
 31
0.0
  0
LINE
  5
18155
  8
AM_0
 10
203.1946944963114
 20
331.38983717038673
 30
0.0
 11
203.35362445767231
 21
326.8386785426128
 31
0.0
  0
ARC
  5
18156
  8
AM_0
 10
212.19226293893519
 20
331.35182749522369
 30
0.0
 40
1.0
 50
1.9999999999971581
 51
87.377715912047094
1001
GENIUS_GENODEF_13
1002
{
1000
HIER
1070
     0
1002
}
1002
{
1000
MANEDIT
1070
     0
1002
}
1002
{
1000
NOSEL
1070
     0
1002
}
1002
{
1000
BEHIND
1070
     0
1002
}
1002
{
1000
REACTOR
1002
}
1001
GENIUS_GENOBJ-N-FIL_13
1002
{
1000
OWNER
1000
GEN
1002
}
  0
ARC
  5
18157
  8
AM_0
 10
212.12388890481921
 20
331.35493767368422
 30
0.0
 40
1.0
 50
87.413366771226677
 51
177.99999999999631
1001
GENIUS_GENODEF_13
1002
{
1000
HIER
1070
     0
1002
}
1002
{
1000
MANEDIT
1070
     0
1002
}
1002
{
1000
NOSEL
1070
     0
1002
}
1002
{
1000
BEHIND
1070
     0
1002
}
1002
{
1000
REACTOR
1002
}
1001
GENIUS_GENOBJ-N-FIL_13
1002
{
1000
OWNER
1000
GEN
1002
}
  0
LINE
  5
18158
  8
AM_0
 10
213.19165376595419
 20
331.38672699192631
 30
0.0
 11
213.35790223980231
 21
326.62599358692069
 31
0.0
  0
LINE
  5
18159
  8
AM_0
 10
211.1244980778001
 20
331.38983717038673
 30
0.0
 11
210.96556811643919
 21
326.8386785426128
 31
0.0
  0
ARC
  5
1815A
  8
AM_0
 10
207.15959628705579
 20
221.4670138658098
 30
0.0
 40
111.0
 50
82.146821911193925
 51
82.183052168305494
  0
ARC
  5
1815B
  8
AM_0
 10
222.1205450601685
 20
330.44485570445272
 30
0.0
 40
1.0
 50
82.183052168305494
 51
178.00000000000281
1001
GENIUS_GENODEF_13
1002
{
1000
HIER
1070
     0
1002
}
1002
{
1000
MANEDIT
1070
     0
1002
}
1002
{
1000
NOSEL
1070
     0
1002
}
1002
{
1000
BEHIND
1070
     0
1002
}
1002
{
1000
REACTOR
1002
}
1001
GENIUS_GENOBJ-N-FIL_13
1002
{
1000
OWNER
1000
GEN
1002
}
  0
LINE
  5
1815C
  8
AM_0
 10
221.1211542331493
 20
330.47975520115551
 30
0.0
 11
220.93891114728299
 21
325.26099603522971
 31
0.0
  0
ARC
  5
1815D
  8
AM_0
 10
248.15959628705571
 20
311.4670138658098
 30
0.0
 40
5.0
 50
0.0
 51
90.0
1001
GENIUS_GENODEF_13
1002
{
1000
HIER
1070
     0
1002
}
1002
{
1000
MANEDIT
1070
     0
1002
}
1002
{
1000
NOSEL
1070
     0
1002
}
1002
{
1000
BEHIND
1070
     0
1002
}
1002
{
1000
REACTOR
1002
}
1001
GENIUS_GENOBJ-N-FIL_13
1002
{
1000
OWNER
1000
GEN
1002
}
  0
LINE
  5
1815E
  8
AM_0
 10
151.82564100988569
 20
304.42054799941388
 30
0.0
 11
161.1595962870561
 21
304.09459909873323
 31
0.0
  0
LINE
  5
1815F
  8
AM_0
 10
151.84972491422619
 20
306.49111368851959
 30
0.0
 11
161.1595962870561
 21
306.81622156072791
 31
0.0
  0
LINE
  5
18160
  8
AM_0
 10
252.1595976281603
 20
291.46701498339672
 30
0.0
 11
256.1595977473695
 21
291.46701498339672
 31
0.0
  0
LINE
  5
18161
  8
AM_0
 10
252.1595976281603
 20
313.61789455343649
 30
0.0
 11
232.15959724073011
 21
313.96701565394892
 31
0.0
  0
ARC
  5
18162
  8
AM_0
 10
159.6595962870561
 20
303.74989234709562
 30
0.0
 40
1.5
 50
324.98137173791548
 51
359.9999999999992
1001
GENIUS_GENODEF_13
1002
{
1000
HIER
1070
     0
1002
}
1002
{
1000
MANEDIT
1070
     0
1002
}
1002
{
1000
NOSEL
1070
     0
1002
}
1002
{
1000
BEHIND
1070
     0
1002
}
1002
{
1000
REACTOR
1002
}
1001
GENIUS_GENOBJ-N-FIL_13
1002
{
1000
OWNER
1000
GEN
1002
}
  0
LINE
  5
18163
  8
AM_0
 10
161.1595962870561
 20
303.74989234709562
 30
0.0
 11
161.15959628705619
 21
311.4670138658106
 31
0.0
1001
GENIUS_GENODEF_13
1002
{
1000
HIER
1070
     0
1002
}
1002
{
1000
MANEDIT
1070
     0
1002
}
1002
{
1000
NOSEL
1070
     0
1002
}
1002
{
1000
BEHIND
1070
     0
1002
}
1002
{
1000
REACTOR
1002
}
1001
GENIUS_GENOBJ-N-CEN_13
1002
{
1000
OWNER
1000
GEN
1002
}
  0
LINE
  5
18164
  8
AM_0
 10
146.2367729824785
 20
274.43191565655491
 30
0.0
 11
150.7879316102524
 21
274.27298569519422
 31
0.0
  0
LINE
  5
18165
  8
AM_0
 10
146.239883160939
 20
276.49907134470931
 30
0.0
 11
151.0006165659448
 21
276.66531981855701
 31
0.0
  0
ARC
  5
18166
  8
AM_0
 10
146.27167247918129
 20
275.43130648357408
 30
0.0
 40
1.0
 50
177.4133667712193
 51
267.9999999999954
1001
GENIUS_GENODEF_13
1002
{
1000
HIER
1070
     0
1002
}
1002
{
1000
MANEDIT
1070
     0
1002
}
1002
{
1000
NOSEL
1070
     0
1002
}
1002
{
1000
BEHIND
1070
     0
1002
}
1002
{
1000
REACTOR
1002
}
1001
GENIUS_GENOBJ-N-FIL_13
1002
{
1000
OWNER
1000
GEN
1002
}
  0
ARC
  5
18167
  8
AM_0
 10
146.27478265764151
 20
275.49968051769031
 30
0.0
 40
1.0
 50
91.999999999996206
 51
177.37771591204611
1001
GENIUS_GENODEF_13
1002
{
1000
HIER
1070
     0
1002
}
1002
{
1000
MANEDIT
1070
     0
1002
}
1002
{
1000
NOSEL
1070
     0
1002
}
1002
{
1000
BEHIND
1070
     0
1002
}
1002
{
1000
REACTOR
1002
}
1001
GENIUS_GENOBJ-N-FIL_13
1002
{
1000
OWNER
1000
GEN
1002
}
  0
ARC
  5
18168
  8
AM_0
 10
256.15959628705548
 20
270.46701386580878
 30
0.0
 40
111.0
 50
177.37771591204611
 51
177.4133667712193
  0
LINE
  5
18169
  8
AM_0
 10
147.14685495171011
 20
284.42857181190408
 30
0.0
 11
152.36561411763589
 21
284.24632872603797
 31
0.0
  0
LINE
  5
1816A
  8
AM_0
 10
147.1563371040836
 20
286.49626122187698
 30
0.0
 11
153.04230144103261
 21
286.70180362572421
 31
0.0
  0
ARC
  5
1816B
  8
AM_0
 10
147.1912366007862
 20
285.49687039485781
 30
0.0
 40
1.0
 50
91.999999999996206
 51
172.1468219111928
1001
GENIUS_GENODEF_13
1002
{
1000
HIER
1070
     0
1002
}
1002
{
1000
MANEDIT
1070
     0
1002
}
1002
{
1000
NOSEL
1070
     0
1002
}
1002
{
1000
BEHIND
1070
     0
1002
}
1002
{
1000
REACTOR
1002
}
1001
GENIUS_GENOBJ-N-FIL_13
1002
{
1000
OWNER
1000
GEN
1002
}
  0
ARC
  5
1816C
  8
AM_0
 10
256.15959628705548
 20
270.46701386580878
 30
0.0
 40
111.0
 50
172.14682191118641
 51
172.18305216830359
  0
ARC
  5
1816D
  8
AM_0
 10
147.1817544484127
 20
285.42796263892319
 30
0.0
 40
1.0
 50
172.18305216830359
 51
268.00000000000188
1001
GENIUS_GENODEF_13
1002
{
1000
HIER
1070
     0
1002
}
1002
{
1000
MANEDIT
1070
     0
1002
}
1002
{
1000
NOSEL
1070
     0
1002
}
1002
{
1000
BEHIND
1070
     0
1002
}
1002
{
1000
REACTOR
1002
}
1001
GENIUS_GENOBJ-N-FIL_13
1002
{
1000
OWNER
1000
GEN
1002
}
  0
LINE
  5
1816E
  8
AM_0
 10
153.15959628705619
 20
304.37396525466778
 30
0.0
 11
153.15959628705599
 21
296.6385447269754
 31
0.0
  0
LINE
  5
1816F
  8
AM_0
 10
149.0096265895171
 20
296.49362459177001
 30
0.0
 11
157.1599016896229
 21
296.77823846983489
 31
0.0
  0
LINE
  5
18170
  8
AM_0
 10
148.99329185519429
 20
294.4248279427664
 30
0.0
 11
155.8786422289356
 21
294.18438620949479
 31
0.0
  0
ARC
  5
18171
  8
AM_0
 10
256.15959628705548
 20
270.46701386580878
 30
0.0
 40
111.0
 50
166.84888173935161
 51
166.88632985670111
  0
ARC
  5
18172
  8
AM_0
 10
149.02819135189699
 20
295.42421876978551
 30
0.0
 40
1.0
 50
166.88632985670111
 51
267.9999999999954
1001
GENIUS_GENODEF_13
1002
{
1000
HIER
1070
     0
1002
}
1002
{
1000
MANEDIT
1070
     0
1002
}
1002
{
1000
NOSEL
1070
     0
1002
}
1002
{
1000
BEHIND
1070
     0
1002
}
1002
{
1000
REACTOR
1002
}
1001
GENIUS_GENOBJ-N-FIL_13
1002
{
1000
OWNER
1000
GEN
1002
}
  0
ARC
  5
18173
  8
AM_0
 10
149.04452608621969
 20
295.4942337647509
 30
0.0
 40
1.0
 50
91.999999999996206
 51
166.84888173935161
1001
GENIUS_GENODEF_13
1002
{
1000
HIER
1070
     0
1002
}
1002
{
1000
MANEDIT
1070
     0
1002
}
1002
{
1000
NOSEL
1070
     0
1002
}
1002
{
1000
BEHIND
1070
     0
1002
}
1002
{
1000
REACTOR
1002
}
1001
GENIUS_GENOBJ-N-FIL_13
1002
{
1000
OWNER
1000
GEN
1002
}
  0
ARC
  5
18174
  8
AM_0
 10
151.86054050658851
 20
305.41993882643283
 30
0.0
 40
1.0
 50
161.47285768553081
 51
268.00000000000188
1001
GENIUS_GENODEF_13
1002
{
1000
HIER
1070
     0
1002
}
1002
{
1000
MANEDIT
1070
     0
1002
}
1002
{
1000
NOSEL
1070
     0
1002
}
1002
{
1000
BEHIND
1070
     0
1002
}
1002
{
1000
REACTOR
1002
}
1001
GENIUS_GENOBJ-N-FIL_13
1002
{
1000
OWNER
1000
GEN
1002
}
  0
ARC
  5
18175
  8
AM_0
 10
256.15959628705548
 20
270.46701386580878
 30
0.0
 40
111.0
 50
161.433419198102
 51
161.47285768553081
  0
ARC
  5
18176
  8
AM_0
 10
151.88462441092841
 20
305.49172286150042
 30
0.0
 40
1.0
 50
92.000000000002714
 51
161.43341919809609
1001
GENIUS_GENODEF_13
1002
{
1000
HIER
1070
     0
1002
}
1002
{
1000
MANEDIT
1070
     0
1002
}
1002
{
1000
NOSEL
1070
     0
1002
}
1002
{
1000
BEHIND
1070
     0
1002
}
1002
{
1000
REACTOR
1002
}
1001
GENIUS_GENOBJ-N-FIL_13
1002
{
1000
OWNER
1000
GEN
1002
}
  0
ARC
  5
18177
  8
AM_0
 10
240.59984150146769
 20
318.4670138658098
 30
0.0
 40
2.0
 50
235.1361620456947
 51
270.0
1001
GENIUS_GENODEF_13
1002
{
1000
HIER
1070
     0
1002
}
1002
{
1000
MANEDIT
1070
     0
1002
}
1002
{
1000
NOSEL
1070
     0
1002
}
1002
{
1000
BEHIND
1070
     0
1002
}
1002
{
1000
OTHER
1070
     0
1002
}
1002
{
1000
REACTOR
1002
}
1001
GENIUS_GENOBJ-N-FIL_13
1002
{
1000
OWNER
1000
GEN
1002
}
  0
LINE
  5
18178
  8
AM_0
 10
231.11741036401159
 20
328.63331829767128
 30
0.0
 11
230.87696863074021
 21
321.74796792392999
 31
0.0
  0
LINE
  5
18179
  8
AM_0
 10
233.18620701301501
 20
328.61698356334858
 30
0.0
 11
233.47082089108051
 21
320.46670846324258
 31
0.0
  0
LINE
  5
1817A
  8
AM_0
 10
223.188843643122
 20
330.47027304878202
 30
0.0
 11
223.3943860469694
 21
324.58430871183282
 31
0.0
  0
ARC
  5
1817B
  8
AM_0
 10
232.11680119103059
 20
328.5984188009686
 30
0.0
 40
1.0
 50
76.886329856701238
 51
177.99999999999631
1001
GENIUS_GENODEF_13
1002
{
1000
HIER
1070
     0
1002
}
1002
{
1000
MANEDIT
1070
     0
1002
}
1002
{
1000
NOSEL
1070
     0
1002
}
1002
{
1000
BEHIND
1070
     0
1002
}
1002
{
1000
REACTOR
1002
}
1001
GENIUS_GENOBJ-N-FIL_13
1002
{
1000
OWNER
1000
GEN
1002
}
  0
ARC
  5
1817C
  8
AM_0
 10
232.18681618599609
 20
328.58208406664608
 30
0.0
 40
1.0
 50
1.9999999999971581
 51
76.848881739344861
1001
GENIUS_GENODEF_13
1002
{
1000
HIER
1070
     0
1002
}
1002
{
1000
MANEDIT
1070
     0
1002
}
1002
{
1000
NOSEL
1070
     0
1002
}
1002
{
1000
BEHIND
1070
     0
1002
}
1002
{
1000
REACTOR
1002
}
1001
GENIUS_GENOBJ-N-FIL_13
1002
{
1000
OWNER
1000
GEN
1002
}
  0
ARC
  5
1817D
  8
AM_0
 10
207.15959628705579
 20
221.4670138658098
 30
0.0
 40
111.0
 50
76.848881739344861
 51
76.886329856701238
  0
LINE
  5
1817E
  8
AM_0
 10
243.1836961097649
 20
325.77688523863981
 30
0.0
 11
243.50880398197319
 21
316.4670138658098
 31
0.0
  0
LINE
  5
1817F
  8
AM_0
 10
241.1131304206589
 20
325.80096914298002
 30
0.0
 11
240.7874896053757
 21
316.47583627727079
 31
0.0
  0
LINE
  5
18180
  8
AM_0
 10
240.59984150146769
 20
316.4670138658098
 30
0.0
 11
248.15959628705571
 21
316.4670138658098
 31
0.0
  0
ARC
  5
18181
  8
AM_0
 10
207.15959628705579
 20
221.4670138658098
 30
0.0
 40
111.0
 50
71.433419198103763
 51
71.472857685524801
  0
ARC
  5
18182
  8
AM_0
 10
242.1843052827455
 20
325.74198574193719
 30
0.0
 40
1.0
 50
2.0000000000036691
 51
71.433419198096814
1001
GENIUS_GENODEF_13
1002
{
1000
HIER
1070
     0
1002
}
1002
{
1000
MANEDIT
1070
     0
1002
}
1002
{
1000
NOSEL
1070
     0
1002
}
1002
{
1000
BEHIND
1070
     0
1002
}
1002
{
1000
REACTOR
1002
}
1001
GENIUS_GENOBJ-N-FIL_13
1002
{
1000
OWNER
1000
GEN
1002
}
  0
ARC
  5
18183
  8
AM_0
 10
242.1125212476781
 20
325.76606964627717
 30
0.0
 40
1.0
 50
71.472857685524801
 51
178.00000000000281
1001
GENIUS_GENODEF_13
1002
{
1000
HIER
1070
     0
1002
}
1002
{
1000
MANEDIT
1070
     0
1002
}
1002
{
1000
NOSEL
1070
     0
1002
}
1002
{
1000
BEHIND
1070
     0
1002
}
1002
{
1000
REACTOR
1002
}
1001
GENIUS_GENOBJ-N-FIL_13
1002
{
1000
OWNER
1000
GEN
1002
}
  0
LINE
  5
18184
  8
AM_0
 10
260.15959798050011
 20
273.9668144780718
 30
0.0
 11
256.15959786129082
 21
273.9668144780718
 31
0.0
  0
LINE
  5
18185
  8
AM_0
 10
260.15959798050011
 20
273.9668144780718
 30
0.0
 11
260.15959798049943
 21
233.96721328599079
 31
0.0
  0
LINE
  5
18186
  8
AM_0
 10
260.15959798050011
 20
273.9668144780718
 30
0.0
 11
275.15959621086603
 21
268.96701384885779
 31
0.0
  0
LINE
  5
18187
  8
AM_0
 10
275.15959621086552
 20
238.96701384885779
 30
0.0
 11
275.15959621086603
 21
268.96701384885779
 31
0.0
  0
LINE
  5
18188
  8
AM_0
 10
260.15959798049943
 20
233.96721328599079
 30
0.0
 11
275.15959621086552
 21
238.96701384885779
 31
0.0
  0
LINE
  5
18189
  8
AM_0
 10
260.15959798049943
 20
233.96721328599079
 30
0.0
 11
256.15959786129008
 21
233.96721328599091
 31
0.0
  0
LINE
  5
1818A
  8
0
 10
315.15959617659212
 20
241.9670138335886
 30
0.0
 11
315.1595962537076
 21
268.96701383358862
 31
0.0
  0
LINE
  5
1818B
  8
0
 10
315.1595962108654
 20
241.96701383358879
 30
0.0
 11
275.15959621086552
 21
241.96701383358939
 31
0.0
  0
LINE
  5
1818C
  8
0
 10
315.1595962108658
 20
268.96701383358879
 30
0.0
 11
283.15959625370749
 21
268.96701383358931
 31
0.0
  0
LINE
  5
1818D
  8
0
 10
315.1595962108658
 20
265.96701383358891
 30
0.0
 11
275.15959621086603
 21
265.96701382757652
 31
0.0
  0
LINE
  5
1818E
  8
0
 10
283.15959625370749
 20
268.96701383358931
 30
0.0
 11
283.1595962541586
 21
265.96701382877899
 31
0.0
  0
ARC
  5
1818F
  8
0
 10
466.32975052937809
 20
253.96701405069879
 30
0.0
 40
12.00000005996232
 50
109.4712205332637
 51
70.528779466736253
  0
CIRCLE
  5
18190
  8
0
 10
466.32975052937809
 20
253.9670138658098
 30
0.0
 40
19.99980059118241
  0
CIRCLE
  5
18191
  8
ｽﾝﾎﾟｳｾﾝ
 10
466.32975052937809
 20
253.9670138658098
 30
0.0
 40
4.0
  0
LINE
  5
18192
  8
0
 10
470.32975052937809
 20
268.96701399073652
 30
0.0
 11
462.3297505293782
 21
268.96701399073652
 31
0.0
  0
LINE
  5
18193
  8
0
 10
462.3297505293782
 20
261.96701399073652
 30
0.0
 11
470.32975052937809
 21
261.96701399073652
 31
0.0
  0
LINE
  5
18194
  8
0
 10
470.32975052937809
 20
261.96701399073652
 30
0.0
 11
470.32975052937809
 21
268.96701399073652
 31
0.0
  0
LINE
  5
18195
  8
0
 10
462.3297505293782
 20
268.96701399073652
 30
0.0
 11
462.3297505293782
 21
261.96701399073652
 31
0.0
  0
LINE
  5
18196
  8
AM_0
 10
428.82974941179111
 20
470.94206034660789
 30
0.0
 11
503.82975164696512
 21
470.94206034660789
 31
0.0
  0
LINE
  5
18197
  8
AM_0
 10
410.0516171974196
 20
564.94213498894544
 30
0.0
 11
561.60791276688064
 21
564.94213498894544
 31
0.0
  0
LINE
  5
18198
  8
AM_0
 10
428.82974941179111
 20
568.94206326723565
 30
0.0
 11
503.82975164696512
 21
568.94206326723565
 31
0.0
  0
LINE
  5
18199
  8
AM_0
 10
562.4806323047892
 20
474.94213230673648
 30
0.0
 11
409.17886991625699
 21
474.94213230673648
 31
0.0
  0
LINE
  5
1819A
  8
AM_0
 10
408.82974881574449
 20
494.94213269416667
 30
0.0
 11
562.82975340530209
 21
494.94213269416667
 31
0.0
  0
LINE
  5
1819B
  8
ﾁｭｳｼﾝｾﾝ1
 10
763.53666879222669
 20
519.94209772738134
 30
0.0
 11
403.82974881574449
 21
519.9421411769564
 31
0.0
1001
GENIUS_GENODEF_13
1002
{
1000
HIER
1070
     0
1002
}
1002
{
1000
MANEDIT
1070
     0
1002
}
1002
{
1000
NOSEL
1070
     0
1002
}
1002
{
1000
BEHIND
1070
     0
1002
}
1002
{
1000
REACTOR
1002
}
1001
GENIUS_GENOBJ-N-CEN_13
1002
{
1000
OWNER
1000
GEN
1002
}
  0
LINE
  5
1819C
  8
AM_0
 10
562.82975340530209
 20
494.94213269416667
 30
0.0
 11
561.60791276688064
 21
564.94213498894544
 31
0.0
  0
ARC
  5
1819D
  8
AM_0
 10
563.60821741601421
 20
564.94213498894544
 30
0.0
 40
2.0
 50
180.99998858802201
 51
270.0
1001
GENIUS_GENOBJ-N-FIL_13
1002
{
1000
OWNER
1000
GEN
1002
}
1001
GENIUS_GENODEF_13
1002
{
1000
HIER
1070
     0
1002
}
1002
{
1000
MANEDIT
1070
     0
1002
}
1002
{
1000
NOSEL
1070
     0
1002
}
1002
{
1000
BEHIND
1070
     0
1002
}
1002
{
1000
OTHER
1070
     0
1002
}
1002
{
1000
REACTOR
1002
}
  0
LINE
  5
1819E
  8
ｶｸﾚｾﾝ2
 10
547.82975295826736
 20
564.94213498894544
 30
0.0
 11
547.82975295826736
 21
474.94213230673648
 31
0.0
  0
LINE
  5
1819F
  8
ｶｸﾚｾﾝ2
 10
556.82975322648826
 20
564.94213498894544
 30
0.0
 11
556.82975322648826
 21
474.94213230673648
 31
0.0
  0
LINE
  5
181A0
  8
ﾁｭｳｼﾝｾﾝ1
 10
552.32975309237781
 20
567.94213498894555
 30
0.0
 11
552.32975309237781
 21
471.94213230673648
 31
0.0
  0
LINE
  5
181A1
  8
AM_0
 10
571.69217622978726
 20
575.47420620579203
 30
0.0
 11
571.69216097167305
 21
464.41002843331592
 31
0.0
  0
LINE
  5
181A2
  8
AM_0
 10
580.32975340530209
 20
575.94212772738149
 30
0.0
 11
580.32975340530209
 21
463.94210672738149
 31
0.0
  0
LINE
  5
181A3
  8
AM_0
 10
571.00812029682402
 20
465.59482369660202
 30
0.0
 11
565.62645660730959
 21
496.11578073061708
 31
0.0
1001
GENIUS_GENODEF_13
1002
{
1000
HIER
1070
     0
1002
}
1002
{
1000
MANEDIT
1070
     0
1002
}
1002
{
1000
NOSEL
1070
     0
1002
}
1002
{
1000
BEHIND
1070
     0
1002
}
1002
{
1000
REACTOR
1002
}
1001
GENIUS_GENOBJ-N-CEN_13
1002
{
1000
OWNER
1000
GEN
1002
}
  0
ARC
  5
181A4
  8
AM_0
 10
564.64164882939701
 20
495.94213269416667
 30
0.0
 40
1.0
 50
9.9999917840688557
 51
90.000000000000057
1001
GENIUS_GENOBJ-N-CEN_13
1002
{
1000
OWNER
1000
GEN
1002
}
1001
GENIUS_GENODEF_13
1002
{
1000
HIER
1070
     0
1002
}
1002
{
1000
MANEDIT
1070
     0
1002
}
1002
{
1000
NOSEL
1070
     0
1002
}
1002
{
1000
BEHIND
1070
     0
1002
}
1002
{
1000
OTHER
1070
     0
1002
}
1002
{
1000
REACTOR
1002
}
1001
GENIUS_GENOBJ-N-FIL_13
1002
{
1000
OWNER
1000
GEN
1002
}
  0
LINE
  5
181A5
  8
AM_0
 10
580.32975340530209
 20
463.94211722738129
 30
0.0
 11
572.97773630089296
 21
463.94211722738129
 31
0.0
  0
ARC
  5
181A6
  8
AM_0
 10
572.97773630089296
 20
465.94211722738129
 30
0.0
 40
2.0
 50
189.9999917840704
 51
270.0
1001
GENIUS_GENOBJ-N-CEN_13
1002
{
1000
OWNER
1000
GEN
1002
}
1001
GENIUS_GENODEF_13
1002
{
1000
HIER
1070
     0
1002
}
1002
{
1000
MANEDIT
1070
     0
1002
}
1002
{
1000
NOSEL
1070
     0
1002
}
1002
{
1000
BEHIND
1070
     0
1002
}
1002
{
1000
OTHER
1070
     0
1002
}
1002
{
1000
REACTOR
1002
}
1001
GENIUS_GENOBJ-N-FIL_13
1002
{
1000
OWNER
1000
GEN
1002
}
  0
LINE
  5
181A7
  8
AM_0
 10
580.32975340530209
 20
488.00465972738152
 30
0.0
 11
571.6921642128242
 21
488.00244473222398
 31
0.0
  0
LINE
  5
181A8
  8
AM_0
 10
580.32975340530209
 20
473.94209172738152
 30
0.0
 11
571.69216228120069
 21
473.94211087014088
 31
0.0
  0
LINE
  5
181A9
  8
AM_0
 10
562.4806323047892
 20
474.94213230673648
 30
0.0
 11
562.82975340530209
 21
494.94213269416667
 31
0.0
  0
LINE
  5
181AA
  8
AM_0
 10
563.81245086417778
 20
496.94213269416667
 30
0.0
 11
564.64164882939701
 21
496.94213269416667
 31
0.0
  0
ARC
  5
181AB
  8
AM_0
 10
563.81245086417778
 20
495.94213269416667
 30
0.0
 40
1.0
 50
90.000000000000057
 51
180.9999885880236
1001
GENIUS_GENOBJ-N-FIL_13
1002
{
1000
OWNER
1000
GEN
1002
}
1001
GENIUS_GENODEF_13
1002
{
1000
HIER
1070
     0
1002
}
1002
{
1000
MANEDIT
1070
     0
1002
}
1002
{
1000
NOSEL
1070
     0
1002
}
1002
{
1000
BEHIND
1070
     0
1002
}
1002
{
1000
OTHER
1070
     0
1002
}
1002
{
1000
REACTOR
1002
}
  0
LINE
  5
181AC
  8
AM_0
 10
503.82975164696512
 20
564.94206314802625
 30
0.0
 11
503.82975164696512
 21
568.94206326723565
 31
0.0
  0
LINE
  5
181AD
  8
AM_0
 10
571.00813588308972
 20
574.28941386514816
 30
0.0
 11
569.29871922008545
 21
564.59483835117862
 31
0.0
1001
GENIUS_GENODEF_13
1002
{
1000
HIER
1070
     0
1002
}
1002
{
1000
MANEDIT
1070
     0
1002
}
1002
{
1000
NOSEL
1070
     0
1002
}
1002
{
1000
BEHIND
1070
     0
1002
}
1002
{
1000
REACTOR
1002
}
1001
GENIUS_GENOBJ-N-CEN_13
1002
{
1000
OWNER
1000
GEN
1002
}
  0
LINE
  5
181AE
  8
AM_0
 10
580.32975340530209
 20
551.88206722738141
 30
0.0
 11
571.69217298867443
 21
551.88206722738141
 31
0.0
  0
LINE
  5
181AF
  8
AM_0
 10
580.32975340530209
 20
565.94211722738135
 30
0.0
 11
571.69217492025905
 21
565.94211722738135
 31
0.0
  0
LINE
  5
181B0
  8
AM_0
 10
563.60821741601421
 20
562.94213498894544
 30
0.0
 11
567.32910376386178
 21
562.94213498894544
 31
0.0
  0
ARC
  5
181B1
  8
AM_0
 10
567.32910376386178
 20
564.94213498894544
 30
0.0
 40
2.0
 50
270.0
 51
349.99999178407012
1001
GENIUS_GENOBJ-N-CEN_13
1002
{
1000
OWNER
1000
GEN
1002
}
1001
GENIUS_GENODEF_13
1002
{
1000
HIER
1070
     0
1002
}
1002
{
1000
MANEDIT
1070
     0
1002
}
1002
{
1000
NOSEL
1070
     0
1002
}
1002
{
1000
BEHIND
1070
     0
1002
}
1002
{
1000
OTHER
1070
     0
1002
}
1002
{
1000
REACTOR
1002
}
1001
GENIUS_GENOBJ-N-FIL_13
1002
{
1000
OWNER
1000
GEN
1002
}
  0
LINE
  5
181B2
  8
AM_0
 10
580.32975340530209
 20
575.94211722738135
 30
0.0
 11
572.97775133931361
 21
575.94211722738135
 31
0.0
  0
ARC
  5
181B3
  8
AM_0
 10
572.97775133931361
 20
573.94211722738135
 30
0.0
 40
2.0
 50
90.000000000000057
 51
169.99999178407
1001
GENIUS_GENOBJ-N-CEN_13
1002
{
1000
OWNER
1000
GEN
1002
}
1001
GENIUS_GENOBJ-N-FIL_13
1002
{
1000
OWNER
1000
GEN
1002
}
1001
GENIUS_GENODEF_13
1002
{
1000
HIER
1070
     0
1002
}
1002
{
1000
MANEDIT
1070
     0
1002
}
1002
{
1000
NOSEL
1070
     0
1002
}
1002
{
1000
BEHIND
1070
     0
1002
}
1002
{
1000
OTHER
1070
     0
1002
}
1002
{
1000
REACTOR
1002
}
  0
LINE
  5
181B4
  8
AM_0
 10
503.82975164696512
 20
474.94206046581729
 30
0.0
 11
503.82975164696512
 21
470.94206034660789
 31
0.0
  0
LINE
  5
181B5
  8
ﾁｭｳｼﾝｾﾝ1
 10
466.32975052937809
 20
406.94206188311148
 30
0.0
 11
466.32975052937809
 21
573.94206326723565
 31
0.0
  0
LINE
  5
181B6
  8
AM_0
 10
408.82974881574438
 20
494.94213269416667
 30
0.0
 11
410.0516171974196
 21
564.94213498894544
 31
0.0
  0
LINE
  5
181B7
  8
ｶｸﾚｾﾝ2
 10
423.82974926277922
 20
564.94213498894544
 30
0.0
 11
423.82974926277922
 21
474.94213230673648
 31
0.0
  0
LINE
  5
181B8
  8
ｶｸﾚｾﾝ2
 10
414.82974899455837
 20
564.94213498894544
 30
0.0
 11
414.82974899455837
 21
474.94213230673648
 31
0.0
  0
LINE
  5
181B9
  8
ﾁｭｳｼﾝｾﾝ1
 10
419.32974912866882
 20
567.94213498894555
 30
0.0
 11
419.32974912866882
 21
471.94213230673648
 31
0.0
  0
LINE
  5
181BA
  8
AM_0
 10
428.82974941179111
 20
564.94206314802625
 30
0.0
 11
428.82974941179111
 21
568.94206326723565
 31
0.0
  0
LINE
  5
181BB
  8
AM_0
 10
409.17886991625699
 20
474.94213230673648
 30
0.0
 11
408.82974881574449
 21
494.94213269416667
 31
0.0
  0
LINE
  5
181BC
  8
AM_0
 10
428.82974941179111
 20
474.94206046581729
 30
0.0
 11
428.82974941179111
 21
470.94206034660789
 31
0.0
  0
LINE
  5
181BD
  8
AM_0
 10
486.32955114164082
 20
466.9420601134774
 30
0.0
 11
486.32955114164082
 21
470.9420602326868
 31
0.0
  0
LINE
  5
181BE
  8
AM_0
 10
486.32955114164082
 20
466.9420601134774
 30
0.0
 11
446.32994994955988
 21
466.94206011347728
 31
0.0
  0
LINE
  5
181BF
  8
AM_0
 10
486.32955114164082
 20
466.9420601134774
 30
0.0
 11
481.32975051242721
 21
451.94206188311131
 31
0.0
  0
LINE
  5
181C0
  8
AM_0
 10
451.3297505124271
 20
451.94206188311131
 30
0.0
 11
481.32975051242721
 21
451.94206188311131
 31
0.0
  0
LINE
  5
181C1
  8
AM_0
 10
446.32994994955988
 20
466.94206011347728
 30
0.0
 11
451.3297505124271
 21
451.94206188311131
 31
0.0
  0
LINE
  5
181C2
  8
AM_0
 10
446.32994994955988
 20
466.94206011347728
 30
0.0
 11
446.32994994955988
 21
470.94206023268669
 31
0.0
  0
LINE
  5
181C3
  8
0
 10
454.32975049715873
 20
411.94206191738482
 30
0.0
 11
478.3297504971589
 21
411.94206184883819
 31
0.0
  0
LINE
  5
181C4
  8
0
 10
454.32975049715878
 20
411.94206188311148
 30
0.0
 11
454.32975049715878
 21
451.94206188311131
 31
0.0
  0
LINE
  5
181C5
  8
0
 10
478.3297504971589
 20
411.94206188311148
 30
0.0
 11
478.329750491146
 21
451.94206188311131
 31
0.0
  0
LINE
  5
181C6
  8
0
 10
470.32975052937809
 20
443.94206183981902
 30
0.0
 11
462.3297505293782
 21
443.94206183981879
 31
0.0
  0
LINE
  5
181C7
  8
AM_0
 10
470.32975052937809
 20
411.94206187168709
 30
0.0
 11
470.32975052937809
 21
443.94206183981902
 31
0.0
  0
LINE
  5
181C8
  8
AM_0
 10
462.3297505293782
 20
411.94206189453593
 30
0.0
 11
462.3297505293782
 21
443.94206183981902
 31
0.0
  0
ARC
  5
181C9
  8
AM_0
 10
466.32975052937809
 20
443.94206183981879
 30
0.0
 40
3.9999999999999432
 50
0.0000000000016355
 51
179.99999999999841
  0
CIRCLE
  5
181CA
  8
AM_0
 10
466.32975052937809
 20
253.9670138658098
 30
0.0
 40
3.399999999999999
  0
LINE
  5
181CB
  8
AM_0
 10
202.2192234143109
 20
335.46701488814801
 30
0.0
 11
205.41922341431089
 21
335.46701488814801
 31
0.0
  0
LINE
  5
181CC
  8
AM_0
 10
205.41922341431089
 20
329.21701488814801
 30
0.0
 11
209.0192234143108
 21
329.21701488814801
 31
0.0
  0
LINE
  5
181CD
  8
AM_0
 10
205.41922341431089
 20
329.21701488814801
 30
0.0
 11
205.41922341431101
 21
331.24681759048951
 31
0.0
  0
LINE
  5
181CE
  8
AM_0
 10
205.41922341431101
 20
334.69927827028948
 30
0.0
 11
205.41922341431089
 21
335.46701488814801
 31
0.0
  0
CIRCLE
  5
181CF
  8
AM_0
 10
207.2192234143109
 20
332.9730479303895
 30
0.0
 40
2.4939669577585151
  0
LINE
  5
181D0
  8
AM_0
 10
209.0192234143108
 20
335.46701488814801
 30
0.0
 11
212.2192234143109
 21
335.46701488814801
 31
0.0
  0
LINE
  5
181D1
  8
AM_0
 10
207.21922341431079
 20
330.47908097263092
 30
0.0
 11
209.01922341431111
 21
330.4790809726311
 31
0.0
  0
LINE
  5
181D2
  8
AM_0
 10
207.21922341431079
 20
335.46701488814801
 30
0.0
 11
209.01922341431111
 21
335.46701488814813
 31
0.0
  0
LINE
  5
181D3
  8
AM_0
 10
209.0192234143108
 20
329.21701488814801
 30
0.0
 11
209.0192234143108
 21
331.24681759048917
 31
0.0
  0
LINE
  5
181D4
  8
AM_0
 10
209.0192234143108
 20
334.6992782702896
 30
0.0
 11
209.0192234143108
 21
335.46701488814801
 31
0.0
  0
LINE
  5
181D5
  8
AM_0
 10
202.2192234143109
 20
332.35430049237237
 30
0.0
 11
202.2192234143109
 21
335.46701488814801
 31
0.0
  0
LINE
  5
181D6
  8
AM_0
 10
212.2192234143109
 20
335.46701488814801
 30
0.0
 11
229.06999922413669
 21
335.46701488814801
 31
0.0
  0
LINE
  5
181D7
  8
AM_0
 10
212.21922341431059
 20
332.35129432833429
 30
0.0
 11
212.2192234143109
 21
335.46701488814801
 31
0.0
  0
LINE
  5
181D8
  8
AM_0
 10
213.28297660915831
 20
330.47908097263092
 30
0.0
 11
221.18075779729679
 21
330.47908097263092
 31
0.0
  0
LINE
  5
181D9
  8
AM_0
 10
223.24816320942779
 20
330.47908097263092
 30
0.0
 11
228.21922341431079
 21
330.47908097263092
 31
0.0
  0
ARC
  5
181DA
  8
AM_0
 10
228.21922341431079
 20
305.47908097263092
 30
0.0
 40
29.999999999999989
 50
2.218358547043771
 51
88.374920016405966
1001
GENIUS_GENOBJ-N-FIL_13
1002
{
1000
OWNER
1000
GEN
1002
}
1001
GENIUS_GENODEF_13
1002
{
1000
HIER
1070
     0
1002
}
1002
{
1000
MANEDIT
1070
     0
1002
}
1002
{
1000
NOSEL
1070
     0
1002
}
1002
{
1000
BEHIND
1070
     0
1002
}
1002
{
1000
OTHER
1070
     0
1002
}
1002
{
1000
REACTOR
1002
}
  0
ARC
  5
181DB
  8
AM_0
 10
228.21922341431079
 20
305.47908097263092
 30
0.0
 40
25.0
 50
57.467847186513779
 51
90.0
1001
GENIUS_GENOBJ-N-FIL_13
1002
{
1000
OWNER
1000
GEN
1002
}
1001
GENIUS_GENODEF_13
1002
{
1000
HIER
1070
     0
1002
}
1002
{
1000
MANEDIT
1070
     0
1002
}
1002
{
1000
NOSEL
1070
     0
1002
}
1002
{
1000
BEHIND
1070
     0
1002
}
1002
{
1000
OTHER
1070
     0
1002
}
1002
{
1000
REACTOR
1002
}
  0
ARC
  5
181DC
  8
AM_0
 10
228.21922341431079
 20
305.47908097263092
 30
0.0
 40
25.0
 50
23.766519203098731
 51
53.155059700517981
1001
GENIUS_GENOBJ-N-FIL_13
1002
{
1000
OWNER
1000
GEN
1002
}
1001
GENIUS_GENODEF_13
1002
{
1000
HIER
1070
     0
1002
}
1002
{
1000
MANEDIT
1070
     0
1002
}
1002
{
1000
NOSEL
1070
     0
1002
}
1002
{
1000
BEHIND
1070
     0
1002
}
1002
{
1000
OTHER
1070
     0
1002
}
1002
{
1000
REACTOR
1002
}
  0
LINE
  5
181DD
  8
AM_0
 10
175.7595900629189
 20
166.46701386357199
 30
0.0
 11
238.55959006291849
 21
166.46701386357199
 31
0.0
  0
LINE
  5
181DE
  8
AM_0
 10
243.1595900629207
 20
179.46701386357179
 30
0.0
 11
171.15959006292061
 21
179.46701386357179
 31
0.0
  0
LINE
  5
181DF
  8
AM_0
 10
171.15959006291911
 20
183.46701386357191
 30
0.0
 11
201.65959006291919
 21
183.46701386357191
 31
0.0
  0
LINE
  5
181E0
  8
AM_0
 10
171.15959006292061
 20
195.03236771877769
 30
0.0
 11
171.15959006292061
 21
166.96701386357191
 31
0.0
  0
LINE
  5
181E1
  8
AM_0
 10
173.25959006291879
 20
178.0020138635721
 30
0.0
 11
173.25959006291879
 21
168.96701386357171
 31
0.0
  0
LINE
  5
181E2
  8
AM_0
 10
183.52943854390199
 20
179.46701386357179
 30
0.0
 11
183.52943854390199
 21
168.96701386356759
 31
0.0
  0
ARC
  5
181E3
  8
AM_0
 10
171.65959006291911
 20
166.96701386357191
 30
0.0
 40
0.5
 50
180.0
 51
270.0
  0
ARC
  5
181E4
  8
AM_0
 10
175.7595900629189
 20
168.96701386357171
 30
0.0
 40
2.4999999999999991
 50
180.0
 51
270.0
  0
LINE
  5
181E5
  8
AM_0
 10
171.65959006291911
 20
166.46701386357199
 30
0.0
 11
175.7595900629189
 21
166.46701386357199
 31
0.0
  0
POLYLINE
  5
181E6
  8
AM_0
 66
     1
 10
0.0
 20
0.0
 30
0.0
 70
     8
  0
VERTEX
  5
181E7
  8
AM_0
 10
183.52917525987601
 20
168.96696679849779
 30
0.0
 70
    32
  0
VERTEX
  5
181E8
  8
AM_0
 10
183.52917525987601
 20
168.96296679849789
 30
0.0
 70
    32
  0
VERTEX
  5
181E9
  8
AM_0
 10
183.52917525987601
 20
168.9589667984979
 30
0.0
 70
    32
  0
VERTEX
  5
181EA
  8
AM_0
 10
183.52917525987601
 20
168.9539667984979
 30
0.0
 70
    32
  0
VERTEX
  5
181EB
  8
AM_0
 10
183.52917525987601
 20
168.9499667984978
 30
0.0
 70
    32
  0
VERTEX
  5
181EC
  8
AM_0
 10
183.52917525987601
 20
168.94596679849801
 30
0.0
 70
    32
  0
VERTEX
  5
181ED
  8
AM_0
 10
183.52917525987601
 20
168.94096679849801
 30
0.0
 70
    32
  0
VERTEX
  5
181EE
  8
AM_0
 10
183.53017525987619
 20
168.9369667984981
 30
0.0
 70
    32
  0
VERTEX
  5
181EF
  8
AM_0
 10
183.53017525987619
 20
168.9329667984978
 30
0.0
 70
    32
  0
VERTEX
  5
181F0
  8
AM_0
 10
183.53017525987619
 20
168.92896679849781
 30
0.0
 70
    32
  0
VERTEX
  5
181F1
  8
AM_0
 10
183.53017525987619
 20
168.92396679849779
 30
0.0
 70
    32
  0
VERTEX
  5
181F2
  8
AM_0
 10
183.53017525987619
 20
168.91996679849751
 30
0.0
 70
    32
  0
VERTEX
  5
181F3
  8
AM_0
 10
183.53017525987619
 20
168.91596679849789
 30
0.0
 70
    32
  0
VERTEX
  5
181F4
  8
AM_0
 10
183.53017525987619
 20
168.9119667984977
 30
0.0
 70
    32
  0
VERTEX
  5
181F5
  8
AM_0
 10
183.53017525987619
 20
168.9069667984979
 30
0.0
 70
    32
  0
VERTEX
  5
181F6
  8
AM_0
 10
183.53017525987619
 20
168.9029667984978
 30
0.0
 70
    32
  0
VERTEX
  5
181F7
  8
AM_0
 10
183.53017525987619
 20
168.89896679849801
 30
0.0
 70
    32
  0
VERTEX
  5
181F8
  8
AM_0
 10
183.53017525987619
 20
168.8939667984977
 30
0.0
 70
    32
  0
VERTEX
  5
181F9
  8
AM_0
 10
183.53017525987619
 20
168.88996679849799
 30
0.0
 70
    32
  0
VERTEX
  5
181FA
  8
AM_0
 10
183.53017525987619
 20
168.88596679849769
 30
0.0
 70
    32
  0
VERTEX
  5
181FB
  8
AM_0
 10
183.53017525987619
 20
168.88196679849781
 30
0.0
 70
    32
  0
VERTEX
  5
181FC
  8
AM_0
 10
183.53017525987619
 20
168.8769667984979
 30
0.0
 70
    32
  0
VERTEX
  5
181FD
  8
AM_0
 10
183.53017525987619
 20
168.8729667984978
 30
0.0
 70
    32
  0
VERTEX
  5
181FE
  8
AM_0
 10
183.53017525987619
 20
168.86896679849781
 30
0.0
 70
    32
  0
VERTEX
  5
181FF
  8
AM_0
 10
183.53017525987619
 20
168.8649667984977
 30
0.0
 70
    32
  0
VERTEX
  5
18200
  8
AM_0
 10
183.53117525987611
 20
168.85996679849791
 30
0.0
 70
    32
  0
VERTEX
  5
18201
  8
AM_0
 10
183.53117525987611
 20
168.85596679849769
 30
0.0
 70
    32
  0
VERTEX
  5
18202
  8
AM_0
 10
183.53117525987611
 20
168.85196679849801
 30
0.0
 70
    32
  0
VERTEX
  5
18203
  8
AM_0
 10
183.53117525987611
 20
168.84796679849751
 30
0.0
 70
    32
  0
VERTEX
  5
18204
  8
AM_0
 10
183.53117525987611
 20
168.842966798498
 30
0.0
 70
    32
  0
VERTEX
  5
18205
  8
AM_0
 10
183.53117525987611
 20
168.83896679849769
 30
0.0
 70
    32
  0
VERTEX
  5
18206
  8
AM_0
 10
183.53117525987611
 20
168.8349667984977
 30
0.0
 70
    32
  0
VERTEX
  5
18207
  8
AM_0
 10
183.53117525987611
 20
168.82996679849791
 30
0.0
 70
    32
  0
VERTEX
  5
18208
  8
AM_0
 10
183.53117525987611
 20
168.8259667984978
 30
0.0
 70
    32
  0
VERTEX
  5
18209
  8
AM_0
 10
183.53117525987611
 20
168.82196679849781
 30
0.0
 70
    32
  0
VERTEX
  5
1820A
  8
AM_0
 10
183.53217525987631
 20
168.81796679849791
 30
0.0
 70
    32
  0
VERTEX
  5
1820B
  8
AM_0
 10
183.53217525987631
 20
168.81296679849791
 30
0.0
 70
    32
  0
VERTEX
  5
1820C
  8
AM_0
 10
183.53217525987631
 20
168.80896679849769
 30
0.0
 70
    32
  0
VERTEX
  5
1820D
  8
AM_0
 10
183.53217525987631
 20
168.8049667984979
 30
0.0
 70
    32
  0
VERTEX
  5
1820E
  8
AM_0
 10
183.53217525987631
 20
168.8009667984978
 30
0.0
 70
    32
  0
VERTEX
  5
1820F
  8
AM_0
 10
183.53217525987631
 20
168.795966798498
 30
0.0
 70
    32
  0
VERTEX
  5
18210
  8
AM_0
 10
183.53217525987631
 20
168.7919667984977
 30
0.0
 70
    32
  0
VERTEX
  5
18211
  8
AM_0
 10
183.53317525987609
 20
168.78796679849771
 30
0.0
 70
    32
  0
VERTEX
  5
18212
  8
AM_0
 10
183.53317525987609
 20
168.7839667984978
 30
0.0
 70
    32
  0
VERTEX
  5
18213
  8
AM_0
 10
183.53317525987609
 20
168.77896679849789
 30
0.0
 70
    32
  0
VERTEX
  5
18214
  8
AM_0
 10
183.53317525987609
 20
168.77496679849779
 30
0.0
 70
    32
  0
VERTEX
  5
18215
  8
AM_0
 10
183.53317525987609
 20
168.7709667984978
 30
0.0
 70
    32
  0
VERTEX
  5
18216
  8
AM_0
 10
183.53317525987609
 20
168.765966798498
 30
0.0
 70
    32
  0
VERTEX
  5
18217
  8
AM_0
 10
183.53317525987609
 20
168.7619667984977
 30
0.0
 70
    32
  0
VERTEX
  5
18218
  8
AM_0
 10
183.53417525987609
 20
168.7579667984977
 30
0.0
 70
    32
  0
VERTEX
  5
18219
  8
AM_0
 10
183.53417525987609
 20
168.75396679849811
 30
0.0
 70
    32
  0
VERTEX
  5
1821A
  8
AM_0
 10
183.53417525987609
 20
168.748966798498
 30
0.0
 70
    32
  0
VERTEX
  5
1821B
  8
AM_0
 10
183.53417525987609
 20
168.74496679849759
 30
0.0
 70
    32
  0
VERTEX
  5
1821C
  8
AM_0
 10
183.53417525987609
 20
168.74096679849791
 30
0.0
 70
    32
  0
VERTEX
  5
1821D
  8
AM_0
 10
183.53517525987621
 20
168.7369667984976
 30
0.0
 70
    32
  0
VERTEX
  5
1821E
  8
AM_0
 10
183.53517525987621
 20
168.73196679849789
 30
0.0
 70
    32
  0
VERTEX
  5
1821F
  8
AM_0
 10
183.53517525987621
 20
168.72796679849779
 30
0.0
 70
    32
  0
VERTEX
  5
18220
  8
AM_0
 10
183.53517525987621
 20
168.7239667984978
 30
0.0
 70
    32
  0
VERTEX
  5
18221
  8
AM_0
 10
183.53517525987621
 20
168.71996679849801
 30
0.0
 70
    32
  0
VERTEX
  5
18222
  8
AM_0
 10
183.53517525987621
 20
168.7149667984977
 30
0.0
 70
    32
  0
VERTEX
  5
18223
  8
AM_0
 10
183.53617525987579
 20
168.71096679849771
 30
0.0
 70
    32
  0
VERTEX
  5
18224
  8
AM_0
 10
183.53617525987579
 20
168.70696679849809
 30
0.0
 70
    32
  0
VERTEX
  5
18225
  8
AM_0
 10
183.53617525987579
 20
168.70296679849801
 30
0.0
 70
    32
  0
VERTEX
  5
18226
  8
AM_0
 10
183.53617525987579
 20
168.69796679849779
 30
0.0
 70
    32
  0
VERTEX
  5
18227
  8
AM_0
 10
183.53717525987599
 20
168.6939667984978
 30
0.0
 70
    32
  0
VERTEX
  5
18228
  8
AM_0
 10
183.53717525987599
 20
168.68996679849769
 30
0.0
 70
    32
  0
VERTEX
  5
18229
  8
AM_0
 10
183.53717525987599
 20
168.6849667984977
 30
0.0
 70
    32
  0
VERTEX
  5
1822A
  8
AM_0
 10
183.53717525987599
 20
168.68096679849771
 30
0.0
 70
    32
  0
VERTEX
  5
1822B
  8
AM_0
 10
183.53717525987599
 20
168.6769667984978
 30
0.0
 70
    32
  0
VERTEX
  5
1822C
  8
AM_0
 10
183.53817525987611
 20
168.6729667984977
 30
0.0
 70
    32
  0
VERTEX
  5
1822D
  8
AM_0
 10
183.53817525987611
 20
168.66796679849759
 30
0.0
 70
    32
  0
VERTEX
  5
1822E
  8
AM_0
 10
183.53817525987611
 20
168.66396679849791
 30
0.0
 70
    32
  0
VERTEX
  5
1822F
  8
AM_0
 10
183.53817525987611
 20
168.65996679849809
 30
0.0
 70
    32
  0
VERTEX
  5
18230
  8
AM_0
 10
183.53917525987589
 20
168.6559667984979
 30
0.0
 70
    32
  0
VERTEX
  5
18231
  8
AM_0
 10
183.53917525987589
 20
168.6509667984979
 30
0.0
 70
    32
  0
VERTEX
  5
18232
  8
AM_0
 10
183.53917525987589
 20
168.6469667984976
 30
0.0
 70
    32
  0
VERTEX
  5
18233
  8
AM_0
 10
183.54017525987601
 20
168.6429667984977
 30
0.0
 70
    32
  0
VERTEX
  5
18234
  8
AM_0
 10
183.54017525987601
 20
168.6389667984979
 30
0.0
 70
    32
  0
VERTEX
  5
18235
  8
AM_0
 10
183.54017525987601
 20
168.63396679849771
 30
0.0
 70
    32
  0
VERTEX
  5
18236
  8
AM_0
 10
183.54017525987601
 20
168.62996679849769
 30
0.0
 70
    32
  0
VERTEX
  5
18237
  8
AM_0
 10
183.54117525987621
 20
168.62596679849759
 30
0.0
 70
    32
  0
VERTEX
  5
18238
  8
AM_0
 10
183.54117525987621
 20
168.62196679849799
 30
0.0
 70
    32
  0
VERTEX
  5
18239
  8
AM_0
 10
183.54117525987621
 20
168.6169667984978
 30
0.0
 70
    32
  0
VERTEX
  5
1823A
  8
AM_0
 10
183.54117525987621
 20
168.61296679849789
 30
0.0
 70
    32
  0
VERTEX
  5
1823B
  8
AM_0
 10
183.5421752598763
 20
168.6089667984979
 30
0.0
 70
    32
  0
VERTEX
  5
1823C
  8
AM_0
 10
183.5421752598763
 20
168.6049667984978
 30
0.0
 70
    32
  0
VERTEX
  5
1823D
  8
AM_0
 10
183.5421752598763
 20
168.5999667984976
 30
0.0
 70
    32
  0
VERTEX
  5
1823E
  8
AM_0
 10
183.54317525987611
 20
168.59596679849801
 30
0.0
 70
    32
  0
VERTEX
  5
1823F
  8
AM_0
 10
183.54317525987611
 20
168.59196679849791
 30
0.0
 70
    32
  0
VERTEX
  5
18240
  8
AM_0
 10
183.54317525987611
 20
168.58696679849771
 30
0.0
 70
    32
  0
VERTEX
  5
18241
  8
AM_0
 10
183.54417525987611
 20
168.58296679849769
 30
0.0
 70
    32
  0
VERTEX
  5
18242
  8
AM_0
 10
183.54417525987611
 20
168.57896679849759
 30
0.0
 70
    32
  0
VERTEX
  5
18243
  8
AM_0
 10
183.54417525987611
 20
168.5749667984978
 30
0.0
 70
    32
  0
VERTEX
  5
18244
  8
AM_0
 10
183.5451752598758
 20
168.5699667984976
 30
0.0
 70
    32
  0
VERTEX
  5
18245
  8
AM_0
 10
183.5451752598758
 20
168.56596679849801
 30
0.0
 70
    32
  0
VERTEX
  5
18246
  8
AM_0
 10
183.5451752598758
 20
168.5619667984981
 30
0.0
 70
    32
  0
VERTEX
  5
18247
  8
AM_0
 10
183.54617525987589
 20
168.55796679849769
 30
0.0
 70
    32
  0
VERTEX
  5
18248
  8
AM_0
 10
183.54617525987589
 20
168.55296679849781
 30
0.0
 70
    32
  0
VERTEX
  5
18249
  8
AM_0
 10
183.54617525987589
 20
168.5489667984979
 30
0.0
 70
    32
  0
VERTEX
  5
1824A
  8
AM_0
 10
183.54717525987601
 20
168.5449667984978
 30
0.0
 70
    32
  0
VERTEX
  5
1824B
  8
AM_0
 10
183.54717525987601
 20
168.54096679849789
 30
0.0
 70
    32
  0
VERTEX
  5
1824C
  8
AM_0
 10
183.54717525987601
 20
168.5359667984977
 30
0.0
 70
    32
  0
VERTEX
  5
1824D
  8
AM_0
 10
183.5481752598761
 20
168.53196679849759
 30
0.0
 70
    32
  0
VERTEX
  5
1824E
  8
AM_0
 10
183.5481752598761
 20
168.52796679849791
 30
0.0
 70
    32
  0
VERTEX
  5
1824F
  8
AM_0
 10
183.54917525987599
 20
168.52396679849801
 30
0.0
 70
    32
  0
VERTEX
  5
18250
  8
AM_0
 10
183.54917525987599
 20
168.51896679849801
 30
0.0
 70
    32
  0
VERTEX
  5
18251
  8
AM_0
 10
183.54917525987599
 20
168.51496679849799
 30
0.0
 70
    32
  0
VERTEX
  5
18252
  8
AM_0
 10
183.55017525987611
 20
168.51096679849789
 30
0.0
 70
    32
  0
VERTEX
  5
18253
  8
AM_0
 10
183.55017525987611
 20
168.5069667984979
 30
0.0
 70
    32
  0
VERTEX
  5
18254
  8
AM_0
 10
183.5511752598762
 20
168.50196679849759
 30
0.0
 70
    32
  0
VERTEX
  5
18255
  8
AM_0
 10
183.5511752598762
 20
168.497966798498
 30
0.0
 70
    32
  0
VERTEX
  5
18256
  8
AM_0
 10
183.5511752598762
 20
168.49396679849781
 30
0.0
 70
    32
  0
VERTEX
  5
18257
  8
AM_0
 10
183.55217525987621
 20
168.4899667984977
 30
0.0
 70
    32
  0
VERTEX
  5
18258
  8
AM_0
 10
183.55217525987621
 20
168.48496679849771
 30
0.0
 70
    32
  0
VERTEX
  5
18259
  8
AM_0
 10
183.5531752598761
 20
168.48096679849789
 30
0.0
 70
    32
  0
VERTEX
  5
1825A
  8
AM_0
 10
183.5531752598761
 20
168.47696679849801
 30
0.0
 70
    32
  0
VERTEX
  5
1825B
  8
AM_0
 10
183.55417525987599
 20
168.47296679849779
 30
0.0
 70
    32
  0
VERTEX
  5
1825C
  8
AM_0
 10
183.55417525987599
 20
168.467966798498
 30
0.0
 70
    32
  0
VERTEX
  5
1825D
  8
AM_0
 10
183.55417525987599
 20
168.46396679849789
 30
0.0
 70
    32
  0
VERTEX
  5
1825E
  8
AM_0
 10
183.55517525987611
 20
168.4599667984977
 30
0.0
 70
    32
  0
VERTEX
  5
1825F
  8
AM_0
 10
183.55517525987611
 20
168.4559667984978
 30
0.0
 70
    32
  0
VERTEX
  5
18260
  8
AM_0
 10
183.556175259876
 20
168.450966798498
 30
0.0
 70
    32
  0
VERTEX
  5
18261
  8
AM_0
 10
183.556175259876
 20
168.44696679849761
 30
0.0
 70
    32
  0
VERTEX
  5
18262
  8
AM_0
 10
183.557175259876
 20
168.44296679849791
 30
0.0
 70
    32
  0
VERTEX
  5
18263
  8
AM_0
 10
183.557175259876
 20
168.43896679849809
 30
0.0
 70
    32
  0
VERTEX
  5
18264
  8
AM_0
 10
183.55817525987609
 20
168.4349667984979
 30
0.0
 70
    32
  0
VERTEX
  5
18265
  8
AM_0
 10
183.55817525987609
 20
168.4299667984979
 30
0.0
 70
    32
  0
VERTEX
  5
18266
  8
AM_0
 10
183.5591752598763
 20
168.4259667984976
 30
0.0
 70
    32
  0
VERTEX
  5
18267
  8
AM_0
 10
183.5591752598763
 20
168.42196679849769
 30
0.0
 70
    32
  0
VERTEX
  5
18268
  8
AM_0
 10
183.56017525987619
 20
168.4179667984979
 30
0.0
 70
    32
  0
VERTEX
  5
18269
  8
AM_0
 10
183.56017525987619
 20
168.41296679849771
 30
0.0
 70
    32
  0
VERTEX
  5
1826A
  8
AM_0
 10
183.56117525987639
 20
168.40896679849769
 30
0.0
 70
    32
  0
VERTEX
  5
1826B
  8
AM_0
 10
183.56117525987639
 20
168.40496679849781
 30
0.0
 70
    32
  0
VERTEX
  5
1826C
  8
AM_0
 10
183.56217525987611
 20
168.40096679849799
 30
0.0
 70
    32
  0
VERTEX
  5
1826D
  8
AM_0
 10
183.56217525987611
 20
168.3959667984978
 30
0.0
 70
    32
  0
VERTEX
  5
1826E
  8
AM_0
 10
183.56317525987589
 20
168.39196679849769
 30
0.0
 70
    32
  0
VERTEX
  5
1826F
  8
AM_0
 10
183.56317525987589
 20
168.3879667984979
 30
0.0
 70
    32
  0
VERTEX
  5
18270
  8
AM_0
 10
183.56417525987609
 20
168.3839667984978
 30
0.0
 70
    32
  0
VERTEX
  5
18271
  8
AM_0
 10
183.56417525987609
 20
168.37896679849811
 30
0.0
 70
    32
  0
VERTEX
  5
18272
  8
AM_0
 10
183.56517525987621
 20
168.37496679849781
 30
0.0
 70
    32
  0
VERTEX
  5
18273
  8
AM_0
 10
183.56517525987621
 20
168.37096679849779
 30
0.0
 70
    32
  0
VERTEX
  5
18274
  8
AM_0
 10
183.56617525987599
 20
168.36696679849771
 30
0.0
 70
    32
  0
VERTEX
  5
18275
  8
AM_0
 10
183.56617525987599
 20
168.36196679849769
 30
0.0
 70
    32
  0
VERTEX
  5
18276
  8
AM_0
 10
183.567175259876
 20
168.3579667984979
 30
0.0
 70
    32
  0
VERTEX
  5
18277
  8
AM_0
 10
183.567175259876
 20
168.35396679849779
 30
0.0
 70
    32
  0
VERTEX
  5
18278
  8
AM_0
 10
183.56817525987611
 20
168.3499667984978
 30
0.0
 70
    32
  0
VERTEX
  5
18279
  8
AM_0
 10
183.56817525987611
 20
168.3459667984979
 30
0.0
 70
    32
  0
VERTEX
  5
1827A
  8
AM_0
 10
183.56917525987589
 20
168.3409667984981
 30
0.0
 70
    32
  0
VERTEX
  5
1827B
  8
AM_0
 10
183.57017525987621
 20
168.33696679849771
 30
0.0
 70
    32
  0
VERTEX
  5
1827C
  8
AM_0
 10
183.57017525987621
 20
168.33296679849781
 30
0.0
 70
    32
  0
VERTEX
  5
1827D
  8
AM_0
 10
183.5711752598761
 20
168.32896679849759
 30
0.0
 70
    32
  0
VERTEX
  5
1827E
  8
AM_0
 10
183.5711752598761
 20
168.32396679849799
 30
0.0
 70
    32
  0
VERTEX
  5
1827F
  8
AM_0
 10
183.5721752598761
 20
168.31996679849789
 30
0.0
 70
    32
  0
VERTEX
  5
18280
  8
AM_0
 10
183.5721752598761
 20
168.3159667984977
 30
0.0
 70
    32
  0
VERTEX
  5
18281
  8
AM_0
 10
183.57317525987611
 20
168.31196679849779
 30
0.0
 70
    32
  0
VERTEX
  5
18282
  8
AM_0
 10
183.57417525987611
 20
168.3069667984978
 30
0.0
 70
    32
  0
VERTEX
  5
18283
  8
AM_0
 10
183.57417525987611
 20
168.30296679849801
 30
0.0
 70
    32
  0
VERTEX
  5
18284
  8
AM_0
 10
183.5751752598762
 20
168.29896679849779
 30
0.0
 70
    32
  0
VERTEX
  5
18285
  8
AM_0
 10
183.5751752598762
 20
168.29496679849771
 30
0.0
 70
    32
  0
VERTEX
  5
18286
  8
AM_0
 10
183.57617525987601
 20
168.29096679849789
 30
0.0
 70
    32
  0
VERTEX
  5
18287
  8
AM_0
 10
183.5771752598759
 20
168.2859667984979
 30
0.0
 70
    32
  0
VERTEX
  5
18288
  8
AM_0
 10
183.5771752598759
 20
168.28196679849759
 30
0.0
 70
    32
  0
VERTEX
  5
18289
  8
AM_0
 10
183.5781752598761
 20
168.277966798498
 30
0.0
 70
    32
  0
VERTEX
  5
1828A
  8
AM_0
 10
183.5781752598761
 20
168.27396679849801
 30
0.0
 70
    32
  0
VERTEX
  5
1828B
  8
AM_0
 10
183.57917525987631
 20
168.2689667984977
 30
0.0
 70
    32
  0
VERTEX
  5
1828C
  8
AM_0
 10
183.58017525987611
 20
168.26496679849771
 30
0.0
 70
    32
  0
VERTEX
  5
1828D
  8
AM_0
 10
183.58017525987611
 20
168.260966798498
 30
0.0
 70
    32
  0
VERTEX
  5
1828E
  8
AM_0
 10
183.58117525987601
 20
168.25696679849781
 30
0.0
 70
    32
  0
VERTEX
  5
1828F
  8
AM_0
 10
183.58217525987621
 20
168.25296679849791
 30
0.0
 70
    32
  0
VERTEX
  5
18290
  8
AM_0
 10
183.58217525987621
 20
168.24796679849771
 30
0.0
 70
    32
  0
VERTEX
  5
18291
  8
AM_0
 10
183.5831752598761
 20
168.24396679849789
 30
0.0
 70
    32
  0
VERTEX
  5
18292
  8
AM_0
 10
183.5831752598761
 20
168.2399667984979
 30
0.0
 70
    32
  0
VERTEX
  5
18293
  8
AM_0
 10
183.5841752598763
 20
168.235966798498
 30
0.0
 70
    32
  0
VERTEX
  5
18294
  8
AM_0
 10
183.58517525987611
 20
168.230966798498
 30
0.0
 70
    32
  0
VERTEX
  5
18295
  8
AM_0
 10
183.58517525987611
 20
168.22696679849801
 30
0.0
 70
    32
  0
VERTEX
  5
18296
  8
AM_0
 10
183.58617525987589
 20
168.22296679849791
 30
0.0
 70
    32
  0
VERTEX
  5
18297
  8
AM_0
 10
183.58717525987601
 20
168.2189667984976
 30
0.0
 70
    32
  0
VERTEX
  5
18298
  8
AM_0
 10
183.58717525987601
 20
168.21496679849781
 30
0.0
 70
    32
  0
VERTEX
  5
18299
  8
AM_0
 10
183.58817525987621
 20
168.20996679849799
 30
0.0
 70
    32
  0
VERTEX
  5
1829A
  8
AM_0
 10
183.5891752598763
 20
168.20596679849771
 30
0.0
 70
    32
  0
VERTEX
  5
1829B
  8
AM_0
 10
183.5891752598763
 20
168.20196679849789
 30
0.0
 70
    32
  0
VERTEX
  5
1829C
  8
AM_0
 10
183.59017525987591
 20
168.1979667984981
 30
0.0
 70
    32
  0
VERTEX
  5
1829D
  8
AM_0
 10
183.59117525987611
 20
168.19296679849771
 30
0.0
 70
    32
  0
VERTEX
  5
1829E
  8
AM_0
 10
183.59117525987611
 20
168.188966798498
 30
0.0
 70
    32
  0
VERTEX
  5
1829F
  8
AM_0
 10
183.59217525987609
 20
168.1849667984977
 30
0.0
 70
    32
  0
VERTEX
  5
182A0
  8
AM_0
 10
183.59317525987589
 20
168.18096679849771
 30
0.0
 70
    32
  0
VERTEX
  5
182A1
  8
AM_0
 10
183.59417525987601
 20
168.1769667984976
 30
0.0
 70
    32
  0
VERTEX
  5
182A2
  8
AM_0
 10
183.59417525987601
 20
168.17196679849769
 30
0.0
 70
    32
  0
VERTEX
  5
182A3
  8
AM_0
 10
183.59517525987579
 20
168.16796679849779
 30
0.0
 70
    32
  0
VERTEX
  5
182A4
  8
AM_0
 10
183.59617525987599
 20
168.1639667984978
 30
0.0
 70
    32
  0
VERTEX
  5
182A5
  8
AM_0
 10
183.59617525987599
 20
168.159966798498
 30
0.0
 70
    32
  0
VERTEX
  5
182A6
  8
AM_0
 10
183.59717525987611
 20
168.1559667984977
 30
0.0
 70
    32
  0
VERTEX
  5
182A7
  8
AM_0
 10
183.5981752598762
 20
168.1509667984981
 30
0.0
 70
    32
  0
VERTEX
  5
182A8
  8
AM_0
 10
183.59917525987589
 20
168.14696679849791
 30
0.0
 70
    32
  0
VERTEX
  5
182A9
  8
AM_0
 10
183.59917525987589
 20
168.14296679849781
 30
0.0
 70
    32
  0
VERTEX
  5
182AA
  8
AM_0
 10
183.6001752598761
 20
168.13896679849771
 30
0.0
 70
    32
  0
VERTEX
  5
182AB
  8
AM_0
 10
183.6011752598761
 20
168.13496679849791
 30
0.0
 70
    32
  0
VERTEX
  5
182AC
  8
AM_0
 10
183.60217525987611
 20
168.12996679849789
 30
0.0
 70
    32
  0
VERTEX
  5
182AD
  8
AM_0
 10
183.60217525987611
 20
168.1259667984977
 30
0.0
 70
    32
  0
VERTEX
  5
182AE
  8
AM_0
 10
183.60317525987611
 20
168.12196679849791
 30
0.0
 70
    32
  0
VERTEX
  5
182AF
  8
AM_0
 10
183.60417525987589
 20
168.1179667984978
 30
0.0
 70
    32
  0
VERTEX
  5
182B0
  8
AM_0
 10
183.60517525987609
 20
168.1139667984977
 30
0.0
 70
    32
  0
VERTEX
  5
182B1
  8
AM_0
 10
183.60517525987609
 20
168.1089667984977
 30
0.0
 70
    32
  0
VERTEX
  5
182B2
  8
AM_0
 10
183.60617525987621
 20
168.10496679849791
 30
0.0
 70
    32
  0
VERTEX
  5
182B3
  8
AM_0
 10
183.60717525987599
 20
168.10096679849769
 30
0.0
 70
    32
  0
VERTEX
  5
182B4
  8
AM_0
 10
183.60817525987599
 20
168.09696679849779
 30
0.0
 70
    32
  0
VERTEX
  5
182B5
  8
AM_0
 10
183.60817525987599
 20
168.092966798498
 30
0.0
 70
    32
  0
VERTEX
  5
182B6
  8
AM_0
 10
183.60917525987631
 20
168.0879667984978
 30
0.0
 70
    32
  0
VERTEX
  5
182B7
  8
AM_0
 10
183.61017525987609
 20
168.0839667984979
 30
0.0
 70
    32
  0
VERTEX
  5
182B8
  8
AM_0
 10
183.61117525987609
 20
168.07996679849791
 30
0.0
 70
    32
  0
VERTEX
  5
182B9
  8
AM_0
 10
183.61217525987621
 20
168.0759667984978
 30
0.0
 70
    32
  0
VERTEX
  5
182BA
  8
AM_0
 10
183.61217525987621
 20
168.07196679849761
 30
0.0
 70
    32
  0
VERTEX
  5
182BB
  8
AM_0
 10
183.61317525987579
 20
168.06696679849799
 30
0.0
 70
    32
  0
VERTEX
  5
182BC
  8
AM_0
 10
183.61417525987599
 20
168.06296679849771
 30
0.0
 70
    32
  0
VERTEX
  5
182BD
  8
AM_0
 10
183.61517525987611
 20
168.05896679849769
 30
0.0
 70
    32
  0
VERTEX
  5
182BE
  8
AM_0
 10
183.61617525987589
 20
168.0549667984979
 30
0.0
 70
    32
  0
VERTEX
  5
182BF
  8
AM_0
 10
183.61617525987589
 20
168.0509667984976
 30
0.0
 70
    32
  0
VERTEX
  5
182C0
  8
AM_0
 10
183.61717525987601
 20
168.0459667984978
 30
0.0
 70
    32
  0
VERTEX
  5
182C1
  8
AM_0
 10
183.6181752598761
 20
168.04196679849781
 30
0.0
 70
    32
  0
VERTEX
  5
182C2
  8
AM_0
 10
183.6191752598763
 20
168.03796679849771
 30
0.0
 70
    32
  0
VERTEX
  5
182C3
  8
AM_0
 10
183.62017525987611
 20
168.0339667984978
 30
0.0
 70
    32
  0
VERTEX
  5
182C4
  8
AM_0
 10
183.62117525987611
 20
168.0299667984979
 30
0.0
 70
    32
  0
VERTEX
  5
182C5
  8
AM_0
 10
183.62117525987611
 20
168.02596679849799
 30
0.0
 70
    32
  0
VERTEX
  5
182C6
  8
AM_0
 10
183.6221752598758
 20
168.02096679849771
 30
0.0
 70
    32
  0
VERTEX
  5
182C7
  8
AM_0
 10
183.62317525987601
 20
168.016966798498
 30
0.0
 70
    32
  0
VERTEX
  5
182C8
  8
AM_0
 10
183.62417525987621
 20
168.01296679849759
 30
0.0
 70
    32
  0
VERTEX
  5
182C9
  8
AM_0
 10
183.6251752598761
 20
168.0089667984978
 30
0.0
 70
    32
  0
VERTEX
  5
182CA
  8
AM_0
 10
183.62617525987611
 20
168.0049667984978
 30
0.0
 70
    32
  0
VERTEX
  5
182CB
  8
AM_0
 10
183.62717525987611
 20
167.99996679849781
 30
0.0
 70
    32
  0
VERTEX
  5
182CC
  8
AM_0
 10
183.62717525987611
 20
167.9959667984979
 30
0.0
 70
    32
  0
VERTEX
  5
182CD
  8
AM_0
 10
183.62817525987609
 20
167.99196679849771
 30
0.0
 70
    32
  0
VERTEX
  5
182CE
  8
AM_0
 10
183.62917525987621
 20
167.98796679849781
 30
0.0
 70
    32
  0
VERTEX
  5
182CF
  8
AM_0
 10
183.6301752598761
 20
167.98396679849779
 30
0.0
 70
    32
  0
VERTEX
  5
182D0
  8
AM_0
 10
183.63117525987599
 20
167.979966798498
 30
0.0
 70
    32
  0
VERTEX
  5
182D1
  8
AM_0
 10
183.63217525987611
 20
167.9749667984978
 30
0.0
 70
    32
  0
VERTEX
  5
182D2
  8
AM_0
 10
183.633175259876
 20
167.9709667984977
 30
0.0
 70
    32
  0
VERTEX
  5
182D3
  8
AM_0
 10
183.634175259876
 20
167.96696679849771
 30
0.0
 70
    32
  0
VERTEX
  5
182D4
  8
AM_0
 10
183.63517525987609
 20
167.962966798498
 30
0.0
 70
    32
  0
VERTEX
  5
182D5
  8
AM_0
 10
183.63517525987609
 20
167.95896679849781
 30
0.0
 70
    32
  0
VERTEX
  5
182D6
  8
AM_0
 10
183.63617525987561
 20
167.95496679849791
 30
0.0
 70
    32
  0
VERTEX
  5
182D7
  8
AM_0
 10
183.63717525987619
 20
167.94996679849771
 30
0.0
 70
    32
  0
VERTEX
  5
182D8
  8
AM_0
 10
183.63817525987611
 20
167.94596679849761
 30
0.0
 70
    32
  0
VERTEX
  5
182D9
  8
AM_0
 10
183.63917525987611
 20
167.9419667984979
 30
0.0
 70
    32
  0
VERTEX
  5
182DA
  8
AM_0
 10
183.6401752598758
 20
167.9379667984976
 30
0.0
 70
    32
  0
VERTEX
  5
182DB
  8
AM_0
 10
183.64117525987609
 20
167.93396679849781
 30
0.0
 70
    32
  0
VERTEX
  5
182DC
  8
AM_0
 10
183.6421752598761
 20
167.92996679849799
 30
0.0
 70
    32
  0
VERTEX
  5
182DD
  8
AM_0
 10
183.64317525987599
 20
167.92496679849791
 30
0.0
 70
    32
  0
VERTEX
  5
182DE
  8
AM_0
 10
183.64417525987599
 20
167.92096679849769
 30
0.0
 70
    32
  0
VERTEX
  5
182DF
  8
AM_0
 10
183.64517525987571
 20
167.91696679849781
 30
0.0
 70
    32
  0
VERTEX
  5
182E0
  8
AM_0
 10
183.64617525987629
 20
167.91296679849771
 30
0.0
 70
    32
  0
VERTEX
  5
182E1
  8
AM_0
 10
183.64717525987609
 20
167.90896679849769
 30
0.0
 70
    32
  0
VERTEX
  5
182E2
  8
AM_0
 10
183.6481752598761
 20
167.9049667984979
 30
0.0
 70
    32
  0
VERTEX
  5
182E3
  8
AM_0
 10
183.6491752598761
 20
167.8999667984977
 30
0.0
 70
    32
  0
VERTEX
  5
182E4
  8
AM_0
 10
183.65017525987611
 20
167.8959667984978
 30
0.0
 70
    32
  0
VERTEX
  5
182E5
  8
AM_0
 10
183.65117525987611
 20
167.891966798498
 30
0.0
 70
    32
  0
VERTEX
  5
182E6
  8
AM_0
 10
183.6521752598762
 20
167.8879667984977
 30
0.0
 70
    32
  0
VERTEX
  5
182E7
  8
AM_0
 10
183.65317525987601
 20
167.88396679849791
 30
0.0
 70
    32
  0
VERTEX
  5
182E8
  8
AM_0
 10
183.6541752598759
 20
167.87996679849769
 30
0.0
 70
    32
  0
VERTEX
  5
182E9
  8
AM_0
 10
183.65517525987619
 20
167.87596679849781
 30
0.0
 70
    32
  0
VERTEX
  5
182EA
  8
AM_0
 10
183.65617525987631
 20
167.87096679849759
 30
0.0
 70
    32
  0
VERTEX
  5
182EB
  8
AM_0
 10
183.65717525987611
 20
167.8669667984978
 30
0.0
 70
    32
  0
VERTEX
  5
182EC
  8
AM_0
 10
183.65817525987589
 20
167.86296679849769
 30
0.0
 70
    32
  0
VERTEX
  5
182ED
  8
AM_0
 10
183.65917525987621
 20
167.8589667984979
 30
0.0
 70
    32
  0
VERTEX
  5
182EE
  8
AM_0
 10
183.6601752598761
 20
167.8549667984978
 30
0.0
 70
    32
  0
VERTEX
  5
182EF
  8
AM_0
 10
183.6611752598761
 20
167.85096679849781
 30
0.0
 70
    32
  0
VERTEX
  5
182F0
  8
AM_0
 10
183.66217525987611
 20
167.84596679849761
 30
0.0
 70
    32
  0
VERTEX
  5
182F1
  8
AM_0
 10
183.6631752598758
 20
167.84196679849791
 30
0.0
 70
    32
  0
VERTEX
  5
182F2
  8
AM_0
 10
183.664175259876
 20
167.83796679849789
 30
0.0
 70
    32
  0
VERTEX
  5
182F3
  8
AM_0
 10
183.66517525987609
 20
167.8339667984979
 30
0.0
 70
    32
  0
VERTEX
  5
182F4
  8
AM_0
 10
183.6661752598763
 20
167.82996679849779
 30
0.0
 70
    32
  0
VERTEX
  5
182F5
  8
AM_0
 10
183.6671752598759
 20
167.82596679849769
 30
0.0
 70
    32
  0
VERTEX
  5
182F6
  8
AM_0
 10
183.66817525987611
 20
167.8219667984979
 30
0.0
 70
    32
  0
VERTEX
  5
182F7
  8
AM_0
 10
183.6691752598762
 20
167.81796679849771
 30
0.0
 70
    32
  0
VERTEX
  5
182F8
  8
AM_0
 10
183.67017525987609
 20
167.81296679849771
 30
0.0
 70
    32
  0
VERTEX
  5
182F9
  8
AM_0
 10
183.67117525987589
 20
167.80896679849781
 30
0.0
 70
    32
  0
VERTEX
  5
182FA
  8
AM_0
 10
183.67217525987579
 20
167.80496679849799
 30
0.0
 70
    32
  0
VERTEX
  5
182FB
  8
AM_0
 10
183.67417525987599
 20
167.8009667984978
 30
0.0
 70
    32
  0
VERTEX
  5
182FC
  8
AM_0
 10
183.67517525987611
 20
167.79696679849769
 30
0.0
 70
    32
  0
VERTEX
  5
182FD
  8
AM_0
 10
183.67617525987589
 20
167.79296679849779
 30
0.0
 70
    32
  0
VERTEX
  5
182FE
  8
AM_0
 10
183.67717525987609
 20
167.7889667984976
 30
0.0
 70
    32
  0
VERTEX
  5
182FF
  8
AM_0
 10
183.6781752598761
 20
167.784966798498
 30
0.0
 70
    32
  0
VERTEX
  5
18300
  8
AM_0
 10
183.6791752598761
 20
167.7799667984977
 30
0.0
 70
    32
  0
VERTEX
  5
18301
  8
AM_0
 10
183.68017525987611
 20
167.7759667984979
 30
0.0
 70
    32
  0
VERTEX
  5
18302
  8
AM_0
 10
183.68117525987591
 20
167.7719667984976
 30
0.0
 70
    32
  0
VERTEX
  5
18303
  8
AM_0
 10
183.68217525987609
 20
167.76796679849781
 30
0.0
 70
    32
  0
VERTEX
  5
18304
  8
AM_0
 10
183.68417525987621
 20
167.76396679849779
 30
0.0
 70
    32
  0
VERTEX
  5
18305
  8
AM_0
 10
183.6851752598761
 20
167.75996679849769
 30
0.0
 70
    32
  0
VERTEX
  5
18306
  8
AM_0
 10
183.68617525987611
 20
167.75596679849809
 30
0.0
 70
    32
  0
VERTEX
  5
18307
  8
AM_0
 10
183.687175259876
 20
167.7519667984979
 30
0.0
 70
    32
  0
VERTEX
  5
18308
  8
AM_0
 10
183.68817525987629
 20
167.74696679849791
 30
0.0
 70
    32
  0
VERTEX
  5
18309
  8
AM_0
 10
183.68917525987609
 20
167.7429667984976
 30
0.0
 70
    32
  0
VERTEX
  5
1830A
  8
AM_0
 10
183.69017525987579
 20
167.73896679849801
 30
0.0
 70
    32
  0
VERTEX
  5
1830B
  8
AM_0
 10
183.69217525987611
 20
167.73496679849791
 30
0.0
 70
    32
  0
VERTEX
  5
1830C
  8
AM_0
 10
183.69317525987631
 20
167.73096679849769
 30
0.0
 70
    32
  0
VERTEX
  5
1830D
  8
AM_0
 10
183.69417525987589
 20
167.72696679849801
 30
0.0
 70
    32
  0
VERTEX
  5
1830E
  8
AM_0
 10
183.69517525987609
 20
167.72296679849779
 30
0.0
 70
    32
  0
VERTEX
  5
1830F
  8
AM_0
 10
183.69617525987621
 20
167.718966798498
 30
0.0
 70
    32
  0
VERTEX
  5
18310
  8
AM_0
 10
183.6971752598761
 20
167.7149667984975
 30
0.0
 70
    32
  0
VERTEX
  5
18311
  8
AM_0
 10
183.6991752598758
 20
167.71096679849779
 30
0.0
 70
    32
  0
VERTEX
  5
18312
  8
AM_0
 10
183.700175259876
 20
167.7059667984978
 30
0.0
 70
    32
  0
VERTEX
  5
18313
  8
AM_0
 10
183.70117525987601
 20
167.70196679849761
 30
0.0
 70
    32
  0
VERTEX
  5
18314
  8
AM_0
 10
183.7021752598761
 20
167.69796679849799
 30
0.0
 70
    32
  0
VERTEX
  5
18315
  8
AM_0
 10
183.70317525987599
 20
167.69396679849771
 30
0.0
 70
    32
  0
VERTEX
  5
18316
  8
AM_0
 10
183.70517525987611
 20
167.68996679849781
 30
0.0
 70
    32
  0
VERTEX
  5
18317
  8
AM_0
 10
183.7061752598762
 20
167.68596679849779
 30
0.0
 70
    32
  0
VERTEX
  5
18318
  8
AM_0
 10
183.7071752598761
 20
167.68196679849771
 30
0.0
 70
    32
  0
VERTEX
  5
18319
  8
AM_0
 10
183.70817525987599
 20
167.67796679849769
 30
0.0
 70
    32
  0
VERTEX
  5
1831A
  8
AM_0
 10
183.710175259876
 20
167.6739667984979
 30
0.0
 70
    32
  0
VERTEX
  5
1831B
  8
AM_0
 10
183.711175259876
 20
167.6699667984978
 30
0.0
 70
    32
  0
VERTEX
  5
1831C
  8
AM_0
 10
183.71217525987609
 20
167.66596679849781
 30
0.0
 70
    32
  0
VERTEX
  5
1831D
  8
AM_0
 10
183.71317525987629
 20
167.66096679849781
 30
0.0
 70
    32
  0
VERTEX
  5
1831E
  8
AM_0
 10
183.71517525987619
 20
167.6569667984979
 30
0.0
 70
    32
  0
VERTEX
  5
1831F
  8
AM_0
 10
183.7161752598762
 20
167.65296679849769
 30
0.0
 70
    32
  0
VERTEX
  5
18320
  8
AM_0
 10
183.71717525987589
 20
167.64896679849809
 30
0.0
 70
    32
  0
VERTEX
  5
18321
  8
AM_0
 10
183.71817525987609
 20
167.64496679849799
 30
0.0
 70
    32
  0
VERTEX
  5
18322
  8
AM_0
 10
183.72017525987599
 20
167.640966798498
 30
0.0
 70
    32
  0
VERTEX
  5
18323
  8
AM_0
 10
183.72117525987599
 20
167.63696679849789
 30
0.0
 70
    32
  0
VERTEX
  5
18324
  8
AM_0
 10
183.72217525987611
 20
167.6329667984977
 30
0.0
 70
    32
  0
VERTEX
  5
18325
  8
AM_0
 10
183.72317525987631
 20
167.628966798498
 30
0.0
 70
    32
  0
VERTEX
  5
18326
  8
AM_0
 10
183.7251752598761
 20
167.62496679849781
 30
0.0
 70
    32
  0
VERTEX
  5
18327
  8
AM_0
 10
183.7261752598761
 20
167.6209667984977
 30
0.0
 70
    32
  0
VERTEX
  5
18328
  8
AM_0
 10
183.72717525987611
 20
167.61696679849791
 30
0.0
 70
    32
  0
VERTEX
  5
18329
  8
AM_0
 10
183.7291752598762
 20
167.61296679849789
 30
0.0
 70
    32
  0
VERTEX
  5
1832A
  8
AM_0
 10
183.73017525987601
 20
167.6079667984979
 30
0.0
 70
    32
  0
VERTEX
  5
1832B
  8
AM_0
 10
183.7311752598759
 20
167.60396679849779
 30
0.0
 70
    32
  0
VERTEX
  5
1832C
  8
AM_0
 10
183.7331752598763
 20
167.59996679849769
 30
0.0
 70
    32
  0
VERTEX
  5
1832D
  8
AM_0
 10
183.73417525987611
 20
167.5959667984979
 30
0.0
 70
    32
  0
VERTEX
  5
1832E
  8
AM_0
 10
183.73517525987589
 20
167.59196679849771
 30
0.0
 70
    32
  0
VERTEX
  5
1832F
  8
AM_0
 10
183.7371752598761
 20
167.5879667984978
 30
0.0
 70
    32
  0
VERTEX
  5
18330
  8
AM_0
 10
183.73817525987599
 20
167.58396679849801
 30
0.0
 70
    32
  0
VERTEX
  5
18331
  8
AM_0
 10
183.73917525987619
 20
167.57996679849771
 30
0.0
 70
    32
  0
VERTEX
  5
18332
  8
AM_0
 10
183.74117525987589
 20
167.57596679849789
 30
0.0
 70
    32
  0
VERTEX
  5
18333
  8
AM_0
 10
183.74217525987609
 20
167.57196679849781
 30
0.0
 70
    32
  0
VERTEX
  5
18334
  8
AM_0
 10
183.7431752598763
 20
167.56796679849779
 30
0.0
 70
    32
  0
VERTEX
  5
18335
  8
AM_0
 10
183.74517525987611
 20
167.563966798498
 30
0.0
 70
    32
  0
VERTEX
  5
18336
  8
AM_0
 10
183.7461752598762
 20
167.5599667984977
 30
0.0
 70
    32
  0
VERTEX
  5
18337
  8
AM_0
 10
183.74717525987609
 20
167.55596679849771
 30
0.0
 70
    32
  0
VERTEX
  5
18338
  8
AM_0
 10
183.74917525987581
 20
167.5519667984976
 30
0.0
 70
    32
  0
VERTEX
  5
18339
  8
AM_0
 10
183.7501752598759
 20
167.5479667984977
 30
0.0
 70
    32
  0
VERTEX
  5
1833A
  8
AM_0
 10
183.75217525987611
 20
167.54396679849799
 30
0.0
 70
    32
  0
VERTEX
  5
1833B
  8
AM_0
 10
183.7531752598762
 20
167.53996679849769
 30
0.0
 70
    32
  0
VERTEX
  5
1833C
  8
AM_0
 10
183.75417525987609
 20
167.5359667984977
 30
0.0
 70
    32
  0
VERTEX
  5
1833D
  8
AM_0
 10
183.75617525987619
 20
167.53196679849779
 30
0.0
 70
    32
  0
VERTEX
  5
1833E
  8
AM_0
 10
183.75717525987599
 20
167.52796679849769
 30
0.0
 70
    32
  0
VERTEX
  5
1833F
  8
AM_0
 10
183.75917525987609
 20
167.52396679849801
 30
0.0
 70
    32
  0
VERTEX
  5
18340
  8
AM_0
 10
183.76017525987589
 20
167.5199667984979
 30
0.0
 70
    32
  0
VERTEX
  5
18341
  8
AM_0
 10
183.76117525987601
 20
167.515966798498
 30
0.0
 70
    32
  0
VERTEX
  5
18342
  8
AM_0
 10
183.76317525987631
 20
167.51196679849781
 30
0.0
 70
    32
  0
VERTEX
  5
18343
  8
AM_0
 10
183.76417525987611
 20
167.50796679849799
 30
0.0
 70
    32
  0
VERTEX
  5
18344
  8
AM_0
 10
183.76617525987609
 20
167.50296679849779
 30
0.0
 70
    32
  0
VERTEX
  5
18345
  8
AM_0
 10
183.7671752598757
 20
167.49896679849789
 30
0.0
 70
    32
  0
VERTEX
  5
18346
  8
AM_0
 10
183.76917525987611
 20
167.4949667984981
 30
0.0
 70
    32
  0
VERTEX
  5
18347
  8
AM_0
 10
183.770175259876
 20
167.49096679849799
 30
0.0
 70
    32
  0
VERTEX
  5
18348
  8
AM_0
 10
183.77217525987621
 20
167.48696679849749
 30
0.0
 70
    32
  0
VERTEX
  5
18349
  8
AM_0
 10
183.7731752598761
 20
167.4829667984979
 30
0.0
 70
    32
  0
VERTEX
  5
1834A
  8
AM_0
 10
183.77517525987611
 20
167.47896679849771
 30
0.0
 70
    32
  0
VERTEX
  5
1834B
  8
AM_0
 10
183.7761752598758
 20
167.4749667984976
 30
0.0
 70
    32
  0
VERTEX
  5
1834C
  8
AM_0
 10
183.77817525987601
 20
167.47096679849801
 30
0.0
 70
    32
  0
VERTEX
  5
1834D
  8
AM_0
 10
183.7791752598761
 20
167.46696679849791
 30
0.0
 70
    32
  0
VERTEX
  5
1834E
  8
AM_0
 10
183.78117525987611
 20
167.46296679849769
 30
0.0
 70
    32
  0
VERTEX
  5
1834F
  8
AM_0
 10
183.78217525987611
 20
167.4589667984979
 30
0.0
 70
    32
  0
VERTEX
  5
18350
  8
AM_0
 10
183.78417525987609
 20
167.45496679849759
 30
0.0
 70
    32
  0
VERTEX
  5
18351
  8
AM_0
 10
183.78517525987601
 20
167.450966798498
 30
0.0
 70
    32
  0
VERTEX
  5
18352
  8
AM_0
 10
183.78717525987599
 20
167.4469667984977
 30
0.0
 70
    32
  0
VERTEX
  5
18353
  8
AM_0
 10
183.78817525987591
 20
167.44296679849771
 30
0.0
 70
    32
  0
VERTEX
  5
18354
  8
AM_0
 10
183.79017525987561
 20
167.43996679849781
 30
0.0
 70
    32
  0
VERTEX
  5
18355
  8
AM_0
 10
183.79117525987621
 20
167.4359667984979
 30
0.0
 70
    32
  0
VERTEX
  5
18356
  8
AM_0
 10
183.79317525987619
 20
167.43196679849771
 30
0.0
 70
    32
  0
VERTEX
  5
18357
  8
AM_0
 10
183.79417525987591
 20
167.42796679849781
 30
0.0
 70
    32
  0
VERTEX
  5
18358
  8
AM_0
 10
183.79617525987621
 20
167.42396679849799
 30
0.0
 70
    32
  0
VERTEX
  5
18359
  8
AM_0
 10
183.7971752598759
 20
167.4199667984978
 30
0.0
 70
    32
  0
VERTEX
  5
1835A
  8
AM_0
 10
183.79917525987571
 20
167.41596679849789
 30
0.0
 70
    32
  0
VERTEX
  5
1835B
  8
AM_0
 10
183.80117525987609
 20
167.4119667984977
 30
0.0
 70
    32
  0
VERTEX
  5
1835C
  8
AM_0
 10
183.80217525987609
 20
167.4079667984978
 30
0.0
 70
    32
  0
VERTEX
  5
1835D
  8
AM_0
 10
183.8041752598761
 20
167.403966798498
 30
0.0
 70
    32
  0
VERTEX
  5
1835E
  8
AM_0
 10
183.80517525987631
 20
167.3999667984977
 30
0.0
 70
    32
  0
VERTEX
  5
1835F
  8
AM_0
 10
183.80717525987589
 20
167.39596679849791
 30
0.0
 70
    32
  0
VERTEX
  5
18360
  8
AM_0
 10
183.80917525987621
 20
167.39196679849769
 30
0.0
 70
    32
  0
VERTEX
  5
18361
  8
AM_0
 10
183.8101752598763
 20
167.38796679849781
 30
0.0
 70
    32
  0
VERTEX
  5
18362
  8
AM_0
 10
183.81217525987589
 20
167.3839667984976
 30
0.0
 70
    32
  0
VERTEX
  5
18363
  8
AM_0
 10
183.81317525987609
 20
167.37996679849769
 30
0.0
 70
    32
  0
VERTEX
  5
18364
  8
AM_0
 10
183.81517525987601
 20
167.3759667984979
 30
0.0
 70
    32
  0
VERTEX
  5
18365
  8
AM_0
 10
183.8171752598758
 20
167.37196679849791
 30
0.0
 70
    32
  0
VERTEX
  5
18366
  8
AM_0
 10
183.8181752598762
 20
167.3679667984978
 30
0.0
 70
    32
  0
VERTEX
  5
18367
  8
AM_0
 10
183.82017525987629
 20
167.3639667984977
 30
0.0
 70
    32
  0
VERTEX
  5
18368
  8
AM_0
 10
183.8221752598761
 20
167.35996679849771
 30
0.0
 70
    32
  0
VERTEX
  5
18369
  8
AM_0
 10
183.82317525987619
 20
167.35596679849789
 30
0.0
 70
    32
  0
VERTEX
  5
1836A
  8
AM_0
 10
183.825175259876
 20
167.35196679849801
 30
0.0
 70
    32
  0
VERTEX
  5
1836B
  8
AM_0
 10
183.82717525987599
 20
167.34896679849771
 30
0.0
 70
    32
  0
VERTEX
  5
1836C
  8
AM_0
 10
183.8281752598761
 20
167.34496679849769
 30
0.0
 70
    32
  0
VERTEX
  5
1836D
  8
AM_0
 10
183.83017525987611
 20
167.3409667984981
 30
0.0
 70
    32
  0
VERTEX
  5
1836E
  8
AM_0
 10
183.8321752598761
 20
167.3369667984978
 30
0.0
 70
    32
  0
VERTEX
  5
1836F
  8
AM_0
 10
183.83317525987621
 20
167.33296679849781
 30
0.0
 70
    32
  0
VERTEX
  5
18370
  8
AM_0
 10
183.83517525987591
 20
167.3289667984977
 30
0.0
 70
    32
  0
VERTEX
  5
18371
  8
AM_0
 10
183.83717525987589
 20
167.32496679849791
 30
0.0
 70
    32
  0
VERTEX
  5
18372
  8
AM_0
 10
183.83817525987621
 20
167.32096679849809
 30
0.0
 70
    32
  0
VERTEX
  5
18373
  8
AM_0
 10
183.8401752598763
 20
167.3169667984977
 30
0.0
 70
    32
  0
VERTEX
  5
18374
  8
AM_0
 10
183.84217525987609
 20
167.3129667984978
 30
0.0
 70
    32
  0
VERTEX
  5
18375
  8
AM_0
 10
183.84417525987581
 20
167.30896679849769
 30
0.0
 70
    32
  0
VERTEX
  5
18376
  8
AM_0
 10
183.84517525987599
 20
167.3049667984979
 30
0.0
 70
    32
  0
VERTEX
  5
18377
  8
AM_0
 10
183.84717525987631
 20
167.30196679849769
 30
0.0
 70
    32
  0
VERTEX
  5
18378
  8
AM_0
 10
183.8491752598762
 20
167.2979667984979
 30
0.0
 70
    32
  0
VERTEX
  5
18379
  8
AM_0
 10
183.8511752598761
 20
167.2939667984981
 30
0.0
 70
    32
  0
VERTEX
  5
1837A
  8
AM_0
 10
183.85217525987611
 20
167.2899667984978
 30
0.0
 70
    32
  0
VERTEX
  5
1837B
  8
AM_0
 10
183.85417525987589
 20
167.28596679849801
 30
0.0
 70
    32
  0
VERTEX
  5
1837C
  8
AM_0
 10
183.8561752598761
 20
167.28196679849771
 30
0.0
 70
    32
  0
VERTEX
  5
1837D
  8
AM_0
 10
183.85817525987611
 20
167.27796679849791
 30
0.0
 70
    32
  0
VERTEX
  5
1837E
  8
AM_0
 10
183.85917525987611
 20
167.27396679849809
 30
0.0
 70
    32
  0
VERTEX
  5
1837F
  8
AM_0
 10
183.86117525987609
 20
167.26996679849779
 30
0.0
 70
    32
  0
VERTEX
  5
18380
  8
AM_0
 10
183.86317525987619
 20
167.26696679849769
 30
0.0
 70
    32
  0
VERTEX
  5
18381
  8
AM_0
 10
183.865175259876
 20
167.2629667984979
 30
0.0
 70
    32
  0
VERTEX
  5
18382
  8
AM_0
 10
183.86717525987629
 20
167.2589667984978
 30
0.0
 70
    32
  0
VERTEX
  5
18383
  8
AM_0
 10
183.86817525987621
 20
167.25496679849761
 30
0.0
 70
    32
  0
VERTEX
  5
18384
  8
AM_0
 10
183.87017525987611
 20
167.25096679849781
 30
0.0
 70
    32
  0
VERTEX
  5
18385
  8
AM_0
 10
183.87217525987609
 20
167.24696679849811
 30
0.0
 70
    32
  0
VERTEX
  5
18386
  8
AM_0
 10
183.87417525987601
 20
167.24296679849789
 30
0.0
 70
    32
  0
VERTEX
  5
18387
  8
AM_0
 10
183.87617525987611
 20
167.23996679849799
 30
0.0
 70
    32
  0
VERTEX
  5
18388
  8
AM_0
 10
183.87717525987631
 20
167.235966798498
 30
0.0
 70
    32
  0
VERTEX
  5
18389
  8
AM_0
 10
183.87917525987609
 20
167.23196679849769
 30
0.0
 70
    32
  0
VERTEX
  5
1838A
  8
AM_0
 10
183.8811752598761
 20
167.22796679849779
 30
0.0
 70
    32
  0
VERTEX
  5
1838B
  8
AM_0
 10
183.88317525987611
 20
167.2239667984976
 30
0.0
 70
    32
  0
VERTEX
  5
1838C
  8
AM_0
 10
183.88517525987589
 20
167.21996679849801
 30
0.0
 70
    32
  0
VERTEX
  5
1838D
  8
AM_0
 10
183.8871752598763
 20
167.2159667984981
 30
0.0
 70
    32
  0
VERTEX
  5
1838E
  8
AM_0
 10
183.889175259876
 20
167.212966798498
 30
0.0
 70
    32
  0
VERTEX
  5
1838F
  8
AM_0
 10
183.89117525987609
 20
167.20896679849781
 30
0.0
 70
    32
  0
VERTEX
  5
18390
  8
AM_0
 10
183.89217525987601
 20
167.20496679849779
 30
0.0
 70
    32
  0
VERTEX
  5
18391
  8
AM_0
 10
183.89417525987579
 20
167.20096679849789
 30
0.0
 70
    32
  0
VERTEX
  5
18392
  8
AM_0
 10
183.8961752598762
 20
167.19696679849781
 30
0.0
 70
    32
  0
VERTEX
  5
18393
  8
AM_0
 10
183.8981752598759
 20
167.19396679849771
 30
0.0
 70
    32
  0
VERTEX
  5
18394
  8
AM_0
 10
183.90017525987611
 20
167.18996679849769
 30
0.0
 70
    32
  0
VERTEX
  5
18395
  8
AM_0
 10
183.90217525987589
 20
167.18596679849759
 30
0.0
 70
    32
  0
VERTEX
  5
18396
  8
AM_0
 10
183.90417525987601
 20
167.1819667984978
 30
0.0
 70
    32
  0
VERTEX
  5
18397
  8
AM_0
 10
183.90617525987611
 20
167.17796679849801
 30
0.0
 70
    32
  0
VERTEX
  5
18398
  8
AM_0
 10
183.90817525987609
 20
167.17496679849791
 30
0.0
 70
    32
  0
VERTEX
  5
18399
  8
AM_0
 10
183.91017525987621
 20
167.17096679849769
 30
0.0
 70
    32
  0
VERTEX
  5
1839A
  8
AM_0
 10
183.91217525987591
 20
167.16696679849761
 30
0.0
 70
    32
  0
VERTEX
  5
1839B
  8
AM_0
 10
183.914175259876
 20
167.16296679849771
 30
0.0
 70
    32
  0
VERTEX
  5
1839C
  8
AM_0
 10
183.91617525987601
 20
167.15896679849769
 30
0.0
 70
    32
  0
VERTEX
  5
1839D
  8
AM_0
 10
183.91817525987611
 20
167.15596679849759
 30
0.0
 70
    32
  0
VERTEX
  5
1839E
  8
AM_0
 10
183.9201752598762
 20
167.15196679849799
 30
0.0
 70
    32
  0
VERTEX
  5
1839F
  8
AM_0
 10
183.92217525987601
 20
167.14796679849781
 30
0.0
 70
    32
  0
VERTEX
  5
183A0
  8
AM_0
 10
183.92417525987599
 20
167.1439667984977
 30
0.0
 70
    32
  0
VERTEX
  5
183A1
  8
AM_0
 10
183.9261752598762
 20
167.13996679849811
 30
0.0
 70
    32
  0
VERTEX
  5
183A2
  8
AM_0
 10
183.9281752598761
 20
167.13696679849781
 30
0.0
 70
    32
  0
VERTEX
  5
183A3
  8
AM_0
 10
183.9301752598758
 20
167.13296679849799
 30
0.0
 70
    32
  0
VERTEX
  5
183A4
  8
AM_0
 10
183.932175259876
 20
167.12896679849811
 30
0.0
 70
    32
  0
VERTEX
  5
183A5
  8
AM_0
 10
183.93417525987601
 20
167.12496679849789
 30
0.0
 70
    32
  0
VERTEX
  5
183A6
  8
AM_0
 10
183.93617525987619
 20
167.12196679849799
 30
0.0
 70
    32
  0
VERTEX
  5
183A7
  8
AM_0
 10
183.93817525987609
 20
167.11796679849789
 30
0.0
 70
    32
  0
VERTEX
  5
183A8
  8
AM_0
 10
183.94017525987621
 20
167.1139667984977
 30
0.0
 70
    32
  0
VERTEX
  5
183A9
  8
AM_0
 10
183.942175259876
 20
167.10996679849779
 30
0.0
 70
    32
  0
VERTEX
  5
183AA
  8
AM_0
 10
183.94417525987569
 20
167.10696679849781
 30
0.0
 70
    32
  0
VERTEX
  5
183AB
  8
AM_0
 10
183.9461752598763
 20
167.1029667984977
 30
0.0
 70
    32
  0
VERTEX
  5
183AC
  8
AM_0
 10
183.94817525987591
 20
167.0989667984976
 30
0.0
 70
    32
  0
VERTEX
  5
183AD
  8
AM_0
 10
183.9501752598762
 20
167.09596679849761
 30
0.0
 70
    32
  0
VERTEX
  5
183AE
  8
AM_0
 10
183.95317525987599
 20
167.09196679849771
 30
0.0
 70
    32
  0
VERTEX
  5
183AF
  8
AM_0
 10
183.95517525987611
 20
167.08796679849789
 30
0.0
 70
    32
  0
VERTEX
  5
183B0
  8
AM_0
 10
183.9571752598759
 20
167.08396679849781
 30
0.0
 70
    32
  0
VERTEX
  5
183B1
  8
AM_0
 10
183.95917525987599
 20
167.08096679849771
 30
0.0
 70
    32
  0
VERTEX
  5
183B2
  8
AM_0
 10
183.961175259876
 20
167.07696679849789
 30
0.0
 70
    32
  0
VERTEX
  5
183B3
  8
AM_0
 10
183.9631752598761
 20
167.0729667984981
 30
0.0
 70
    32
  0
VERTEX
  5
183B4
  8
AM_0
 10
183.9651752598761
 20
167.0699667984978
 30
0.0
 70
    32
  0
VERTEX
  5
183B5
  8
AM_0
 10
183.9671752598762
 20
167.0659667984977
 30
0.0
 70
    32
  0
VERTEX
  5
183B6
  8
AM_0
 10
183.9701752598761
 20
167.06196679849791
 30
0.0
 70
    32
  0
VERTEX
  5
183B7
  8
AM_0
 10
183.97217525987611
 20
167.05896679849781
 30
0.0
 70
    32
  0
VERTEX
  5
183B8
  8
AM_0
 10
183.97417525987629
 20
167.05496679849779
 30
0.0
 70
    32
  0
VERTEX
  5
183B9
  8
AM_0
 10
183.9761752598761
 20
167.05096679849771
 30
0.0
 70
    32
  0
VERTEX
  5
183BA
  8
AM_0
 10
183.978175259876
 20
167.04796679849781
 30
0.0
 70
    32
  0
VERTEX
  5
183BB
  8
AM_0
 10
183.98117525987601
 20
167.04396679849799
 30
0.0
 70
    32
  0
VERTEX
  5
183BC
  8
AM_0
 10
183.98317525987619
 20
167.0399667984978
 30
0.0
 70
    32
  0
VERTEX
  5
183BD
  8
AM_0
 10
183.98517525987609
 20
167.0369667984979
 30
0.0
 70
    32
  0
VERTEX
  5
183BE
  8
AM_0
 10
183.98717525987621
 20
167.0329667984976
 30
0.0
 70
    32
  0
VERTEX
  5
183BF
  8
AM_0
 10
183.98917525987591
 20
167.02896679849781
 30
0.0
 70
    32
  0
VERTEX
  5
183C0
  8
AM_0
 10
183.99217525987621
 20
167.0259667984981
 30
0.0
 70
    32
  0
VERTEX
  5
183C1
  8
AM_0
 10
183.9941752598763
 20
167.02196679849791
 30
0.0
 70
    32
  0
VERTEX
  5
183C2
  8
AM_0
 10
183.99617525987611
 20
167.01796679849781
 30
0.0
 70
    32
  0
VERTEX
  5
183C3
  8
AM_0
 10
183.99817525987581
 20
167.01496679849799
 30
0.0
 70
    32
  0
VERTEX
  5
183C4
  8
AM_0
 10
184.00117525987631
 20
167.01096679849789
 30
0.0
 70
    32
  0
VERTEX
  5
183C5
  8
AM_0
 10
184.00317525987609
 20
167.00796679849799
 30
0.0
 70
    32
  0
VERTEX
  5
183C6
  8
AM_0
 10
184.0051752598761
 20
167.003966798498
 30
0.0
 70
    32
  0
VERTEX
  5
183C7
  8
AM_0
 10
184.00717525987579
 20
166.99996679849789
 30
0.0
 70
    32
  0
VERTEX
  5
183C8
  8
AM_0
 10
184.01017525987609
 20
166.99696679849779
 30
0.0
 70
    32
  0
VERTEX
  5
183C9
  8
AM_0
 10
184.01217525987619
 20
166.9929667984976
 30
0.0
 70
    32
  0
VERTEX
  5
183CA
  8
AM_0
 10
184.0141752598762
 20
166.9899667984979
 30
0.0
 70
    32
  0
VERTEX
  5
183CB
  8
AM_0
 10
184.0171752598761
 20
166.98596679849811
 30
0.0
 70
    32
  0
VERTEX
  5
183CC
  8
AM_0
 10
184.01917525987599
 20
166.98196679849781
 30
0.0
 70
    32
  0
VERTEX
  5
183CD
  8
AM_0
 10
184.02117525987629
 20
166.97896679849799
 30
0.0
 70
    32
  0
VERTEX
  5
183CE
  8
AM_0
 10
184.02417525987619
 20
166.97496679849789
 30
0.0
 70
    32
  0
VERTEX
  5
183CF
  8
AM_0
 10
184.02617525987611
 20
166.97196679849779
 30
0.0
 70
    32
  0
VERTEX
  5
183D0
  8
AM_0
 10
184.02817525987601
 20
166.967966798498
 30
0.0
 70
    32
  0
VERTEX
  5
183D1
  8
AM_0
 10
184.03117525987631
 20
166.96496679849761
 30
0.0
 70
    32
  0
VERTEX
  5
183D2
  8
AM_0
 10
184.03317525987609
 20
166.96096679849779
 30
0.0
 70
    32
  0
VERTEX
  5
183D3
  8
AM_0
 10
184.03617525987599
 20
166.95796679849749
 30
0.0
 70
    32
  0
VERTEX
  5
183D4
  8
AM_0
 10
184.038175259876
 20
166.9539667984979
 30
0.0
 70
    32
  0
VERTEX
  5
183D5
  8
AM_0
 10
184.04017525987609
 20
166.94996679849771
 30
0.0
 70
    32
  0
VERTEX
  5
183D6
  8
AM_0
 10
184.04317525987599
 20
166.94696679849781
 30
0.0
 70
    32
  0
VERTEX
  5
183D7
  8
AM_0
 10
184.04517525987609
 20
166.94296679849771
 30
0.0
 70
    32
  0
VERTEX
  5
183D8
  8
AM_0
 10
184.04817525987579
 20
166.93996679849781
 30
0.0
 70
    32
  0
VERTEX
  5
183D9
  8
AM_0
 10
184.05017525987611
 20
166.9359667984975
 30
0.0
 70
    32
  0
VERTEX
  5
183DA
  8
AM_0
 10
184.0531752598761
 20
166.93296679849789
 30
0.0
 70
    32
  0
VERTEX
  5
183DB
  8
AM_0
 10
184.05517525987631
 20
166.9289667984977
 30
0.0
 70
    32
  0
VERTEX
  5
183DC
  8
AM_0
 10
184.05717525987581
 20
166.9259667984976
 30
0.0
 70
    32
  0
VERTEX
  5
183DD
  8
AM_0
 10
184.06017525987619
 20
166.92196679849769
 30
0.0
 70
    32
  0
VERTEX
  5
183DE
  8
AM_0
 10
184.06217525987611
 20
166.9189667984981
 30
0.0
 70
    32
  0
VERTEX
  5
183DF
  8
AM_0
 10
184.0651752598759
 20
166.914966798498
 30
0.0
 70
    32
  0
VERTEX
  5
183E0
  8
AM_0
 10
184.06717525987611
 20
166.91196679849801
 30
0.0
 70
    32
  0
VERTEX
  5
183E1
  8
AM_0
 10
184.07017525987609
 20
166.9089667984978
 30
0.0
 70
    32
  0
VERTEX
  5
183E2
  8
AM_0
 10
184.0721752598761
 20
166.90496679849801
 30
0.0
 70
    32
  0
VERTEX
  5
183E3
  8
AM_0
 10
184.07517525987581
 20
166.90196679849771
 30
0.0
 70
    32
  0
VERTEX
  5
183E4
  8
AM_0
 10
184.0771752598761
 20
166.89796679849789
 30
0.0
 70
    32
  0
VERTEX
  5
183E5
  8
AM_0
 10
184.08017525987611
 20
166.89496679849799
 30
0.0
 70
    32
  0
VERTEX
  5
183E6
  8
AM_0
 10
184.0821752598761
 20
166.890966798498
 30
0.0
 70
    32
  0
VERTEX
  5
183E7
  8
AM_0
 10
184.085175259876
 20
166.88796679849759
 30
0.0
 70
    32
  0
VERTEX
  5
183E8
  8
AM_0
 10
184.0881752598761
 20
166.884966798498
 30
0.0
 70
    32
  0
VERTEX
  5
183E9
  8
AM_0
 10
184.09017525987639
 20
166.88096679849801
 30
0.0
 70
    32
  0
VERTEX
  5
183EA
  8
AM_0
 10
184.09317525987589
 20
166.87796679849791
 30
0.0
 70
    32
  0
VERTEX
  5
183EB
  8
AM_0
 10
184.09517525987599
 20
166.87396679849789
 30
0.0
 70
    32
  0
VERTEX
  5
183EC
  8
AM_0
 10
184.09817525987631
 20
166.8709667984977
 30
0.0
 70
    32
  0
VERTEX
  5
183ED
  8
AM_0
 10
184.10117525987619
 20
166.8679667984976
 30
0.0
 70
    32
  0
VERTEX
  5
183EE
  8
AM_0
 10
184.10317525987611
 20
166.86396679849801
 30
0.0
 70
    32
  0
VERTEX
  5
183EF
  8
AM_0
 10
184.10617525987601
 20
166.860966798498
 30
0.0
 70
    32
  0
VERTEX
  5
183F0
  8
AM_0
 10
184.1081752598763
 20
166.85696679849789
 30
0.0
 70
    32
  0
VERTEX
  5
183F1
  8
AM_0
 10
184.11117525987589
 20
166.85396679849799
 30
0.0
 70
    32
  0
VERTEX
  5
183F2
  8
AM_0
 10
184.11417525987611
 20
166.85096679849789
 30
0.0
 70
    32
  0
VERTEX
  5
183F3
  8
AM_0
 10
184.11617525987589
 20
166.8469667984979
 30
0.0
 70
    32
  0
VERTEX
  5
183F4
  8
AM_0
 10
184.1191752598761
 20
166.843966798498
 30
0.0
 70
    32
  0
VERTEX
  5
183F5
  8
AM_0
 10
184.12217525987609
 20
166.8409667984979
 30
0.0
 70
    32
  0
VERTEX
  5
183F6
  8
AM_0
 10
184.1241752598761
 20
166.83696679849791
 30
0.0
 70
    32
  0
VERTEX
  5
183F7
  8
AM_0
 10
184.12717525987611
 20
166.83396679849781
 30
0.0
 70
    32
  0
VERTEX
  5
183F8
  8
AM_0
 10
184.1301752598761
 20
166.83096679849771
 30
0.0
 70
    32
  0
VERTEX
  5
183F9
  8
AM_0
 10
184.133175259876
 20
166.82796679849761
 30
0.0
 70
    32
  0
VERTEX
  5
183FA
  8
AM_0
 10
184.13517525987589
 20
166.82396679849779
 30
0.0
 70
    32
  0
VERTEX
  5
183FB
  8
AM_0
 10
184.13817525987591
 20
166.82096679849761
 30
0.0
 70
    32
  0
VERTEX
  5
183FC
  8
AM_0
 10
184.14117525987621
 20
166.81796679849779
 30
0.0
 70
    32
  0
VERTEX
  5
183FD
  8
AM_0
 10
184.14417525987611
 20
166.813966798498
 30
0.0
 70
    32
  0
VERTEX
  5
183FE
  8
AM_0
 10
184.14617525987609
 20
166.81096679849759
 30
0.0
 70
    32
  0
VERTEX
  5
183FF
  8
AM_0
 10
184.1491752598761
 20
166.8079667984978
 30
0.0
 70
    32
  0
VERTEX
  5
18400
  8
AM_0
 10
184.1521752598758
 20
166.80496679849799
 30
0.0
 70
    32
  0
VERTEX
  5
18401
  8
AM_0
 10
184.1551752598763
 20
166.8009667984976
 30
0.0
 70
    32
  0
VERTEX
  5
18402
  8
AM_0
 10
184.1571752598762
 20
166.79796679849761
 30
0.0
 70
    32
  0
VERTEX
  5
18403
  8
AM_0
 10
184.1601752598761
 20
166.7949667984976
 30
0.0
 70
    32
  0
VERTEX
  5
18404
  8
AM_0
 10
184.16317525987591
 20
166.79196679849761
 30
0.0
 70
    32
  0
VERTEX
  5
18405
  8
AM_0
 10
184.16617525987621
 20
166.78896679849771
 30
0.0
 70
    32
  0
VERTEX
  5
18406
  8
AM_0
 10
184.16917525987611
 20
166.78496679849809
 30
0.0
 70
    32
  0
VERTEX
  5
18407
  8
AM_0
 10
184.17217525987601
 20
166.78196679849779
 30
0.0
 70
    32
  0
VERTEX
  5
18408
  8
AM_0
 10
184.17417525987611
 20
166.77896679849789
 30
0.0
 70
    32
  0
VERTEX
  5
18409
  8
AM_0
 10
184.17717525987609
 20
166.7759667984979
 30
0.0
 70
    32
  0
VERTEX
  5
1840A
  8
AM_0
 10
184.18017525987611
 20
166.77296679849769
 30
0.0
 70
    32
  0
VERTEX
  5
1840B
  8
AM_0
 10
184.18317525987601
 20
166.7699667984979
 30
0.0
 70
    32
  0
VERTEX
  5
1840C
  8
AM_0
 10
184.18617525987639
 20
166.766966798498
 30
0.0
 70
    32
  0
VERTEX
  5
1840D
  8
AM_0
 10
184.18917525987609
 20
166.7629667984977
 30
0.0
 70
    32
  0
VERTEX
  5
1840E
  8
AM_0
 10
184.192175259876
 20
166.75996679849791
 30
0.0
 70
    32
  0
VERTEX
  5
1840F
  8
AM_0
 10
184.19517525987629
 20
166.75696679849801
 30
0.0
 70
    32
  0
VERTEX
  5
18410
  8
AM_0
 10
184.19817525987611
 20
166.753966798498
 30
0.0
 70
    32
  0
VERTEX
  5
18411
  8
AM_0
 10
184.20117525987609
 20
166.75096679849781
 30
0.0
 70
    32
  0
VERTEX
  5
18412
  8
AM_0
 10
184.20417525987619
 20
166.7479667984976
 30
0.0
 70
    32
  0
VERTEX
  5
18413
  8
AM_0
 10
184.2071752598761
 20
166.7449667984981
 30
0.0
 70
    32
  0
VERTEX
  5
18414
  8
AM_0
 10
184.210175259876
 20
166.7419667984978
 30
0.0
 70
    32
  0
VERTEX
  5
18415
  8
AM_0
 10
184.21317525987621
 20
166.7389667984979
 30
0.0
 70
    32
  0
VERTEX
  5
18416
  8
AM_0
 10
184.21617525987611
 20
166.735966798498
 30
0.0
 70
    32
  0
VERTEX
  5
18417
  8
AM_0
 10
184.21917525987601
 20
166.7329667984977
 30
0.0
 70
    32
  0
VERTEX
  5
18418
  8
AM_0
 10
184.22217525987631
 20
166.7299667984978
 30
0.0
 70
    32
  0
VERTEX
  5
18419
  8
AM_0
 10
184.22517525987621
 20
166.72696679849801
 30
0.0
 70
    32
  0
VERTEX
  5
1841A
  8
AM_0
 10
184.22817525987611
 20
166.72396679849791
 30
0.0
 70
    32
  0
VERTEX
  5
1841B
  8
AM_0
 10
184.2311752598761
 20
166.7209667984977
 30
0.0
 70
    32
  0
VERTEX
  5
1841C
  8
AM_0
 10
184.2341752598762
 20
166.71796679849811
 30
0.0
 70
    32
  0
VERTEX
  5
1841D
  8
AM_0
 10
184.2371752598761
 20
166.71496679849761
 30
0.0
 70
    32
  0
VERTEX
  5
1841E
  8
AM_0
 10
184.240175259876
 20
166.71196679849791
 30
0.0
 70
    32
  0
VERTEX
  5
1841F
  8
AM_0
 10
184.24317525987621
 20
166.70896679849781
 30
0.0
 70
    32
  0
VERTEX
  5
18420
  8
AM_0
 10
184.24617525987611
 20
166.70596679849771
 30
0.0
 70
    32
  0
VERTEX
  5
18421
  8
AM_0
 10
184.24917525987621
 20
166.7029667984977
 30
0.0
 70
    32
  0
VERTEX
  5
18422
  8
AM_0
 10
184.25217525987631
 20
166.6999667984978
 30
0.0
 70
    32
  0
VERTEX
  5
18423
  8
AM_0
 10
184.25517525987621
 20
166.6969667984979
 30
0.0
 70
    32
  0
VERTEX
  5
18424
  8
AM_0
 10
184.259175259876
 20
166.6939667984976
 30
0.0
 70
    32
  0
VERTEX
  5
18425
  8
AM_0
 10
184.2621752598763
 20
166.69096679849801
 30
0.0
 70
    32
  0
VERTEX
  5
18426
  8
AM_0
 10
184.26517525987589
 20
166.6879667984978
 30
0.0
 70
    32
  0
VERTEX
  5
18427
  8
AM_0
 10
184.2681752598761
 20
166.68596679849779
 30
0.0
 70
    32
  0
VERTEX
  5
18428
  8
AM_0
 10
184.2711752598764
 20
166.68296679849769
 30
0.0
 70
    32
  0
VERTEX
  5
18429
  8
AM_0
 10
184.27417525987599
 20
166.67996679849799
 30
0.0
 70
    32
  0
VERTEX
  5
1842A
  8
AM_0
 10
184.27817525987609
 20
166.67696679849789
 30
0.0
 70
    32
  0
VERTEX
  5
1842B
  8
AM_0
 10
184.28117525987611
 20
166.67396679849799
 30
0.0
 70
    32
  0
VERTEX
  5
1842C
  8
AM_0
 10
184.28417525987609
 20
166.670966798498
 30
0.0
 70
    32
  0
VERTEX
  5
1842D
  8
AM_0
 10
184.28717525987599
 20
166.66896679849799
 30
0.0
 70
    32
  0
VERTEX
  5
1842E
  8
AM_0
 10
184.29117525987621
 20
166.66596679849789
 30
0.0
 70
    32
  0
VERTEX
  5
1842F
  8
AM_0
 10
184.29417525987611
 20
166.66296679849779
 30
0.0
 70
    32
  0
VERTEX
  5
18430
  8
AM_0
 10
184.2971752598759
 20
166.659966798498
 30
0.0
 70
    32
  0
VERTEX
  5
18431
  8
AM_0
 10
184.30017525987611
 20
166.6579667984978
 30
0.0
 70
    32
  0
VERTEX
  5
18432
  8
AM_0
 10
184.3041752598761
 20
166.6549667984977
 30
0.0
 70
    32
  0
VERTEX
  5
18433
  8
AM_0
 10
184.307175259876
 20
166.6519667984976
 30
0.0
 70
    32
  0
VERTEX
  5
18434
  8
AM_0
 10
184.3101752598759
 20
166.6499667984979
 30
0.0
 70
    32
  0
VERTEX
  5
18435
  8
AM_0
 10
184.31417525987609
 20
166.6469667984976
 30
0.0
 70
    32
  0
VERTEX
  5
18436
  8
AM_0
 10
184.317175259876
 20
166.64396679849801
 30
0.0
 70
    32
  0
VERTEX
  5
18437
  8
AM_0
 10
184.32017525987621
 20
166.64196679849789
 30
0.0
 70
    32
  0
VERTEX
  5
18438
  8
AM_0
 10
184.32417525987589
 20
166.63896679849779
 30
0.0
 70
    32
  0
VERTEX
  5
18439
  8
AM_0
 10
184.32717525987599
 20
166.63596679849769
 30
0.0
 70
    32
  0
VERTEX
  5
1843A
  8
AM_0
 10
184.3301752598762
 20
166.63396679849771
 30
0.0
 70
    32
  0
VERTEX
  5
1843B
  8
AM_0
 10
184.33417525987599
 20
166.6309667984977
 30
0.0
 70
    32
  0
VERTEX
  5
1843C
  8
AM_0
 10
184.33717525987589
 20
166.628966798498
 30
0.0
 70
    32
  0
VERTEX
  5
1843D
  8
AM_0
 10
184.34117525987611
 20
166.6259667984977
 30
0.0
 70
    32
  0
VERTEX
  5
1843E
  8
AM_0
 10
184.34417525987601
 20
166.62296679849749
 30
0.0
 70
    32
  0
VERTEX
  5
1843F
  8
AM_0
 10
184.34717525987591
 20
166.6209667984977
 30
0.0
 70
    32
  0
VERTEX
  5
18440
  8
AM_0
 10
184.35117525987599
 20
166.6179667984978
 30
0.0
 70
    32
  0
VERTEX
  5
18441
  8
AM_0
 10
184.354175259876
 20
166.61596679849771
 30
0.0
 70
    32
  0
VERTEX
  5
18442
  8
AM_0
 10
184.35817525987611
 20
166.61296679849781
 30
0.0
 70
    32
  0
VERTEX
  5
18443
  8
AM_0
 10
184.36117525987609
 20
166.61096679849811
 30
0.0
 70
    32
  0
VERTEX
  5
18444
  8
AM_0
 10
184.3651752598758
 20
166.60796679849781
 30
0.0
 70
    32
  0
VERTEX
  5
18445
  8
AM_0
 10
184.36817525987621
 20
166.60596679849769
 30
0.0
 70
    32
  0
VERTEX
  5
18446
  8
AM_0
 10
184.3721752598762
 20
166.60396679849771
 30
0.0
 70
    32
  0
VERTEX
  5
18447
  8
AM_0
 10
184.3751752598761
 20
166.60096679849781
 30
0.0
 70
    32
  0
VERTEX
  5
18448
  8
AM_0
 10
184.37917525987609
 20
166.59896679849771
 30
0.0
 70
    32
  0
VERTEX
  5
18449
  8
AM_0
 10
184.38217525987611
 20
166.5959667984979
 30
0.0
 70
    32
  0
VERTEX
  5
1844A
  8
AM_0
 10
184.38617525987601
 20
166.593966798498
 30
0.0
 70
    32
  0
VERTEX
  5
1844B
  8
AM_0
 10
184.39017525987629
 20
166.59196679849779
 30
0.0
 70
    32
  0
VERTEX
  5
1844C
  8
AM_0
 10
184.39317525987599
 20
166.58896679849789
 30
0.0
 70
    32
  0
VERTEX
  5
1844D
  8
AM_0
 10
184.39717525987609
 20
166.5869667984976
 30
0.0
 70
    32
  0
VERTEX
  5
1844E
  8
AM_0
 10
184.40017525987611
 20
166.5849667984977
 30
0.0
 70
    32
  0
VERTEX
  5
1844F
  8
AM_0
 10
184.40417525987601
 20
166.581966798498
 30
0.0
 70
    32
  0
VERTEX
  5
18450
  8
AM_0
 10
184.4081752598764
 20
166.57996679849759
 30
0.0
 70
    32
  0
VERTEX
  5
18451
  8
AM_0
 10
184.41117525987599
 20
166.5779667984979
 30
0.0
 70
    32
  0
VERTEX
  5
18452
  8
AM_0
 10
184.41517525987561
 20
166.57596679849789
 30
0.0
 70
    32
  0
VERTEX
  5
18453
  8
AM_0
 10
184.4191752598758
 20
166.57296679849799
 30
0.0
 70
    32
  0
VERTEX
  5
18454
  8
AM_0
 10
184.4221752598761
 20
166.57096679849809
 30
0.0
 70
    32
  0
VERTEX
  5
18455
  8
AM_0
 10
184.42617525987629
 20
166.56896679849791
 30
0.0
 70
    32
  0
VERTEX
  5
18456
  8
AM_0
 10
184.43017525987631
 20
166.56696679849799
 30
0.0
 70
    32
  0
VERTEX
  5
18457
  8
AM_0
 10
184.43317525987581
 20
166.56496679849769
 30
0.0
 70
    32
  0
VERTEX
  5
18458
  8
AM_0
 10
184.43717525987589
 20
166.56296679849771
 30
0.0
 70
    32
  0
VERTEX
  5
18459
  8
AM_0
 10
184.44117525987599
 20
166.56096679849779
 30
0.0
 70
    32
  0
VERTEX
  5
1845A
  8
AM_0
 10
184.44417525987589
 20
166.55796679849789
 30
0.0
 70
    32
  0
VERTEX
  5
1845B
  8
AM_0
 10
184.44817525987611
 20
166.55596679849779
 30
0.0
 70
    32
  0
VERTEX
  5
1845C
  8
AM_0
 10
184.4521752598761
 20
166.5539667984977
 30
0.0
 70
    32
  0
VERTEX
  5
1845D
  8
AM_0
 10
184.4561752598762
 20
166.55196679849769
 30
0.0
 70
    32
  0
VERTEX
  5
1845E
  8
AM_0
 10
184.4591752598761
 20
166.54996679849759
 30
0.0
 70
    32
  0
VERTEX
  5
1845F
  8
AM_0
 10
184.46317525987629
 20
166.5479667984977
 30
0.0
 70
    32
  0
VERTEX
  5
18460
  8
AM_0
 10
184.46717525987609
 20
166.545966798498
 30
0.0
 70
    32
  0
VERTEX
  5
18461
  8
AM_0
 10
184.47117525987619
 20
166.5439667984981
 30
0.0
 70
    32
  0
VERTEX
  5
18462
  8
AM_0
 10
184.47517525987641
 20
166.5419667984977
 30
0.0
 70
    32
  0
VERTEX
  5
18463
  8
AM_0
 10
184.47817525987591
 20
166.54096679849781
 30
0.0
 70
    32
  0
VERTEX
  5
18464
  8
AM_0
 10
184.4821752598761
 20
166.53896679849791
 30
0.0
 70
    32
  0
VERTEX
  5
18465
  8
AM_0
 10
184.48617525987621
 20
166.5369667984977
 30
0.0
 70
    32
  0
VERTEX
  5
18466
  8
AM_0
 10
184.490175259876
 20
166.534966798498
 30
0.0
 70
    32
  0
VERTEX
  5
18467
  8
AM_0
 10
184.49417525987619
 20
166.53296679849771
 30
0.0
 70
    32
  0
VERTEX
  5
18468
  8
AM_0
 10
184.49817525987589
 20
166.53096679849779
 30
0.0
 70
    32
  0
VERTEX
  5
18469
  8
AM_0
 10
184.50217525987611
 20
166.52996679849781
 30
0.0
 70
    32
  0
VERTEX
  5
1846A
  8
AM_0
 10
184.50517525987601
 20
166.52796679849769
 30
0.0
 70
    32
  0
VERTEX
  5
1846B
  8
AM_0
 10
184.50917525987609
 20
166.52596679849779
 30
0.0
 70
    32
  0
VERTEX
  5
1846C
  8
AM_0
 10
184.51317525987611
 20
166.52396679849809
 30
0.0
 70
    32
  0
VERTEX
  5
1846D
  8
AM_0
 10
184.51717525987601
 20
166.52296679849761
 30
0.0
 70
    32
  0
VERTEX
  5
1846E
  8
AM_0
 10
184.52117525987609
 20
166.52096679849771
 30
0.0
 70
    32
  0
VERTEX
  5
1846F
  8
AM_0
 10
184.52517525987611
 20
166.5189667984979
 30
0.0
 70
    32
  0
VERTEX
  5
18470
  8
AM_0
 10
184.5291752598761
 20
166.5179667984977
 30
0.0
 70
    32
  0
VERTEX
  5
18471
  8
AM_0
 10
184.53317525987609
 20
166.515966798498
 30
0.0
 70
    32
  0
VERTEX
  5
18472
  8
AM_0
 10
184.5371752598758
 20
166.51396679849779
 30
0.0
 70
    32
  0
VERTEX
  5
18473
  8
AM_0
 10
184.5411752598759
 20
166.5129667984979
 30
0.0
 70
    32
  0
VERTEX
  5
18474
  8
AM_0
 10
184.54517525987589
 20
166.5109667984978
 30
0.0
 70
    32
  0
VERTEX
  5
18475
  8
AM_0
 10
184.54917525987611
 20
166.5099667984978
 30
0.0
 70
    32
  0
VERTEX
  5
18476
  8
AM_0
 10
184.55317525987621
 20
166.5079667984979
 30
0.0
 70
    32
  0
VERTEX
  5
18477
  8
AM_0
 10
184.557175259876
 20
166.5069667984981
 30
0.0
 70
    32
  0
VERTEX
  5
18478
  8
AM_0
 10
184.56117525987611
 20
166.50496679849761
 30
0.0
 70
    32
  0
VERTEX
  5
18479
  8
AM_0
 10
184.5651752598761
 20
166.50396679849811
 30
0.0
 70
    32
  0
VERTEX
  5
1847A
  8
AM_0
 10
184.56917525987569
 20
166.50296679849791
 30
0.0
 70
    32
  0
VERTEX
  5
1847B
  8
AM_0
 10
184.57317525987591
 20
166.5009667984977
 30
0.0
 70
    32
  0
VERTEX
  5
1847C
  8
AM_0
 10
184.57717525987599
 20
166.49996679849781
 30
0.0
 70
    32
  0
VERTEX
  5
1847D
  8
AM_0
 10
184.58117525987609
 20
166.498966798498
 30
0.0
 70
    32
  0
VERTEX
  5
1847E
  8
AM_0
 10
184.585175259876
 20
166.49696679849811
 30
0.0
 70
    32
  0
VERTEX
  5
1847F
  8
AM_0
 10
184.58917525987641
 20
166.49596679849779
 30
0.0
 70
    32
  0
VERTEX
  5
18480
  8
AM_0
 10
184.5931752598762
 20
166.49496679849801
 30
0.0
 70
    32
  0
VERTEX
  5
18481
  8
AM_0
 10
184.5981752598762
 20
166.49396679849781
 30
0.0
 70
    32
  0
VERTEX
  5
18482
  8
AM_0
 10
184.60217525987611
 20
166.49296679849789
 30
0.0
 70
    32
  0
VERTEX
  5
18483
  8
AM_0
 10
184.6061752598761
 20
166.49096679849791
 30
0.0
 70
    32
  0
VERTEX
  5
18484
  8
AM_0
 10
184.61017525987609
 20
166.48996679849759
 30
0.0
 70
    32
  0
VERTEX
  5
18485
  8
AM_0
 10
184.61417525987579
 20
166.48896679849781
 30
0.0
 70
    32
  0
VERTEX
  5
18486
  8
AM_0
 10
184.6181752598759
 20
166.48796679849789
 30
0.0
 70
    32
  0
VERTEX
  5
18487
  8
AM_0
 10
184.62217525987609
 20
166.48696679849749
 30
0.0
 70
    32
  0
VERTEX
  5
18488
  8
AM_0
 10
184.62617525987611
 20
166.485966798498
 30
0.0
 70
    32
  0
VERTEX
  5
18489
  8
AM_0
 10
184.6311752598761
 20
166.48496679849779
 30
0.0
 70
    32
  0
VERTEX
  5
1848A
  8
AM_0
 10
184.63517525987601
 20
166.48396679849779
 30
0.0
 70
    32
  0
VERTEX
  5
1848B
  8
AM_0
 10
184.63917525987611
 20
166.4829667984979
 30
0.0
 70
    32
  0
VERTEX
  5
1848C
  8
AM_0
 10
184.6431752598761
 20
166.48196679849769
 30
0.0
 70
    32
  0
VERTEX
  5
1848D
  8
AM_0
 10
184.64717525987629
 20
166.48096679849789
 30
0.0
 70
    32
  0
VERTEX
  5
1848E
  8
AM_0
 10
184.65117525987611
 20
166.47996679849771
 30
0.0
 70
    32
  0
VERTEX
  5
1848F
  8
AM_0
 10
184.65617525987639
 20
166.47996679849771
 30
0.0
 70
    32
  0
VERTEX
  5
18490
  8
AM_0
 10
184.66017525987621
 20
166.47896679849779
 30
0.0
 70
    32
  0
VERTEX
  5
18491
  8
AM_0
 10
184.6641752598758
 20
166.47796679849779
 30
0.0
 70
    32
  0
VERTEX
  5
18492
  8
AM_0
 10
184.66817525987591
 20
166.4769667984981
 30
0.0
 70
    32
  0
VERTEX
  5
18493
  8
AM_0
 10
184.6721752598759
 20
166.47596679849789
 30
0.0
 70
    32
  0
VERTEX
  5
18494
  8
AM_0
 10
184.6771752598759
 20
166.47596679849789
 30
0.0
 70
    32
  0
VERTEX
  5
18495
  8
AM_0
 10
184.68117525987591
 20
166.47496679849769
 30
0.0
 70
    32
  0
VERTEX
  5
18496
  8
AM_0
 10
184.68517525987619
 20
166.4739667984976
 30
0.0
 70
    32
  0
VERTEX
  5
18497
  8
AM_0
 10
184.68917525987609
 20
166.4739667984976
 30
0.0
 70
    32
  0
VERTEX
  5
18498
  8
AM_0
 10
184.69417525987609
 20
166.47296679849791
 30
0.0
 70
    32
  0
VERTEX
  5
18499
  8
AM_0
 10
184.69817525987611
 20
166.4719667984979
 30
0.0
 70
    32
  0
VERTEX
  5
1849A
  8
AM_0
 10
184.70217525987599
 20
166.4719667984979
 30
0.0
 70
    32
  0
VERTEX
  5
1849B
  8
AM_0
 10
184.70617525987609
 20
166.4709667984979
 30
0.0
 70
    32
  0
VERTEX
  5
1849C
  8
AM_0
 10
184.71117525987589
 20
166.4709667984979
 30
0.0
 70
    32
  0
VERTEX
  5
1849D
  8
AM_0
 10
184.71517525987639
 20
166.46996679849769
 30
0.0
 70
    32
  0
VERTEX
  5
1849E
  8
AM_0
 10
184.7191752598759
 20
166.46996679849769
 30
0.0
 70
    32
  0
VERTEX
  5
1849F
  8
AM_0
 10
184.7231752598762
 20
166.468966798498
 30
0.0
 70
    32
  0
VERTEX
  5
184A0
  8
AM_0
 10
184.728175259876
 20
166.468966798498
 30
0.0
 70
    32
  0
VERTEX
  5
184A1
  8
AM_0
 10
184.7321752598759
 20
166.468966798498
 30
0.0
 70
    32
  0
VERTEX
  5
184A2
  8
AM_0
 10
184.73617525987589
 20
166.46796679849791
 30
0.0
 70
    32
  0
VERTEX
  5
184A3
  8
AM_0
 10
184.74017525987611
 20
166.46796679849791
 30
0.0
 70
    32
  0
VERTEX
  5
184A4
  8
AM_0
 10
184.74517525987611
 20
166.46796679849791
 30
0.0
 70
    32
  0
VERTEX
  5
184A5
  8
AM_0
 10
184.74917525987601
 20
166.46796679849791
 30
0.0
 70
    32
  0
VERTEX
  5
184A6
  8
AM_0
 10
184.7531752598762
 20
166.46696679849771
 30
0.0
 70
    32
  0
VERTEX
  5
184A7
  8
AM_0
 10
184.75717525987611
 20
166.46696679849771
 30
0.0
 70
    32
  0
VERTEX
  5
184A8
  8
AM_0
 10
184.76217525987619
 20
166.46696679849771
 30
0.0
 70
    32
  0
VERTEX
  5
184A9
  8
AM_0
 10
184.76617525987589
 20
166.46696679849771
 30
0.0
 70
    32
  0
VERTEX
  5
184AA
  8
AM_0
 10
184.77017525987611
 20
166.46696679849771
 30
0.0
 70
    32
  0
VERTEX
  5
184AB
  8
AM_0
 10
184.77517525987611
 20
166.46696679849771
 30
0.0
 70
    32
  0
VERTEX
  5
184AC
  8
AM_0
 10
184.77917525987601
 20
166.46696679849771
 30
0.0
 70
    32
  0
VERTEX
  5
184AD
  8
AM_0
 10
184.78317525987609
 20
166.46696679849771
 30
0.0
 70
    32
  0
VERTEX
  5
184AE
  8
AM_0
 10
184.78717525987611
 20
166.46696679849771
 30
0.0
 70
    32
  0
VERTEX
  5
184AF
  8
AM_0
 10
184.79217525987639
 20
166.46696679849771
 30
0.0
 70
    32
  0
VERTEX
  5
184B0
  8
AM_0
 10
184.79617525987601
 20
166.46796679849791
 30
0.0
 70
    32
  0
VERTEX
  5
184B1
  8
AM_0
 10
184.80017525987611
 20
166.46796679849791
 30
0.0
 70
    32
  0
VERTEX
  5
184B2
  8
AM_0
 10
184.80417525987579
 20
166.46796679849791
 30
0.0
 70
    32
  0
VERTEX
  5
184B3
  8
AM_0
 10
184.80917525987579
 20
166.46796679849791
 30
0.0
 70
    32
  0
VERTEX
  5
184B4
  8
AM_0
 10
184.81317525987589
 20
166.468966798498
 30
0.0
 70
    32
  0
VERTEX
  5
184B5
  8
AM_0
 10
184.81717525987611
 20
166.468966798498
 30
0.0
 70
    32
  0
VERTEX
  5
184B6
  8
AM_0
 10
184.82117525987621
 20
166.468966798498
 30
0.0
 70
    32
  0
VERTEX
  5
184B7
  8
AM_0
 10
184.82617525987601
 20
166.46996679849769
 30
0.0
 70
    32
  0
VERTEX
  5
184B8
  8
AM_0
 10
184.83017525987611
 20
166.46996679849769
 30
0.0
 70
    32
  0
VERTEX
  5
184B9
  8
AM_0
 10
184.8341752598761
 20
166.46996679849769
 30
0.0
 70
    32
  0
VERTEX
  5
184BA
  8
AM_0
 10
184.83817525987629
 20
166.4709667984979
 30
0.0
 70
    32
  0
VERTEX
  5
184BB
  8
AM_0
 10
184.84317525987609
 20
166.4709667984979
 30
0.0
 70
    32
  0
VERTEX
  5
184BC
  8
AM_0
 10
184.84717525987611
 20
166.4719667984979
 30
0.0
 70
    32
  0
VERTEX
  5
184BD
  8
AM_0
 10
184.85117525987619
 20
166.4719667984979
 30
0.0
 70
    32
  0
VERTEX
  5
184BE
  8
AM_0
 10
184.85517525987589
 20
166.47296679849791
 30
0.0
 70
    32
  0
VERTEX
  5
184BF
  8
AM_0
 10
184.860175259876
 20
166.47296679849791
 30
0.0
 70
    32
  0
VERTEX
  5
184C0
  8
AM_0
 10
184.86417525987611
 20
166.4739667984976
 30
0.0
 70
    32
  0
VERTEX
  5
184C1
  8
AM_0
 10
184.8681752598763
 20
166.4739667984976
 30
0.0
 70
    32
  0
VERTEX
  5
184C2
  8
AM_0
 10
184.8721752598758
 20
166.47496679849769
 30
0.0
 70
    32
  0
VERTEX
  5
184C3
  8
AM_0
 10
184.87717525987611
 20
166.47496679849769
 30
0.0
 70
    32
  0
VERTEX
  5
184C4
  8
AM_0
 10
184.8811752598759
 20
166.47596679849789
 30
0.0
 70
    32
  0
VERTEX
  5
184C5
  8
AM_0
 10
184.88517525987601
 20
166.47596679849789
 30
0.0
 70
    32
  0
VERTEX
  5
184C6
  8
AM_0
 10
184.88917525987611
 20
166.4769667984981
 30
0.0
 70
    32
  0
SEQEND
  5
184C7
  8
AM_0
  0
LINE
  5
184C8
  8
AM_0
 10
182.65959006292061
 20
183.46701386357191
 30
0.0
 11
171.15959006292061
 21
183.46701386357191
 31
0.0
  0
LINE
  5
184C9
  8
AM_0
 10
182.65959006292061
 20
194.83163512442161
 30
0.0
 11
182.65959006292061
 21
183.46701386357191
 31
0.0
  0
LINE
  5
184CA
  8
AM_0
 10
182.07959006291929
 20
179.46701386357179
 30
0.0
 11
173.25959006291879
 21
178.0020138635721
 31
0.0
  0
LINE
  5
184CB
  8
AM_0
 10
212.65959006291911
 20
183.46701386357191
 30
0.0
 11
243.15959006291899
 21
183.46701386357191
 31
0.0
  0
LINE
  5
184CC
  8
AM_0
 10
201.65959006291919
 20
193.750227423344
 30
0.0
 11
212.65959006291911
 21
193.750227423344
 31
0.0
  0
LINE
  5
184CD
  8
AM_0
 10
201.65959006291919
 20
179.46701386357211
 30
0.0
 11
201.65959006291919
 21
193.750227423344
 31
0.0
  0
LINE
  5
184CE
  8
AM_0
 10
212.65959006291911
 20
193.750227423344
 30
0.0
 11
212.65959006291911
 21
179.46701386357211
 31
0.0
  0
LINE
  5
184CF
  8
AM_0
 10
243.1595900629207
 20
166.96701386357191
 30
0.0
 11
243.1595900629207
 21
194.03683617112401
 31
0.0
  0
LINE
  5
184D0
  8
AM_0
 10
230.7897415819358
 20
179.46701386357179
 30
0.0
 11
230.7897415819358
 21
168.96701386357171
 31
0.0
  0
LINE
  5
184D1
  8
AM_0
 10
241.05959006291849
 20
168.96701386357171
 30
0.0
 11
241.05959006291849
 21
178.0020138635721
 31
0.0
  0
POLYLINE
  5
184D2
  8
AM_0
 66
     1
 10
0.0
 20
0.0
 30
0.0
 70
     8
  0
VERTEX
  5
184D3
  8
AM_0
 10
229.64977525987621
 20
166.4769667984981
 30
0.0
 70
    32
  0
VERTEX
  5
184D4
  8
AM_0
 10
229.6539752598762
 20
166.47796679849779
 30
0.0
 70
    32
  0
VERTEX
  5
184D5
  8
AM_0
 10
229.65827525987589
 20
166.47896679849779
 30
0.0
 70
    32
  0
VERTEX
  5
184D6
  8
AM_0
 10
229.662475259876
 20
166.47996679849771
 30
0.0
 70
    32
  0
VERTEX
  5
184D7
  8
AM_0
 10
229.666775259876
 20
166.48096679849789
 30
0.0
 70
    32
  0
VERTEX
  5
184D8
  8
AM_0
 10
229.6709752598762
 20
166.48196679849769
 30
0.0
 70
    32
  0
VERTEX
  5
184D9
  8
AM_0
 10
229.67527525987629
 20
166.4829667984979
 30
0.0
 70
    32
  0
VERTEX
  5
184DA
  8
AM_0
 10
229.67947525987589
 20
166.48396679849779
 30
0.0
 70
    32
  0
VERTEX
  5
184DB
  8
AM_0
 10
229.6836752598762
 20
166.48496679849779
 30
0.0
 70
    32
  0
VERTEX
  5
184DC
  8
AM_0
 10
229.68797525987591
 20
166.485966798498
 30
0.0
 70
    32
  0
VERTEX
  5
184DD
  8
AM_0
 10
229.692175259876
 20
166.48696679849749
 30
0.0
 70
    32
  0
VERTEX
  5
184DE
  8
AM_0
 10
229.69637525987619
 20
166.48796679849789
 30
0.0
 70
    32
  0
VERTEX
  5
184DF
  8
AM_0
 10
229.70067525987631
 20
166.48896679849781
 30
0.0
 70
    32
  0
VERTEX
  5
184E0
  8
AM_0
 10
229.7048752598765
 20
166.48996679849759
 30
0.0
 70
    32
  0
VERTEX
  5
184E1
  8
AM_0
 10
229.70907525987619
 20
166.49096679849791
 30
0.0
 70
    32
  0
VERTEX
  5
184E2
  8
AM_0
 10
229.71327525987579
 20
166.49196679849791
 30
0.0
 70
    32
  0
VERTEX
  5
184E3
  8
AM_0
 10
229.71747525987621
 20
166.49296679849789
 30
0.0
 70
    32
  0
VERTEX
  5
184E4
  8
AM_0
 10
229.72167525987609
 20
166.49496679849801
 30
0.0
 70
    32
  0
VERTEX
  5
184E5
  8
AM_0
 10
229.72587525987569
 20
166.49596679849779
 30
0.0
 70
    32
  0
VERTEX
  5
184E6
  8
AM_0
 10
229.72997525987611
 20
166.49696679849811
 30
0.0
 70
    32
  0
VERTEX
  5
184E7
  8
AM_0
 10
229.73417525987639
 20
166.49796679849791
 30
0.0
 70
    32
  0
VERTEX
  5
184E8
  8
AM_0
 10
229.73837525987599
 20
166.498966798498
 30
0.0
 70
    32
  0
VERTEX
  5
184E9
  8
AM_0
 10
229.7424752598759
 20
166.5009667984977
 30
0.0
 70
    32
  0
VERTEX
  5
184EA
  8
AM_0
 10
229.74667525987621
 20
166.5019667984977
 30
0.0
 70
    32
  0
VERTEX
  5
184EB
  8
AM_0
 10
229.75077525987609
 20
166.50296679849791
 30
0.0
 70
    32
  0
VERTEX
  5
184EC
  8
AM_0
 10
229.754875259876
 20
166.50496679849761
 30
0.0
 70
    32
  0
VERTEX
  5
184ED
  8
AM_0
 10
229.75897525987611
 20
166.50596679849781
 30
0.0
 70
    32
  0
VERTEX
  5
184EE
  8
AM_0
 10
229.76317525987611
 20
166.5069667984981
 30
0.0
 70
    32
  0
VERTEX
  5
184EF
  8
AM_0
 10
229.76717525987621
 20
166.5089667984978
 30
0.0
 70
    32
  0
VERTEX
  5
184F0
  8
AM_0
 10
229.77127525987609
 20
166.5099667984978
 30
0.0
 70
    32
  0
VERTEX
  5
184F1
  8
AM_0
 10
229.77537525987589
 20
166.51196679849789
 30
0.0
 70
    32
  0
VERTEX
  5
184F2
  8
AM_0
 10
229.77947525987619
 20
166.5129667984979
 30
0.0
 70
    32
  0
VERTEX
  5
184F3
  8
AM_0
 10
229.78347525987601
 20
166.51496679849799
 30
0.0
 70
    32
  0
VERTEX
  5
184F4
  8
AM_0
 10
229.78757525987621
 20
166.515966798498
 30
0.0
 70
    32
  0
VERTEX
  5
184F5
  8
AM_0
 10
229.791575259876
 20
166.5179667984977
 30
0.0
 70
    32
  0
VERTEX
  5
184F6
  8
AM_0
 10
229.7955752598761
 20
166.51996679849799
 30
0.0
 70
    32
  0
VERTEX
  5
184F7
  8
AM_0
 10
229.79957525987621
 20
166.52096679849771
 30
0.0
 70
    32
  0
VERTEX
  5
184F8
  8
AM_0
 10
229.8035752598762
 20
166.52296679849761
 30
0.0
 70
    32
  0
VERTEX
  5
184F9
  8
AM_0
 10
229.80757525987619
 20
166.52496679849759
 30
0.0
 70
    32
  0
VERTEX
  5
184FA
  8
AM_0
 10
229.81157525987609
 20
166.5269667984976
 30
0.0
 70
    32
  0
VERTEX
  5
184FB
  8
AM_0
 10
229.81547525987639
 20
166.52796679849769
 30
0.0
 70
    32
  0
VERTEX
  5
184FC
  8
AM_0
 10
229.8194752598759
 20
166.52996679849781
 30
0.0
 70
    32
  0
VERTEX
  5
184FD
  8
AM_0
 10
229.8233752598762
 20
166.5319667984979
 30
0.0
 70
    32
  0
VERTEX
  5
184FE
  8
AM_0
 10
229.82737525987631
 20
166.53396679849769
 30
0.0
 70
    32
  0
VERTEX
  5
184FF
  8
AM_0
 10
229.83127525987609
 20
166.53596679849781
 30
0.0
 70
    32
  0
VERTEX
  5
18500
  8
AM_0
 10
229.835175259876
 20
166.53796679849771
 30
0.0
 70
    32
  0
VERTEX
  5
18501
  8
AM_0
 10
229.83907525987621
 20
166.5399667984976
 30
0.0
 70
    32
  0
VERTEX
  5
18502
  8
AM_0
 10
229.8429752598762
 20
166.5419667984977
 30
0.0
 70
    32
  0
VERTEX
  5
18503
  8
AM_0
 10
229.84687525987621
 20
166.5439667984981
 30
0.0
 70
    32
  0
VERTEX
  5
18504
  8
AM_0
 10
229.8507752598762
 20
166.545966798498
 30
0.0
 70
    32
  0
VERTEX
  5
18505
  8
AM_0
 10
229.85457525987621
 20
166.5479667984977
 30
0.0
 70
    32
  0
VERTEX
  5
18506
  8
AM_0
 10
229.8584752598762
 20
166.54996679849759
 30
0.0
 70
    32
  0
VERTEX
  5
18507
  8
AM_0
 10
229.8622752598761
 20
166.55196679849769
 30
0.0
 70
    32
  0
VERTEX
  5
18508
  8
AM_0
 10
229.86607525987611
 20
166.5539667984977
 30
0.0
 70
    32
  0
VERTEX
  5
18509
  8
AM_0
 10
229.86997525987579
 20
166.55596679849779
 30
0.0
 70
    32
  0
VERTEX
  5
1850A
  8
AM_0
 10
229.8737752598762
 20
166.55796679849789
 30
0.0
 70
    32
  0
VERTEX
  5
1850B
  8
AM_0
 10
229.8775752598759
 20
166.55996679849761
 30
0.0
 70
    32
  0
VERTEX
  5
1850C
  8
AM_0
 10
229.88127525987611
 20
166.56196679849799
 30
0.0
 70
    32
  0
VERTEX
  5
1850D
  8
AM_0
 10
229.885075259876
 20
166.56396679849809
 30
0.0
 70
    32
  0
VERTEX
  5
1850E
  8
AM_0
 10
229.8888752598759
 20
166.56696679849799
 30
0.0
 70
    32
  0
VERTEX
  5
1850F
  8
AM_0
 10
229.8925752598762
 20
166.56896679849791
 30
0.0
 70
    32
  0
VERTEX
  5
18510
  8
AM_0
 10
229.89637525987621
 20
166.57096679849809
 30
0.0
 70
    32
  0
VERTEX
  5
18511
  8
AM_0
 10
229.9000752598759
 20
166.57296679849799
 30
0.0
 70
    32
  0
VERTEX
  5
18512
  8
AM_0
 10
229.90377525987611
 20
166.57596679849789
 30
0.0
 70
    32
  0
VERTEX
  5
18513
  8
AM_0
 10
229.9075752598761
 20
166.5779667984979
 30
0.0
 70
    32
  0
VERTEX
  5
18514
  8
AM_0
 10
229.91127525987611
 20
166.57996679849759
 30
0.0
 70
    32
  0
VERTEX
  5
18515
  8
AM_0
 10
229.914875259876
 20
166.581966798498
 30
0.0
 70
    32
  0
VERTEX
  5
18516
  8
AM_0
 10
229.91857525987589
 20
166.5849667984977
 30
0.0
 70
    32
  0
VERTEX
  5
18517
  8
AM_0
 10
229.92227525987619
 20
166.5869667984976
 30
0.0
 70
    32
  0
VERTEX
  5
18518
  8
AM_0
 10
229.92587525987599
 20
166.58896679849789
 30
0.0
 70
    32
  0
VERTEX
  5
18519
  8
AM_0
 10
229.92957525987609
 20
166.59196679849779
 30
0.0
 70
    32
  0
VERTEX
  5
1851A
  8
AM_0
 10
229.93317525987621
 20
166.593966798498
 30
0.0
 70
    32
  0
VERTEX
  5
1851B
  8
AM_0
 10
229.93687525987619
 20
166.5969667984979
 30
0.0
 70
    32
  0
VERTEX
  5
1851C
  8
AM_0
 10
229.94047525987611
 20
166.59896679849771
 30
0.0
 70
    32
  0
VERTEX
  5
1851D
  8
AM_0
 10
229.94407525987631
 20
166.60096679849781
 30
0.0
 70
    32
  0
VERTEX
  5
1851E
  8
AM_0
 10
229.94767525987621
 20
166.60396679849771
 30
0.0
 70
    32
  0
VERTEX
  5
1851F
  8
AM_0
 10
229.95117525987609
 20
166.60596679849769
 30
0.0
 70
    32
  0
VERTEX
  5
18520
  8
AM_0
 10
229.9547752598761
 20
166.60896679849779
 30
0.0
 70
    32
  0
VERTEX
  5
18521
  8
AM_0
 10
229.95837525987599
 20
166.61096679849811
 30
0.0
 70
    32
  0
VERTEX
  5
18522
  8
AM_0
 10
229.96187525987611
 20
166.61396679849801
 30
0.0
 70
    32
  0
VERTEX
  5
18523
  8
AM_0
 10
229.96537525987591
 20
166.61596679849771
 30
0.0
 70
    32
  0
VERTEX
  5
18524
  8
AM_0
 10
229.96887525987611
 20
166.61896679849781
 30
0.0
 70
    32
  0
VERTEX
  5
18525
  8
AM_0
 10
229.97247525987629
 20
166.62196679849791
 30
0.0
 70
    32
  0
VERTEX
  5
18526
  8
AM_0
 10
229.97587525987601
 20
166.623966798498
 30
0.0
 70
    32
  0
VERTEX
  5
18527
  8
AM_0
 10
229.97937525987629
 20
166.62696679849759
 30
0.0
 70
    32
  0
VERTEX
  5
18528
  8
AM_0
 10
229.98287525987601
 20
166.628966798498
 30
0.0
 70
    32
  0
VERTEX
  5
18529
  8
AM_0
 10
229.9863752598761
 20
166.6319667984979
 30
0.0
 70
    32
  0
VERTEX
  5
1852A
  8
AM_0
 10
229.98977525987621
 20
166.63496679849791
 30
0.0
 70
    32
  0
VERTEX
  5
1852B
  8
AM_0
 10
229.99327525987621
 20
166.63696679849789
 30
0.0
 70
    32
  0
VERTEX
  5
1852C
  8
AM_0
 10
229.9966752598765
 20
166.63996679849799
 30
0.0
 70
    32
  0
VERTEX
  5
1852D
  8
AM_0
 10
230.00007525987581
 20
166.64296679849781
 30
0.0
 70
    32
  0
VERTEX
  5
1852E
  8
AM_0
 10
230.0034752598763
 20
166.64496679849779
 30
0.0
 70
    32
  0
VERTEX
  5
1852F
  8
AM_0
 10
230.0068752598761
 20
166.64796679849761
 30
0.0
 70
    32
  0
VERTEX
  5
18530
  8
AM_0
 10
230.01027525987601
 20
166.6509667984979
 30
0.0
 70
    32
  0
VERTEX
  5
18531
  8
AM_0
 10
230.01357525987609
 20
166.653966798498
 30
0.0
 70
    32
  0
VERTEX
  5
18532
  8
AM_0
 10
230.0169752598764
 20
166.6559667984979
 30
0.0
 70
    32
  0
VERTEX
  5
18533
  8
AM_0
 10
230.020275259876
 20
166.6589667984978
 30
0.0
 70
    32
  0
VERTEX
  5
18534
  8
AM_0
 10
230.023675259876
 20
166.6619667984977
 30
0.0
 70
    32
  0
VERTEX
  5
18535
  8
AM_0
 10
230.02697525987611
 20
166.6649667984978
 30
0.0
 70
    32
  0
VERTEX
  5
18536
  8
AM_0
 10
230.03027525987571
 20
166.66696679849761
 30
0.0
 70
    32
  0
VERTEX
  5
18537
  8
AM_0
 10
230.0335752598761
 20
166.6699667984978
 30
0.0
 70
    32
  0
VERTEX
  5
18538
  8
AM_0
 10
230.0368752598761
 20
166.67296679849781
 30
0.0
 70
    32
  0
VERTEX
  5
18539
  8
AM_0
 10
230.04017525987589
 20
166.67596679849791
 30
0.0
 70
    32
  0
VERTEX
  5
1853A
  8
AM_0
 10
230.04347525987609
 20
166.67896679849781
 30
0.0
 70
    32
  0
VERTEX
  5
1853B
  8
AM_0
 10
230.0466752598762
 20
166.68196679849771
 30
0.0
 70
    32
  0
VERTEX
  5
1853C
  8
AM_0
 10
230.04997525987599
 20
166.68496679849761
 30
0.0
 70
    32
  0
VERTEX
  5
1853D
  8
AM_0
 10
230.0531752598759
 20
166.6879667984978
 30
0.0
 70
    32
  0
VERTEX
  5
1853E
  8
AM_0
 10
230.05637525987589
 20
166.69096679849801
 30
0.0
 70
    32
  0
VERTEX
  5
1853F
  8
AM_0
 10
230.05957525987611
 20
166.69296679849771
 30
0.0
 70
    32
  0
VERTEX
  5
18540
  8
AM_0
 10
230.0627752598765
 20
166.69596679849801
 30
0.0
 70
    32
  0
VERTEX
  5
18541
  8
AM_0
 10
230.06597525987621
 20
166.69896679849779
 30
0.0
 70
    32
  0
VERTEX
  5
18542
  8
AM_0
 10
230.069175259876
 20
166.70196679849769
 30
0.0
 70
    32
  0
VERTEX
  5
18543
  8
AM_0
 10
230.07237525987631
 20
166.70496679849779
 30
0.0
 70
    32
  0
VERTEX
  5
18544
  8
AM_0
 10
230.0754752598761
 20
166.70796679849769
 30
0.0
 70
    32
  0
VERTEX
  5
18545
  8
AM_0
 10
230.07867525987621
 20
166.71096679849771
 30
0.0
 70
    32
  0
VERTEX
  5
18546
  8
AM_0
 10
230.081775259876
 20
166.71396679849789
 30
0.0
 70
    32
  0
VERTEX
  5
18547
  8
AM_0
 10
230.0848752598763
 20
166.71696679849779
 30
0.0
 70
    32
  0
VERTEX
  5
18548
  8
AM_0
 10
230.08807525987601
 20
166.71996679849781
 30
0.0
 70
    32
  0
VERTEX
  5
18549
  8
AM_0
 10
230.09117525987639
 20
166.72296679849771
 30
0.0
 70
    32
  0
VERTEX
  5
1854A
  8
AM_0
 10
230.0942752598761
 20
166.72596679849761
 30
0.0
 70
    32
  0
VERTEX
  5
1854B
  8
AM_0
 10
230.09727525987589
 20
166.72896679849771
 30
0.0
 70
    32
  0
VERTEX
  5
1854C
  8
AM_0
 10
230.1003752598761
 20
166.7329667984977
 30
0.0
 70
    32
  0
VERTEX
  5
1854D
  8
AM_0
 10
230.10347525987629
 20
166.735966798498
 30
0.0
 70
    32
  0
VERTEX
  5
1854E
  8
AM_0
 10
230.10647525987631
 20
166.7389667984979
 30
0.0
 70
    32
  0
VERTEX
  5
1854F
  8
AM_0
 10
230.1095752598761
 20
166.7419667984978
 30
0.0
 70
    32
  0
VERTEX
  5
18550
  8
AM_0
 10
230.112575259876
 20
166.7449667984981
 30
0.0
 70
    32
  0
VERTEX
  5
18551
  8
AM_0
 10
230.11557525987621
 20
166.7479667984976
 30
0.0
 70
    32
  0
VERTEX
  5
18552
  8
AM_0
 10
230.11857525987611
 20
166.75096679849781
 30
0.0
 70
    32
  0
VERTEX
  5
18553
  8
AM_0
 10
230.12157525987601
 20
166.753966798498
 30
0.0
 70
    32
  0
VERTEX
  5
18554
  8
AM_0
 10
230.12457525987631
 20
166.7579667984977
 30
0.0
 70
    32
  0
VERTEX
  5
18555
  8
AM_0
 10
230.12757525987621
 20
166.7609667984978
 30
0.0
 70
    32
  0
VERTEX
  5
18556
  8
AM_0
 10
230.13057525987611
 20
166.7639667984979
 30
0.0
 70
    32
  0
VERTEX
  5
18557
  8
AM_0
 10
230.13347525987601
 20
166.766966798498
 30
0.0
 70
    32
  0
VERTEX
  5
18558
  8
AM_0
 10
230.13647525987591
 20
166.7699667984979
 30
0.0
 70
    32
  0
VERTEX
  5
18559
  8
AM_0
 10
230.13937525987629
 20
166.77296679849769
 30
0.0
 70
    32
  0
VERTEX
  5
1855A
  8
AM_0
 10
230.1423752598763
 20
166.7769667984978
 30
0.0
 70
    32
  0
VERTEX
  5
1855B
  8
AM_0
 10
230.1452752598762
 20
166.7799667984977
 30
0.0
 70
    32
  0
VERTEX
  5
1855C
  8
AM_0
 10
230.14817525987601
 20
166.78296679849771
 30
0.0
 70
    32
  0
VERTEX
  5
1855D
  8
AM_0
 10
230.15107525987619
 20
166.7859667984979
 30
0.0
 70
    32
  0
VERTEX
  5
1855E
  8
AM_0
 10
230.15397525987609
 20
166.78996679849789
 30
0.0
 70
    32
  0
VERTEX
  5
1855F
  8
AM_0
 10
230.15687525987599
 20
166.79296679849759
 30
0.0
 70
    32
  0
VERTEX
  5
18560
  8
AM_0
 10
230.15967525987631
 20
166.79596679849789
 30
0.0
 70
    32
  0
VERTEX
  5
18561
  8
AM_0
 10
230.16257525987589
 20
166.7989667984979
 30
0.0
 70
    32
  0
VERTEX
  5
18562
  8
AM_0
 10
230.1653752598763
 20
166.80296679849801
 30
0.0
 70
    32
  0
VERTEX
  5
18563
  8
AM_0
 10
230.16827525987631
 20
166.80596679849771
 30
0.0
 70
    32
  0
VERTEX
  5
18564
  8
AM_0
 10
230.1710752598762
 20
166.80896679849781
 30
0.0
 70
    32
  0
VERTEX
  5
18565
  8
AM_0
 10
230.17387525987601
 20
166.8129667984976
 30
0.0
 70
    32
  0
VERTEX
  5
18566
  8
AM_0
 10
230.17667525987599
 20
166.8159667984977
 30
0.0
 70
    32
  0
VERTEX
  5
18567
  8
AM_0
 10
230.1794752598762
 20
166.8189667984978
 30
0.0
 70
    32
  0
VERTEX
  5
18568
  8
AM_0
 10
230.18227525987621
 20
166.82296679849799
 30
0.0
 70
    32
  0
VERTEX
  5
18569
  8
AM_0
 10
230.18507525987599
 20
166.82596679849769
 30
0.0
 70
    32
  0
VERTEX
  5
1856A
  8
AM_0
 10
230.18787525987571
 20
166.82896679849779
 30
0.0
 70
    32
  0
VERTEX
  5
1856B
  8
AM_0
 10
230.1905752598758
 20
166.83296679849761
 30
0.0
 70
    32
  0
VERTEX
  5
1856C
  8
AM_0
 10
230.19337525987621
 20
166.83596679849771
 30
0.0
 70
    32
  0
VERTEX
  5
1856D
  8
AM_0
 10
230.19607525987621
 20
166.83896679849781
 30
0.0
 70
    32
  0
VERTEX
  5
1856E
  8
AM_0
 10
230.1988752598763
 20
166.84296679849791
 30
0.0
 70
    32
  0
VERTEX
  5
1856F
  8
AM_0
 10
230.20157525987631
 20
166.8459667984977
 30
0.0
 70
    32
  0
VERTEX
  5
18570
  8
AM_0
 10
230.20427525987631
 20
166.8499667984978
 30
0.0
 70
    32
  0
VERTEX
  5
18571
  8
AM_0
 10
230.20697525987629
 20
166.85296679849759
 30
0.0
 70
    32
  0
VERTEX
  5
18572
  8
AM_0
 10
230.20967525987589
 20
166.85596679849789
 30
0.0
 70
    32
  0
VERTEX
  5
18573
  8
AM_0
 10
230.21237525987601
 20
166.85996679849779
 30
0.0
 70
    32
  0
VERTEX
  5
18574
  8
AM_0
 10
230.21507525987619
 20
166.86296679849781
 30
0.0
 70
    32
  0
VERTEX
  5
18575
  8
AM_0
 10
230.21767525987619
 20
166.86696679849771
 30
0.0
 70
    32
  0
VERTEX
  5
18576
  8
AM_0
 10
230.2203752598765
 20
166.86996679849801
 30
0.0
 70
    32
  0
VERTEX
  5
18577
  8
AM_0
 10
230.2230752598762
 20
166.87396679849789
 30
0.0
 70
    32
  0
VERTEX
  5
18578
  8
AM_0
 10
230.2256752598758
 20
166.8769667984979
 30
0.0
 70
    32
  0
VERTEX
  5
18579
  8
AM_0
 10
230.22827525987611
 20
166.8799667984978
 30
0.0
 70
    32
  0
VERTEX
  5
1857A
  8
AM_0
 10
230.23087525987631
 20
166.8839667984978
 30
0.0
 70
    32
  0
VERTEX
  5
1857B
  8
AM_0
 10
230.23357525987609
 20
166.88696679849789
 30
0.0
 70
    32
  0
VERTEX
  5
1857C
  8
AM_0
 10
230.23617525987621
 20
166.890966798498
 30
0.0
 70
    32
  0
VERTEX
  5
1857D
  8
AM_0
 10
230.23877525987609
 20
166.89396679849779
 30
0.0
 70
    32
  0
VERTEX
  5
1857E
  8
AM_0
 10
230.24127525987629
 20
166.89796679849789
 30
0.0
 70
    32
  0
VERTEX
  5
1857F
  8
AM_0
 10
230.24387525987601
 20
166.90096679849799
 30
0.0
 70
    32
  0
VERTEX
  5
18580
  8
AM_0
 10
230.24647525987621
 20
166.90496679849801
 30
0.0
 70
    32
  0
VERTEX
  5
18581
  8
AM_0
 10
230.24897525987609
 20
166.90796679849771
 30
0.0
 70
    32
  0
VERTEX
  5
18582
  8
AM_0
 10
230.2515752598762
 20
166.91196679849801
 30
0.0
 70
    32
  0
VERTEX
  5
18583
  8
AM_0
 10
230.2540752598762
 20
166.914966798498
 30
0.0
 70
    32
  0
VERTEX
  5
18584
  8
AM_0
 10
230.256675259876
 20
166.9189667984981
 30
0.0
 70
    32
  0
VERTEX
  5
18585
  8
AM_0
 10
230.2591752598762
 20
166.92196679849769
 30
0.0
 70
    32
  0
VERTEX
  5
18586
  8
AM_0
 10
230.261675259876
 20
166.9259667984976
 30
0.0
 70
    32
  0
VERTEX
  5
18587
  8
AM_0
 10
230.26417525987611
 20
166.9299667984979
 30
0.0
 70
    32
  0
VERTEX
  5
18588
  8
AM_0
 10
230.26667525987639
 20
166.93296679849789
 30
0.0
 70
    32
  0
VERTEX
  5
18589
  8
AM_0
 10
230.26917525987611
 20
166.93696679849799
 30
0.0
 70
    32
  0
VERTEX
  5
1858A
  8
AM_0
 10
230.2716752598761
 20
166.93996679849781
 30
0.0
 70
    32
  0
VERTEX
  5
1858B
  8
AM_0
 10
230.2740752598761
 20
166.94396679849771
 30
0.0
 70
    32
  0
VERTEX
  5
1858C
  8
AM_0
 10
230.27657525987621
 20
166.94696679849781
 30
0.0
 70
    32
  0
VERTEX
  5
1858D
  8
AM_0
 10
230.27897525987609
 20
166.9509667984978
 30
0.0
 70
    32
  0
VERTEX
  5
1858E
  8
AM_0
 10
230.28147525987589
 20
166.95496679849791
 30
0.0
 70
    32
  0
VERTEX
  5
1858F
  8
AM_0
 10
230.283875259876
 20
166.95796679849749
 30
0.0
 70
    32
  0
VERTEX
  5
18590
  8
AM_0
 10
230.28627525987599
 20
166.9619667984976
 30
0.0
 70
    32
  0
VERTEX
  5
18591
  8
AM_0
 10
230.2887752598761
 20
166.96496679849761
 30
0.0
 70
    32
  0
VERTEX
  5
18592
  8
AM_0
 10
230.29117525987641
 20
166.968966798498
 30
0.0
 70
    32
  0
VERTEX
  5
18593
  8
AM_0
 10
230.29357525987601
 20
166.97296679849779
 30
0.0
 70
    32
  0
VERTEX
  5
18594
  8
AM_0
 10
230.29597525987609
 20
166.97596679849769
 30
0.0
 70
    32
  0
VERTEX
  5
18595
  8
AM_0
 10
230.2983752598762
 20
166.97996679849791
 30
0.0
 70
    32
  0
VERTEX
  5
18596
  8
AM_0
 10
230.3006752598761
 20
166.9839667984977
 30
0.0
 70
    32
  0
VERTEX
  5
18597
  8
AM_0
 10
230.3030752598759
 20
166.9869667984978
 30
0.0
 70
    32
  0
VERTEX
  5
18598
  8
AM_0
 10
230.305475259876
 20
166.99096679849771
 30
0.0
 70
    32
  0
VERTEX
  5
18599
  8
AM_0
 10
230.30777525987619
 20
166.9949667984981
 30
0.0
 70
    32
  0
VERTEX
  5
1859A
  8
AM_0
 10
230.31017525987599
 20
166.9979667984978
 30
0.0
 70
    32
  0
VERTEX
  5
1859B
  8
AM_0
 10
230.31247525987609
 20
167.0019667984979
 30
0.0
 70
    32
  0
VERTEX
  5
1859C
  8
AM_0
 10
230.31477525987589
 20
167.00596679849809
 30
0.0
 70
    32
  0
VERTEX
  5
1859D
  8
AM_0
 10
230.31707525987591
 20
167.00896679849771
 30
0.0
 70
    32
  0
VERTEX
  5
1859E
  8
AM_0
 10
230.3193752598763
 20
167.01296679849759
 30
0.0
 70
    32
  0
VERTEX
  5
1859F
  8
AM_0
 10
230.32177525987629
 20
167.01696679849789
 30
0.0
 70
    32
  0
VERTEX
  5
185A0
  8
AM_0
 10
230.32397525987619
 20
167.0199667984979
 30
0.0
 70
    32
  0
VERTEX
  5
185A1
  8
AM_0
 10
230.3262752598763
 20
167.02396679849801
 30
0.0
 70
    32
  0
VERTEX
  5
185A2
  8
AM_0
 10
230.3285752598762
 20
167.0279667984978
 30
0.0
 70
    32
  0
VERTEX
  5
185A3
  8
AM_0
 10
230.330875259876
 20
167.0309667984977
 30
0.0
 70
    32
  0
VERTEX
  5
185A4
  8
AM_0
 10
230.33317525987621
 20
167.034966798498
 30
0.0
 70
    32
  0
VERTEX
  5
185A5
  8
AM_0
 10
230.33537525987609
 20
167.0389667984978
 30
0.0
 70
    32
  0
VERTEX
  5
185A6
  8
AM_0
 10
230.33767525987611
 20
167.04296679849779
 30
0.0
 70
    32
  0
VERTEX
  5
185A7
  8
AM_0
 10
230.33987525987601
 20
167.0459667984976
 30
0.0
 70
    32
  0
VERTEX
  5
185A8
  8
AM_0
 10
230.3420752598762
 20
167.04996679849779
 30
0.0
 70
    32
  0
VERTEX
  5
185A9
  8
AM_0
 10
230.34437525987619
 20
167.05396679849781
 30
0.0
 70
    32
  0
VERTEX
  5
185AA
  8
AM_0
 10
230.3465752598762
 20
167.05696679849791
 30
0.0
 70
    32
  0
VERTEX
  5
185AB
  8
AM_0
 10
230.34877525987631
 20
167.0609667984977
 30
0.0
 70
    32
  0
VERTEX
  5
185AC
  8
AM_0
 10
230.35097525987629
 20
167.06496679849781
 30
0.0
 70
    32
  0
VERTEX
  5
185AD
  8
AM_0
 10
230.35317525987611
 20
167.0689667984978
 30
0.0
 70
    32
  0
VERTEX
  5
185AE
  8
AM_0
 10
230.35537525987601
 20
167.0719667984977
 30
0.0
 70
    32
  0
VERTEX
  5
185AF
  8
AM_0
 10
230.35747525987631
 20
167.07596679849769
 30
0.0
 70
    32
  0
VERTEX
  5
185B0
  8
AM_0
 10
230.35967525987621
 20
167.07996679849779
 30
0.0
 70
    32
  0
VERTEX
  5
185B1
  8
AM_0
 10
230.3618752598762
 20
167.08396679849781
 30
0.0
 70
    32
  0
VERTEX
  5
185B2
  8
AM_0
 10
230.36397525987621
 20
167.08796679849789
 30
0.0
 70
    32
  0
VERTEX
  5
185B3
  8
AM_0
 10
230.3661752598758
 20
167.09096679849799
 30
0.0
 70
    32
  0
VERTEX
  5
185B4
  8
AM_0
 10
230.3682752598763
 20
167.09496679849781
 30
0.0
 70
    32
  0
VERTEX
  5
185B5
  8
AM_0
 10
230.3704752598762
 20
167.0989667984976
 30
0.0
 70
    32
  0
VERTEX
  5
185B6
  8
AM_0
 10
230.3725752598763
 20
167.1029667984977
 30
0.0
 70
    32
  0
VERTEX
  5
185B7
  8
AM_0
 10
230.37467525987589
 20
167.105966798498
 30
0.0
 70
    32
  0
VERTEX
  5
185B8
  8
AM_0
 10
230.3767752598761
 20
167.10996679849779
 30
0.0
 70
    32
  0
VERTEX
  5
185B9
  8
AM_0
 10
230.37887525987651
 20
167.1139667984977
 30
0.0
 70
    32
  0
VERTEX
  5
185BA
  8
AM_0
 10
230.3809752598759
 20
167.11796679849789
 30
0.0
 70
    32
  0
VERTEX
  5
185BB
  8
AM_0
 10
230.38307525987611
 20
167.12196679849799
 30
0.0
 70
    32
  0
VERTEX
  5
185BC
  8
AM_0
 10
230.38517525987621
 20
167.12596679849801
 30
0.0
 70
    32
  0
VERTEX
  5
185BD
  8
AM_0
 10
230.38727525987599
 20
167.12896679849811
 30
0.0
 70
    32
  0
VERTEX
  5
185BE
  8
AM_0
 10
230.3892752598764
 20
167.13296679849799
 30
0.0
 70
    32
  0
VERTEX
  5
185BF
  8
AM_0
 10
230.3913752598759
 20
167.13696679849781
 30
0.0
 70
    32
  0
VERTEX
  5
185C0
  8
AM_0
 10
230.3934752598762
 20
167.14096679849791
 30
0.0
 70
    32
  0
VERTEX
  5
185C1
  8
AM_0
 10
230.39547525987621
 20
167.14496679849771
 30
0.0
 70
    32
  0
VERTEX
  5
185C2
  8
AM_0
 10
230.39757525987611
 20
167.14796679849781
 30
0.0
 70
    32
  0
VERTEX
  5
185C3
  8
AM_0
 10
230.399575259876
 20
167.15196679849799
 30
0.0
 70
    32
  0
VERTEX
  5
185C4
  8
AM_0
 10
230.40157525987621
 20
167.15596679849759
 30
0.0
 70
    32
  0
VERTEX
  5
185C5
  8
AM_0
 10
230.40357525987619
 20
167.15996679849809
 30
0.0
 70
    32
  0
VERTEX
  5
185C6
  8
AM_0
 10
230.4055752598762
 20
167.16396679849791
 30
0.0
 70
    32
  0
VERTEX
  5
185C7
  8
AM_0
 10
230.4075752598759
 20
167.16796679849779
 30
0.0
 70
    32
  0
VERTEX
  5
185C8
  8
AM_0
 10
230.40957525987599
 20
167.17196679849781
 30
0.0
 70
    32
  0
VERTEX
  5
185C9
  8
AM_0
 10
230.41157525987609
 20
167.17496679849791
 30
0.0
 70
    32
  0
VERTEX
  5
185CA
  8
AM_0
 10
230.41357525987621
 20
167.17896679849781
 30
0.0
 70
    32
  0
VERTEX
  5
185CB
  8
AM_0
 10
230.41557525987619
 20
167.182966798498
 30
0.0
 70
    32
  0
VERTEX
  5
185CC
  8
AM_0
 10
230.417575259876
 20
167.18696679849779
 30
0.0
 70
    32
  0
VERTEX
  5
185CD
  8
AM_0
 10
230.41947525987629
 20
167.1909667984977
 30
0.0
 70
    32
  0
VERTEX
  5
185CE
  8
AM_0
 10
230.42147525987599
 20
167.19496679849789
 30
0.0
 70
    32
  0
VERTEX
  5
185CF
  8
AM_0
 10
230.42337525987631
 20
167.19896679849799
 30
0.0
 70
    32
  0
VERTEX
  5
185D0
  8
AM_0
 10
230.4253752598762
 20
167.2029667984979
 30
0.0
 70
    32
  0
VERTEX
  5
185D1
  8
AM_0
 10
230.4272752598761
 20
167.20696679849809
 30
0.0
 70
    32
  0
VERTEX
  5
185D2
  8
AM_0
 10
230.42917525987599
 20
167.20996679849799
 30
0.0
 70
    32
  0
VERTEX
  5
185D3
  8
AM_0
 10
230.431175259876
 20
167.21396679849761
 30
0.0
 70
    32
  0
VERTEX
  5
185D4
  8
AM_0
 10
230.43307525987601
 20
167.21796679849791
 30
0.0
 70
    32
  0
VERTEX
  5
185D5
  8
AM_0
 10
230.43497525987601
 20
167.2219667984977
 30
0.0
 70
    32
  0
VERTEX
  5
185D6
  8
AM_0
 10
230.4368752598763
 20
167.22596679849789
 30
0.0
 70
    32
  0
VERTEX
  5
185D7
  8
AM_0
 10
230.438775259876
 20
167.229966798498
 30
0.0
 70
    32
  0
VERTEX
  5
185D8
  8
AM_0
 10
230.44067525987629
 20
167.23396679849759
 30
0.0
 70
    32
  0
VERTEX
  5
185D9
  8
AM_0
 10
230.4424752598762
 20
167.23796679849781
 30
0.0
 70
    32
  0
VERTEX
  5
185DA
  8
AM_0
 10
230.4443752598761
 20
167.24196679849771
 30
0.0
 70
    32
  0
VERTEX
  5
185DB
  8
AM_0
 10
230.4462752598759
 20
167.2459667984979
 30
0.0
 70
    32
  0
VERTEX
  5
185DC
  8
AM_0
 10
230.44807525987599
 20
167.24996679849781
 30
0.0
 70
    32
  0
VERTEX
  5
185DD
  8
AM_0
 10
230.44997525987611
 20
167.25296679849791
 30
0.0
 70
    32
  0
VERTEX
  5
185DE
  8
AM_0
 10
230.4517752598762
 20
167.2569667984979
 30
0.0
 70
    32
  0
VERTEX
  5
185DF
  8
AM_0
 10
230.45367525987621
 20
167.2609667984978
 30
0.0
 70
    32
  0
VERTEX
  5
185E0
  8
AM_0
 10
230.4554752598761
 20
167.2649667984976
 30
0.0
 70
    32
  0
VERTEX
  5
185E1
  8
AM_0
 10
230.4572752598763
 20
167.26896679849779
 30
0.0
 70
    32
  0
VERTEX
  5
185E2
  8
AM_0
 10
230.45917525987639
 20
167.27296679849789
 30
0.0
 70
    32
  0
VERTEX
  5
185E3
  8
AM_0
 10
230.46097525987619
 20
167.27696679849751
 30
0.0
 70
    32
  0
VERTEX
  5
185E4
  8
AM_0
 10
230.46277525987611
 20
167.28096679849759
 30
0.0
 70
    32
  0
VERTEX
  5
185E5
  8
AM_0
 10
230.46457525987611
 20
167.284966798498
 30
0.0
 70
    32
  0
VERTEX
  5
185E6
  8
AM_0
 10
230.4663752598762
 20
167.28896679849771
 30
0.0
 70
    32
  0
VERTEX
  5
185E7
  8
AM_0
 10
230.46817525987609
 20
167.2929667984979
 30
0.0
 70
    32
  0
VERTEX
  5
185E8
  8
AM_0
 10
230.46987525987629
 20
167.29696679849769
 30
0.0
 70
    32
  0
VERTEX
  5
185E9
  8
AM_0
 10
230.47167525987641
 20
167.3009667984976
 30
0.0
 70
    32
  0
VERTEX
  5
185EA
  8
AM_0
 10
230.4734752598761
 20
167.3049667984979
 30
0.0
 70
    32
  0
VERTEX
  5
185EB
  8
AM_0
 10
230.47527525987621
 20
167.30896679849769
 30
0.0
 70
    32
  0
VERTEX
  5
185EC
  8
AM_0
 10
230.47697525987621
 20
167.3129667984978
 30
0.0
 70
    32
  0
VERTEX
  5
185ED
  8
AM_0
 10
230.4787752598763
 20
167.3169667984977
 30
0.0
 70
    32
  0
VERTEX
  5
185EE
  8
AM_0
 10
230.4804752598761
 20
167.32096679849809
 30
0.0
 70
    32
  0
VERTEX
  5
185EF
  8
AM_0
 10
230.48217525987599
 20
167.32496679849791
 30
0.0
 70
    32
  0
VERTEX
  5
185F0
  8
AM_0
 10
230.4839752598761
 20
167.3289667984977
 30
0.0
 70
    32
  0
VERTEX
  5
185F1
  8
AM_0
 10
230.48567525987619
 20
167.33296679849781
 30
0.0
 70
    32
  0
VERTEX
  5
185F2
  8
AM_0
 10
230.48737525987599
 20
167.3369667984978
 30
0.0
 70
    32
  0
VERTEX
  5
185F3
  8
AM_0
 10
230.4890752598761
 20
167.3409667984981
 30
0.0
 70
    32
  0
VERTEX
  5
185F4
  8
AM_0
 10
230.4907752598761
 20
167.34496679849769
 30
0.0
 70
    32
  0
VERTEX
  5
185F5
  8
AM_0
 10
230.4924752598761
 20
167.34896679849771
 30
0.0
 70
    32
  0
VERTEX
  5
185F6
  8
AM_0
 10
230.4941752598763
 20
167.35296679849779
 30
0.0
 70
    32
  0
VERTEX
  5
185F7
  8
AM_0
 10
230.49587525987599
 20
167.35696679849781
 30
0.0
 70
    32
  0
VERTEX
  5
185F8
  8
AM_0
 10
230.49757525987599
 20
167.36096679849811
 30
0.0
 70
    32
  0
VERTEX
  5
185F9
  8
AM_0
 10
230.49927525987621
 20
167.3649667984977
 30
0.0
 70
    32
  0
VERTEX
  5
185FA
  8
AM_0
 10
230.50097525987621
 20
167.36896679849781
 30
0.0
 70
    32
  0
VERTEX
  5
185FB
  8
AM_0
 10
230.50257525987581
 20
167.372966798498
 30
0.0
 70
    32
  0
VERTEX
  5
185FC
  8
AM_0
 10
230.5042752598761
 20
167.37696679849759
 30
0.0
 70
    32
  0
VERTEX
  5
185FD
  8
AM_0
 10
230.50587525987621
 20
167.38096679849809
 30
0.0
 70
    32
  0
VERTEX
  5
185FE
  8
AM_0
 10
230.50757525987589
 20
167.38496679849791
 30
0.0
 70
    32
  0
VERTEX
  5
185FF
  8
AM_0
 10
230.509175259876
 20
167.38896679849779
 30
0.0
 70
    32
  0
VERTEX
  5
18600
  8
AM_0
 10
230.51087525987609
 20
167.39296679849789
 30
0.0
 70
    32
  0
VERTEX
  5
18601
  8
AM_0
 10
230.51247525987591
 20
167.3969667984976
 30
0.0
 70
    32
  0
VERTEX
  5
18602
  8
AM_0
 10
230.51407525987619
 20
167.40096679849799
 30
0.0
 70
    32
  0
VERTEX
  5
18603
  8
AM_0
 10
230.51567525987591
 20
167.4049667984979
 30
0.0
 70
    32
  0
VERTEX
  5
18604
  8
AM_0
 10
230.51737525987599
 20
167.4089667984978
 30
0.0
 70
    32
  0
VERTEX
  5
18605
  8
AM_0
 10
230.5189752598761
 20
167.41296679849779
 30
0.0
 70
    32
  0
VERTEX
  5
18606
  8
AM_0
 10
230.5205752598759
 20
167.4169667984975
 30
0.0
 70
    32
  0
VERTEX
  5
18607
  8
AM_0
 10
230.52217525987601
 20
167.420966798498
 30
0.0
 70
    32
  0
VERTEX
  5
18608
  8
AM_0
 10
230.52367525987609
 20
167.42496679849779
 30
0.0
 70
    32
  0
VERTEX
  5
18609
  8
AM_0
 10
230.5252752598762
 20
167.42896679849781
 30
0.0
 70
    32
  0
VERTEX
  5
1860A
  8
AM_0
 10
230.52687525987591
 20
167.43296679849769
 30
0.0
 70
    32
  0
VERTEX
  5
1860B
  8
AM_0
 10
230.52847525987619
 20
167.4369667984981
 30
0.0
 70
    32
  0
VERTEX
  5
1860C
  8
AM_0
 10
230.52997525987601
 20
167.4409667984977
 30
0.0
 70
    32
  0
VERTEX
  5
1860D
  8
AM_0
 10
230.53157525987609
 20
167.4449667984978
 30
0.0
 70
    32
  0
VERTEX
  5
1860E
  8
AM_0
 10
230.533175259876
 20
167.4499667984978
 30
0.0
 70
    32
  0
VERTEX
  5
1860F
  8
AM_0
 10
230.53467525987631
 20
167.45396679849759
 30
0.0
 70
    32
  0
VERTEX
  5
18610
  8
AM_0
 10
230.5361752598761
 20
167.45796679849769
 30
0.0
 70
    32
  0
VERTEX
  5
18611
  8
AM_0
 10
230.5377752598761
 20
167.46196679849791
 30
0.0
 70
    32
  0
VERTEX
  5
18612
  8
AM_0
 10
230.53927525987621
 20
167.46596679849799
 30
0.0
 70
    32
  0
VERTEX
  5
18613
  8
AM_0
 10
230.540775259876
 20
167.46996679849781
 30
0.0
 70
    32
  0
VERTEX
  5
18614
  8
AM_0
 10
230.54237525987631
 20
167.4739667984976
 30
0.0
 70
    32
  0
VERTEX
  5
18615
  8
AM_0
 10
230.5438752598763
 20
167.4779667984977
 30
0.0
 70
    32
  0
VERTEX
  5
18616
  8
AM_0
 10
230.5453752598759
 20
167.48196679849769
 30
0.0
 70
    32
  0
VERTEX
  5
18617
  8
AM_0
 10
230.5468752598762
 20
167.485966798498
 30
0.0
 70
    32
  0
VERTEX
  5
18618
  8
AM_0
 10
230.5483752598762
 20
167.48996679849779
 30
0.0
 70
    32
  0
VERTEX
  5
18619
  8
AM_0
 10
230.54987525987579
 20
167.49396679849789
 30
0.0
 70
    32
  0
VERTEX
  5
1861A
  8
AM_0
 10
230.55137525987641
 20
167.497966798498
 30
0.0
 70
    32
  0
VERTEX
  5
1861B
  8
AM_0
 10
230.552775259876
 20
167.50196679849759
 30
0.0
 70
    32
  0
VERTEX
  5
1861C
  8
AM_0
 10
230.55427525987611
 20
167.50696679849801
 30
0.0
 70
    32
  0
VERTEX
  5
1861D
  8
AM_0
 10
230.5557752598763
 20
167.5109667984978
 30
0.0
 70
    32
  0
VERTEX
  5
1861E
  8
AM_0
 10
230.55727525987629
 20
167.51496679849811
 30
0.0
 70
    32
  0
VERTEX
  5
1861F
  8
AM_0
 10
230.55867525987631
 20
167.5189667984979
 30
0.0
 70
    32
  0
VERTEX
  5
18620
  8
AM_0
 10
230.5601752598761
 20
167.52296679849789
 30
0.0
 70
    32
  0
VERTEX
  5
18621
  8
AM_0
 10
230.56157525987601
 20
167.5269667984978
 30
0.0
 70
    32
  0
VERTEX
  5
18622
  8
AM_0
 10
230.56307525987631
 20
167.5309667984979
 30
0.0
 70
    32
  0
VERTEX
  5
18623
  8
AM_0
 10
230.56447525987619
 20
167.53496679849809
 30
0.0
 70
    32
  0
VERTEX
  5
18624
  8
AM_0
 10
230.56587525987629
 20
167.53896679849791
 30
0.0
 70
    32
  0
VERTEX
  5
18625
  8
AM_0
 10
230.5672752598762
 20
167.54296679849759
 30
0.0
 70
    32
  0
VERTEX
  5
18626
  8
AM_0
 10
230.56877525987611
 20
167.5479667984977
 30
0.0
 70
    32
  0
VERTEX
  5
18627
  8
AM_0
 10
230.57017525987621
 20
167.5519667984976
 30
0.0
 70
    32
  0
VERTEX
  5
18628
  8
AM_0
 10
230.57157525987611
 20
167.55596679849771
 30
0.0
 70
    32
  0
VERTEX
  5
18629
  8
AM_0
 10
230.5729752598761
 20
167.5599667984977
 30
0.0
 70
    32
  0
VERTEX
  5
1862A
  8
AM_0
 10
230.57437525987601
 20
167.563966798498
 30
0.0
 70
    32
  0
VERTEX
  5
1862B
  8
AM_0
 10
230.57577525987639
 20
167.56796679849779
 30
0.0
 70
    32
  0
VERTEX
  5
1862C
  8
AM_0
 10
230.57717525987621
 20
167.57196679849781
 30
0.0
 70
    32
  0
VERTEX
  5
1862D
  8
AM_0
 10
230.57857525987609
 20
167.57596679849789
 30
0.0
 70
    32
  0
VERTEX
  5
1862E
  8
AM_0
 10
230.5798752598763
 20
167.57996679849771
 30
0.0
 70
    32
  0
VERTEX
  5
1862F
  8
AM_0
 10
230.58127525987609
 20
167.5849667984977
 30
0.0
 70
    32
  0
VERTEX
  5
18630
  8
AM_0
 10
230.582675259876
 20
167.58896679849781
 30
0.0
 70
    32
  0
VERTEX
  5
18631
  8
AM_0
 10
230.5839752598761
 20
167.592966798498
 30
0.0
 70
    32
  0
VERTEX
  5
18632
  8
AM_0
 10
230.585375259876
 20
167.5969667984979
 30
0.0
 70
    32
  0
VERTEX
  5
18633
  8
AM_0
 10
230.5866752598761
 20
167.60096679849789
 30
0.0
 70
    32
  0
VERTEX
  5
18634
  8
AM_0
 10
230.58807525987601
 20
167.60496679849771
 30
0.0
 70
    32
  0
VERTEX
  5
18635
  8
AM_0
 10
230.58937525987611
 20
167.60896679849779
 30
0.0
 70
    32
  0
VERTEX
  5
18636
  8
AM_0
 10
230.59067525987621
 20
167.61396679849801
 30
0.0
 70
    32
  0
VERTEX
  5
18637
  8
AM_0
 10
230.59207525987611
 20
167.61796679849789
 30
0.0
 70
    32
  0
VERTEX
  5
18638
  8
AM_0
 10
230.5933752598761
 20
167.62196679849799
 30
0.0
 70
    32
  0
VERTEX
  5
18639
  8
AM_0
 10
230.59467525987631
 20
167.6259667984979
 30
0.0
 70
    32
  0
VERTEX
  5
1863A
  8
AM_0
 10
230.5959752598761
 20
167.6299667984978
 30
0.0
 70
    32
  0
VERTEX
  5
1863B
  8
AM_0
 10
230.597275259876
 20
167.6339667984978
 30
0.0
 70
    32
  0
VERTEX
  5
1863C
  8
AM_0
 10
230.5985752598761
 20
167.63796679849759
 30
0.0
 70
    32
  0
VERTEX
  5
1863D
  8
AM_0
 10
230.5998752598762
 20
167.64296679849761
 30
0.0
 70
    32
  0
VERTEX
  5
1863E
  8
AM_0
 10
230.6011752598759
 20
167.64696679849769
 30
0.0
 70
    32
  0
VERTEX
  5
1863F
  8
AM_0
 10
230.602475259876
 20
167.65096679849779
 30
0.0
 70
    32
  0
VERTEX
  5
18640
  8
AM_0
 10
230.6037752598761
 20
167.65496679849761
 30
0.0
 70
    32
  0
VERTEX
  5
18641
  8
AM_0
 10
230.60507525987609
 20
167.65896679849769
 30
0.0
 70
    32
  0
VERTEX
  5
18642
  8
AM_0
 10
230.60627525987601
 20
167.66296679849771
 30
0.0
 70
    32
  0
VERTEX
  5
18643
  8
AM_0
 10
230.60757525987611
 20
167.6669667984977
 30
0.0
 70
    32
  0
VERTEX
  5
18644
  8
AM_0
 10
230.60887525987621
 20
167.67196679849769
 30
0.0
 70
    32
  0
VERTEX
  5
18645
  8
AM_0
 10
230.6100752598764
 20
167.6759667984978
 30
0.0
 70
    32
  0
VERTEX
  5
18646
  8
AM_0
 10
230.6113752598761
 20
167.6799667984979
 30
0.0
 70
    32
  0
VERTEX
  5
18647
  8
AM_0
 10
230.61257525987611
 20
167.68396679849789
 30
0.0
 70
    32
  0
VERTEX
  5
18648
  8
AM_0
 10
230.61387525987621
 20
167.68796679849771
 30
0.0
 70
    32
  0
VERTEX
  5
18649
  8
AM_0
 10
230.61507525987599
 20
167.69196679849799
 30
0.0
 70
    32
  0
VERTEX
  5
1864A
  8
AM_0
 10
230.61627525987629
 20
167.6969667984977
 30
0.0
 70
    32
  0
VERTEX
  5
1864B
  8
AM_0
 10
230.6175752598763
 20
167.700966798498
 30
0.0
 70
    32
  0
VERTEX
  5
1864C
  8
AM_0
 10
230.6187752598758
 20
167.70496679849791
 30
0.0
 70
    32
  0
VERTEX
  5
1864D
  8
AM_0
 10
230.61997525987621
 20
167.7089667984977
 30
0.0
 70
    32
  0
VERTEX
  5
1864E
  8
AM_0
 10
230.6211752598762
 20
167.7129667984978
 30
0.0
 70
    32
  0
VERTEX
  5
1864F
  8
AM_0
 10
230.62237525987589
 20
167.71696679849779
 30
0.0
 70
    32
  0
VERTEX
  5
18650
  8
AM_0
 10
230.62357525987619
 20
167.72196679849799
 30
0.0
 70
    32
  0
VERTEX
  5
18651
  8
AM_0
 10
230.62477525987609
 20
167.72596679849781
 30
0.0
 70
    32
  0
VERTEX
  5
18652
  8
AM_0
 10
230.62597525987579
 20
167.72996679849771
 30
0.0
 70
    32
  0
VERTEX
  5
18653
  8
AM_0
 10
230.62717525987611
 20
167.7339667984979
 30
0.0
 70
    32
  0
VERTEX
  5
18654
  8
AM_0
 10
230.62837525987629
 20
167.73796679849781
 30
0.0
 70
    32
  0
VERTEX
  5
18655
  8
AM_0
 10
230.62957525987611
 20
167.7429667984976
 30
0.0
 70
    32
  0
VERTEX
  5
18656
  8
AM_0
 10
230.6306752598762
 20
167.74696679849791
 30
0.0
 70
    32
  0
VERTEX
  5
18657
  8
AM_0
 10
230.63187525987621
 20
167.7509667984977
 30
0.0
 70
    32
  0
VERTEX
  5
18658
  8
AM_0
 10
230.63307525987611
 20
167.75496679849789
 30
0.0
 70
    32
  0
VERTEX
  5
18659
  8
AM_0
 10
230.63417525987609
 20
167.75896679849799
 30
0.0
 70
    32
  0
VERTEX
  5
1865A
  8
AM_0
 10
230.63537525987621
 20
167.76296679849759
 30
0.0
 70
    32
  0
VERTEX
  5
1865B
  8
AM_0
 10
230.63647525987611
 20
167.76796679849781
 30
0.0
 70
    32
  0
VERTEX
  5
1865C
  8
AM_0
 10
230.63767525987581
 20
167.7719667984976
 30
0.0
 70
    32
  0
VERTEX
  5
1865D
  8
AM_0
 10
230.63877525987621
 20
167.7759667984979
 30
0.0
 70
    32
  0
VERTEX
  5
1865E
  8
AM_0
 10
230.63997525987619
 20
167.7799667984977
 30
0.0
 70
    32
  0
VERTEX
  5
1865F
  8
AM_0
 10
230.64107525987609
 20
167.7839667984978
 30
0.0
 70
    32
  0
VERTEX
  5
18660
  8
AM_0
 10
230.6421752598761
 20
167.7889667984976
 30
0.0
 70
    32
  0
VERTEX
  5
18661
  8
AM_0
 10
230.64327525987619
 20
167.79296679849779
 30
0.0
 70
    32
  0
VERTEX
  5
18662
  8
AM_0
 10
230.6444752598762
 20
167.79696679849769
 30
0.0
 70
    32
  0
VERTEX
  5
18663
  8
AM_0
 10
230.6455752598763
 20
167.8009667984978
 30
0.0
 70
    32
  0
VERTEX
  5
18664
  8
AM_0
 10
230.64667525987599
 20
167.80496679849799
 30
0.0
 70
    32
  0
VERTEX
  5
18665
  8
AM_0
 10
230.6477752598762
 20
167.80996679849761
 30
0.0
 70
    32
  0
VERTEX
  5
18666
  8
AM_0
 10
230.64887525987601
 20
167.813966798498
 30
0.0
 70
    32
  0
VERTEX
  5
18667
  8
AM_0
 10
230.64997525987641
 20
167.81796679849771
 30
0.0
 70
    32
  0
VERTEX
  5
18668
  8
AM_0
 10
230.65107525987611
 20
167.8219667984979
 30
0.0
 70
    32
  0
VERTEX
  5
18669
  8
AM_0
 10
230.652075259876
 20
167.82696679849789
 30
0.0
 70
    32
  0
VERTEX
  5
1866A
  8
AM_0
 10
230.65317525987601
 20
167.83096679849771
 30
0.0
 70
    32
  0
VERTEX
  5
1866B
  8
AM_0
 10
230.65427525987599
 20
167.83496679849779
 30
0.0
 70
    32
  0
VERTEX
  5
1866C
  8
AM_0
 10
230.65537525987619
 20
167.83896679849789
 30
0.0
 70
    32
  0
VERTEX
  5
1866D
  8
AM_0
 10
230.6563752598764
 20
167.84296679849811
 30
0.0
 70
    32
  0
VERTEX
  5
1866E
  8
AM_0
 10
230.65747525987601
 20
167.84796679849771
 30
0.0
 70
    32
  0
VERTEX
  5
1866F
  8
AM_0
 10
230.65847525987621
 20
167.85196679849801
 30
0.0
 70
    32
  0
VERTEX
  5
18670
  8
AM_0
 10
230.65957525987611
 20
167.8559667984978
 30
0.0
 70
    32
  0
VERTEX
  5
18671
  8
AM_0
 10
230.660575259876
 20
167.85996679849779
 30
0.0
 70
    32
  0
VERTEX
  5
18672
  8
AM_0
 10
230.66167525987629
 20
167.8639667984979
 30
0.0
 70
    32
  0
VERTEX
  5
18673
  8
AM_0
 10
230.66267525987641
 20
167.86896679849789
 30
0.0
 70
    32
  0
VERTEX
  5
18674
  8
AM_0
 10
230.6636752598761
 20
167.87296679849771
 30
0.0
 70
    32
  0
VERTEX
  5
18675
  8
AM_0
 10
230.66477525987611
 20
167.87696679849779
 30
0.0
 70
    32
  0
VERTEX
  5
18676
  8
AM_0
 10
230.6657752598762
 20
167.88096679849789
 30
0.0
 70
    32
  0
VERTEX
  5
18677
  8
AM_0
 10
230.6667752598762
 20
167.885966798498
 30
0.0
 70
    32
  0
VERTEX
  5
18678
  8
AM_0
 10
230.66777525987621
 20
167.88996679849811
 30
0.0
 70
    32
  0
VERTEX
  5
18679
  8
AM_0
 10
230.66877525987579
 20
167.8939667984975
 30
0.0
 70
    32
  0
VERTEX
  5
1867A
  8
AM_0
 10
230.6697752598763
 20
167.89796679849781
 30
0.0
 70
    32
  0
VERTEX
  5
1867B
  8
AM_0
 10
230.67077525987619
 20
167.9019667984978
 30
0.0
 70
    32
  0
VERTEX
  5
1867C
  8
AM_0
 10
230.67177525987611
 20
167.90696679849779
 30
0.0
 70
    32
  0
VERTEX
  5
1867D
  8
AM_0
 10
230.67277525987609
 20
167.91096679849761
 30
0.0
 70
    32
  0
VERTEX
  5
1867E
  8
AM_0
 10
230.67377525987609
 20
167.91496679849789
 30
0.0
 70
    32
  0
VERTEX
  5
1867F
  8
AM_0
 10
230.67467525987621
 20
167.91896679849799
 30
0.0
 70
    32
  0
VERTEX
  5
18680
  8
AM_0
 10
230.6756752598761
 20
167.9239667984979
 30
0.0
 70
    32
  0
VERTEX
  5
18681
  8
AM_0
 10
230.67667525987611
 20
167.92796679849801
 30
0.0
 70
    32
  0
VERTEX
  5
18682
  8
AM_0
 10
230.67757525987611
 20
167.93196679849791
 30
0.0
 70
    32
  0
VERTEX
  5
18683
  8
AM_0
 10
230.678575259876
 20
167.93596679849759
 30
0.0
 70
    32
  0
VERTEX
  5
18684
  8
AM_0
 10
230.6795752598758
 20
167.9409667984977
 30
0.0
 70
    32
  0
VERTEX
  5
18685
  8
AM_0
 10
230.68047525987589
 20
167.94496679849789
 30
0.0
 70
    32
  0
VERTEX
  5
18686
  8
AM_0
 10
230.68147525987621
 20
167.94896679849799
 30
0.0
 70
    32
  0
VERTEX
  5
18687
  8
AM_0
 10
230.68237525987621
 20
167.95296679849761
 30
0.0
 70
    32
  0
VERTEX
  5
18688
  8
AM_0
 10
230.6832752598763
 20
167.95796679849761
 30
0.0
 70
    32
  0
VERTEX
  5
18689
  8
AM_0
 10
230.68427525987619
 20
167.96196679849791
 30
0.0
 70
    32
  0
VERTEX
  5
1868A
  8
AM_0
 10
230.68517525987619
 20
167.96596679849799
 30
0.0
 70
    32
  0
VERTEX
  5
1868B
  8
AM_0
 10
230.68607525987611
 20
167.96996679849769
 30
0.0
 70
    32
  0
VERTEX
  5
1868C
  8
AM_0
 10
230.68697525987619
 20
167.9749667984978
 30
0.0
 70
    32
  0
VERTEX
  5
1868D
  8
AM_0
 10
230.68787525987591
 20
167.97896679849799
 30
0.0
 70
    32
  0
VERTEX
  5
1868E
  8
AM_0
 10
230.68877525987611
 20
167.98296679849761
 30
0.0
 70
    32
  0
VERTEX
  5
1868F
  8
AM_0
 10
230.6896752598762
 20
167.98696679849769
 30
0.0
 70
    32
  0
VERTEX
  5
18690
  8
AM_0
 10
230.6905752598762
 20
167.99196679849771
 30
0.0
 70
    32
  0
VERTEX
  5
18691
  8
AM_0
 10
230.69147525987611
 20
167.9959667984979
 30
0.0
 70
    32
  0
VERTEX
  5
18692
  8
AM_0
 10
230.692375259876
 20
167.99996679849781
 30
0.0
 70
    32
  0
VERTEX
  5
18693
  8
AM_0
 10
230.693275259876
 20
168.00396679849811
 30
0.0
 70
    32
  0
VERTEX
  5
18694
  8
AM_0
 10
230.69417525987609
 20
168.0089667984978
 30
0.0
 70
    32
  0
VERTEX
  5
18695
  8
AM_0
 10
230.69507525987621
 20
168.01296679849759
 30
0.0
 70
    32
  0
VERTEX
  5
18696
  8
AM_0
 10
230.6958752598764
 20
168.016966798498
 30
0.0
 70
    32
  0
VERTEX
  5
18697
  8
AM_0
 10
230.69677525987629
 20
168.02096679849771
 30
0.0
 70
    32
  0
VERTEX
  5
18698
  8
AM_0
 10
230.69767525987629
 20
168.02596679849799
 30
0.0
 70
    32
  0
VERTEX
  5
18699
  8
AM_0
 10
230.69847525987581
 20
168.0299667984979
 30
0.0
 70
    32
  0
VERTEX
  5
1869A
  8
AM_0
 10
230.69937525987589
 20
168.0339667984978
 30
0.0
 70
    32
  0
VERTEX
  5
1869B
  8
AM_0
 10
230.70017525987609
 20
168.03796679849771
 30
0.0
 70
    32
  0
VERTEX
  5
1869C
  8
AM_0
 10
230.70107525987609
 20
168.0429667984979
 30
0.0
 70
    32
  0
VERTEX
  5
1869D
  8
AM_0
 10
230.70187525987609
 20
168.04696679849769
 30
0.0
 70
    32
  0
VERTEX
  5
1869E
  8
AM_0
 10
230.7027752598762
 20
168.0509667984976
 30
0.0
 70
    32
  0
VERTEX
  5
1869F
  8
AM_0
 10
230.7035752598762
 20
168.0549667984979
 30
0.0
 70
    32
  0
VERTEX
  5
186A0
  8
AM_0
 10
230.70437525987629
 20
168.05996679849761
 30
0.0
 70
    32
  0
VERTEX
  5
186A1
  8
AM_0
 10
230.70517525987589
 20
168.06396679849809
 30
0.0
 70
    32
  0
VERTEX
  5
186A2
  8
AM_0
 10
230.706075259876
 20
168.06796679849771
 30
0.0
 70
    32
  0
VERTEX
  5
186A3
  8
AM_0
 10
230.7068752598762
 20
168.07296679849799
 30
0.0
 70
    32
  0
VERTEX
  5
186A4
  8
AM_0
 10
230.70767525987611
 20
168.07696679849781
 30
0.0
 70
    32
  0
VERTEX
  5
186A5
  8
AM_0
 10
230.70847525987611
 20
168.0809667984978
 30
0.0
 70
    32
  0
VERTEX
  5
186A6
  8
AM_0
 10
230.70927525987611
 20
168.0849667984979
 30
0.0
 70
    32
  0
VERTEX
  5
186A7
  8
AM_0
 10
230.71007525987619
 20
168.0899667984979
 30
0.0
 70
    32
  0
VERTEX
  5
186A8
  8
AM_0
 10
230.7108752598761
 20
168.09396679849769
 30
0.0
 70
    32
  0
VERTEX
  5
186A9
  8
AM_0
 10
230.7116752598763
 20
168.09796679849779
 30
0.0
 70
    32
  0
VERTEX
  5
186AA
  8
AM_0
 10
230.7124752598763
 20
168.10196679849801
 30
0.0
 70
    32
  0
VERTEX
  5
186AB
  8
AM_0
 10
230.7132752598759
 20
168.10696679849781
 30
0.0
 70
    32
  0
VERTEX
  5
186AC
  8
AM_0
 10
230.71397525987621
 20
168.11096679849811
 30
0.0
 70
    32
  0
VERTEX
  5
186AD
  8
AM_0
 10
230.71477525987601
 20
168.1149667984979
 30
0.0
 70
    32
  0
VERTEX
  5
186AE
  8
AM_0
 10
230.715575259876
 20
168.11996679849801
 30
0.0
 70
    32
  0
VERTEX
  5
186AF
  8
AM_0
 10
230.71637525987609
 20
168.12396679849769
 30
0.0
 70
    32
  0
VERTEX
  5
186B0
  8
AM_0
 10
230.71707525987631
 20
168.12796679849779
 30
0.0
 70
    32
  0
VERTEX
  5
186B1
  8
AM_0
 10
230.71787525987631
 20
168.1319667984979
 30
0.0
 70
    32
  0
VERTEX
  5
186B2
  8
AM_0
 10
230.71857525987619
 20
168.13696679849789
 30
0.0
 70
    32
  0
VERTEX
  5
186B3
  8
AM_0
 10
230.71937525987599
 20
168.14096679849811
 30
0.0
 70
    32
  0
VERTEX
  5
186B4
  8
AM_0
 10
230.7200752598761
 20
168.1449667984979
 30
0.0
 70
    32
  0
VERTEX
  5
186B5
  8
AM_0
 10
230.72087525987621
 20
168.14996679849779
 30
0.0
 70
    32
  0
VERTEX
  5
186B6
  8
AM_0
 10
230.72157525987609
 20
168.15396679849781
 30
0.0
 70
    32
  0
VERTEX
  5
186B7
  8
AM_0
 10
230.72227525987611
 20
168.1579667984978
 30
0.0
 70
    32
  0
VERTEX
  5
186B8
  8
AM_0
 10
230.7230752598762
 20
168.1619667984979
 30
0.0
 70
    32
  0
VERTEX
  5
186B9
  8
AM_0
 10
230.72377525987599
 20
168.1669667984979
 30
0.0
 70
    32
  0
VERTEX
  5
186BA
  8
AM_0
 10
230.7244752598761
 20
168.17096679849769
 30
0.0
 70
    32
  0
VERTEX
  5
186BB
  8
AM_0
 10
230.72517525987629
 20
168.17496679849779
 30
0.0
 70
    32
  0
VERTEX
  5
186BC
  8
AM_0
 10
230.72597525987629
 20
168.17996679849779
 30
0.0
 70
    32
  0
VERTEX
  5
186BD
  8
AM_0
 10
230.7266752598762
 20
168.18396679849781
 30
0.0
 70
    32
  0
VERTEX
  5
186BE
  8
AM_0
 10
230.7273752598762
 20
168.18796679849771
 30
0.0
 70
    32
  0
VERTEX
  5
186BF
  8
AM_0
 10
230.72807525987611
 20
168.1919667984977
 30
0.0
 70
    32
  0
VERTEX
  5
186C0
  8
AM_0
 10
230.72877525987619
 20
168.1969667984977
 30
0.0
 70
    32
  0
VERTEX
  5
186C1
  8
AM_0
 10
230.72947525987601
 20
168.20096679849769
 30
0.0
 70
    32
  0
VERTEX
  5
186C2
  8
AM_0
 10
230.73017525987601
 20
168.20496679849779
 30
0.0
 70
    32
  0
VERTEX
  5
186C3
  8
AM_0
 10
230.73077525987611
 20
168.20996679849799
 30
0.0
 70
    32
  0
VERTEX
  5
186C4
  8
AM_0
 10
230.73147525987619
 20
168.21396679849761
 30
0.0
 70
    32
  0
VERTEX
  5
186C5
  8
AM_0
 10
230.73217525987599
 20
168.217966798498
 30
0.0
 70
    32
  0
VERTEX
  5
186C6
  8
AM_0
 10
230.73287525987601
 20
168.2219667984979
 30
0.0
 70
    32
  0
VERTEX
  5
186C7
  8
AM_0
 10
230.73357525987589
 20
168.22696679849801
 30
0.0
 70
    32
  0
VERTEX
  5
186C8
  8
AM_0
 10
230.7341752598762
 20
168.230966798498
 30
0.0
 70
    32
  0
VERTEX
  5
186C9
  8
AM_0
 10
230.73487525987599
 20
168.23496679849779
 30
0.0
 70
    32
  0
VERTEX
  5
186CA
  8
AM_0
 10
230.73547525987621
 20
168.2399667984979
 30
0.0
 70
    32
  0
VERTEX
  5
186CB
  8
AM_0
 10
230.73617525987609
 20
168.24396679849789
 30
0.0
 70
    32
  0
VERTEX
  5
186CC
  8
AM_0
 10
230.7368752598762
 20
168.24796679849771
 30
0.0
 70
    32
  0
VERTEX
  5
186CD
  8
AM_0
 10
230.73747525987599
 20
168.25196679849779
 30
0.0
 70
    32
  0
VERTEX
  5
186CE
  8
AM_0
 10
230.7380752598761
 20
168.25696679849781
 30
0.0
 70
    32
  0
VERTEX
  5
186CF
  8
AM_0
 10
230.73877525987609
 20
168.260966798498
 30
0.0
 70
    32
  0
VERTEX
  5
186D0
  8
AM_0
 10
230.739375259876
 20
168.26496679849771
 30
0.0
 70
    32
  0
VERTEX
  5
186D1
  8
AM_0
 10
230.74007525987619
 20
168.26996679849771
 30
0.0
 70
    32
  0
VERTEX
  5
186D2
  8
AM_0
 10
230.7406752598761
 20
168.27396679849801
 30
0.0
 70
    32
  0
VERTEX
  5
186D3
  8
AM_0
 10
230.7412752598762
 20
168.277966798498
 30
0.0
 70
    32
  0
VERTEX
  5
186D4
  8
AM_0
 10
230.741875259876
 20
168.2829667984978
 30
0.0
 70
    32
  0
VERTEX
  5
186D5
  8
AM_0
 10
230.7424752598763
 20
168.28696679849779
 30
0.0
 70
    32
  0
VERTEX
  5
186D6
  8
AM_0
 10
230.7431752598759
 20
168.29096679849789
 30
0.0
 70
    32
  0
VERTEX
  5
186D7
  8
AM_0
 10
230.743775259876
 20
168.2959667984978
 30
0.0
 70
    32
  0
VERTEX
  5
186D8
  8
AM_0
 10
230.74437525987591
 20
168.29996679849791
 30
0.0
 70
    32
  0
VERTEX
  5
186D9
  8
AM_0
 10
230.7449752598761
 20
168.30396679849781
 30
0.0
 70
    32
  0
VERTEX
  5
186DA
  8
AM_0
 10
230.74557525987601
 20
168.307966798498
 30
0.0
 70
    32
  0
VERTEX
  5
186DB
  8
AM_0
 10
230.74617525987611
 20
168.3129667984978
 30
0.0
 70
    32
  0
VERTEX
  5
186DC
  8
AM_0
 10
230.74677525987599
 20
168.31696679849779
 30
0.0
 70
    32
  0
VERTEX
  5
186DD
  8
AM_0
 10
230.74737525987609
 20
168.32096679849809
 30
0.0
 70
    32
  0
VERTEX
  5
186DE
  8
AM_0
 10
230.74787525987631
 20
168.32596679849789
 30
0.0
 70
    32
  0
VERTEX
  5
186DF
  8
AM_0
 10
230.74847525987619
 20
168.32996679849791
 30
0.0
 70
    32
  0
VERTEX
  5
186E0
  8
AM_0
 10
230.74907525987609
 20
168.33396679849801
 30
0.0
 70
    32
  0
VERTEX
  5
186E1
  8
AM_0
 10
230.74967525987611
 20
168.33896679849781
 30
0.0
 70
    32
  0
VERTEX
  5
186E2
  8
AM_0
 10
230.75017525987599
 20
168.34296679849791
 30
0.0
 70
    32
  0
VERTEX
  5
186E3
  8
AM_0
 10
230.75077525987609
 20
168.3469667984977
 30
0.0
 70
    32
  0
VERTEX
  5
186E4
  8
AM_0
 10
230.75137525987631
 20
168.35096679849789
 30
0.0
 70
    32
  0
VERTEX
  5
186E5
  8
AM_0
 10
230.7518752598761
 20
168.35596679849789
 30
0.0
 70
    32
  0
VERTEX
  5
186E6
  8
AM_0
 10
230.75247525987589
 20
168.3599667984976
 30
0.0
 70
    32
  0
VERTEX
  5
186E7
  8
AM_0
 10
230.75297525987631
 20
168.36396679849781
 30
0.0
 70
    32
  0
VERTEX
  5
186E8
  8
AM_0
 10
230.75357525987619
 20
168.36896679849781
 30
0.0
 70
    32
  0
VERTEX
  5
186E9
  8
AM_0
 10
230.75407525987629
 20
168.37296679849791
 30
0.0
 70
    32
  0
VERTEX
  5
186EA
  8
AM_0
 10
230.75457525987599
 20
168.3769667984977
 30
0.0
 70
    32
  0
VERTEX
  5
186EB
  8
AM_0
 10
230.7551752598759
 20
168.3819667984975
 30
0.0
 70
    32
  0
VERTEX
  5
186EC
  8
AM_0
 10
230.75567525987631
 20
168.3859667984978
 30
0.0
 70
    32
  0
VERTEX
  5
186ED
  8
AM_0
 10
230.7561752598761
 20
168.38996679849799
 30
0.0
 70
    32
  0
VERTEX
  5
186EE
  8
AM_0
 10
230.75677525987629
 20
168.39496679849779
 30
0.0
 70
    32
  0
VERTEX
  5
186EF
  8
AM_0
 10
230.75727525987631
 20
168.39896679849809
 30
0.0
 70
    32
  0
VERTEX
  5
186F0
  8
AM_0
 10
230.75777525987621
 20
168.40296679849791
 30
0.0
 70
    32
  0
VERTEX
  5
186F1
  8
AM_0
 10
230.758275259876
 20
168.40796679849791
 30
0.0
 70
    32
  0
VERTEX
  5
186F2
  8
AM_0
 10
230.75877525987599
 20
168.4119667984977
 30
0.0
 70
    32
  0
VERTEX
  5
186F3
  8
AM_0
 10
230.7592752598762
 20
168.41596679849781
 30
0.0
 70
    32
  0
VERTEX
  5
186F4
  8
AM_0
 10
230.75977525987619
 20
168.420966798498
 30
0.0
 70
    32
  0
VERTEX
  5
186F5
  8
AM_0
 10
230.76027525987601
 20
168.42496679849791
 30
0.0
 70
    32
  0
VERTEX
  5
186F6
  8
AM_0
 10
230.76077525987631
 20
168.4289667984977
 30
0.0
 70
    32
  0
VERTEX
  5
186F7
  8
AM_0
 10
230.76127525987641
 20
168.43296679849789
 30
0.0
 70
    32
  0
VERTEX
  5
186F8
  8
AM_0
 10
230.76177525987609
 20
168.43796679849771
 30
0.0
 70
    32
  0
VERTEX
  5
186F9
  8
AM_0
 10
230.7621752598763
 20
168.44196679849759
 30
0.0
 70
    32
  0
VERTEX
  5
186FA
  8
AM_0
 10
230.76267525987609
 20
168.44596679849809
 30
0.0
 70
    32
  0
VERTEX
  5
186FB
  8
AM_0
 10
230.76317525987619
 20
168.450966798498
 30
0.0
 70
    32
  0
VERTEX
  5
186FC
  8
AM_0
 10
230.76357525987621
 20
168.45496679849759
 30
0.0
 70
    32
  0
VERTEX
  5
186FD
  8
AM_0
 10
230.76407525987631
 20
168.45896679849801
 30
0.0
 70
    32
  0
VERTEX
  5
186FE
  8
AM_0
 10
230.7645752598761
 20
168.46396679849789
 30
0.0
 70
    32
  0
VERTEX
  5
186FF
  8
AM_0
 10
230.76497525987619
 20
168.467966798498
 30
0.0
 70
    32
  0
VERTEX
  5
18700
  8
AM_0
 10
230.76537525987609
 20
168.47196679849799
 30
0.0
 70
    32
  0
VERTEX
  5
18701
  8
AM_0
 10
230.76587525987611
 20
168.47696679849801
 30
0.0
 70
    32
  0
VERTEX
  5
18702
  8
AM_0
 10
230.76627525987621
 20
168.48096679849789
 30
0.0
 70
    32
  0
VERTEX
  5
18703
  8
AM_0
 10
230.7667752598764
 20
168.48496679849771
 30
0.0
 70
    32
  0
VERTEX
  5
18704
  8
AM_0
 10
230.7671752598761
 20
168.4899667984977
 30
0.0
 70
    32
  0
VERTEX
  5
18705
  8
AM_0
 10
230.76757525987631
 20
168.49396679849781
 30
0.0
 70
    32
  0
VERTEX
  5
18706
  8
AM_0
 10
230.7679752598761
 20
168.497966798498
 30
0.0
 70
    32
  0
VERTEX
  5
18707
  8
AM_0
 10
230.7684752598762
 20
168.50296679849779
 30
0.0
 70
    32
  0
VERTEX
  5
18708
  8
AM_0
 10
230.7688752598761
 20
168.5069667984979
 30
0.0
 70
    32
  0
VERTEX
  5
18709
  8
AM_0
 10
230.76927525987611
 20
168.51096679849789
 30
0.0
 70
    32
  0
VERTEX
  5
1870A
  8
AM_0
 10
230.7696752598761
 20
168.51596679849811
 30
0.0
 70
    32
  0
VERTEX
  5
1870B
  8
AM_0
 10
230.7700752598758
 20
168.5199667984979
 30
0.0
 70
    32
  0
VERTEX
  5
1870C
  8
AM_0
 10
230.77047525987589
 20
168.52396679849801
 30
0.0
 70
    32
  0
VERTEX
  5
1870D
  8
AM_0
 10
230.77087525987619
 20
168.528966798498
 30
0.0
 70
    32
  0
VERTEX
  5
1870E
  8
AM_0
 10
230.7711752598762
 20
168.5329667984978
 30
0.0
 70
    32
  0
VERTEX
  5
1870F
  8
AM_0
 10
230.7715752598763
 20
168.5369667984977
 30
0.0
 70
    32
  0
VERTEX
  5
18710
  8
AM_0
 10
230.77197525987609
 20
168.54196679849761
 30
0.0
 70
    32
  0
VERTEX
  5
18711
  8
AM_0
 10
230.7723752598761
 20
168.545966798498
 30
0.0
 70
    32
  0
VERTEX
  5
18712
  8
AM_0
 10
230.772675259876
 20
168.54996679849779
 30
0.0
 70
    32
  0
VERTEX
  5
18713
  8
AM_0
 10
230.77307525987609
 20
168.55496679849779
 30
0.0
 70
    32
  0
VERTEX
  5
18714
  8
AM_0
 10
230.77347525987611
 20
168.55896679849781
 30
0.0
 70
    32
  0
VERTEX
  5
18715
  8
AM_0
 10
230.773775259876
 20
168.5629667984978
 30
0.0
 70
    32
  0
VERTEX
  5
18716
  8
AM_0
 10
230.77417525987619
 20
168.56796679849771
 30
0.0
 70
    32
  0
VERTEX
  5
18717
  8
AM_0
 10
230.77447525987611
 20
168.5719667984977
 30
0.0
 70
    32
  0
VERTEX
  5
18718
  8
AM_0
 10
230.77477525987621
 20
168.575966798498
 30
0.0
 70
    32
  0
VERTEX
  5
18719
  8
AM_0
 10
230.77517525987619
 20
168.5809667984978
 30
0.0
 70
    32
  0
VERTEX
  5
1871A
  8
AM_0
 10
230.7754752598758
 20
168.58496679849779
 30
0.0
 70
    32
  0
VERTEX
  5
1871B
  8
AM_0
 10
230.7757752598761
 20
168.58896679849789
 30
0.0
 70
    32
  0
VERTEX
  5
1871C
  8
AM_0
 10
230.77607525987631
 20
168.59396679849789
 30
0.0
 70
    32
  0
VERTEX
  5
1871D
  8
AM_0
 10
230.77647525987601
 20
168.59796679849791
 30
0.0
 70
    32
  0
VERTEX
  5
1871E
  8
AM_0
 10
230.7767752598759
 20
168.60196679849801
 30
0.0
 70
    32
  0
VERTEX
  5
1871F
  8
AM_0
 10
230.7770752598762
 20
168.60696679849769
 30
0.0
 70
    32
  0
VERTEX
  5
18720
  8
AM_0
 10
230.7773752598761
 20
168.610966798498
 30
0.0
 70
    32
  0
VERTEX
  5
18721
  8
AM_0
 10
230.7776752598761
 20
168.61496679849779
 30
0.0
 70
    32
  0
VERTEX
  5
18722
  8
AM_0
 10
230.77797525987631
 20
168.6199667984981
 30
0.0
 70
    32
  0
VERTEX
  5
18723
  8
AM_0
 10
230.77827525987601
 20
168.62396679849789
 30
0.0
 70
    32
  0
VERTEX
  5
18724
  8
AM_0
 10
230.77857525987591
 20
168.62796679849791
 30
0.0
 70
    32
  0
VERTEX
  5
18725
  8
AM_0
 10
230.77887525987629
 20
168.63296679849799
 30
0.0
 70
    32
  0
VERTEX
  5
18726
  8
AM_0
 10
230.7790752598759
 20
168.63696679849781
 30
0.0
 70
    32
  0
VERTEX
  5
18727
  8
AM_0
 10
230.77937525987591
 20
168.640966798498
 30
0.0
 70
    32
  0
VERTEX
  5
18728
  8
AM_0
 10
230.77967525987631
 20
168.6459667984976
 30
0.0
 70
    32
  0
VERTEX
  5
18729
  8
AM_0
 10
230.77997525987581
 20
168.6499667984977
 30
0.0
 70
    32
  0
VERTEX
  5
1872A
  8
AM_0
 10
230.7801752598765
 20
168.65396679849789
 30
0.0
 70
    32
  0
VERTEX
  5
1872B
  8
AM_0
 10
230.78047525987611
 20
168.65896679849789
 30
0.0
 70
    32
  0
VERTEX
  5
1872C
  8
AM_0
 10
230.78067525987609
 20
168.66296679849771
 30
0.0
 70
    32
  0
VERTEX
  5
1872D
  8
AM_0
 10
230.78097525987599
 20
168.66696679849761
 30
0.0
 70
    32
  0
VERTEX
  5
1872E
  8
AM_0
 10
230.78117525987611
 20
168.67196679849781
 30
0.0
 70
    32
  0
VERTEX
  5
1872F
  8
AM_0
 10
230.78147525987629
 20
168.67596679849791
 30
0.0
 70
    32
  0
VERTEX
  5
18730
  8
AM_0
 10
230.78167525987621
 20
168.67996679849799
 30
0.0
 70
    32
  0
VERTEX
  5
18731
  8
AM_0
 10
230.78197525987639
 20
168.6849667984977
 30
0.0
 70
    32
  0
VERTEX
  5
18732
  8
AM_0
 10
230.78217525987591
 20
168.688966798498
 30
0.0
 70
    32
  0
VERTEX
  5
18733
  8
AM_0
 10
230.7823752598764
 20
168.69296679849779
 30
0.0
 70
    32
  0
VERTEX
  5
18734
  8
AM_0
 10
230.7825752598761
 20
168.69796679849779
 30
0.0
 70
    32
  0
VERTEX
  5
18735
  8
AM_0
 10
230.78287525987639
 20
168.70196679849789
 30
0.0
 70
    32
  0
VERTEX
  5
18736
  8
AM_0
 10
230.78307525987611
 20
168.70596679849791
 30
0.0
 70
    32
  0
VERTEX
  5
18737
  8
AM_0
 10
230.78327525987621
 20
168.71096679849771
 30
0.0
 70
    32
  0
VERTEX
  5
18738
  8
AM_0
 10
230.7834752598761
 20
168.7149667984977
 30
0.0
 70
    32
  0
VERTEX
  5
18739
  8
AM_0
 10
230.78367525987599
 20
168.718966798498
 30
0.0
 70
    32
  0
VERTEX
  5
1873A
  8
AM_0
 10
230.78387525987611
 20
168.7239667984978
 30
0.0
 70
    32
  0
VERTEX
  5
1873B
  8
AM_0
 10
230.7840752598762
 20
168.72796679849779
 30
0.0
 70
    32
  0
VERTEX
  5
1873C
  8
AM_0
 10
230.7842752598763
 20
168.73196679849789
 30
0.0
 70
    32
  0
VERTEX
  5
1873D
  8
AM_0
 10
230.7844752598759
 20
168.7369667984976
 30
0.0
 70
    32
  0
VERTEX
  5
1873E
  8
AM_0
 10
230.78467525987651
 20
168.74096679849791
 30
0.0
 70
    32
  0
VERTEX
  5
1873F
  8
AM_0
 10
230.784875259876
 20
168.74496679849759
 30
0.0
 70
    32
  0
VERTEX
  5
18740
  8
AM_0
 10
230.78507525987609
 20
168.74996679849801
 30
0.0
 70
    32
  0
VERTEX
  5
18741
  8
AM_0
 10
230.7852752598761
 20
168.75396679849811
 30
0.0
 70
    32
  0
VERTEX
  5
18742
  8
AM_0
 10
230.78537525987599
 20
168.7579667984977
 30
0.0
 70
    32
  0
VERTEX
  5
18743
  8
AM_0
 10
230.78557525987651
 20
168.76296679849759
 30
0.0
 70
    32
  0
VERTEX
  5
18744
  8
AM_0
 10
230.785775259876
 20
168.766966798498
 30
0.0
 70
    32
  0
VERTEX
  5
18745
  8
AM_0
 10
230.78587525987609
 20
168.77196679849791
 30
0.0
 70
    32
  0
VERTEX
  5
18746
  8
AM_0
 10
230.7860752598763
 20
168.77596679849779
 30
0.0
 70
    32
  0
VERTEX
  5
18747
  8
AM_0
 10
230.78627525987611
 20
168.77996679849801
 30
0.0
 70
    32
  0
VERTEX
  5
18748
  8
AM_0
 10
230.786375259876
 20
168.78496679849789
 30
0.0
 70
    32
  0
VERTEX
  5
18749
  8
AM_0
 10
230.78657525987609
 20
168.78896679849791
 30
0.0
 70
    32
  0
VERTEX
  5
1874A
  8
AM_0
 10
230.78667525987589
 20
168.7929667984977
 30
0.0
 70
    32
  0
VERTEX
  5
1874B
  8
AM_0
 10
230.7868752598761
 20
168.7979667984979
 30
0.0
 70
    32
  0
VERTEX
  5
1874C
  8
AM_0
 10
230.7869752598763
 20
168.8019667984978
 30
0.0
 70
    32
  0
VERTEX
  5
1874D
  8
AM_0
 10
230.78707525987619
 20
168.80596679849799
 30
0.0
 70
    32
  0
VERTEX
  5
1874E
  8
AM_0
 10
230.787275259876
 20
168.81096679849779
 30
0.0
 70
    32
  0
VERTEX
  5
1874F
  8
AM_0
 10
230.7873752598764
 20
168.81496679849789
 30
0.0
 70
    32
  0
VERTEX
  5
18750
  8
AM_0
 10
230.787475259876
 20
168.81896679849791
 30
0.0
 70
    32
  0
VERTEX
  5
18751
  8
AM_0
 10
230.78757525987589
 20
168.82396679849751
 30
0.0
 70
    32
  0
VERTEX
  5
18752
  8
AM_0
 10
230.78767525987621
 20
168.82796679849781
 30
0.0
 70
    32
  0
VERTEX
  5
18753
  8
AM_0
 10
230.78777525987641
 20
168.831966798498
 30
0.0
 70
    32
  0
VERTEX
  5
18754
  8
AM_0
 10
230.78797525987611
 20
168.836966798498
 30
0.0
 70
    32
  0
VERTEX
  5
18755
  8
AM_0
 10
230.7880752598758
 20
168.84096679849779
 30
0.0
 70
    32
  0
VERTEX
  5
18756
  8
AM_0
 10
230.7881752598762
 20
168.84496679849789
 30
0.0
 70
    32
  0
VERTEX
  5
18757
  8
AM_0
 10
230.7882752598762
 20
168.84996679849749
 30
0.0
 70
    32
  0
VERTEX
  5
18758
  8
AM_0
 10
230.7882752598762
 20
168.85396679849771
 30
0.0
 70
    32
  0
VERTEX
  5
18759
  8
AM_0
 10
230.78837525987601
 20
168.85796679849761
 30
0.0
 70
    32
  0
VERTEX
  5
1875A
  8
AM_0
 10
230.78847525987609
 20
168.8629667984975
 30
0.0
 70
    32
  0
VERTEX
  5
1875B
  8
AM_0
 10
230.78857525987621
 20
168.866966798498
 30
0.0
 70
    32
  0
VERTEX
  5
1875C
  8
AM_0
 10
230.78867525987619
 20
168.8709667984977
 30
0.0
 70
    32
  0
VERTEX
  5
1875D
  8
AM_0
 10
230.78867525987619
 20
168.8759667984977
 30
0.0
 70
    32
  0
VERTEX
  5
1875E
  8
AM_0
 10
230.7887752598763
 20
168.87996679849749
 30
0.0
 70
    32
  0
VERTEX
  5
1875F
  8
AM_0
 10
230.78887525987611
 20
168.88396679849799
 30
0.0
 70
    32
  0
VERTEX
  5
18760
  8
AM_0
 10
230.78887525987611
 20
168.88896679849779
 30
0.0
 70
    32
  0
VERTEX
  5
18761
  8
AM_0
 10
230.7889752598758
 20
168.89296679849801
 30
0.0
 70
    32
  0
VERTEX
  5
18762
  8
AM_0
 10
230.789075259876
 20
168.89796679849761
 30
0.0
 70
    32
  0
VERTEX
  5
18763
  8
AM_0
 10
230.789075259876
 20
168.90196679849771
 30
0.0
 70
    32
  0
VERTEX
  5
18764
  8
AM_0
 10
230.78917525987629
 20
168.9059667984979
 30
0.0
 70
    32
  0
VERTEX
  5
18765
  8
AM_0
 10
230.78917525987629
 20
168.91096679849801
 30
0.0
 70
    32
  0
VERTEX
  5
18766
  8
AM_0
 10
230.78927525987609
 20
168.9149667984978
 30
0.0
 70
    32
  0
VERTEX
  5
18767
  8
AM_0
 10
230.78927525987609
 20
168.91896679849779
 30
0.0
 70
    32
  0
VERTEX
  5
18768
  8
AM_0
 10
230.78937525987601
 20
168.92396679849779
 30
0.0
 70
    32
  0
VERTEX
  5
18769
  8
AM_0
 10
230.78937525987601
 20
168.92796679849809
 30
0.0
 70
    32
  0
VERTEX
  5
1876A
  8
AM_0
 10
230.78947525987621
 20
168.93196679849791
 30
0.0
 70
    32
  0
VERTEX
  5
1876B
  8
AM_0
 10
230.78947525987621
 20
168.9369667984981
 30
0.0
 70
    32
  0
VERTEX
  5
1876C
  8
AM_0
 10
230.78947525987621
 20
168.94096679849801
 30
0.0
 70
    32
  0
VERTEX
  5
1876D
  8
AM_0
 10
230.78957525987639
 20
168.9449667984978
 30
0.0
 70
    32
  0
VERTEX
  5
1876E
  8
AM_0
 10
230.78957525987639
 20
168.9499667984978
 30
0.0
 70
    32
  0
VERTEX
  5
1876F
  8
AM_0
 10
230.7896752598763
 20
168.9539667984979
 30
0.0
 70
    32
  0
VERTEX
  5
18770
  8
AM_0
 10
230.7896752598763
 20
168.95796679849761
 30
0.0
 70
    32
  0
VERTEX
  5
18771
  8
AM_0
 10
230.7896752598763
 20
168.96296679849789
 30
0.0
 70
    32
  0
VERTEX
  5
18772
  8
AM_0
 10
230.78977525987619
 20
168.96696679849779
 30
0.0
 70
    32
  0
SEQEND
  5
18773
  8
AM_0
  0
ARC
  5
18774
  8
AM_0
 10
242.65959006291911
 20
166.96701386357191
 30
0.0
 40
0.5
 50
270.0
 51
0.0
  0
LINE
  5
18775
  8
AM_0
 10
242.65959006291911
 20
166.46701386357199
 30
0.0
 11
238.55959006291849
 21
166.46701386357199
 31
0.0
  0
ARC
  5
18776
  8
AM_0
 10
238.55959006291849
 20
168.96701386357171
 30
0.0
 40
2.4999999999999991
 50
270.0
 51
0.0
  0
LINE
  5
18777
  8
AM_0
 10
232.23959006291901
 20
179.46701386357179
 30
0.0
 11
241.05959006291849
 21
178.0020138635721
 31
0.0
  0
LINE
  5
18778
  8
AM_0
 10
243.1595900629207
 20
183.46701386357191
 30
0.0
 11
231.6595900629207
 21
183.46701386357191
 31
0.0
  0
LINE
  5
18779
  8
AM_0
 10
231.6595900629207
 20
193.97633972238299
 30
0.0
 11
231.6595900629207
 21
183.46701386357191
 31
0.0
  0
ARC
  5
1877A
  8
AM_0
 10
228.21922341431079
 20
235.45494774246529
 30
0.0
 40
29.999999999999989
 50
338.64558357337688
 51
357.15747057714992
1001
GENIUS_GENOBJ-N-FIL_13
1002
{
1000
OWNER
1000
GEN
1002
}
1001
GENIUS_GENODEF_13
1002
{
1000
HIER
1070
     0
1002
}
1002
{
1000
MANEDIT
1070
     0
1002
}
1002
{
1000
NOSEL
1070
     0
1002
}
1002
{
1000
BEHIND
1070
     0
1002
}
1002
{
1000
OTHER
1070
     0
1002
}
1002
{
1000
REACTOR
1002
}
  0
POLYLINE
  5
1877B
  8
AM_0
 66
     1
 10
0.0
 20
0.0
 30
0.0
  0
VERTEX
  5
1877C
  8
AM_0
 10
693.96976340530193
 20
270.46701435754818
 30
0.0
 42
0.00039106649
  0
VERTEX
  5
1877D
  8
AM_0
 10
693.97212340530223
 20
270.77814435754829
 30
0.0
 42
0.00035488198
  0
VERTEX
  5
1877E
  8
AM_0
 10
693.97401340530223
 20
271.08925435754821
 30
0.0
 42
0.00039706113
  0
VERTEX
  5
1877F
  8
AM_0
 10
693.97544340530214
 20
271.40036435754831
 30
0.0
 42
0.00038765718
  0
VERTEX
  5
18780
  8
AM_0
 10
693.97637340530218
 20
271.71150435754828
 30
0.0
 42
0.00040613432
  0
VERTEX
  5
18781
  8
AM_0
 10
693.9768234053023
 20
272.02260435754818
 30
0.0
 42
0.00035573434
  0
VERTEX
  5
18782
  8
AM_0
 10
693.97678340530206
 20
272.33371435754827
 30
0.0
 42
0.00038545884
  0
VERTEX
  5
18783
  8
AM_0
 10
693.97629340530204
 20
272.6448443575481
 30
0.0
 42
0.00035501205
  0
VERTEX
  5
18784
  8
AM_0
 10
693.97533340530208
 20
272.95595435754819
 30
0.0
 42
0.00040120779
  0
VERTEX
  5
18785
  8
AM_0
 10
693.97391340530226
 20
273.26718435754822
 30
0.0
 42
0.00038317817
  0
VERTEX
  5
18786
  8
AM_0
 10
693.97200340530208
 20
273.57831435754832
 30
0.0
 42
0.00035656084
  0
VERTEX
  5
18787
  8
AM_0
 10
693.96962340530206
 20
273.88955435754832
 30
0.0
 42
0.00040143615
  0
VERTEX
  5
18788
  8
AM_0
 10
693.96677340530209
 20
274.2006543575481
 30
0.0
  0
SEQEND
  5
18789
  8
AM_0
  0
LINE
  5
1878A
  8
AM_0
 10
709.32975340530209
 20
233.28195435754819
 30
0.0
 11
709.32975340530209
 21
307.6530443575482
 31
0.0
  0
LINE
  5
1878B
  8
AM_0
 10
754.32975340530231
 20
235.93795435754819
 30
0.0
 11
754.32975340530231
 21
304.99606435754839
 31
0.0
  0
LINE
  5
1878D
  8
AM_0
 10
760.82972340530216
 20
265.46701435754818
 30
0.0
 11
760.82972340530216
 21
275.46701435754829
 31
0.0
  0
LINE
  5
1878E
  8
AM_0
 10
704.32975340530231
 20
329.21701435754829
 30
0.0
 11
704.32975340530231
 21
211.71701435754821
 31
0.0
  0
LINE
  5
1878F
  8
AM_0
 10
696.3297534053022
 20
323.46701435754818
 30
0.0
 11
696.3297534053022
 21
217.46701435754821
 31
0.0
  0
LINE
  5
18790
  8
AM_0
 10
759.83118350530219
 20
326.46701435754818
 30
0.0
 11
759.83118350530242
 21
275.46701435754829
 31
0.0
  0
LINE
  5
18791
  8
AM_0
 10
751.82975340530197
 20
217.68502435754829
 30
0.0
 11
751.82975340530197
 21
323.21701435754801
 31
0.0
  0
LINE
  5
18792
  8
AM_0
 10
588.3297534053022
 20
326.46701435754818
 30
0.0
 11
588.3297534053022
 21
214.46701435754821
 31
0.0
  0
LINE
  5
18793
  8
AM_0
 10
703.62974340530229
 20
227.2770743575482
 30
0.0
 11
697.39976340530211
 21
227.2770743575482
 31
0.0
  0
LINE
  5
18794
  8
AM_0
 10
704.32975340530231
 20
217.46701435754821
 30
0.0
 11
696.3297534053022
 21
217.46701435754821
 31
0.0
  0
LINE
  5
18795
  8
AM_0
 10
751.82975340530197
 20
236.82602435754811
 30
0.0
 11
709.32975340530209
 21
236.82602435754811
 31
0.0
  0
ARC
  5
18796
  8
AM_0
 10
749.83118350530231
 20
215.46701435754821
 30
0.0
 40
5.0
 50
270.00005000000499
 51
0.0000200000020199
  0
ARC
  5
18797
  8
AM_0
 10
750.83118350530231
 20
214.46701435754821
 30
0.0
 40
9.0
 50
270.00005000000499
 51
0.0000200000020199
  0
LINE
  5
18798
  8
AM_0
 10
752.32975340530197
 20
217.71701435754821
 30
0.0
 11
704.32975340530231
 21
217.71701435754821
 31
0.0
  0
LINE
  5
18799
  8
AM_0
 10
751.82975340530197
 20
226.57602435754811
 30
0.0
 11
709.32975340530209
 21
226.57602435754811
 31
0.0
  0
LINE
  5
1879A
  8
AM_0
 10
754.32975340530231
 20
227.2140843575481
 30
0.0
 11
754.32975340530231
 21
219.71701435754821
 31
0.0
  0
ARC
  5
1879C
  8
AM_0
 10
752.32975340530197
 20
219.71701435754821
 30
0.0
 40
2.0
 50
270.00005000000499
 51
0.0000200000020199
  0
ARC
  5
1879D
  8
AM_0
 10
753.42972340530196
 20
233.07602435754811
 30
0.0
 40
3.0
 50
62.15032650279759
 51
90.000011000008925
  0
ARC
  5
1879E
  8
AM_0
 10
753.42972340530196
 20
230.07602435754811
 30
0.0
 40
3.0
 50
270.00005000000499
 51
297.84967349720239
  0
LINE
  5
1879F
  8
AM_0
 10
753.12974340530229
 20
236.17599435754809
 30
0.0
 11
751.82975340530197
 21
236.17599435754809
 31
0.0
  0
LINE
  5
187A0
  8
AM_0
 10
753.42972340530196
 20
236.07602435754811
 30
0.0
 11
753.12974340530229
 21
236.07602435754811
 31
0.0
  0
LINE
  5
187A2
  8
AM_0
 10
753.12974340530229
 20
226.9760443575482
 30
0.0
 11
751.82975340530197
 21
226.9760443575482
 31
0.0
  0
LINE
  5
187A3
  8
AM_0
 10
753.42972340530196
 20
227.07602435754811
 30
0.0
 11
753.12974340530229
 21
227.07602435754811
 31
0.0
  0
LINE
  5
187A4
  8
AM_0
 10
753.12974340530229
 20
236.17599435754809
 30
0.0
 11
753.12974340530229
 21
226.9760443575482
 31
0.0
  0
LINE
  5
187A6
  8
AM_0
 10
754.32975340530231
 20
265.46701435754818
 30
0.0
 11
760.82972340530216
 21
265.46701435754818
 31
0.0
  0
LINE
  5
187A7
  8
AM_0
 10
709.32975340530209
 20
226.57602435754811
 30
0.0
 11
709.32975340530209
 21
217.71701435754821
 31
0.0
  0
LINE
  5
187A8
  8
AM_0
 10
729.32975340530231
 20
211.71701435754821
 30
0.0
 11
704.32975340530231
 21
211.71701435754821
 31
0.0
  0
LINE
  5
187A9
  8
AM_0
 10
750.83118350530231
 20
205.46701435754821
 30
0.0
 11
713.3297534053022
 21
205.46701435754821
 31
0.0
  0
LINE
  5
187AA
  8
AM_0
 10
749.83118350530231
 20
210.46701435754821
 30
0.0
 11
726.32975340530209
 21
210.46701435754821
 31
0.0
  0
LINE
  5
187AB
  8
AM_0
 10
729.32975340530231
 20
211.71701435754821
 30
0.0
 11
729.32975340530231
 21
217.71701435754821
 31
0.0
  0
LINE
  5
187AC
  8
AM_0
 10
716.32975340530231
 20
210.46701435754821
 30
0.0
 11
713.3297534053022
 21
210.46701435754821
 31
0.0
  0
LINE
  5
187AD
  8
AM_0
 10
726.32975340530209
 20
211.71701435754821
 30
0.0
 11
726.32975340530209
 21
205.46701435754821
 31
0.0
  0
LINE
  5
187AE
  8
AM_0
 10
716.32975340530231
 20
211.71701435754821
 30
0.0
 11
716.32975340530231
 21
205.46701435754821
 31
0.0
  0
LINE
  5
187AF
  8
AM_0
 10
713.3297534053022
 20
210.46701435754821
 30
0.0
 11
713.3297534053022
 21
205.46701435754821
 31
0.0
  0
LINE
  5
187B0
  8
AM_0
 10
594.98972340530213
 20
236.46701435754821
 30
0.0
 11
639.32975340530197
 21
236.46701435754821
 31
0.0
  0
LINE
  5
187B1
  8
AM_0
 10
594.98972340530213
 20
234.46701435754821
 30
0.0
 11
639.32975340530197
 21
234.46701435754821
 31
0.0
  0
LINE
  5
187B2
  8
AM_0
 10
639.32975340530197
 20
233.74704435754811
 30
0.0
 11
591.50974340530229
 21
233.74704435754811
 31
0.0
  0
LINE
  5
187B3
  8
AM_0
 10
591.50974340530229
 20
237.09701435754809
 30
0.0
 11
609.34977340530213
 21
237.09701435754809
 31
0.0
  0
LINE
  5
187B4
  8
AM_0
 10
594.99692340530214
 20
244.46701435754821
 30
0.0
 11
609.32975340530209
 21
244.46701435754821
 31
0.0
  0
LINE
  5
187B5
  8
AM_0
 10
609.32975340530209
 20
243.9870343575482
 30
0.0
 11
591.29551340530224
 21
243.9870343575482
 31
0.0
  0
LINE
  5
187B6
  8
AM_0
 10
594.99692340530214
 20
246.46701435754821
 30
0.0
 11
693.96976340530193
 21
246.46701435754821
 31
0.0
  0
LINE
  5
187B7
  8
AM_0
 10
694.86973340530233
 20
246.90695435754819
 30
0.0
 11
591.29551340530224
 21
246.90695435754819
 31
0.0
  0
LINE
  5
187B8
  8
AM_0
 10
602.5524647078762
 20
200.96701435754821
 30
0.0
 11
613.22759097372318
 21
200.96701435754821
 31
0.0
  0
LINE
  5
187B9
  8
AM_0
 10
607.42759097372186
 20
179.96701435754821
 30
0.0
 11
602.05246470787631
 21
179.96701435754821
 31
0.0
  0
LINE
  5
187BA
  8
AM_0
 10
601.55246470787631
 20
183.96701435754821
 30
0.0
 11
609.92759097372323
 21
183.96701435754821
 31
0.0
  0
LINE
  5
187BB
  8
AM_0
 10
605.82975340530197
 20
203.46701435754821
 30
0.0
 11
672.82975340530197
 21
203.46701435754821
 31
0.0
  0
LINE
  5
187BC
  8
AM_0
 10
607.75067271951718
 20
207.96701435754821
 30
0.0
 11
596.31357340530212
 21
207.96701435754821
 31
0.0
  0
LINE
  5
187BD
  8
AM_0
 10
693.11973340530233
 20
214.18698435754811
 30
0.0
 11
596.19974340530223
 21
214.18698435754811
 31
0.0
  0
LINE
  5
187BE
  8
ﾁｭｳｼﾝｾﾝ1
 10
673.72759097372307
 20
195.96702935754811
 30
0.0
 11
673.72759097372307
 21
171.96702935754811
 31
0.0
  0
LINE
  5
187BF
  8
AM_0
 10
617.32759097372207
 20
178.6528091302512
 30
0.0
 11
617.32759097372207
 21
182.70620177563509
 31
0.0
  0
LINE
  5
187C0
  8
AM_0
 10
640.72759097372125
 20
179.73318092628719
 30
0.0
 11
640.72759097372125
 21
193.2556381783503
 31
0.0
  0
LINE
  5
187C1
  8
AM_0
 10
639.02423692824709
 20
195.96701435754821
 30
0.0
 11
639.02423692824709
 21
180.0233985225023
 31
0.0
  0
LINE
  5
187C2
  8
AM_0
 10
644.93094501920223
 20
179.01701313347931
 30
0.0
 11
644.93094501920223
 21
195.96701435754821
 31
0.0
  0
LINE
  5
187C3
  8
AM_0
 10
642.72759097372398
 20
195.96701435754821
 30
0.0
 11
642.72759097372398
 21
179.3924207690132
 31
0.0
  0
ARC
  5
187C4
  8
AM_0
 10
673.72759097372307
 20
183.96701435754821
 30
0.0
 40
9.3000000000000007
 50
180.0
 51
0.000000000000007
  0
CIRCLE
  5
187C5
  8
AM_0
 10
673.72759097372307
 20
183.96701435754821
 30
0.0
 40
6.299999999999998
  0
LINE
  5
187C6
  8
AM_0
 10
688.82759097372332
 20
199.96701435754821
 30
0.0
 11
688.82759097372332
 21
176.96701435754809
 31
0.0
  0
LINE
  5
187C7
  8
AM_0
 10
652.33094501920232
 20
177.7562005515662
 30
0.0
 11
652.33094501920232
 21
195.96701435754929
 31
0.0
  0
LINE
  5
187C8
  8
AM_0
 10
650.13094501920227
 20
195.96701435754821
 30
0.0
 11
650.13094501920114
 21
178.1310367245672
 31
0.0
  0
LINE
  5
187C9
  8
AM_0
 10
648.63094501920216
 20
178.38660684252329
 30
0.0
 11
648.63094501920216
 21
195.96701435754821
 31
0.0
  0
LINE
  5
187CA
  8
AM_0
 10
646.43094501920223
 20
195.96701435754821
 30
0.0
 11
646.43094501920223
 21
178.76144301552409
 31
0.0
  0
LINE
  5
187CB
  8
AM_0
 10
654.33094501920232
 20
193.2556381783503
 30
0.0
 11
654.33094501920232
 21
177.4154403942922
 31
0.0
  0
LINE
  5
187CC
  8
AM_0
 10
686.22759097372307
 20
170.96701435754821
 30
0.0
 11
609.92759097372323
 21
183.96701435754821
 31
0.0
  0
LINE
  5
187CD
  8
AM_0
 10
686.22759097372307
 20
170.96701435754821
 30
0.0
 11
609.92759097372323
 21
183.96701435754821
 31
0.0
  0
LINE
  5
187CE
  8
AM_0
 10
686.30901475793428
 20
171.96701435754809
 30
0.0
 11
654.33094501920232
 21
177.4154403942922
 31
0.0
  0
LINE
  5
187CF
  8
AM_0
 10
610.42759097372209
 20
166.96701435754821
 30
0.0
 11
685.9018958368822
 21
166.96701435754821
 31
0.0
  0
LINE
  5
187D0
  8
AM_0
 10
609.60189583688225
 20
179.96701435754821
 30
0.0
 11
685.9018958368822
 21
166.96701435754821
 31
0.0
  0
ARC
  5
187D1
  8
AM_0
 10
690.52759097372223
 20
175.66701435754911
 30
0.0
 40
0.3
 50
0.000000000000007
 51
90.0
  0
ARC
  5
187D2
  8
AM_0
 10
689.32759097372195
 20
168.4670143575494
 30
0.0
 40
1.5
 50
270.00000000001302
 51
359.99999999999352
  0
LINE
  5
187D3
  8
AM_0
 10
690.82759097372218
 20
175.66701435754911
 30
0.0
 11
690.82759097372218
 21
168.46701435754821
 31
0.0
  0
LINE
  5
187D4
  8
AM_0
 10
690.3275909737232
 20
170.66701435754919
 30
0.0
 11
690.3275909737232
 21
168.46701435754821
 31
0.0
  0
LINE
  5
187D5
  8
AM_0
 10
689.32759097372195
 20
166.96701435754821
 30
0.0
 11
689.02910507756508
 21
166.96701435754929
 31
0.0
  0
ARC
  5
187D6
  8
AM_0
 10
688.82759097372332
 20
168.46701435754821
 30
0.0
 40
1.5
 50
270.0
 51
0.000000000000007
  0
LINE
  5
187D7
  8
AM_0
 10
688.82759097372332
 20
166.96701435754821
 30
0.0
 11
685.9018958368822
 21
166.96701435754821
 31
0.0
  0
ARC
  5
187D8
  8
AM_0
 10
689.62759097372327
 20
175.66701435754911
 30
0.0
 40
0.3
 50
90.0
 51
180.0
  0
LINE
  5
187D9
  8
AM_0
 10
688.92759097372334
 20
176.96701435754809
 30
0.0
 11
688.82759097372332
 21
176.96701435754809
 31
0.0
  0
LINE
  5
187DA
  8
AM_0
 10
689.12759097372316
 20
176.7670143575491
 30
0.0
 11
688.92759097372334
 21
176.96701435754809
 31
0.0
  0
LINE
  5
187DB
  8
AM_0
 10
689.32759097372332
 20
174.1626570382642
 30
0.0
 11
689.12759097372316
 21
174.1626570382642
 31
0.0
  0
LINE
  5
187DC
  8
AM_0
 10
689.12759097372316
 20
174.1626570382642
 30
0.0
 11
689.12759097372316
 21
176.7670143575491
 31
0.0
  0
LINE
  5
187DD
  8
AM_0
 10
690.02759097372325
 20
175.96701435754821
 30
0.0
 11
690.52759097372223
 21
175.96701435754821
 31
0.0
  0
LINE
  5
187DE
  8
AM_0
 10
689.62759097372327
 20
175.96701435754821
 30
0.0
 11
690.02759097372325
 21
175.96701435754821
 31
0.0
  0
LINE
  5
187DF
  8
AM_0
 10
689.12759097372316
 20
171.96701435754809
 30
0.0
 11
689.12759097372316
 21
172.96265703826421
 31
0.0
  0
LINE
  5
187E0
  8
AM_0
 10
690.3275909737232
 20
171.66701435754919
 30
0.0
 11
690.3275909737232
 21
170.96701435754821
 31
0.0
  0
ARC
  5
187E1
  8
AM_0
 10
690.02759097372325
 20
170.66701435754919
 30
0.0
 40
0.3
 50
0.000000000000007
 51
90.0
  0
ARC
  5
187E2
  8
AM_0
 10
690.02759097372325
 20
171.66701435754919
 30
0.0
 40
0.3
 50
0.000000000000007
 51
90.0
  0
LINE
  5
187E3
  8
AM_0
 10
689.12759097372316
 20
172.96265703826421
 30
0.0
 11
689.32759097372332
 21
172.96265703826421
 31
0.0
  0
LINE
  5
187E4
  8
AM_0
 10
690.3275909737232
 20
170.96701435754821
 30
0.0
 11
686.22759097372307
 21
170.96701435754821
 31
0.0
  0
LINE
  5
187E5
  8
AM_0
 10
690.02759097372325
 20
170.96701435754821
 30
0.0
 11
686.22759097372307
 21
170.96701435754821
 31
0.0
  0
LINE
  5
187E6
  8
AM_0
 10
686.30901475793428
 20
171.96701435754809
 30
0.0
 11
690.02759097372325
 21
171.96701435754809
 31
0.0
  0
LINE
  5
187E7
  8
AM_0
 10
688.82759097372332
 20
176.96701435754809
 30
0.0
 11
688.82759097372423
 21
171.96701435754809
 31
0.0
  0
LINE
  5
187E8
  8
AM_0
 10
689.32759097372332
 20
171.96701435754809
 30
0.0
 11
689.32759097372332
 21
175.66701435754911
 31
0.0
  0
LINE
  5
187E9
  8
AM_0
 10
689.12759097372316
 20
172.96265703826421
 30
0.0
 11
689.12759097372316
 21
174.1626570382642
 31
0.0
  0
LINE
  5
187EA
  8
AM_0
 10
648.63094501920216
 20
178.38660684252329
 30
0.0
 11
646.43094501920223
 21
178.76144301552409
 31
0.0
  0
LINE
  5
187EB
  8
AM_0
 10
652.33094501920232
 20
177.7562005515662
 30
0.0
 11
650.13094501920114
 21
178.1310367245672
 31
0.0
  0
LINE
  5
187EC
  8
AM_0
 10
644.93094501920223
 20
179.01701313347931
 30
0.0
 11
642.72759097372398
 21
179.3924207690132
 31
0.0
  0
LINE
  5
187ED
  8
AM_0
 10
640.72759097372125
 20
179.73318092628719
 30
0.0
 11
639.02423692824709
 21
180.0233985225023
 31
0.0
  0
LINE
  5
187EE
  8
AM_0
 10
618.19743945470509
 20
166.96701435754821
 30
0.0
 11
618.19743945470509
 21
178.50250496001641
 31
0.0
  0
ARC
  5
187EF
  8
AM_0
 10
610.42759097372209
 20
169.46701435754821
 30
0.0
 40
2.5
 50
180.0
 51
270.0
  0
ARC
  5
187F0
  8
AM_0
 10
607.42759097372186
 20
179.46701435754821
 30
0.0
 40
0.5
 50
0.000000000000007
 51
90.0
  0
LINE
  5
187F1
  8
AM_0
 10
607.42759097372186
 20
179.96701435754821
 30
0.0
 11
609.60189583688225
 21
179.96701435754821
 31
0.0
  0
LINE
  5
187F2
  8
AM_0
 10
607.92759097372186
 20
179.46701435754821
 30
0.0
 11
607.92759097372186
 21
169.46701435754821
 31
0.0
  0
LINE
  5
187F3
  8
AM_0
 10
627.32975340530197
 20
244.46701435754821
 30
0.0
 11
693.96976340530193
 21
244.46701435754821
 31
0.0
  0
LINE
  5
187F4
  8
AM_0
 10
639.32975340530197
 20
236.46701435754821
 30
0.0
 11
693.96976340530193
 21
236.46701435754821
 31
0.0
  0
LINE
  5
187F5
  8
AM_0
 10
639.32975340530197
 20
234.46701435754821
 30
0.0
 11
693.96976340530193
 21
234.46701435754821
 31
0.0
  0
LINE
  5
187F6
  8
AM_0
 10
694.86973340530233
 20
243.9770243575482
 30
0.0
 11
627.32975340530197
 21
243.9770243575482
 31
0.0
  0
LINE
  5
187F7
  8
AM_0
 10
694.64976340530211
 20
233.74704435754811
 30
0.0
 11
639.32975340530197
 21
233.74704435754811
 31
0.0
  0
LINE
  5
187F8
  8
AM_0
 10
694.64976340530211
 20
237.09701435754809
 30
0.0
 11
627.30973340530215
 21
237.09701435754809
 31
0.0
  0
LINE
  5
187F9
  8
AM_0
 10
620.42759097372323
 20
200.96701435754821
 30
0.0
 11
658.22759097372318
 21
200.96701435754821
 31
0.0
  0
LINE
  5
187FA
  8
AM_0
 10
690.96976340530193
 20
233.8170143575482
 30
0.0
 11
696.3297534053022
 21
222.37701435754829
 31
0.0
  0
LINE
  5
187FB
  8
ﾁｭｳｼﾝｾﾝ1
 10
685.72759097371375
 20
183.96701435754821
 30
0.0
 11
661.72759097373228
 21
183.96701435754821
 31
0.0
  0
LINE
  5
187FC
  8
AM_0
 10
693.42350340530197
 20
211.33700435754821
 30
0.0
 11
670.9971032066353
 21
211.33700435754821
 31
0.0
  0
LINE
  5
187FD
  8
AM_0
 10
683.02759097372325
 20
200.96701435754821
 30
0.0
 11
665.42759097372323
 21
200.96701435754821
 31
0.0
  0
LINE
  5
187FE
  8
AM_0
 10
683.02759097372325
 20
200.96701435754821
 30
0.0
 11
683.02759097372325
 21
183.96701435754821
 31
0.0
  0
LINE
  5
187FF
  8
AM_0
 10
687.82759097372332
 20
200.96701435754821
 30
0.0
 11
683.02759097372325
 21
200.96701435754821
 31
0.0
  0
ARC
  5
18800
  8
AM_0
 10
687.82759097372332
 20
199.96701435754821
 30
0.0
 40
1.0
 50
0.000000000000007
 51
90.0
  0
LINE
  5
18801
  8
AM_0
 10
696.3297534053022
 20
221.0269443575481
 30
0.0
 11
695.04978340530215
 21
213.02700435754821
 31
0.0
  0
LINE
  5
18802
  8
AM_0
 10
696.3297534053022
 20
219.68695435754819
 30
0.0
 11
695.32053340530194
 21
213.0369243575482
 31
0.0
  0
LINE
  5
18803
  8
AM_0
 10
696.3297534053022
 20
219.68701435754829
 30
0.0
 11
695.40427340530209
 21
213.0603943575482
 31
0.0
  0
ARC
  5
18804
  8
AM_0
 10
693.1249134053021
 20
216.18625435754811
 30
0.0
 40
1.9992490000000001
 50
269.85256999999859
 51
349.35689999999897
  0
ARC
  5
18805
  8
AM_0
 10
693.07358340530186
 20
213.3373743575481
 30
0.0
 40
2.000420099999999
 50
270.17729000000389
 51
351.07317999999839
  0
ARC
  5
18806
  8
AM_0
 10
693.34312340530209
 20
213.33700435754821
 30
0.0
 40
2.0
 50
270.000010000001
 51
351.37037999999581
  0
ARC
  5
18807
  8
AM_0
 10
693.42350340530197
 20
213.33700435754821
 30
0.0
 40
2.0
 50
270.000010000001
 51
352.04955999999652
  0
LINE
  5
18808
  8
AM_0
 10
696.3297534053022
 20
222.37695435754819
 30
0.0
 11
695.08976340530205
 21
215.8169543575483
 31
0.0
  0
LINE
  5
18809
  8
AM_0
 10
672.82975340530197
 20
200.96701435754821
 30
0.0
 11
672.82975340530197
 21
203.46701435754821
 31
0.0
  0
LINE
  5
1880A
  8
AM_0
 10
664.42759097372323
 20
200.96701435754821
 30
0.0
 11
664.42759097372323
 21
183.96701435754821
 31
0.0
  0
CIRCLE
  5
1880B
  8
AM_0
 10
659.22759097372318
 20
183.96701435754821
 30
0.0
 40
0.75
  0
LINE
  5
1880C
  8
AM_0
 10
658.22759097372318
 20
200.96701435754821
 30
0.0
 11
664.42759097372323
 21
200.96701435754821
 31
0.0
  0
LINE
  5
1880D
  8
AM_0
 10
665.42759097372323
 20
200.96701435754821
 30
0.0
 11
664.42759097372323
 21
200.96701435754821
 31
0.0
  0
LINE
  5
1880E
  8
AM_0
 10
669.32981340530193
 20
203.46698435754811
 30
0.0
 11
669.61047759264125
 21
214.18698435754811
 31
0.0
  0
ARC
  5
1880F
  8
AM_0
 10
670.9971032066353
 20
209.8370043575481
 30
0.0
 40
1.5
 50
90.0
 51
178.50026113613271
1001
GENIUS_GENODEF_13
1002
{
1000
HIER
1070
     0
1002
}
1002
{
1000
MANEDIT
1070
     0
1002
}
1002
{
1000
NOSEL
1070
     0
1002
}
1002
{
1000
BEHIND
1070
     0
1002
}
1002
{
1000
REACTOR
1002
}
1001
GENIUS_GENOBJ-N-FIL_13
1002
{
1000
OWNER
1000
GEN
1002
}
  0
LINE
  5
18810
  8
AM_0
 10
659.89103340530187
 20
266.46701435754818
 30
0.0
 11
693.96976340530193
 21
266.46701435754818
 31
0.0
  0
LINE
  5
18811
  8
AM_0
 10
659.89103340530187
 20
264.46701435754818
 30
0.0
 11
693.96976340530193
 21
264.46701435754818
 31
0.0
  0
LINE
  5
18812
  8
AM_0
 10
659.89103340530187
 20
256.46701435754829
 30
0.0
 11
693.96976340530193
 21
256.46701435754829
 31
0.0
  0
LINE
  5
18813
  8
AM_0
 10
659.89103340530187
 20
254.46701435754829
 30
0.0
 11
693.96976340530193
 21
254.46701435754829
 31
0.0
  0
LINE
  5
18814
  8
AM_0
 10
694.99973340530209
 20
254.12704435754819
 30
0.0
 11
658.65848340530215
 21
254.12704435754819
 31
0.0
  0
LINE
  5
18815
  8
AM_0
 10
695.05973340530215
 20
266.73703435754823
 30
0.0
 11
658.61106340530193
 21
266.73703435754823
 31
0.0
  0
LINE
  5
18816
  8
AM_0
 10
695.05973340530215
 20
264.19699435754831
 30
0.0
 11
658.61106340530193
 21
264.19699435754831
 31
0.0
  0
LINE
  5
18817
  8
AM_0
 10
694.99973340530209
 20
256.78695435754832
 30
0.0
 11
658.67106340530222
 21
256.78695435754832
 31
0.0
  0
POLYLINE
  5
18818
  8
AM_0
 66
     1
 10
0.0
 20
0.0
 30
0.0
  0
VERTEX
  5
18819
  8
AM_0
 10
693.45151340530231
 20
254.12643435754819
 30
0.0
 42
-0.00073721992
  0
VERTEX
  5
1881A
  8
AM_0
 10
693.40736340530225
 20
253.5240243575482
 30
0.0
 42
-0.00074398496
  0
VERTEX
  5
1881B
  8
AM_0
 10
693.36143340530225
 20
252.9217543575482
 30
0.0
 42
-0.00073322625
  0
VERTEX
  5
1881C
  8
AM_0
 10
693.31370340530225
 20
252.3194243575482
 30
0.0
 42
-0.00073594289
  0
VERTEX
  5
1881D
  8
AM_0
 10
693.264223405302
 20
251.71743435754809
 30
0.0
 42
-0.00074742568
  0
VERTEX
  5
1881E
  8
AM_0
 10
693.21295340530219
 20
251.1155743575481
 30
0.0
 42
-0.00073216749
  0
VERTEX
  5
1881F
  8
AM_0
 10
693.15989340530223
 20
250.51376435754821
 30
0.0
 42
-0.00074184065
  0
VERTEX
  5
18820
  8
AM_0
 10
693.10507340530205
 20
249.9122343575483
 30
0.0
 42
-0.00072077528
  0
VERTEX
  5
18821
  8
AM_0
 10
693.04849340530222
 20
249.31100435754831
 30
0.0
 42
-0.00074978179
  0
VERTEX
  5
18822
  8
AM_0
 10
692.99015340530229
 20
248.70980435754819
 30
0.0
 42
-0.00074288888
  0
VERTEX
  5
18823
  8
AM_0
 10
692.93000340530205
 20
248.10878435754819
 30
0.0
 42
-0.00072503679
  0
VERTEX
  5
18824
  8
AM_0
 10
692.86809340530215
 20
247.5080443575481
 30
0.0
 42
-0.00074640584
  0
VERTEX
  5
18825
  8
AM_0
 10
692.80442340530226
 20
246.90744435754809
 30
0.0
  0
SEQEND
  5
18826
  8
AM_0
  0
ARC
  5
18827
  8
AM_0
 10
694.65659340530215
 20
235.42196435754829
 30
0.0
 40
1.675014
 50
269.7664900000006
 51
90.233501000009724
  0
ARC
  5
18828
  8
AM_0
 10
693.78513340530208
 20
235.46701435754821
 30
0.0
 40
1.0000138999999999
 50
269.69165999999939
 51
90.308340000000754
  0
POLYLINE
  5
18829
  8
AM_0
 66
     1
 10
0.0
 20
0.0
 30
0.0
  0
VERTEX
  5
1882A
  8
AM_0
 10
692.46885340530207
 20
243.98397435754819
 30
0.0
 42
-0.00068900015
  0
VERTEX
  5
1882B
  8
AM_0
 10
692.3979734053022
 20
243.4092243575482
 30
0.0
 42
-0.00070644648
  0
VERTEX
  5
1882C
  8
AM_0
 10
692.32547340530209
 20
242.8345443575482
 30
0.0
 42
-0.00069245587
  0
VERTEX
  5
1882D
  8
AM_0
 10
692.25138340530225
 20
242.26022435754831
 30
0.0
 42
-0.00069587802
  0
VERTEX
  5
1882E
  8
AM_0
 10
692.1757034053021
 20
241.68608435754811
 30
0.0
 42
-0.00068980012
  0
VERTEX
  5
1882F
  8
AM_0
 10
692.09840340530207
 20
241.1120843575483
 30
0.0
 42
-0.00072079193
  0
VERTEX
  5
18830
  8
AM_0
 10
692.01951340530206
 20
240.5383043575483
 30
0.0
 42
-0.00071003147
  0
VERTEX
  5
18831
  8
AM_0
 10
691.93897340530225
 20
239.96482435754811
 30
0.0
 42
-0.00072658712
  0
VERTEX
  5
18832
  8
AM_0
 10
691.85681340530186
 20
239.39173435754819
 30
0.0
 42
-0.00069571059
  0
VERTEX
  5
18833
  8
AM_0
 10
691.77299340530215
 20
238.8186943575482
 30
0.0
 42
-0.0007126617
  0
VERTEX
  5
18834
  8
AM_0
 10
691.68756340530206
 20
238.24593435754821
 30
0.0
 42
-0.00071614574
  0
VERTEX
  5
18835
  8
AM_0
 10
691.60053340530214
 20
237.67358435754829
 30
0.0
 42
-0.00072290803
  0
VERTEX
  5
18836
  8
AM_0
 10
691.51182340530215
 20
237.10128435754831
 30
0.0
  0
SEQEND
  5
18837
  8
AM_0
  0
ARC
  5
18838
  8
AM_0
 10
694.86973340530233
 20
245.44198435754819
 30
0.0
 40
1.465004
 50
270.0
 51
89.999997000002296
  0
ARC
  5
18839
  8
AM_0
 10
693.78513340530208
 20
245.46701435754821
 30
0.0
 40
1.0000138999999999
 50
269.69165999999939
 51
90.308340000000754
  0
POLYLINE
  5
1883A
  8
AM_0
 66
     1
 10
0.0
 20
0.0
 30
0.0
  0
VERTEX
  5
1883B
  8
AM_0
 10
693.9257034053021
 20
264.1966243575481
 30
0.0
 42
-0.00076695235
  0
VERTEX
  5
1883C
  8
AM_0
 10
693.91090340530207
 20
263.57886435754818
 30
0.0
 42
-0.00073263043
  0
VERTEX
  5
1883D
  8
AM_0
 10
693.89426340530213
 20
262.9612643575482
 30
0.0
 42
-0.00076525988
  0
VERTEX
  5
1883E
  8
AM_0
 10
693.87577340530197
 20
262.34359435754811
 30
0.0
 42
-0.00075144488
  0
VERTEX
  5
1883F
  8
AM_0
 10
693.85540340530224
 20
261.7259943575483
 30
0.0
 42
-0.00076035096
  0
VERTEX
  5
18840
  8
AM_0
 10
693.83316340530223
 20
261.10856435754829
 30
0.0
 42
-0.00075543154
  0
VERTEX
  5
18841
  8
AM_0
 10
693.80906340530214
 20
260.49118435754809
 30
0.0
 42
-0.0007577325
  0
VERTEX
  5
18842
  8
AM_0
 10
693.78308340530225
 20
259.87378435754829
 30
0.0
 42
-0.00076034585
  0
VERTEX
  5
18843
  8
AM_0
 10
693.75523340530196
 20
259.25639435754817
 30
0.0
 42
-0.00074823143
  0
VERTEX
  5
18844
  8
AM_0
 10
693.72550340530211
 20
258.63900435754829
 30
0.0
 42
-0.00074896605
  0
VERTEX
  5
18845
  8
AM_0
 10
693.69394340530232
 20
258.0218743575482
 30
0.0
 42
-0.00076039763
  0
VERTEX
  5
18846
  8
AM_0
 10
693.66052340530223
 20
257.40484435754831
 30
0.0
 42
-0.00075616127
  0
VERTEX
  5
18847
  8
AM_0
 10
693.62522340530211
 20
256.7878143575482
 30
0.0
  0
SEQEND
  5
18848
  8
AM_0
  0
ARC
  5
18849
  8
AM_0
 10
694.99973340530209
 20
255.4570043575483
 30
0.0
 40
1.3300049999999981
 50
270.0
 51
89.999997000002296
  0
ARC
  5
1884A
  8
AM_0
 10
693.78513340530208
 20
255.46701435754821
 30
0.0
 40
1.0000138999999999
 50
269.69165999999939
 51
90.308340000000754
  0
POLYLINE
  5
1884B
  8
AM_0
 66
     1
 10
0.0
 20
0.0
 30
0.0
  0
VERTEX
  5
1884C
  8
AM_0
 10
693.96976340530193
 20
270.46701435754818
 30
0.0
 42
-0.00039106589
  0
VERTEX
  5
1884D
  8
AM_0
 10
693.97212340530223
 20
270.1558743575481
 30
0.0
 42
-0.00035488584
  0
VERTEX
  5
1884E
  8
AM_0
 10
693.97401340530223
 20
269.84476435754812
 30
0.0
 42
-0.00039705232
  0
VERTEX
  5
1884F
  8
AM_0
 10
693.97544340530214
 20
269.5336643575481
 30
0.0
 42
-0.0003876649
  0
VERTEX
  5
18850
  8
AM_0
 10
693.97637340530218
 20
269.2225243575482
 30
0.0
 42
-0.00040613779
  0
VERTEX
  5
18851
  8
AM_0
 10
693.9768234053023
 20
268.91141435754832
 30
0.0
 42
-0.00035571855
  0
VERTEX
  5
18852
  8
AM_0
 10
693.97678340530206
 20
268.6003143575482
 30
0.0
 42
-0.00038547358
  0
VERTEX
  5
18853
  8
AM_0
 10
693.97629340530204
 20
268.28917435754818
 30
0.0
 42
-0.000355015
  0
VERTEX
  5
18854
  8
AM_0
 10
693.97533340530208
 20
267.97807435754828
 30
0.0
 42
-0.00040118616
  0
VERTEX
  5
18855
  8
AM_0
 10
693.97391340530226
 20
267.66684435754831
 30
0.0
 42
-0.00038319867
  0
VERTEX
  5
18856
  8
AM_0
 10
693.97200340530208
 20
267.35570435754818
 30
0.0
 42
-0.00035656356
  0
VERTEX
  5
18857
  8
AM_0
 10
693.96962340530206
 20
267.0444743575481
 30
0.0
 42
-0.00040140992
  0
VERTEX
  5
18858
  8
AM_0
 10
693.96677340530209
 20
266.73336435754811
 30
0.0
  0
SEQEND
  5
18859
  8
AM_0
  0
ARC
  5
1885A
  8
AM_0
 10
695.06559340530225
 20
265.46701435754818
 30
0.0
 40
1.2700129999999981
 50
269.73663000000079
 51
90.263383000004936
  0
ARC
  5
1885B
  8
AM_0
 10
693.78513340530208
 20
265.46701435754818
 30
0.0
 40
1.0000138999999999
 50
269.69165999999939
 51
90.308340000000754
  0
ARC
  5
1885C
  8
AM_0
 10
659.89103340530187
 20
255.46701435754821
 30
0.0
 40
1.000005699999998
 50
89.999997000002296
 51
270.000010000001
  0
ARC
  5
1885D
  8
AM_0
 10
658.66477340530218
 20
255.4570043575483
 30
0.0
 40
1.3300148000000001
 50
89.729432999998991
 51
270.27058000000142
  0
ARC
  5
1885E
  8
AM_0
 10
659.89103340530187
 20
265.46701435754818
 30
0.0
 40
1.000005699999998
 50
89.999997000002296
 51
270.000010000001
  0
ARC
  5
1885F
  8
AM_0
 10
658.60282340530216
 20
265.46701435754818
 30
0.0
 40
1.2700266
 50
89.629329999988798
 51
270.37067999999999
  0
LINE
  5
18860
  8
AM_0
 10
630.11752883729196
 20
191.96701435754821
 30
0.0
 11
631.6175288372923
 21
191.96701435754821
 31
0.0
  0
LINE
  5
18861
  8
AM_0
 10
630.11752883729196
 20
195.96701435754821
 30
0.0
 11
631.6175288372923
 21
195.96701435754821
 31
0.0
  0
LINE
  5
18862
  8
AM_0
 10
640.72759097372125
 20
191.96701435754821
 30
0.0
 11
642.72759097372398
 21
191.96701435754821
 31
0.0
  0
LINE
  5
18863
  8
AM_0
 10
641.42759097372425
 20
195.96701435754821
 30
0.0
 11
642.72759097372398
 21
195.96701435754821
 31
0.0
  0
LINE
  5
18864
  8
AM_0
 10
648.63094501920216
 20
191.96701435754821
 30
0.0
 11
650.13094501920227
 21
191.96701435754821
 31
0.0
  0
LINE
  5
18865
  8
AM_0
 10
648.63094501920216
 20
195.96701435754821
 30
0.0
 11
650.13094501920227
 21
195.96701435754821
 31
0.0
  0
LINE
  5
18866
  8
AM_0
 10
653.63094501920216
 20
195.96701435754821
 30
0.0
 11
653.63094501920216
 21
193.9229902349542
 31
0.0
  0
LINE
  5
18867
  8
AM_0
 10
652.33094501920232
 20
195.96701435754929
 30
0.0
 11
653.63094501920216
 21
195.96701435754821
 31
0.0
  0
LINE
  5
18868
  8
AM_0
 10
652.33094501920232
 20
191.96701435754821
 30
0.0
 11
654.33094501920232
 21
191.96701435754821
 31
0.0
  0
LINE
  5
18869
  8
AM_0
 10
653.63094501920216
 20
193.9229902349542
 30
0.0
 11
654.33094501920232
 21
193.2556381783503
 31
0.0
  0
LINE
  5
1886A
  8
AM_0
 10
644.93094501920223
 20
191.96701435754821
 30
0.0
 11
646.43094501920223
 21
191.96701435754821
 31
0.0
  0
LINE
  5
1886B
  8
AM_0
 10
644.93094501920223
 20
195.96701435754821
 30
0.0
 11
646.43094501920223
 21
195.96701435754821
 31
0.0
  0
LINE
  5
1886C
  8
AM_0
 10
637.52423692824721
 20
180.27896864045721
 30
0.0
 11
637.52423692824721
 21
195.96701435754821
 31
0.0
  0
LINE
  5
1886D
  8
AM_0
 10
635.3208828827693
 20
195.96701435754821
 30
0.0
 11
635.3208828827693
 21
180.65437627599121
 31
0.0
  0
LINE
  5
1886E
  8
AM_0
 10
633.82088288276896
 20
180.90994639394609
 30
0.0
 11
633.82088288276896
 21
195.96701435754821
 31
0.0
  0
LINE
  5
1886F
  8
AM_0
 10
631.6175288372923
 20
195.96701435754821
 30
0.0
 11
631.6175288372923
 21
181.28535402947921
 31
0.0
  0
LINE
  5
18870
  8
AM_0
 10
637.52423692824721
 20
180.27896864045721
 30
0.0
 11
635.3208828827693
 21
180.65437627599121
 31
0.0
  0
LINE
  5
18871
  8
AM_0
 10
633.82088288276896
 20
180.90994639394609
 30
0.0
 11
631.6175288372923
 21
181.28535402947921
 31
0.0
  0
LINE
  5
18872
  8
AM_0
 10
637.52423692824721
 20
191.96701435754821
 30
0.0
 11
639.02423692824709
 21
191.96701435754821
 31
0.0
  0
LINE
  5
18873
  8
AM_0
 10
637.52423692824721
 20
195.96701435754821
 30
0.0
 11
639.02423692824709
 21
195.96701435754821
 31
0.0
  0
LINE
  5
18874
  8
AM_0
 10
640.72759097372125
 20
193.2556381783503
 30
0.0
 11
641.42759097372425
 21
193.9229902349542
 31
0.0
  0
LINE
  5
18875
  8
AM_0
 10
641.42759097372425
 20
193.9229902349542
 30
0.0
 11
641.42759097372425
 21
195.96701435754821
 31
0.0
  0
LINE
  5
18876
  8
AM_0
 10
633.82088288276896
 20
191.96701435754821
 30
0.0
 11
635.3208828827693
 21
191.96701435754821
 31
0.0
  0
LINE
  5
18877
  8
AM_0
 10
633.82088288276896
 20
195.96701435754821
 30
0.0
 11
635.3208828827693
 21
195.96701435754821
 31
0.0
  0
LINE
  5
18878
  8
AM_0
 10
613.22759097372318
 20
200.96701435754821
 30
0.0
 11
620.42759097372323
 21
200.96701435754821
 31
0.0
  0
LINE
  5
18879
  8
AM_0
 10
626.41417479181496
 20
182.1719019009241
 30
0.0
 11
616.55246470787597
 21
183.85214084051989
 31
0.0
  0
LINE
  5
1887A
  8
AM_0
 10
627.9141747918153
 20
195.96701435754821
 30
0.0
 11
627.9141747918153
 21
181.91633178296809
 31
0.0
  0
LINE
  5
1887B
  8
AM_0
 10
630.11752883729196
 20
181.54092414743519
 30
0.0
 11
630.11752883729196
 21
195.96701435754821
 31
0.0
  0
LINE
  5
1887C
  8
AM_0
 10
626.41417479181496
 20
182.1719019009241
 30
0.0
 11
626.41417479181496
 21
195.96701435754821
 31
0.0
  0
CIRCLE
  5
1887D
  8
AM_0
 10
624.72759097372318
 20
183.96701435754821
 30
0.0
 40
0.75
  0
LINE
  5
1887E
  8
AM_0
 10
630.11752883729196
 20
181.54092414743519
 30
0.0
 11
627.9141747918153
 21
181.91633178296809
 31
0.0
  0
LINE
  5
1887F
  8
AM_0
 10
626.41417479181496
 20
191.96701435754821
 30
0.0
 11
627.9141747918153
 21
191.96701435754821
 31
0.0
  0
LINE
  5
18880
  8
AM_0
 10
626.41417479181496
 20
195.96701435754821
 30
0.0
 11
627.9141747918153
 21
195.96701435754821
 31
0.0
  0
LINE
  5
18881
  8
AM_0
 10
616.55246470787597
 20
183.85214084051989
 30
0.0
 11
616.55246470787597
 21
200.96701435754821
 31
0.0
  0
LINE
  5
18882
  8
AM_0
 10
609.32975340530209
 20
203.46695435754819
 30
0.0
 11
609.04901428223911
 21
214.18698435754811
 31
0.0
  0
ARC
  5
18883
  8
AM_0
 10
607.75067271951718
 20
206.46701435754829
 30
0.0
 40
1.5
 50
1.500134906353161
 51
90.0
1001
GENIUS_GENODEF_13
1002
{
1000
HIER
1070
     0
1002
}
1002
{
1000
MANEDIT
1070
     0
1002
}
1002
{
1000
NOSEL
1070
     0
1002
}
1002
{
1000
BEHIND
1070
     0
1002
}
1002
{
1000
REACTOR
1002
}
1001
GENIUS_GENOBJ-N-FIL_13
1002
{
1000
OWNER
1000
GEN
1002
}
  0
ARC
  5
18884
  8
AM_0
 10
627.32975340530197
 20
237.96701435754829
 30
0.0
 40
1.5
 50
179.99999931675049
 51
270.000010000001
  0
ARC
  5
18885
  8
AM_0
 10
627.32975340530197
 20
242.96701435754821
 30
0.0
 40
1.02
 50
89.999997000002296
 51
180.0
  0
ARC
  5
18886
  8
AM_0
 10
627.32975340530197
 20
242.96701435754821
 30
0.0
 40
1.5
 50
89.999997000002296
 51
180.0
  0
ARC
  5
18887
  8
AM_0
 10
627.30973340530215
 20
238.10702435754811
 30
0.0
 40
1.0
 50
179.99999931675049
 51
270.000010000001
  0
LINE
  5
18888
  8
AM_0
 10
625.8297534053022
 20
242.96701435754821
 30
0.0
 11
625.8297534053022
 21
237.96701435754829
 31
0.0
  0
LINE
  5
18889
  8
AM_0
 10
626.30973340530215
 20
242.96701435754821
 30
0.0
 11
626.30973340530215
 21
238.10702435754811
 31
0.0
  0
CIRCLE
  5
1888A
  8
AM_0
 10
620.82975340530231
 20
241.96701435754829
 30
0.0
 40
1.149999999999999
  0
CIRCLE
  5
1888B
  8
AM_0
 10
620.82975340530231
 20
241.96701435754829
 30
0.0
 40
1.1000000000000001
  0
ARC
  5
1888C
  8
AM_0
 10
609.32975340530209
 20
237.96701435754829
 30
0.0
 40
1.5
 50
270.0
 51
0.0000100000010134
  0
CIRCLE
  5
1888D
  8
AM_0
 10
615.82975340530231
 20
241.96701435754829
 30
0.0
 40
1.0
  0
LINE
  5
1888E
  8
AM_0
 10
610.34977340530213
 20
242.96701435754821
 30
0.0
 11
610.34977340530213
 21
238.10702435754811
 31
0.0
  0
LINE
  5
1888F
  8
AM_0
 10
610.82975340530231
 20
242.96701435754821
 30
0.0
 11
610.82975340530231
 21
237.96701435754829
 31
0.0
  0
ARC
  5
18890
  8
AM_0
 10
609.34977340530213
 20
238.10702435754811
 30
0.0
 40
1.0
 50
270.0
 51
0.0000100000010134
  0
ARC
  5
18891
  8
AM_0
 10
609.32975340530209
 20
242.96701435754821
 30
0.0
 40
1.5
 50
359.999989999999
 51
89.999997000002296
  0
ARC
  5
18892
  8
AM_0
 10
609.32975340530209
 20
242.96701435754821
 30
0.0
 40
1.02
 50
359.999989999999
 51
89.999997000002296
  0
ARC
  5
18893
  8
AM_0
 10
602.05246470787631
 20
180.46701435754821
 30
0.0
 40
0.5
 50
180.0
 51
270.0
  0
LINE
  5
18894
  8
AM_0
 10
590.12406340530231
 20
231.1480743575481
 30
0.0
 11
594.2698134053021
 21
215.66696435754821
 31
0.0
  0
LINE
  5
18895
  8
AM_0
 10
588.3297534053022
 20
214.46701435754821
 30
0.0
 11
580.32975340530209
 21
214.46701435754821
 31
0.0
  0
LINE
  5
18896
  8
AM_0
 10
588.3297534053022
 20
224.46701435754821
 30
0.0
 11
580.32975340530209
 21
224.46701435754821
 31
0.0
  0
LINE
  5
18897
  8
AM_0
 10
605.82975340530197
 20
200.96701435754821
 30
0.0
 11
605.82975340530197
 21
203.46701435754821
 31
0.0
  0
LINE
  5
18898
  8
AM_0
 10
601.55246470787631
 20
183.96701435754821
 30
0.0
 11
601.55246470787631
 21
199.96701435754821
 31
0.0
  0
LINE
  5
18899
  8
AM_0
 10
601.55246470787631
 20
183.96701435754821
 30
0.0
 11
601.55246470787631
 21
180.46701435754821
 31
0.0
  0
ARC
  5
1889A
  8
AM_0
 10
602.5524647078762
 20
199.96701435754821
 30
0.0
 40
1.0
 50
90.0
 51
180.0
  0
ARC
  5
1889B
  8
AM_0
 10
596.20457340530197
 20
216.19174435754809
 30
0.0
 40
2.0047290000000002
 50
195.17349999999811
 51
269.86167999998918
  0
LINE
  5
1889C
  8
AM_0
 10
589.32975340530197
 20
217.46698435754811
 30
0.0
 11
595.05555340530213
 21
208.6500243575482
 31
0.0
  0
ARC
  5
1889D
  8
AM_0
 10
596.31357340530212
 20
209.46701435754821
 30
0.0
 40
1.5
 50
213.00000000000131
 51
270.000010000001
  0
LINE
  5
1889E
  8
AM_0
 10
593.78770340530218
 20
217.46701435754821
 30
0.0
 11
588.3297534053022
 21
217.46701435754821
 31
0.0
  0
LINE
  5
1889F
  8
AM_0
 10
588.3297534053022
 20
238.52707435754829
 30
0.0
 11
580.32975340530209
 21
238.52707435754829
 31
0.0
  0
ARC
  5
188A0
  8
AM_0
 10
594.98978340530232
 20
245.46701435754821
 30
0.0
 40
1.0000255999999981
 50
89.589469000002211
 51
270.41052999999027
  0
ARC
  5
188A1
  8
AM_0
 10
594.98972340530213
 20
235.46701435754821
 30
0.0
 40
1.0
 50
89.999997000002296
 51
270.000010000001
  0
ARC
  5
188A2
  8
AM_0
 10
591.50974340530229
 20
235.42196435754829
 30
0.0
 40
1.6750020000000001
 50
89.999997000002296
 51
270.000010000001
  0
ARC
  5
188A3
  8
AM_0
 10
588.67655340530223
 20
230.74423435754821
 30
0.0
 40
1.5027759999999999
 50
14.756429999998529
 51
89.877586999998414
  0
ARC
  5
188A4
  8
AM_0
 10
591.28977340530207
 20
245.43698435754811
 30
0.0
 40
1.460011199999999
 50
89.775250000003169
 51
270.22475000000981
  0
LINE
  5
188A5
  8
AM_0
 10
704.32975340530231
 20
323.46701435754818
 30
0.0
 11
696.3297534053022
 21
323.46701435754818
 31
0.0
  0
LINE
  5
188A6
  8
AM_0
 10
703.62974340530229
 20
313.65695435754822
 30
0.0
 11
697.39976340530211
 21
313.65695435754822
 31
0.0
  0
ARC
  5
188A7
  8
AM_0
 10
749.83118350530231
 20
325.46701435754829
 30
0.0
 40
5.0
 50
0.000000000000007
 51
90.000011000008925
  0
ARC
  5
188A8
  8
AM_0
 10
750.83118350530231
 20
326.46701435754818
 30
0.0
 40
9.0
 50
0.0000200000020199
 51
90.000011000008925
  0
LINE
  5
188A9
  8
AM_0
 10
752.32975340530197
 20
323.21701435754801
 30
0.0
 11
704.32975340530231
 21
323.21701435754801
 31
0.0
  0
LINE
  5
188AA
  8
AM_0
 10
751.82975340530197
 20
314.35800435754823
 30
0.0
 11
709.32975340530209
 21
314.35800435754823
 31
0.0
  0
LINE
  5
188AB
  8
AM_0
 10
751.82975340530197
 20
304.10800435754823
 30
0.0
 11
709.32975340530209
 21
304.10800435754823
 31
0.0
  0
LINE
  5
188AC
  8
AM_0
 10
754.32975340530231
 20
313.71994435754812
 30
0.0
 11
754.32975340530231
 21
321.21701435754801
 31
0.0
  0
LINE
  5
188AD
  8
AM_0
 10
754.83118350530231
 20
215.46701435754821
 30
0.0
 11
754.83118350530231
 21
265.46701435754818
 31
0.0
  0
LINE
  5
188AF
  8
AM_0
 10
754.32975340530231
 20
275.46701435754829
 30
0.0
 11
760.82972340530216
 21
275.46701435754829
 31
0.0
  0
ARC
  5
188B0
  8
AM_0
 10
753.42972340530196
 20
307.85800435754811
 30
0.0
 40
3.0
 50
269.99998900000412
 51
297.84967349720239
  0
ARC
  5
188B1
  8
AM_0
 10
753.42972340530196
 20
310.85800435754823
 30
0.0
 40
3.0
 50
62.15032650279759
 51
89.999950000008013
  0
LINE
  5
188B2
  8
AM_0
 10
753.12974340530229
 20
313.95798435754813
 30
0.0
 11
751.82975340530197
 21
313.95798435754813
 31
0.0
  0
LINE
  5
188B3
  8
AM_0
 10
753.42972340530196
 20
313.85800435754823
 30
0.0
 11
753.12974340530229
 21
313.85800435754823
 31
0.0
  0
LINE
  5
188B4
  8
AM_0
 10
753.12974340530229
 20
304.75803435754813
 30
0.0
 11
751.82975340530197
 21
304.75803435754813
 31
0.0
  0
LINE
  5
188B5
  8
AM_0
 10
753.42972340530196
 20
304.85800435754823
 30
0.0
 11
753.12974340530229
 21
304.85800435754823
 31
0.0
  0
LINE
  5
188B6
  8
AM_0
 10
753.12974340530229
 20
304.75803435754813
 30
0.0
 11
753.12974340530229
 21
313.95798435754813
 31
0.0
  0
ARC
  5
188B8
  8
AM_0
 10
752.32975340530197
 20
321.21701435754801
 30
0.0
 40
2.0
 50
359.999979999998
 51
89.999950000008013
  0
LINE
  5
188B9
  8
AM_0
 10
709.32975340530209
 20
314.35800435754823
 30
0.0
 11
709.32975340530209
 21
323.21701435754801
 31
0.0
  0
LINE
  5
188BA
  8
AM_0
 10
729.32975340530231
 20
329.21701435754801
 30
0.0
 11
704.32975340530231
 21
329.21701435754801
 31
0.0
  0
LINE
  5
188BB
  8
AM_0
 10
750.83118350530231
 20
335.46701435754829
 30
0.0
 11
713.3297534053022
 21
335.46701435754829
 31
0.0
  0
LINE
  5
188BC
  8
AM_0
 10
749.83118350530231
 20
330.46701435754818
 30
0.0
 11
726.32975340530209
 21
330.46701435754818
 31
0.0
  0
LINE
  5
188BD
  8
AM_0
 10
729.32975340530231
 20
329.21701435754801
 30
0.0
 11
729.32975340530231
 21
323.21701435754801
 31
0.0
  0
LINE
  5
188BE
  8
AM_0
 10
716.32975340530231
 20
330.46701435754818
 30
0.0
 11
713.3297534053022
 21
330.46701435754818
 31
0.0
  0
LINE
  5
188BF
  8
AM_0
 10
726.32975340530209
 20
329.21701435754829
 30
0.0
 11
726.32975340530209
 21
335.46701435754829
 31
0.0
  0
LINE
  5
188C0
  8
AM_0
 10
716.32975340530231
 20
329.21701435754829
 30
0.0
 11
716.32975340530231
 21
335.46701435754829
 31
0.0
  0
LINE
  5
188C1
  8
AM_0
 10
713.3297534053022
 20
330.46701435754818
 30
0.0
 11
713.3297534053022
 21
335.46701435754829
 31
0.0
  0
LINE
  5
188C2
  8
AM_0
 10
594.98258340530208
 20
296.46701435754818
 30
0.0
 11
609.32975340530209
 21
296.46701435754818
 31
0.0
  0
LINE
  5
188C3
  8
AM_0
 10
609.34977340530213
 20
303.82699435754819
 30
0.0
 11
591.50974340530229
 21
303.82699435754819
 31
0.0
  0
LINE
  5
188C4
  8
AM_0
 10
609.32975340530209
 20
296.95700435754833
 30
0.0
 11
591.28409340530197
 21
296.95700435754833
 31
0.0
  0
LINE
  5
188C5
  8
AM_0
 10
693.11973340530233
 20
326.74704435754808
 30
0.0
 11
596.19974340530223
 21
326.74704435754808
 31
0.0
  0
LINE
  5
188C6
  8
AM_0
 10
693.07975340530231
 20
329.59701435754812
 30
0.0
 11
596.19974340530223
 21
329.59701435754812
 31
0.0
  0
LINE
  5
188C7
  8
AM_0
 10
693.05973340530227
 20
331.44699435754831
 30
0.0
 11
596.19974340530223
 21
331.44699435754831
 31
0.0
  0
LINE
  5
188C8
  8
AM_0
 10
693.03977340530218
 20
332.3570243575482
 30
0.0
 11
596.19968340530193
 21
332.3570243575482
 31
0.0
  0
LINE
  5
188C9
  8
AM_0
 10
594.98972340530213
 20
306.46701435754829
 30
0.0
 11
693.96976340530193
 21
306.46701435754829
 31
0.0
  0
LINE
  5
188CA
  8
AM_0
 10
594.98972340530213
 20
304.46701435754829
 30
0.0
 11
693.96976340530193
 21
304.46701435754829
 31
0.0
  0
LINE
  5
188CB
  8
AM_0
 10
594.99692340530214
 20
294.46701435754818
 30
0.0
 11
693.96976340530193
 21
294.46701435754818
 31
0.0
  0
LINE
  5
188CC
  8
AM_0
 10
694.64976340530211
 20
307.1869843575484
 30
0.0
 11
591.50974340530229
 21
307.1869843575484
 31
0.0
  0
LINE
  5
188CD
  8
AM_0
 10
694.86973340530233
 20
294.0270743575482
 30
0.0
 11
591.29551340530224
 21
294.0270743575482
 31
0.0
  0
LINE
  5
188CE
  8
AM_0
 10
627.32975340530197
 20
296.46701435754818
 30
0.0
 11
693.96976340530193
 21
296.46701435754818
 31
0.0
  0
LINE
  5
188CF
  8
AM_0
 10
694.64976340530211
 20
303.8370043575481
 30
0.0
 11
627.30973340530215
 21
303.8370043575481
 31
0.0
  0
LINE
  5
188D0
  8
AM_0
 10
694.86973340530233
 20
296.95700435754833
 30
0.0
 11
627.32975340530197
 21
296.95700435754833
 31
0.0
  0
LINE
  5
188D1
  8
AM_0
 10
690.96976340530193
 20
307.11700435754813
 30
0.0
 11
696.3297534053022
 21
318.56698435754822
 31
0.0
  0
LINE
  5
188D2
  8
AM_0
 10
659.89103340530187
 20
276.46701435754818
 30
0.0
 11
693.96976340530193
 21
276.46701435754818
 31
0.0
  0
LINE
  5
188D3
  8
AM_0
 10
659.89103340530187
 20
286.46701435754818
 30
0.0
 11
693.96976340530193
 21
286.46701435754818
 31
0.0
  0
LINE
  5
188D4
  8
AM_0
 10
659.89103340530187
 20
284.46701435754818
 30
0.0
 11
693.96976340530193
 21
284.46701435754818
 31
0.0
  0
LINE
  5
188D5
  8
AM_0
 10
659.89103340530187
 20
274.46701435754818
 30
0.0
 11
693.96976340530193
 21
274.46701435754818
 31
0.0
  0
LINE
  5
188D6
  8
AM_0
 10
695.05973340530215
 20
276.73703435754823
 30
0.0
 11
658.61106340530193
 21
276.73703435754823
 31
0.0
  0
LINE
  5
188D7
  8
AM_0
 10
695.05973340530215
 20
274.20700435754833
 30
0.0
 11
658.61106340530193
 21
274.20700435754833
 31
0.0
  0
LINE
  5
188D8
  8
AM_0
 10
694.99973340530209
 20
286.80697435754831
 30
0.0
 11
658.67106340530222
 21
286.80697435754831
 31
0.0
  0
LINE
  5
188D9
  8
AM_0
 10
694.99973340530209
 20
284.14706435754817
 30
0.0
 11
658.67106340530222
 21
284.14706435754817
 31
0.0
  0
POLYLINE
  5
188DA
  8
AM_0
 66
     1
 10
0.0
 20
0.0
 30
0.0
  0
VERTEX
  5
188DB
  8
AM_0
 10
693.45151340530231
 20
286.80758435754831
 30
0.0
 42
0.0007337051
  0
VERTEX
  5
188DC
  8
AM_0
 10
693.40737340530222
 20
287.4100043575483
 30
0.0
 42
0.00075211323
  0
VERTEX
  5
188DD
  8
AM_0
 10
693.36143340530225
 20
288.01239435754832
 30
0.0
 42
0.0007297491
  0
VERTEX
  5
188DE
  8
AM_0
 10
693.31370340530225
 20
288.6145943575483
 30
0.0
 42
0.00073593041
  0
VERTEX
  5
188DF
  8
AM_0
 10
693.264223405302
 20
289.21658435754819
 30
0.0
 42
0.00074742739
  0
VERTEX
  5
188E0
  8
AM_0
 10
693.21295340530219
 20
289.81845435754821
 30
0.0
 42
0.00073217363
  0
VERTEX
  5
188E1
  8
AM_0
 10
693.15989340530223
 20
290.42025435754812
 30
0.0
 42
0.00073754168
  0
VERTEX
  5
188E2
  8
AM_0
 10
693.10507340530205
 20
291.02179435754817
 30
0.0
 42
0.00073075073
  0
VERTEX
  5
188E3
  8
AM_0
 10
693.04849340530222
 20
291.62315435754812
 30
0.0
 42
0.00074550816
  0
VERTEX
  5
188E4
  8
AM_0
 10
692.99015340530229
 20
292.22421435754819
 30
0.0
 42
0.00074288416
  0
VERTEX
  5
188E5
  8
AM_0
 10
692.93000340530205
 20
292.82523435754831
 30
0.0
 42
0.00072504001
  0
VERTEX
  5
188E6
  8
AM_0
 10
692.86809340530215
 20
293.42598435754809
 30
0.0
 42
0.00074640667
  0
VERTEX
  5
188E7
  8
AM_0
 10
692.80442340530226
 20
294.02658435754807
 30
0.0
  0
SEQEND
  5
188E8
  8
AM_0
  0
POLYLINE
  5
188E9
  8
AM_0
 66
     1
 10
0.0
 20
0.0
 30
0.0
  0
VERTEX
  5
188EA
  8
AM_0
 10
693.9257034053021
 20
276.73739435754823
 30
0.0
 42
0.00076691992
  0
VERTEX
  5
188EB
  8
AM_0
 10
693.91090340530207
 20
277.35516435754829
 30
0.0
 42
0.00073262792
  0
VERTEX
  5
188EC
  8
AM_0
 10
693.89426340530213
 20
277.9727543575483
 30
0.0
 42
0.00076529537
  0
VERTEX
  5
188ED
  8
AM_0
 10
693.87577340530197
 20
278.5904243575481
 30
0.0
 42
0.00075141097
  0
VERTEX
  5
188EE
  8
AM_0
 10
693.85540340530224
 20
279.2080243575482
 30
0.0
 42
0.00075841687
  0
VERTEX
  5
188EF
  8
AM_0
 10
693.83317340530232
 20
279.8254543575481
 30
0.0
 42
0.00075711788
  0
VERTEX
  5
188F0
  8
AM_0
 10
693.80906340530214
 20
280.44296435754831
 30
0.0
 42
0.00075976003
  0
VERTEX
  5
188F1
  8
AM_0
 10
693.78307340530216
 20
281.06035435754808
 30
0.0
 42
0.00075797311
  0
VERTEX
  5
188F2
  8
AM_0
 10
693.75523340530196
 20
281.6776343575483
 30
0.0
 42
0.0007482613
  0
VERTEX
  5
188F3
  8
AM_0
 10
693.72550340530211
 20
282.29501435754821
 30
0.0
 42
0.00074893561
  0
VERTEX
  5
188F4
  8
AM_0
 10
693.69394340530232
 20
282.9121443575483
 30
0.0
 42
0.00076039839
  0
VERTEX
  5
188F5
  8
AM_0
 10
693.66052340530223
 20
283.52917435754819
 30
0.0
 42
0.00075618786
  0
VERTEX
  5
188F6
  8
AM_0
 10
693.62522340530211
 20
284.14621435754827
 30
0.0
  0
SEQEND
  5
188F7
  8
AM_0
  0
ARC
  5
188F8
  8
AM_0
 10
693.78513340530208
 20
275.46701435754829
 30
0.0
 40
1.0000138999999999
 50
269.69165999999939
 51
90.308340000000754
  0
ARC
  5
188F9
  8
AM_0
 10
695.06559340530225
 20
275.47201435754812
 30
0.0
 40
1.2650129999999991
 50
269.73558999999102
 51
90.264420999991756
  0
ARC
  5
188FA
  8
AM_0
 10
694.99973340530209
 20
285.4770243575482
 30
0.0
 40
1.3300049999999981
 50
270.0
 51
89.999997000002296
  0
ARC
  5
188FB
  8
AM_0
 10
693.78513340530208
 20
285.46701435754818
 30
0.0
 40
1.0000138999999999
 50
269.69165999999939
 51
90.308340000000754
  0
ARC
  5
188FC
  8
AM_0
 10
694.65714340530212
 20
305.51205435754821
 30
0.0
 40
1.6750160000000001
 50
269.74612999999908
 51
90.253854999995511
  0
POLYLINE
  5
188FD
  8
AM_0
 66
     1
 10
0.0
 20
0.0
 30
0.0
  0
VERTEX
  5
188FE
  8
AM_0
 10
692.46885340530207
 20
296.95004435754822
 30
0.0
 42
0.00068898288
  0
VERTEX
  5
188FF
  8
AM_0
 10
692.3979734053022
 20
297.52479435754822
 30
0.0
 42
0.00070644354
  0
VERTEX
  5
18900
  8
AM_0
 10
692.32547340530209
 20
298.09948435754831
 30
0.0
 42
0.00069248071
  0
VERTEX
  5
18901
  8
AM_0
 10
692.25138340530225
 20
298.67379435754822
 30
0.0
 42
0.00069585665
  0
VERTEX
  5
18902
  8
AM_0
 10
692.1757034053021
 20
299.24793435754822
 30
0.0
 42
0.00068980191
  0
VERTEX
  5
18903
  8
AM_0
 10
692.09840340530207
 20
299.82193435754829
 30
0.0
 42
0.00072080104
  0
VERTEX
  5
18904
  8
AM_0
 10
692.01951340530206
 20
300.39572435754809
 30
0.0
 42
0.00071002307
  0
VERTEX
  5
18905
  8
AM_0
 10
691.93897340530225
 20
300.96919435754819
 30
0.0
 42
0.00072659056
  0
VERTEX
  5
18906
  8
AM_0
 10
691.85681340530186
 20
301.54229435754831
 30
0.0
 42
0.00069570481
  0
VERTEX
  5
18907
  8
AM_0
 10
691.77299340530215
 20
302.11532435754827
 30
0.0
 42
0.00071266935
  0
VERTEX
  5
18908
  8
AM_0
 10
691.68756340530206
 20
302.68809435754832
 30
0.0
 42
0.00071614426
  0
VERTEX
  5
18909
  8
AM_0
 10
691.60053340530214
 20
303.26043435754821
 30
0.0
 42
0.00072288975
  0
VERTEX
  5
1890A
  8
AM_0
 10
691.51182340530215
 20
303.83273435754819
 30
0.0
  0
SEQEND
  5
1890B
  8
AM_0
  0
ARC
  5
1890C
  8
AM_0
 10
694.86973340530233
 20
295.49203435754828
 30
0.0
 40
1.465004
 50
270.0
 51
89.999997000002296
  0
ARC
  5
1890D
  8
AM_0
 10
693.78513340530208
 20
295.46701435754818
 30
0.0
 40
1.0000138999999999
 50
269.69165999999939
 51
90.308340000000754
  0
ARC
  5
1890E
  8
AM_0
 10
693.78513340530208
 20
305.46701435754818
 30
0.0
 40
1.0000138999999999
 50
269.69165999999939
 51
90.308340000000754
  0
ARC
  5
1890F
  8
AM_0
 10
659.89103340530187
 20
275.46701435754829
 30
0.0
 40
1.000005699999998
 50
89.999997000002296
 51
270.000010000001
  0
ARC
  5
18910
  8
AM_0
 10
658.60282340530216
 20
275.4770243575482
 30
0.0
 40
1.2700266
 50
89.629329999988798
 51
270.37067999999999
  0
ARC
  5
18911
  8
AM_0
 10
659.89103340530187
 20
285.46701435754818
 30
0.0
 40
1.000005699999998
 50
89.999997000002296
 51
270.000010000001
  0
ARC
  5
18912
  8
AM_0
 10
658.66477340530218
 20
285.48202435754808
 30
0.0
 40
1.3350147999999999
 50
89.730444000005136
 51
270.2695700000001
  0
LINE
  5
18913
  8
AM_0
 10
696.3297534053022
 20
321.25702435754818
 30
0.0
 11
695.03977340530196
 21
329.74698435754829
 31
0.0
  0
LINE
  5
18914
  8
AM_0
 10
696.3297534053022
 20
321.25702435754818
 30
0.0
 11
695.01975340530225
 21
330.63705435754821
 31
0.0
  0
LINE
  5
18915
  8
AM_0
 10
696.3297534053022
 20
319.9070443575481
 30
0.0
 11
695.04978340530215
 21
327.91699435754822
 31
0.0
  0
ARC
  5
18916
  8
AM_0
 10
693.13102340530213
 20
324.75290435754812
 30
0.0
 40
1.994108999999999
 50
10.81223000000125
 51
90.324451999997237
  0
LINE
  5
18917
  8
AM_0
 10
696.3297534053022
 20
318.5670443575483
 30
0.0
 11
695.08976340530205
 21
325.12701435754832
 31
0.0
  0
ARC
  5
18918
  8
AM_0
 10
693.04325340530215
 20
330.36142435754812
 30
0.0
 40
1.995633
 50
7.9388700000003372
 51
90.100291999991185
  0
ARC
  5
18919
  8
AM_0
 10
693.07950340530215
 20
327.60177435754821
 30
0.0
 40
1.9952829999999999
 50
9.0916499999993263
 51
89.993796000009695
  0
ARC
  5
1891A
  8
AM_0
 10
693.06516340530197
 20
329.45028435754818
 30
0.0
 40
1.9967330000000001
 50
8.5461200000027322
 51
90.156032999994579
  0
ARC
  5
1891B
  8
AM_0
 10
627.32975340530197
 20
302.96701435754818
 30
0.0
 40
1.5
 50
89.999997000002296
 51
180.0
  0
LINE
  5
1891C
  8
AM_0
 10
625.8297534053022
 20
297.96701435754818
 30
0.0
 11
625.8297534053022
 21
302.96701435754818
 31
0.0
  0
LINE
  5
1891D
  8
AM_0
 10
626.30973340530215
 20
297.96701435754818
 30
0.0
 11
626.30973340530215
 21
302.82699435754819
 31
0.0
  0
ARC
  5
1891E
  8
AM_0
 10
627.30973340530215
 20
302.82699435754819
 30
0.0
 40
1.0
 50
89.999997000002296
 51
180.0
  0
ARC
  5
1891F
  8
AM_0
 10
627.32975340530197
 20
297.96701435754818
 30
0.0
 40
1.5
 50
179.99999931675049
 51
270.000010000001
  0
ARC
  5
18920
  8
AM_0
 10
627.32975340530197
 20
297.96701435754818
 30
0.0
 40
1.02
 50
179.999999316757
 51
270.000010000001
  0
CIRCLE
  5
18921
  8
AM_0
 10
620.82975340530231
 20
298.96701435754818
 30
0.0
 40
1.1000000000000001
  0
CIRCLE
  5
18922
  8
AM_0
 10
620.82975340530231
 20
298.96701435754818
 30
0.0
 40
1.149999999999999
  0
ARC
  5
18923
  8
AM_0
 10
609.32975340530209
 20
302.96701435754818
 30
0.0
 40
1.5
 50
359.999989999999
 51
89.999997000002296
  0
CIRCLE
  5
18924
  8
AM_0
 10
615.82975340530231
 20
298.96701435754818
 30
0.0
 40
1.0
  0
LINE
  5
18925
  8
AM_0
 10
610.34977340530213
 20
297.96701435754818
 30
0.0
 11
610.34977340530213
 21
302.82699435754819
 31
0.0
  0
LINE
  5
18926
  8
AM_0
 10
610.82975340530231
 20
297.96701435754818
 30
0.0
 11
610.82975340530231
 21
302.96701435754818
 31
0.0
  0
ARC
  5
18927
  8
AM_0
 10
609.34977340530213
 20
302.82699435754819
 30
0.0
 40
1.0
 50
359.999989999999
 51
89.999997000002296
  0
ARC
  5
18928
  8
AM_0
 10
609.32975340530209
 20
297.96701435754818
 30
0.0
 40
1.5
 50
270.0
 51
0.0000100000010134
  0
ARC
  5
18929
  8
AM_0
 10
609.32975340530209
 20
297.96701435754818
 30
0.0
 40
1.02
 50
270.0
 51
0.0000100000010134
  0
LINE
  5
1892A
  8
AM_0
 10
590.12403340530227
 20
312.6358643575482
 30
0.0
 11
594.26975340530225
 21
328.11700435754813
 31
0.0
  0
LINE
  5
1892B
  8
AM_0
 10
590.12400340530212
 20
315.3958443575483
 30
0.0
 11
594.2697234053021
 21
330.8769543575483
 31
0.0
  0
LINE
  5
1892C
  8
AM_0
 10
590.12403340530227
 20
314.48584435754822
 30
0.0
 11
594.26975340530225
 21
329.96695435754822
 31
0.0
  0
LINE
  5
1892D
  8
AM_0
 10
590.12974340530207
 20
309.80694435754822
 30
0.0
 11
594.26975340530225
 21
325.26696435754832
 31
0.0
  0
LINE
  5
1892E
  8
AM_0
 10
588.3297534053022
 20
302.40695435754822
 30
0.0
 11
580.32975340530209
 21
302.40695435754822
 31
0.0
  0
ARC
  5
1892F
  8
AM_0
 10
594.98972340530213
 20
305.46701435754818
 30
0.0
 40
1.0
 50
89.999997000002296
 51
270.000010000001
  0
ARC
  5
18930
  8
AM_0
 10
594.98978340530232
 20
295.46701435754818
 30
0.0
 40
1.0000255999999981
 50
89.589469000002211
 51
270.41052999999027
  0
ARC
  5
18931
  8
AM_0
 10
591.50974340530229
 20
305.51205435754821
 30
0.0
 40
1.6750020000000001
 50
89.999997000002296
 51
270.000010000001
  0
ARC
  5
18932
  8
AM_0
 10
591.28977340530207
 20
295.49704435754808
 30
0.0
 40
1.460011199999999
 50
89.775250000003169
 51
270.22475000000981
  0
ARC
  5
18933
  8
AM_0
 10
588.67655340530223
 20
315.79977435754819
 30
0.0
 40
1.5027759999999999
 50
270.12242000000788
 51
345.24357000000151
  0
ARC
  5
18934
  8
AM_0
 10
588.67655340530223
 20
313.03976435754828
 30
0.0
 40
1.5027759999999999
 50
270.12242000000788
 51
345.24357000000151
  0
ARC
  5
18935
  8
AM_0
 10
588.67655340530223
 20
314.88974435754818
 30
0.0
 40
1.5027759999999999
 50
270.12242000000788
 51
345.24357000000151
  0
ARC
  5
18936
  8
AM_0
 10
588.67655340530223
 20
310.18979435754829
 30
0.0
 40
1.5027759999999999
 50
270.12242000000788
 51
345.24357000000151
  0
LINE
  5
18937
  8
AM_0
 10
588.3297534053022
 20
326.46701435754818
 30
0.0
 11
580.32975340530209
 21
326.46701435754818
 31
0.0
  0
LINE
  5
18938
  8
AM_0
 10
588.3297534053022
 20
316.46701435754818
 30
0.0
 11
580.32975340530209
 21
316.46701435754818
 31
0.0
  0
ARC
  5
18939
  8
AM_0
 10
596.19968340530193
 20
324.74875435754808
 30
0.0
 40
1.9982919999999991
 50
89.997368000005167
 51
164.96745200000399
  0
ARC
  5
1893A
  8
AM_0
 10
596.20457340530197
 20
327.59225435754809
 30
0.0
 40
2.0047290000000002
 50
90.138321999993309
 51
164.82650400000369
  0
ARC
  5
1893B
  8
AM_0
 10
596.20457340530197
 20
330.35226435754828
 30
0.0
 40
2.0047290000000002
 50
90.138321999993309
 51
164.82650400000369
  0
ARC
  5
1893C
  8
AM_0
 10
596.20457340530197
 20
329.44223435754827
 30
0.0
 40
2.0047290000000002
 50
90.138321999993309
 51
164.82650400000369
  0
LINE
  5
1893D
  8
AM_0
 10
593.7897734053023
 20
323.46701435754818
 30
0.0
 11
588.3297534053022
 21
323.46701435754818
 31
0.0
  0
LINE
  5
1893E
  8
AM_0
 10
703.63972340530222
 20
476.74708033034813
 30
0.0
 11
697.40974340530238
 21
476.74708033034813
 31
0.0
  0
LINE
  5
1893F
  8
AM_0
 10
704.32972340530227
 20
466.93709133034821
 30
0.0
 11
696.32972340530227
 21
466.93709133034821
 31
0.0
  0
LINE
  5
18940
  8
AM_0
 10
704.32972340530227
 20
466.94208033034818
 30
0.0
 11
696.32972340530227
 21
466.94208033034818
 31
0.0
  0
LINE
  5
18941
  8
AM_0
 10
703.63972340530222
 20
563.12707433034825
 30
0.0
 11
697.40974340530238
 21
563.12707433034825
 31
0.0
  0
LINE
  5
18942
  8
AM_0
 10
704.32972340530227
 20
572.93709433034815
 30
0.0
 11
696.32972340530227
 21
572.93709433034815
 31
0.0
  0
LINE
  5
18943
  8
AM_0
 10
704.32972340530227
 20
572.94208433034828
 30
0.0
 11
696.32972340530227
 21
572.94208433034828
 31
0.0
  0
LINE
  5
18944
  8
AM_0
 10
704.32974340530222
 20
576.94212883034834
 30
0.0
 11
704.32974340530222
 21
462.94211083034838
 31
0.0
  0
LINE
  5
18945
  8
AM_0
 10
751.82976340530217
 20
495.96210283034839
 30
0.0
 11
751.82976340530183
 21
576.94212883034834
 31
0.0
  0
LINE
  5
18946
  8
AM_0
 10
709.32975340530209
 20
527.94211483034815
 30
0.0
 11
709.32975340530209
 21
576.94212883034834
 31
0.0
  0
LINE
  5
18947
  8
AM_0
 10
754.32975340530231
 20
563.2020988303484
 30
0.0
 11
754.32975340530231
 21
574.94208883034821
 31
0.0
  0
LINE
  5
18948
  8
AM_0
 10
752.32974340530222
 20
576.94212883034834
 30
0.0
 11
704.32974340530222
 21
576.94212883034834
 31
0.0
  0
ARC
  5
18949
  8
AM_0
 10
752.3302534053023
 20
574.94259883034829
 30
0.0
 40
1.9994960399999999
 50
359.98554000000013
 51
90.014456999995545
  0
LINE
  5
1894A
  8
AM_0
 10
740.48979340530241
 20
514.6821028303483
 30
0.0
 11
754.94973340530214
 21
470.17210783034812
 31
0.0
  0
LINE
  5
1894B
  8
AM_0
 10
745.2497434053023
 20
516.22211083034824
 30
0.0
 11
759.70974340530222
 21
471.71210083034822
 31
0.0
  0
LINE
  5
1894C
  8
AM_0
 10
751.82976340530217
 20
479.78209483034823
 30
0.0
 11
751.82976340530217
 21
462.94211083034838
 31
0.0
  0
LINE
  5
1894D
  8
AM_0
 10
751.82976340530217
 20
563.83209883034817
 30
0.0
 11
704.32974340530222
 21
563.83209883034817
 31
0.0
  0
LINE
  5
1894E
  8
AM_0
 10
751.82976340530217
 20
553.58209783034818
 30
0.0
 11
709.32975340530209
 21
553.58209783034818
 31
0.0
  0
LINE
  5
1894F
  8
AM_0
 10
754.32975340530231
 20
488.27209783034817
 30
0.0
 11
754.32975340530231
 21
554.47208383034831
 31
0.0
  0
ARC
  5
18950
  8
AM_0
 10
753.43407340530212
 20
557.33226883034831
 30
0.0
 40
2.9956880400000001
 50
264.16962999999038
 51
359.99636000000248
  0
LINE
  5
18951
  8
AM_0
 10
753.12975340530215
 20
554.23212283034832
 30
0.0
 11
753.12975340530215
 21
563.43210883034817
 31
0.0
  0
ARC
  5
18952
  8
AM_0
 10
753.42807340530214
 20
560.33529883034817
 30
0.0
 40
3.0016479
 50
359.93865000000221
 51
95.704386999990277
  0
LINE
  5
18953
  8
AM_0
 10
756.4297234053023
 20
557.33208883034831
 30
0.0
 11
756.4297234053023
 21
560.33208883034831
 31
0.0
  0
LINE
  5
18954
  8
AM_0
 10
753.12975340530215
 20
563.43210883034817
 30
0.0
 11
751.82976340530217
 21
563.43210883034817
 31
0.0
  0
LINE
  5
18955
  8
AM_0
 10
753.12975340530215
 20
554.23212283034832
 30
0.0
 11
751.82976340530217
 21
554.23212283034832
 31
0.0
  0
ARC
  5
18956
  8
AM_0
 10
754.28103340530208
 20
482.44202083034821
 30
0.0
 40
4.0507442999999981
 50
315.08765999999792
 51
80.928209000008195
  0
LINE
  5
18957
  8
ﾁｭｳｼﾝｾﾝ1
 10
721.3297534053022
 20
507.7301028303483
 30
0.0
 11
721.3297534053022
 21
532.15009883034816
 31
0.0
  0
ARC
  5
18958
  8
AM_0
 10
736.68198340530239
 20
513.44501383034822
 30
0.0
 40
8.9970875999999969
 50
17.97879999999725
 51
90.014225000001474
  0
LINE
  5
18959
  8
AM_0
 10
726.82974340530222
 20
517.44211483034815
 30
0.0
 11
726.82974340530222
 21
522.44208283034823
 31
0.0
  0
LINE
  5
1895A
  8
AM_0
 10
713.32974340530222
 20
517.44211483034815
 30
0.0
 11
713.32974340530222
 21
522.44208283034823
 31
0.0
  0
LINE
  5
1895B
  8
AM_0
 10
715.82976340530206
 20
517.44211483034815
 30
0.0
 11
715.82976340530206
 21
522.44208283034823
 31
0.0
  0
ARC
  5
1895C
  8
AM_0
 10
721.33023340530235
 20
519.94190083034823
 30
0.0
 40
8.000195699999999
 50
18.210970000003989
 51
90.003699000002214
  0
LINE
  5
1895D
  8
AM_0
 10
736.67979340530223
 20
522.44208283034823
 30
0.0
 11
726.82974340530222
 21
522.44208283034823
 31
0.0
  0
LINE
  5
1895E
  8
AM_0
 10
721.3297534053022
 20
527.94211483034815
 30
0.0
 11
704.32974340530222
 21
527.94211483034815
 31
0.0
  0
LINE
  5
1895F
  8
AM_0
 10
715.82976340530206
 20
522.44208283034823
 30
0.0
 11
713.32974340530222
 21
522.44208283034823
 31
0.0
  0
ARC
  5
18960
  8
AM_0
 10
721.3297534053022
 20
519.94010083034823
 30
0.0
 40
4.998440399999998
 50
23.610999999994512
 51
156.38900099999751
  0
LINE
  5
18961
  8
AM_0
 10
726.82974340530222
 20
521.94211483034815
 30
0.0
 11
715.82976340530206
 21
521.94211483034815
 31
0.0
  0
LINE
  5
18962
  8
AM_0
 10
736.67979340530223
 20
517.44211483034815
 30
0.0
 11
726.82974340530222
 21
517.44211483034815
 31
0.0
  0
ARC
  5
18963
  8
AM_0
 10
721.33218340530198
 20
519.93967183034806
 30
0.0
 40
7.9975721999999996
 50
269.98269000000079
 51
341.80265000000202
  0
ARC
  5
18964
  8
AM_0
 10
736.68651340530232
 20
513.44171683034824
 30
0.0
 40
4.0003919999999971
 50
18.063209999999881
 51
90.096944999995586
  0
LINE
  5
18965
  8
AM_0
 10
721.3297534053022
 20
511.94208283034823
 30
0.0
 11
704.32974340530222
 21
511.94208283034823
 31
0.0
  0
LINE
  5
18966
  8
AM_0
 10
715.82976340530206
 20
517.44211483034815
 30
0.0
 11
713.32974340530222
 21
517.44211483034815
 31
0.0
  0
ARC
  5
18967
  8
AM_0
 10
721.3297534053022
 20
519.94010083034823
 30
0.0
 40
4.9968401999999976
 50
203.56897999999919
 51
336.43102000000079
  0
LINE
  5
18968
  8
AM_0
 10
726.82974340530222
 20
517.94208283034823
 30
0.0
 11
715.82976340530206
 21
517.94208283034823
 31
0.0
  0
LINE
  5
18969
  8
AM_0
 10
751.82976340530217
 20
476.0520988303482
 30
0.0
 11
704.32974340530222
 21
476.0520988303482
 31
0.0
  0
LINE
  5
1896A
  8
AM_0
 10
752.32974340530222
 20
462.94211083034838
 30
0.0
 11
704.32974340530222
 21
462.94211083034838
 31
0.0
  0
ARC
  5
1896B
  8
AM_0
 10
752.33202340530215
 20
464.93979283034821
 30
0.0
 40
1.9976960999999991
 50
269.93382999999648
 51
0.0661700000034912
  0
ARC
  5
1896C
  8
AM_0
 10
757.33080340530216
 20
470.94056983034812
 30
0.0
 40
3.001016099999998
 50
179.9708539990001
 51
354.86740000000231
  0
ARC
  5
1896D
  8
AM_0
 10
757.32975340530231
 20
470.94211183034821
 30
0.0
 40
2.5014601500000002
 50
197.92793000000191
 51
17.9279200000007
  0
ARC
  5
1896E
  8
AM_0
 10
760.61790340530217
 20
470.63975983034828
 30
0.0
 40
0.8023920299999998
 50
90.582441999999929
 51
174.1091650000001
  0
LINE
  5
1896F
  8
AM_0
 10
760.82976340530183
 20
471.4420978303483
 30
0.0
 11
760.60971340530227
 21
471.4420978303483
 31
0.0
  0
LINE
  5
18970
  8
AM_0
 10
760.82976340530183
 20
471.4420978303483
 30
0.0
 11
760.82976340530183
 21
470.94211183034821
 31
0.0
  0
ARC
  5
18971
  8
AM_0
 10
760.61937340530233
 20
470.64105583034808
 30
0.0
 40
0.30119199
 50
91.824012999993229
 51
174.08517019999809
  0
LINE
  5
18972
  8
AM_0
 10
754.32975340530231
 20
472.09210483034809
 30
0.0
 11
754.32975340530231
 21
464.9421118303481
 31
0.0
  0
LINE
  5
18973
  8
AM_0
 10
709.32975340530209
 20
476.0520988303482
 30
0.0
 11
709.32975340530209
 21
462.94211083034838
 31
0.0
  0
LINE
  5
18974
  8
AM_0
 10
590.12971340530225
 20
559.27710433034815
 30
0.0
 11
594.27970340530214
 21
574.73709433034833
 31
0.0
  0
LINE
  5
18975
  8
AM_0
 10
691.00483618899
 20
556.66206089268439
 30
0.0
 11
696.32972340530227
 21
568.03708433034819
 31
0.0
  0
LINE
  5
18976
  8
AM_0
 10
588.32972340530216
 20
575.94208433034817
 30
0.0
 11
588.32972340530216
 21
463.94208033034801
 31
0.0
  0
LINE
  5
18977
  8
AM_0
 10
696.32972340530227
 20
572.93709433034815
 30
0.0
 11
696.32972340530227
 21
470.49709633034809
 31
0.0
  0
LINE
  5
18978
  8
AM_0
 10
693.12971340530225
 20
576.22708433034825
 30
0.0
 11
596.20975340530231
 21
576.22708433034825
 31
0.0
  0
LINE
  5
18979
  8
AM_0
 10
693.03974340530215
 20
581.82709433034825
 30
0.0
 11
659.32972340530216
 21
581.82709433034825
 31
0.0
  0
LINE
  5
1897A
  8
AM_0
 10
693.05970340530223
 20
580.91708433034819
 30
0.0
 11
659.32972340530216
 21
580.91708433034819
 31
0.0
  0
LINE
  5
1897B
  8
AM_0
 10
693.07972340530227
 20
579.06708433034817
 30
0.0
 11
659.32972340530216
 21
579.06708433034817
 31
0.0
  0
ARC
  5
1897C
  8
AM_0
 10
693.08131340530224
 20
577.07394433034824
 30
0.0
 40
1.9931281000000001
 50
9.0388199999997223
 51
90.046626999992995
  0
LINE
  5
1897D
  8
AM_0
 10
696.32972340530227
 20
570.72706433034818
 30
0.0
 11
695.01972340530233
 21
580.10707433034815
 31
0.0
  0
LINE
  5
1897E
  8
AM_0
 10
696.32966340530231
 20
570.72710433034831
 30
0.0
 11
695.03968340530196
 21
579.21709433034823
 31
0.0
  0
ARC
  5
1897F
  8
AM_0
 10
693.06702340530228
 20
578.92251433034824
 30
0.0
 40
1.994588
 50
8.4929100000045796
 51
90.209246999997603
  0
ARC
  5
18980
  8
AM_0
 10
693.04505340530216
 20
579.83360433034807
 30
0.0
 40
1.9934921000000001
 50
7.8852599999973707
 51
90.153909000005143
  0
ARC
  5
18981
  8
AM_0
 10
693.12684340530222
 20
574.23018433034815
 30
0.0
 40
1.9969039999999989
 50
10.587439999998541
 51
89.916526000000388
  0
LINE
  5
18982
  8
AM_0
 10
696.32972340530227
 20
569.37709433034831
 30
0.0
 11
695.04975340530223
 21
577.38708433034833
 31
0.0
  0
LINE
  5
18983
  8
AM_0
 10
696.32972340530227
 20
568.03709433034828
 30
0.0
 11
695.08973340530224
 21
574.59709433034823
 31
0.0
  0
ARC
  5
18984
  8
AM_0
 10
659.33015340530233
 20
577.06666433034809
 30
0.0
 40
2.000407899999999
 50
90.011650000002177
 51
179.9883509999992
  0
LINE
  5
18985
  8
AM_0
 10
657.32972340530216
 20
579.8270743303483
 30
0.0
 11
657.32972340530216
 21
576.22708433034825
 31
0.0
  0
ARC
  5
18986
  8
AM_0
 10
659.33131340530224
 20
578.91553433034824
 30
0.0
 40
2.0015439999999991
 50
90.044216000000915
 51
179.9557860009991
  0
ARC
  5
18987
  8
AM_0
 10
659.33100340530223
 20
579.82579433034812
 30
0.0
 40
2.001287899999999
 50
90.036873999995535
 51
179.9631280009977
  0
LINE
  5
18988
  8
AM_0
 10
588.32972340530216
 20
575.94208433034817
 30
0.0
 11
580.32975340530209
 21
575.94208433034817
 31
0.0
  0
ARC
  5
18989
  8
AM_0
 10
596.21253340530211
 20
574.22848433034824
 30
0.0
 40
1.9986041000000001
 50
90.080483999998862
 51
165.25728400000051
  0
LINE
  5
1898A
  8
AM_0
 10
593.78974340530215
 20
572.93709433034815
 30
0.0
 11
588.32972340530216
 21
572.93709433034815
 31
0.0
  0
LINE
  5
1898B
  8
ｶｸﾚｾﾝ2
 10
603.32972340530227
 20
555.94213355919123
 30
0.0
 11
686.82972340530227
 21
555.94213355919112
 31
0.0
  0
LINE
  5
1898C
  8
ｶｸﾚｾﾝ2
 10
686.82972340530227
 20
483.94213355919118
 30
0.0
 11
603.32972340530227
 21
483.9421335591914
 31
0.0
  0
LINE
  5
1898D
  8
AM_0
 10
594.98973229256148
 20
555.94211459577127
 30
0.0
 11
693.96977229255845
 21
555.94209016073535
 31
0.0
  0
LINE
  5
1898E
  8
AM_0
 10
594.98973179882478
 20
553.9421145957715
 30
0.0
 11
693.96977179882174
 21
553.94209016073535
 31
0.0
  0
LINE
  5
1898F
  8
AM_0
 10
594.99692933014171
 20
543.94211459399435
 30
0.0
 11
693.96976933013843
 21
543.94209016073569
 31
0.0
  0
LINE
  5
18990
  8
AM_0
 10
694.64977247029628
 20
556.66205999286512
 30
0.0
 11
591.50975247029942
 21
556.66208545486825
 31
0.0
  0
LINE
  5
18991
  8
AM_0
 10
694.86973922153106
 20
543.50214993856173
 30
0.0
 11
591.29551922153451
 21
543.50217550775528
 31
0.0
  0
LINE
  5
18992
  8
AM_0
 10
694.8697399448381
 20
546.43207993856174
 30
0.0
 11
591.28409994484127
 21
546.43210551057427
 31
0.0
  0
LINE
  5
18993
  8
AM_0
 10
594.98258982387824
 20
545.94211459753433
 30
0.0
 11
693.96976982387514
 21
545.9420901607358
 31
0.0
  0
LINE
  5
18994
  8
AM_0
 10
694.64977164329207
 20
553.31207999286494
 30
0.0
 11
591.50975164329532
 21
553.31210545486829
 31
0.0
  0
LINE
  5
18995
  8
AM_0
 10
694.99973743911733
 20
536.28204990646907
 30
0.0
 11
591.00115948272014
 21
536.282075580423
 31
0.0
  0
LINE
  5
18996
  8
AM_0
 10
694.99973678246999
 20
533.62213990646887
 30
0.0
 11
591.15268432447965
 21
533.62216554301631
 31
0.0
  0
LINE
  5
18997
  8
AM_0
 10
695.05973495316823
 20
526.21210989165729
 30
0.0
 11
590.94363569966447
 21
526.21213559462353
 31
0.0
  0
LINE
  5
18998
  8
AM_0
 10
695.05973432858389
 20
523.68207989165739
 30
0.0
 11
591.10692235257773
 21
523.68210555431324
 31
0.0
  0
LINE
  5
18999
  8
AM_0
 10
594.98638809936381
 20
523.94211459659618
 30
0.0
 11
693.96976439277205
 21
523.94209016073626
 31
0.0
  0
LINE
  5
1899A
  8
AM_0
 10
594.98638859310063
 20
525.94211459659584
 30
0.0
 11
693.96976488650876
 21
525.94209016073626
 31
0.0
  0
LINE
  5
1899B
  8
AM_0
 10
594.98639056805075
 20
533.94211459659573
 30
0.0
 11
693.96976686145524
 21
533.94209016073614
 31
0.0
  0
LINE
  5
1899C
  8
AM_0
 10
594.98639106176245
 20
535.9421145965955
 30
0.0
 11
693.96976735519195
 21
535.94209016073614
 31
0.0
  0
LINE
  5
1899D
  8
AM_0
 10
694.99973340530209
 20
506.26206623990822
 30
0.0
 11
591.15268094730868
 21
506.26206623990822
 31
0.0
  0
LINE
  5
1899E
  8
AM_0
 10
694.99973340530209
 20
503.60215623990808
 30
0.0
 11
591.00115544890173
 21
503.60215623990808
 31
0.0
  0
LINE
  5
1899F
  8
AM_0
 10
594.9863871118946
 20
505.94211623990822
 30
0.0
 11
693.96976340530193
 21
505.94211623990822
 31
0.0
  0
LINE
  5
189A0
  8
AM_0
 10
594.98638711186948
 20
503.9421162399081
 30
0.0
 11
693.96976340530193
 21
503.9421162399081
 31
0.0
  0
LINE
  5
189A1
  8
AM_0
 10
695.05973340530215
 20
516.20212623990813
 30
0.0
 11
591.10692142929247
 21
516.20212623990813
 31
0.0
  0
LINE
  5
189A2
  8
AM_0
 10
695.05973340530215
 20
513.67209623990823
 30
0.0
 11
590.94363415179521
 21
513.67209623990823
 31
0.0
  0
LINE
  5
189A3
  8
AM_0
 10
594.98638711189096
 20
515.94211623990805
 30
0.0
 11
693.96976340530193
 21
515.94211623990805
 31
0.0
  0
LINE
  5
189A4
  8
AM_0
 10
594.98638711189096
 20
513.94211623990805
 30
0.0
 11
693.96976340530193
 21
513.94211623990805
 31
0.0
  0
LINE
  5
189A5
  8
AM_0
 10
694.86973340530233
 20
493.45212623990813
 30
0.0
 11
591.28409340530197
 21
493.45212623990813
 31
0.0
  0
LINE
  5
189A6
  8
AM_0
 10
694.64976340530211
 20
486.57212623990819
 30
0.0
 11
591.50974340530229
 21
486.57212623990819
 31
0.0
  0
LINE
  5
189A7
  8
AM_0
 10
594.98258340530208
 20
493.94211623990822
 30
0.0
 11
693.96976340530193
 21
493.94211623990822
 31
0.0
  0
LINE
  5
189A8
  8
AM_0
 10
694.86973340530233
 20
496.38205623990808
 30
0.0
 11
591.29551340530224
 21
496.38205623990808
 31
0.0
  0
LINE
  5
189A9
  8
AM_0
 10
694.64976340530211
 20
483.222146239908
 30
0.0
 11
591.50974340530229
 21
483.222146239908
 31
0.0
  0
LINE
  5
189AA
  8
AM_0
 10
594.99692340530214
 20
495.9421162399081
 30
0.0
 11
693.96976340530193
 21
495.9421162399081
 31
0.0
  0
LINE
  5
189AB
  8
AM_0
 10
594.98972340530213
 20
485.9421162399081
 30
0.0
 11
693.96976340530193
 21
485.9421162399081
 31
0.0
  0
LINE
  5
189AC
  8
AM_0
 10
594.98972340530213
 20
483.9421162399081
 30
0.0
 11
693.96976340530193
 21
483.9421162399081
 31
0.0
  0
LINE
  5
189AD
  8
AM_0
 10
670.82972340530227
 20
558.16707433034821
 30
0.0
 11
588.32972340530216
 21
558.16707433034821
 31
0.0
  0
LINE
  5
189AE
  8
AM_0
 10
670.82972340530227
 20
481.71708933034807
 30
0.0
 11
588.32972340530216
 21
481.71708933034807
 31
0.0
  0
LINE
  5
189AF
  8
AM_0
 10
693.12971340530225
 20
463.65707733034822
 30
0.0
 11
596.20975340530231
 21
463.65707733034822
 31
0.0
  0
LINE
  5
189B0
  8
AM_0
 10
691.00017606601841
 20
483.222146239908
 30
0.0
 11
696.32978340530212
 21
471.84710933034819
 31
0.0
  0
LINE
  5
189B1
  8
ｶｸﾚｾﾝ2
 10
690.32972340530216
 20
552.44213355919101
 30
0.0
 11
690.32972340530216
 21
487.44213355919112
 31
0.0
  0
POLYLINE
  5
189B2
  8
AM_0
 66
     1
 10
0.0
 20
0.0
 30
0.0
  0
VERTEX
  5
189B3
  8
AM_0
 10
693.96976340529875
 20
519.9420901607366
 30
0.0
 42
0.00039106649
  0
VERTEX
  5
189B4
  8
AM_0
 10
693.97212348210724
 20
520.253220160154
 30
0.0
 42
0.00035488198
  0
VERTEX
  5
189B5
  8
AM_0
 10
693.97401355891031
 20
520.5643301596873
 30
0.0
 42
0.00039706113
  0
VERTEX
  5
189B6
  8
AM_0
 10
693.97544363571365
 20
520.87544015933429
 30
0.0
 42
0.00038765718
  0
VERTEX
  5
189B7
  8
AM_0
 10
693.97637371252415
 20
521.18658015910489
 30
0.0
 42
0.00040613432
  0
VERTEX
  5
189B8
  8
AM_0
 10
693.97682378932495
 20
521.49768015899338
 30
0.0
 42
0.00035573434
  0
VERTEX
  5
189B9
  8
AM_0
 10
693.97678386612779
 20
521.80879015900348
 30
0.0
 42
0.00038545884
  0
VERTEX
  5
189BA
  8
AM_0
 10
693.97629394293608
 20
522.11992015912449
 30
0.0
 42
0.00035501205
  0
VERTEX
  5
189BB
  8
AM_0
 10
693.97533401973942
 20
522.4310301593614
 30
0.0
 42
0.00040120779
  0
VERTEX
  5
189BC
  8
AM_0
 10
693.97391409657223
 20
522.7422601597118
 30
0.0
 42
0.00038317817
  0
VERTEX
  5
189BD
  8
AM_0
 10
693.97200417338024
 20
523.05339016018354
 30
0.0
 42
0.00035656084
  0
VERTEX
  5
189BE
  8
AM_0
 10
693.96962425021582
 20
523.36463016077096
 30
0.0
 42
0.00040143615
  0
VERTEX
  5
189BF
  8
AM_0
 10
693.96677432701631
 20
523.67573016147446
 30
0.0
  0
SEQEND
  5
189C0
  8
AM_0
  0
LINE
  5
189C1
  8
AM_0
 10
670.82978340530212
 20
558.16708433034819
 30
0.0
 11
691.00721340530231
 21
556.66708433034819
 31
0.0
  0
ARC
  5
189C2
  8
AM_0
 10
694.86973958318345
 20
544.96710993856175
 30
0.0
 40
1.465004
 50
269.99998585549179
 51
89.999982855481065
  0
ARC
  5
189C3
  8
ｶｸﾚｾﾝ2
 10
686.82972340530227
 20
552.44213355919101
 30
0.0
 40
3.5
 50
0.0
 51
90.000000000000057
  0
ARC
  5
189C4
  8
AM_0
 10
694.65715205680908
 20
554.98712999104316
 30
0.0
 40
1.6750160000000001
 50
269.74611585548217
 51
90.253840855478757
  0
ARC
  5
189C5
  8
AM_0
 10
693.78514204569001
 20
554.9420902063149
 30
0.0
 40
1.0000138999999999
 50
269.69164585549458
 51
90.308325855483133
  0
ARC
  5
189C6
  8
AM_0
 10
693.78513957700682
 20
544.94209020631502
 30
0.0
 40
1.0000138999999999
 50
269.69164585549458
 51
90.308325855483133
  0
POLYLINE
  5
189C7
  8
AM_0
 66
     1
 10
0.0
 20
0.0
 30
0.0
  0
VERTEX
  5
189C8
  8
AM_0
 10
692.46885994312015
 20
546.42512053126291
 30
0.0
 42
0.00068898288
  0
VERTEX
  5
189C9
  8
AM_0
 10
692.3979800850077
 20
546.9998705487609
 30
0.0
 42
0.00070644354
  0
VERTEX
  5
189CA
  8
AM_0
 10
692.32548022688047
 20
547.57456056665865
 30
0.0
 42
0.00069248071
  0
VERTEX
  5
189CB
  8
AM_0
 10
692.25139036865949
 20
548.14887058494924
 30
0.0
 42
0.00069585665
  0
VERTEX
  5
189CC
  8
AM_0
 10
692.17571051039647
 20
548.72301060363225
 30
0.0
 42
0.00068980191
  0
VERTEX
  5
189CD
  8
AM_0
 10
692.09841065209889
 20
549.29701062271511
 30
0.0
 42
0.00072080104
  0
VERTEX
  5
189CE
  8
AM_0
 10
692.01952079374917
 20
549.87080064219049
 30
0.0
 42
0.00071002307
  0
VERTEX
  5
189CF
  8
AM_0
 10
691.93898093532073
 20
550.44427066207322
 30
0.0
 42
0.00072659056
  0
VERTEX
  5
189D0
  8
AM_0
 10
691.85682107680134
 20
551.01737068235605
 30
0.0
 42
0.00069570481
  0
VERTEX
  5
189D1
  8
AM_0
 10
691.77300121826431
 20
551.59040070304843
 30
0.0
 42
0.00071266935
  0
VERTEX
  5
189D2
  8
AM_0
 10
691.6875713596628
 20
552.16317072413835
 30
0.0
 42
0.00071614426
  0
VERTEX
  5
189D3
  8
AM_0
 10
691.60054150095561
 20
552.73551074562329
 30
0.0
 42
0.00072288975
  0
VERTEX
  5
189D4
  8
AM_0
 10
691.51183164223835
 20
553.30781076752294
 30
0.0
  0
SEQEND
  5
189D5
  8
AM_0
  0
POLYLINE
  5
189D6
  8
AM_0
 66
     1
 10
0.0
 20
0.0
 30
0.0
  0
VERTEX
  5
189D7
  8
AM_0
 10
693.9257049532572
 20
526.2124701716134
 30
0.0
 42
0.00076691992
  0
VERTEX
  5
189D8
  8
AM_0
 10
693.91090510576498
 20
526.83024017526702
 30
0.0
 42
0.00073262792
  0
VERTEX
  5
189D9
  8
AM_0
 10
693.8942652582283
 20
527.44783017937482
 30
0.0
 42
0.00076529537
  0
VERTEX
  5
189DA
  8
AM_0
 10
693.87577541071164
 20
528.06550018393921
 30
0.0
 42
0.00075141097
  0
VERTEX
  5
189DB
  8
AM_0
 10
693.85540556317744
 20
528.68310018896796
 30
0.0
 42
0.00075841687
  0
VERTEX
  5
189DC
  8
AM_0
 10
693.83317571560121
 20
529.30053019445586
 30
0.0
 42
0.00075711788
  0
VERTEX
  5
189DD
  8
AM_0
 10
693.8090658680452
 20
529.91804020040809
 30
0.0
 42
0.00075976003
  0
VERTEX
  5
189DE
  8
AM_0
 10
693.78307602045902
 20
530.535430206824
 30
0.0
 42
0.00075797311
  0
VERTEX
  5
189DF
  8
AM_0
 10
693.7552361728458
 20
531.15271021369676
 30
0.0
 42
0.0007482613
  0
VERTEX
  5
189E0
  8
AM_0
 10
693.72550632525724
 20
531.77009022103607
 30
0.0
 42
0.00074893561
  0
VERTEX
  5
189E1
  8
AM_0
 10
693.69394647760737
 20
532.38722022882735
 30
0.0
 42
0.00076039839
  0
VERTEX
  5
189E2
  8
AM_0
 10
693.66052662993241
 20
533.00425023707771
 30
0.0
 42
0.00075618786
  0
VERTEX
  5
189E3
  8
AM_0
 10
693.62522678226014
 20
533.62129024579212
 30
0.0
  0
SEQEND
  5
189E4
  8
AM_0
  0
ARC
  5
189E5
  8
AM_0
 10
694.99973711079485
 20
534.95209990646913
 30
0.0
 40
1.3300049999999981
 50
269.99998585549179
 51
89.999982855481065
  0
ARC
  5
189E6
  8
AM_0
 10
693.78513710832362
 20
534.94209020631558
 30
0.0
 40
1.0000138999999999
 50
269.69164585549458
 51
90.308325855483133
  0
POLYLINE
  5
189E7
  8
AM_0
 66
     1
 10
0.0
 20
0.0
 30
0.0
  0
VERTEX
  5
189E8
  8
AM_0
 10
693.45151743926783
 20
536.28266028867574
 30
0.0
 42
0.0007337051
  0
VERTEX
  5
189E9
  8
AM_0
 10
693.40737758798639
 20
536.88508029957234
 30
0.0
 42
0.00075211323
  0
VERTEX
  5
189EA
  8
AM_0
 10
693.36143773669755
 20
537.48747031091352
 30
0.0
 42
0.0007297491
  0
VERTEX
  5
189EB
  8
AM_0
 10
693.31370788536151
 20
538.08967032269652
 30
0.0
 42
0.00073593041
  0
VERTEX
  5
189EC
  8
AM_0
 10
693.26422803397372
 20
538.69166033491138
 30
0.0
 42
0.00074742739
  0
VERTEX
  5
189ED
  8
AM_0
 10
693.21295818255635
 20
539.29353034756832
 30
0.0
 42
0.00073217363
  0
VERTEX
  5
189EE
  8
AM_0
 10
693.15989833112178
 20
539.89533036066723
 30
0.0
 42
0.00073754168
  0
VERTEX
  5
189EF
  8
AM_0
 10
693.10507847962265
 20
540.4968703742004
 30
0.0
 42
0.00073075073
  0
VERTEX
  5
189F0
  8
AM_0
 10
693.04849862807964
 20
541.0982303881683
 30
0.0
 42
0.00074550816
  0
VERTEX
  5
189F1
  8
AM_0
 10
692.99015877646252
 20
541.69929040257045
 30
0.0
 42
0.00074288416
  0
VERTEX
  5
189F2
  8
AM_0
 10
692.93000892483519
 20
542.3003104174195
 30
0.0
 42
0.00072504001
  0
VERTEX
  5
189F3
  8
AM_0
 10
692.86809907314137
 20
542.90106043270316
 30
0.0
 42
0.00074640667
  0
VERTEX
  5
189F4
  8
AM_0
 10
692.80442922141015
 20
543.50166044842126
 30
0.0
  0
SEQEND
  5
189F5
  8
AM_0
  0
ARC
  5
189F6
  8
AM_0
 10
695.06559464087479
 20
524.94708989021069
 30
0.0
 40
1.2650129999999991
 50
269.73557585548849
 51
90.264406855489256
  0
ARC
  5
189F7
  8
AM_0
 10
693.78513463964055
 20
524.9420902063157
 30
0.0
 40
1.0000138999999999
 50
269.69164585549458
 51
90.308325855483133
  0
LINE
  5
189F8
  8
AM_0
 10
670.82972340530227
 20
481.71708933034807
 30
0.0
 11
691.0025734053022
 21
483.21708933034819
 31
0.0
  0
POLYLINE
  5
189F9
  8
AM_0
 66
     1
 10
0.0
 20
0.0
 30
0.0
  0
VERTEX
  5
189FA
  8
AM_0
 10
693.45151340530231
 20
503.60154623990792
 30
0.0
 42
-0.0007337051
  0
VERTEX
  5
189FB
  8
AM_0
 10
693.40737340530222
 20
502.99912623990809
 30
0.0
 42
-0.00075211323
  0
VERTEX
  5
189FC
  8
AM_0
 10
693.36143340530225
 20
502.39673623990808
 30
0.0
 42
-0.0007297491
  0
VERTEX
  5
189FD
  8
AM_0
 10
693.31370340530225
 20
501.7945362399081
 30
0.0
 42
-0.00073593041
  0
VERTEX
  5
189FE
  8
AM_0
 10
693.264223405302
 20
501.19254623990821
 30
0.0
 42
-0.00074742739
  0
VERTEX
  5
189FF
  8
AM_0
 10
693.21295340530219
 20
500.59067623990819
 30
0.0
 42
-0.00073217363
  0
VERTEX
  5
18A00
  8
AM_0
 10
693.15989340530223
 20
499.98887623990811
 30
0.0
 42
-0.00073754168
  0
VERTEX
  5
18A01
  8
AM_0
 10
693.10507340530205
 20
499.38733623990822
 30
0.0
 42
-0.00073075073
  0
VERTEX
  5
18A02
  8
AM_0
 10
693.04849340530222
 20
498.78597623990811
 30
0.0
 42
-0.00074550816
  0
VERTEX
  5
18A03
  8
AM_0
 10
692.99015340530229
 20
498.18491623990809
 30
0.0
 42
-0.00074288416
  0
VERTEX
  5
18A04
  8
AM_0
 10
692.93000340530205
 20
497.58389623990792
 30
0.0
 42
-0.00072504001
  0
VERTEX
  5
18A05
  8
AM_0
 10
692.86809340530215
 20
496.98314623990808
 30
0.0
 42
-0.00074640667
  0
VERTEX
  5
18A06
  8
AM_0
 10
692.80442340530226
 20
496.38254623990809
 30
0.0
  0
SEQEND
  5
18A07
  8
AM_0
  0
POLYLINE
  5
18A08
  8
AM_0
 66
     1
 10
0.0
 20
0.0
 30
0.0
  0
VERTEX
  5
18A09
  8
AM_0
 10
693.9257034053021
 20
513.67173623990823
 30
0.0
 42
-0.00076691992
  0
VERTEX
  5
18A0A
  8
AM_0
 10
693.91090340530207
 20
513.05396623990805
 30
0.0
 42
-0.00073262792
  0
VERTEX
  5
18A0B
  8
AM_0
 10
693.89426340530213
 20
512.4363762399081
 30
0.0
 42
-0.00076529537
  0
VERTEX
  5
18A0C
  8
AM_0
 10
693.87577340530197
 20
511.81870623990818
 30
0.0
 42
-0.00075141097
  0
VERTEX
  5
18A0D
  8
AM_0
 10
693.85540340530224
 20
511.2011062399082
 30
0.0
 42
-0.00075841687
  0
VERTEX
  5
18A0E
  8
AM_0
 10
693.83317340530232
 20
510.58367623990807
 30
0.0
 42
-0.00075711788
  0
VERTEX
  5
18A0F
  8
AM_0
 10
693.80906340530214
 20
509.96616623990809
 30
0.0
 42
-0.00075976003
  0
VERTEX
  5
18A10
  8
AM_0
 10
693.78307340530216
 20
509.34877623990809
 30
0.0
 42
-0.00075797311
  0
VERTEX
  5
18A11
  8
AM_0
 10
693.75523340530196
 20
508.7314962399081
 30
0.0
 42
-0.0007482613
  0
VERTEX
  5
18A12
  8
AM_0
 10
693.72550340530211
 20
508.11411623990818
 30
0.0
 42
-0.00074893561
  0
VERTEX
  5
18A13
  8
AM_0
 10
693.69394340530232
 20
507.4969862399081
 30
0.0
 42
-0.00076039839
  0
VERTEX
  5
18A14
  8
AM_0
 10
693.66052340530223
 20
506.87995623990821
 30
0.0
 42
-0.00075618786
  0
VERTEX
  5
18A15
  8
AM_0
 10
693.62522340530211
 20
506.26291623990812
 30
0.0
  0
SEQEND
  5
18A16
  8
AM_0
  0
ARC
  5
18A17
  8
AM_0
 10
693.78513340530208
 20
514.94211623990805
 30
0.0
 40
1.0000138999999999
 50
269.69165999999939
 51
90.308340000000754
  0
ARC
  5
18A18
  8
AM_0
 10
695.06559340530225
 20
514.93711623990816
 30
0.0
 40
1.2650129999999991
 50
269.7355789999952
 51
90.264409999995976
  0
POLYLINE
  5
18A19
  8
AM_0
 66
     1
 10
0.0
 20
0.0
 30
0.0
  0
VERTEX
  5
18A1A
  8
AM_0
 10
693.96976340530193
 20
519.94211623990805
 30
0.0
 42
-0.00039106649
  0
VERTEX
  5
18A1B
  8
AM_0
 10
693.97212340530223
 20
519.63098623990811
 30
0.0
 42
-0.00035488198
  0
VERTEX
  5
18A1C
  8
AM_0
 10
693.97401340530223
 20
519.31987623990824
 30
0.0
 42
-0.00039706113
  0
VERTEX
  5
18A1D
  8
AM_0
 10
693.97544340530214
 20
519.00876623990814
 30
0.0
 42
-0.00038765718
  0
VERTEX
  5
18A1E
  8
AM_0
 10
693.97637340530218
 20
518.69762623990812
 30
0.0
 42
-0.00040613432
  0
VERTEX
  5
18A1F
  8
AM_0
 10
693.9768234053023
 20
518.38652623990811
 30
0.0
 42
-0.00035573434
  0
VERTEX
  5
18A20
  8
AM_0
 10
693.97678340530206
 20
518.07541623990812
 30
0.0
 42
-0.00038545884
  0
VERTEX
  5
18A21
  8
AM_0
 10
693.97629340530204
 20
517.76428623990807
 30
0.0
 42
-0.00035501205
  0
VERTEX
  5
18A22
  8
AM_0
 10
693.97533340530208
 20
517.4531762399082
 30
0.0
 42
-0.00040120779
  0
VERTEX
  5
18A23
  8
AM_0
 10
693.97391340530226
 20
517.14194623990807
 30
0.0
 42
-0.00038317817
  0
VERTEX
  5
18A24
  8
AM_0
 10
693.97200340530208
 20
516.83081623990813
 30
0.0
 42
-0.00035656084
  0
VERTEX
  5
18A25
  8
AM_0
 10
693.96962340530206
 20
516.51957623990813
 30
0.0
 42
-0.00040143615
  0
VERTEX
  5
18A26
  8
AM_0
 10
693.96677340530209
 20
516.20847623990824
 30
0.0
  0
SEQEND
  5
18A27
  8
AM_0
  0
ARC
  5
18A28
  8
AM_0
 10
693.78513340530208
 20
504.9421162399081
 30
0.0
 40
1.0000138999999999
 50
269.69165999999939
 51
90.308340000000754
  0
ARC
  5
18A29
  8
AM_0
 10
694.99973340530209
 20
504.93210623990819
 30
0.0
 40
1.3300049999999981
 50
270.00000299999761
 51
90.000000000000057
  0
ARC
  5
18A2A
  8
ｶｸﾚｾﾝ2
 10
686.82972340530227
 20
487.44213355919112
 30
0.0
 40
3.5
 50
270.0
 51
0.0
  0
POLYLINE
  5
18A2B
  8
AM_0
 66
     1
 10
0.0
 20
0.0
 30
0.0
  0
VERTEX
  5
18A2C
  8
AM_0
 10
692.46885340530207
 20
493.45908623990812
 30
0.0
 42
-0.00068898288
  0
VERTEX
  5
18A2D
  8
AM_0
 10
692.3979734053022
 20
492.88433623990812
 30
0.0
 42
-0.00070644354
  0
VERTEX
  5
18A2E
  8
AM_0
 10
692.32547340530209
 20
492.30964623990809
 30
0.0
 42
-0.00069248071
  0
VERTEX
  5
18A2F
  8
AM_0
 10
692.25138340530225
 20
491.73533623990812
 30
0.0
 42
-0.00069585665
  0
VERTEX
  5
18A30
  8
AM_0
 10
692.1757034053021
 20
491.16119623990812
 30
0.0
 42
-0.00068980191
  0
VERTEX
  5
18A31
  8
AM_0
 10
692.09840340530207
 20
490.58719623990811
 30
0.0
 42
-0.00072080104
  0
VERTEX
  5
18A32
  8
AM_0
 10
692.01951340530206
 20
490.01340623990808
 30
0.0
 42
-0.00071002307
  0
VERTEX
  5
18A33
  8
AM_0
 10
691.93897340530225
 20
489.43993623990821
 30
0.0
 42
-0.00072659056
  0
VERTEX
  5
18A34
  8
AM_0
 10
691.85681340530186
 20
488.86683623990808
 30
0.0
 42
-0.00069570481
  0
VERTEX
  5
18A35
  8
AM_0
 10
691.77299340530215
 20
488.29380623990812
 30
0.0
 42
-0.00071266935
  0
VERTEX
  5
18A36
  8
AM_0
 10
691.68756340530206
 20
487.72103623990807
 30
0.0
 42
-0.00071614426
  0
VERTEX
  5
18A37
  8
AM_0
 10
691.60053340530214
 20
487.14869623990819
 30
0.0
 42
-0.00072288975
  0
VERTEX
  5
18A38
  8
AM_0
 10
691.51182340530215
 20
486.57639623990809
 30
0.0
  0
SEQEND
  5
18A39
  8
AM_0
  0
ARC
  5
18A3A
  8
AM_0
 10
694.86973340530233
 20
494.91709623990801
 30
0.0
 40
1.465004
 50
270.00000299999761
 51
90.000000000000057
  0
ARC
  5
18A3B
  8
AM_0
 10
693.78513340530208
 20
494.9421162399081
 30
0.0
 40
1.0000138999999999
 50
269.69165999999939
 51
90.308340000000754
  0
ARC
  5
18A3C
  8
AM_0
 10
693.78513340530208
 20
484.9421162399081
 30
0.0
 40
1.0000138999999999
 50
269.69165999999939
 51
90.308340000000754
  0
ARC
  5
18A3D
  8
AM_0
 10
694.65714340530212
 20
484.89707623990819
 30
0.0
 40
1.6750160000000001
 50
269.7461450000045
 51
90.253870000000916
  0
LINE
  5
18A3E
  8
ﾁｭｳｼﾝｾﾝ1
 10
639.32972340530216
 20
560.56711114504481
 30
0.0
 11
639.32972340530216
 21
479.31710814504493
 31
0.0
  0
LINE
  5
18A3F
  8
AM_0
 10
693.03974340530215
 20
458.04709133034822
 30
0.0
 11
659.32972340530216
 21
458.04709133034822
 31
0.0
  0
LINE
  5
18A40
  8
AM_0
 10
693.05970340530223
 20
458.96708233034832
 30
0.0
 11
659.32972340530216
 21
458.96708233034832
 31
0.0
  0
LINE
  5
18A41
  8
AM_0
 10
693.07972340530227
 20
460.80708633034823
 30
0.0
 11
659.32972340530216
 21
460.80708633034823
 31
0.0
  0
ARC
  5
18A42
  8
AM_0
 10
693.12507340530215
 20
465.65608533034811
 30
0.0
 40
1.9990078999999989
 50
270.13344999999691
 51
349.36259000000302
  0
LINE
  5
18A43
  8
AM_0
 10
696.32972340530227
 20
469.1571073303482
 30
0.0
 11
695.01972340530233
 21
459.77710233034821
 31
0.0
  0
LINE
  5
18A44
  8
AM_0
 10
696.32966340530231
 20
469.1570843303482
 30
0.0
 11
695.03968340530196
 21
460.65709233034829
 31
0.0
  0
LINE
  5
18A45
  8
AM_0
 10
696.32972340530227
 20
470.49708033034813
 30
0.0
 11
695.04975340530223
 21
462.49708833034822
 31
0.0
  0
LINE
  5
18A46
  8
AM_0
 10
696.32972340530227
 20
471.84707133034817
 30
0.0
 11
695.08973340530224
 21
465.2870743303481
 31
0.0
  0
ARC
  5
18A47
  8
AM_0
 10
693.06617340530215
 20
460.96441933034811
 30
0.0
 40
1.9973480999999991
 50
269.81532000000249
 51
351.14853000000028
  0
ARC
  5
18A48
  8
AM_0
 10
693.03760340530232
 20
460.04756433034822
 30
0.0
 40
2.0004758999999992
 50
270.06030999999751
 51
352.22953999999839
  0
ARC
  5
18A49
  8
AM_0
 10
693.07374340530225
 20
462.8072613303483
 30
0.0
 40
2.0001840999999998
 50
270.1714700000008
 51
351.07899999999808
  0
ARC
  5
18A4A
  8
AM_0
 10
659.33301340530215
 20
460.97037033034809
 30
0.0
 40
2.003279899999999
 50
180.09378999999711
 51
269.90621000000289
  0
ARC
  5
18A4B
  8
AM_0
 10
659.33771340530222
 20
460.05509433034808
 30
0.0
 40
2.0080360999999991
 50
180.22878999999941
 51
269.77121000000062
  0
LINE
  5
18A4C
  8
AM_0
 10
657.32972340530216
 20
460.04708433034813
 30
0.0
 11
657.32972340530216
 21
463.65707733034822
 31
0.0
  0
ARC
  5
18A4D
  8
AM_0
 10
659.33692340530229
 20
462.81426533034812
 30
0.0
 40
2.0071799999999991
 50
180.2046199999977
 51
269.79537999999582
  0
LINE
  5
18A4E
  8
AM_0
 10
589.82972340530216
 20
481.71709733034822
 30
0.0
 11
594.2797334053023
 21
465.13709533034819
 31
0.0
  0
LINE
  5
18A4F
  8
ｶｸﾚｾﾝ2
 10
605.82972340530216
 20
497.44213355919112
 30
0.0
 11
605.82972340530216
 21
542.44213355919123
 31
0.0
  0
LINE
  5
18A50
  8
AM_0
 10
588.32972340530216
 20
565.94208433034817
 30
0.0
 11
580.32975340530209
 21
565.94208433034817
 31
0.0
  0
LINE
  5
18A51
  8
AM_0
 10
588.32972340530216
 20
551.88209433034831
 30
0.0
 11
580.32975340530209
 21
551.88209433034831
 31
0.0
  0
ARC
  5
18A52
  8
ｶｸﾚｾﾝ2
 10
603.82972340530227
 20
542.44213355919123
 30
0.0
 40
2.0
 50
0.0
 51
90.000000000000057
  0
ARC
  5
18A53
  8
AM_0
 10
591.28977958442351
 20
544.97214550917215
 30
0.0
 40
1.460011199999999
 50
89.775235855490308
 51
270.22473585548403
  0
ARC
  5
18A54
  8
AM_0
 10
594.98978957700979
 20
544.94211459575695
 30
0.0
 40
1.0000255999999981
 50
89.589454855482614
 51
270.41051585548371
  0
ARC
  5
18A55
  8
AM_0
 10
594.98973204569302
 20
554.94211459577139
 30
0.0
 40
1.0
 50
89.999982855481065
 51
269.99999585549278
  0
ARC
  5
18A56
  8
ｶｸﾚｾﾝ2
 10
603.32972340530227
 20
553.94213355919112
 30
0.0
 40
2.0
 50
90.000000000000057
 51
180.0
  0
ARC
  5
18A57
  8
ｶｸﾚｾﾝ2
 10
603.32972340530227
 20
546.44213355919123
 30
0.0
 40
2.0
 50
180.0
 51
270.0
  0
LINE
  5
18A58
  8
ｶｸﾚｾﾝ2
 10
603.32972340530227
 20
544.44213355919123
 30
0.0
 11
603.82972340530227
 21
544.44213355919123
 31
0.0
  0
LINE
  5
18A59
  8
ｶｸﾚｾﾝ2
 10
601.32972340530216
 20
553.94213355919123
 30
0.0
 11
601.32972340530216
 21
546.44213355919123
 31
0.0
  0
ARC
  5
18A5A
  8
AM_0
 10
591.50977222457175
 20
554.98713145486272
 30
0.0
 40
1.675026000120903
 50
90.000672712195325
 51
269.99929599881659
  0
ARC
  5
18A5B
  8
AM_0
 10
588.67652340530219
 20
559.66485433034825
 30
0.0
 40
1.5027759999999999
 50
270.12240999999699
 51
345.24357000000151
  0
ARC
  5
18A5C
  8
AM_0
 10
594.98976720832661
 20
534.94211459576195
 30
0.0
 40
1.000005699999998
 50
89.999982855481065
 51
269.99999585549278
  0
ARC
  5
18A5D
  8
AM_0
 10
594.98976473964353
 20
524.94211459576252
 30
0.0
 40
1.000005699999998
 50
89.999982855481065
 51
269.99999585549278
  0
ARC
  5
18A5E
  8
AM_0
 10
591.16478071203221
 20
534.95712554003001
 30
0.0
 40
1.3350147999999999
 50
89.730429855483663
 51
270.26955585549172
  0
ARC
  5
18A5F
  8
AM_0
 10
591.10282824211458
 20
524.95212555532385
 30
0.0
 40
1.2700266
 50
89.629315855484165
 51
270.3706658554824
  0
LINE
  5
18A60
  8
AM_0
 10
588.32972340530216
 20
488.0020933303482
 30
0.0
 11
580.32975340530209
 21
488.0020933303482
 31
0.0
  0
ARC
  5
18A61
  8
AM_0
 10
594.98976350530188
 20
504.9421162399081
 30
0.0
 40
1.000005699999998
 50
89.999989999999016
 51
270.00000299999761
  0
ARC
  5
18A62
  8
AM_0
 10
594.98976350530188
 20
514.94211623990805
 30
0.0
 40
1.000005699999998
 50
89.999989999999016
 51
270.00000299999761
  0
ARC
  5
18A63
  8
AM_0
 10
591.10282700530195
 20
514.93210623990808
 30
0.0
 40
1.2700266
 50
89.629320000000007
 51
270.37066999999809
  0
ARC
  5
18A64
  8
AM_0
 10
591.16477700530186
 20
504.9271062399082
 30
0.0
 40
1.3350147999999999
 50
89.730429999999885
 51
270.26955599999479
  0
ARC
  5
18A65
  8
AM_0
 10
594.98972340530213
 20
484.9421162399081
 30
0.0
 40
1.0
 50
89.999989999999016
 51
270.00000299999761
  0
ARC
  5
18A66
  8
AM_0
 10
594.98978340530232
 20
494.9421162399081
 30
0.0
 40
1.0000255999999981
 50
89.589469999996723
 51
270.41053099999777
  0
LINE
  5
18A67
  8
ｶｸﾚｾﾝ2
 10
601.32972340530216
 20
493.44213355919112
 30
0.0
 11
601.32972340530216
 21
485.94213355919101
 31
0.0
  0
LINE
  5
18A68
  8
ｶｸﾚｾﾝ2
 10
601.32972340530216
 20
493.44213355919112
 30
0.0
 11
601.32972340530216
 21
485.94213355919101
 31
0.0
  0
ARC
  5
18A69
  8
ｶｸﾚｾﾝ2
 10
603.32972340530227
 20
493.44213355919112
 30
0.0
 40
2.0
 50
90.000000000000057
 51
180.0
  0
LINE
  5
18A6A
  8
ｶｸﾚｾﾝ2
 10
603.82972340530227
 20
495.44213355919112
 30
0.0
 11
603.32972340530227
 21
495.44213355919112
 31
0.0
  0
ARC
  5
18A6B
  8
ｶｸﾚｾﾝ2
 10
603.82972340530227
 20
497.44213355919112
 30
0.0
 40
2.0
 50
270.0
 51
0.0
  0
ARC
  5
18A6C
  8
ｶｸﾚｾﾝ2
 10
603.32972340530227
 20
485.94213355919101
 30
0.0
 40
2.0
 50
180.0
 51
270.0
  0
ARC
  5
18A6D
  8
AM_0
 10
591.28977340530207
 20
494.91208623990821
 30
0.0
 40
1.460011199999999
 50
89.775250000003169
 51
270.22474999999679
  0
ARC
  5
18A6E
  8
AM_0
 10
591.50976357306786
 20
484.89710023990881
 30
0.0
 40
1.675026000120903
 50
90.000689856662149
 51
269.99931314329649
  0
LINE
  5
18A6F
  8
AM_0
 10
588.32972340530216
 20
473.9420883303481
 30
0.0
 11
580.32975340530209
 21
473.9420883303481
 31
0.0
  0
LINE
  5
18A70
  8
AM_0
 10
588.32972340530216
 20
463.94208033034801
 30
0.0
 11
580.32975340530209
 21
463.94208033034801
 31
0.0
  0
ARC
  5
18A71
  8
AM_0
 10
596.21259340530207
 20
465.65922033034821
 30
0.0
 40
2.0021281000000002
 50
195.11669999999421
 51
269.9184800000001
  0
LINE
  5
18A72
  8
AM_0
 10
593.78974340530215
 20
466.93709133034821
 30
0.0
 11
588.32972340530216
 21
466.93709133034821
 31
0.0
  0
LINE
  5
18A76
  8
AM_0
 10
759.83118350530242
 20
265.46701435754818
 30
0.0
 11
759.83118350530219
 21
214.46701435754821
 31
0.0
  0
LINE
  5
18A77
  8
AM_0
 10
754.83118350530231
 20
275.46701435754829
 30
0.0
 11
754.83118350530231
 21
325.46701435754801
 31
0.0
  0
TEXT
  5
18B9E
  8
AM_0
 10
113.1381665078036
 20
521.95276966971187
 30
0.0
 40
10.0
  1
VC01-080BR~VC01-240BR
1001
ACAD
1000
MTEXTBEGIN
1070
    73
1070
     1
1070
    44
1040
1.0
1070
    74
1070
     0
1000
MTEXTEND
  0
VIEWPORT
  5
89
 67
     1
  8
0
 10
210.0
 20
148.5
 30
0.0
 40
420.0
 41
297.0
 68
     1
 69
     1
1001
ACAD
1000
MVIEW
1002
{
1070
    16
1010
0.0
1020
0.0
1030
0.0
1010
0.0
1020
0.0
1030
1.0
1040
0.0
1040
297.0
1040
221.70154043645701
1040
148.5
1040
50.0
1040
0.0
1040
0.0
1070
     0
1070
   100
1070
     1
1070
     1
1070
     0
1070
     0
1070
     0
1070
     0
1040
0.0
1040
0.0
1040
0.0
1040
10.0
1040
10.0
1040
10.0
1040
10.0
1070
     0
1002
{
1002
}
1002
}
1001
GENIUS_GENOREF_13
1005
1B94
1001
GENIUS_GENSCREG_15
1000
PF
1040
1.0
1000
DF
1040
1.0
1000
MIN
1011
0.0
1021
0.0
1031
0.0
1021
0.0
1031
0.0
1000
MAX
1011
420.0
1021
0.0
1031
0.0
1021
297.0
1031
0.0
1000
FLAGS
1070
     4
  0
ENDSEC
  0
EOF
