  0
SECTION
  2
HEADER
  9
$ACADVER
  1
AC1009
  9
$INSBASE
 10
0.0
 20
0.0
 30
0.0
  9
$EXTMIN
 10
80.523538763080069
 20
151.05592528472579
 30
-0.0000000349181948
  9
$EXTMAX
 10
808.33493235455205
 20
618.6279540361104
 30
0.0000000814935747
  9
$LIMMIN
 10
0.0
 20
0.0
  9
$LIMMAX
 10
853.5
 20
555.00000000000011
  9
$ORTHOMODE
 70
     0
  9
$REGENMODE
 70
     1
  9
$FILLMODE
 70
     1
  9
$QTEXTMODE
 70
     0
  9
$MIRRTEXT
 70
     1
  9
$DRAGMODE
 70
     2
  9
$LTSCALE
 40
3.0
  9
$OSMODE
 70
   551
  9
$ATTMODE
 70
     1
  9
$TEXTSIZE
 40
2.5
  9
$TRACEWID
 40
1.0
  9
$TEXTSTYLE
  7
STANDARD
  9
$CLAYER
  8
AM_0
  9
$CELTYPE
  6
BYLAYER
  9
$CECOLOR
 62
   256
  9
$DIMSCALE
 40
3.0
  9
$DIMASZ
 40
2.5
  9
$DIMEXO
 40
1.0
  9
$DIMDLI
 40
7.0
  9
$DIMRND
 40
0.0
  9
$DIMDLE
 40
0.0
  9
$DIMEXE
 40
1.0
  9
$DIMTP
 40
0.1
  9
$DIMTM
 40
0.1000000001
  9
$DIMTXT
 40
2.5
  9
$DIMCEN
 40
0.0
  9
$DIMTSZ
 40
0.0
  9
$DIMTOL
 70
     0
  9
$DIMLIM
 70
     0
  9
$DIMTIH
 70
     0
  9
$DIMTOH
 70
     0
  9
$DIMSE1
 70
     0
  9
$DIMSE2
 70
     0
  9
$DIMTAD
 70
     3
  9
$DIMZIN
 70
     8
  9
$DIMBLK
  1

  9
$DIMASO
 70
     1
  9
$DIMSHO
 70
     1
  9
$DIMPOST
  1

  9
$DIMAPOST
  1
"
  9
$DIMALT
 70
     0
  9
$DIMALTD
 70
     2
  9
$DIMALTF
 40
0.0393701
  9
$DIMLFAC
 40
1.0
  9
$DIMTOFL
 70
     1
  9
$DIMTVP
 40
0.0
  9
$DIMTIX
 70
     0
  9
$DIMSOXD
 70
     0
  9
$DIMSAH
 70
     0
  9
$DIMBLK1
  1

  9
$DIMBLK2
  1

  9
$DIMSTYLE
  2
AM_JIS
  9
$DIMCLRD
 70
   256
  9
$DIMCLRE
 70
   256
  9
$DIMCLRT
 70
     4
  9
$DIMTFAC
 40
0.71
  9
$DIMGAP
 40
1.0
  9
$LUNITS
 70
     2
  9
$LUPREC
 70
     2
  9
$SKETCHINC
 40
1.0
  9
$FILLETRAD
 40
5.0
  9
$AUNITS
 70
     0
  9
$AUPREC
 70
     3
  9
$MENU
  1
.
  9
$ELEVATION
 40
0.0
  9
$PELEVATION
 40
0.0
  9
$THICKNESS
 40
0.0
  9
$LIMCHECK
 70
     0
  9
$BLIPMODE
 70
     0
  9
$CHAMFERA
 40
7.5
  9
$CHAMFERB
 40
7.5
  9
$SKPOLY
 70
     0
  9
$TDCREATE
 40
2452753.643349607
  9
$TDUPDATE
 40
2458543.4901651391
  9
$TDINDWG
 40
0.4311064352
  9
$TDUSRTIMER
 40
0.4311062384
  9
$USRTIMER
 70
     1
  9
$ANGBASE
 50
0.0
  9
$ANGDIR
 70
     0
  9
$PDMODE
 70
     0
  9
$PDSIZE
 40
0.0
  9
$PLINEWID
 40
0.0
  9
$COORDS
 70
     1
  9
$SPLFRAME
 70
     0
  9
$SPLINETYPE
 70
     6
  9
$SPLINESEGS
 70
     8
  9
$ATTDIA
 70
     1
  9
$ATTREQ
 70
     1
  9
$HANDLING
 70
     1
  9
$HANDSEED
  5
182B6
  9
$SURFTAB1
 70
     6
  9
$SURFTAB2
 70
     6
  9
$SURFTYPE
 70
     6
  9
$SURFU
 70
     6
  9
$SURFV
 70
     6
  9
$UCSNAME
  2

  9
$UCSORG
 10
0.0
 20
0.0
 30
0.0
  9
$UCSXDIR
 10
1.0
 20
0.0
 30
0.0
  9
$UCSYDIR
 10
0.0
 20
1.0
 30
0.0
  9
$PUCSNAME
  2

  9
$PUCSORG
 10
0.0
 20
0.0
 30
0.0
  9
$PUCSXDIR
 10
1.0
 20
0.0
 30
0.0
  9
$PUCSYDIR
 10
0.0
 20
1.0
 30
0.0
  9
$USERI1
 70
     0
  9
$USERI2
 70
     0
  9
$USERI3
 70
     0
  9
$USERI4
 70
     0
  9
$USERI5
 70
     0
  9
$USERR1
 40
0.0
  9
$USERR2
 40
0.0
  9
$USERR3
 40
0.0
  9
$USERR4
 40
0.0
  9
$USERR5
 40
0.0
  9
$WORLDVIEW
 70
     1
  9
$SHADEDGE
 70
     3
  9
$SHADEDIF
 70
    70
  9
$TILEMODE
 70
     1
  9
$MAXACTVP
 70
    48
  9
$PLIMCHECK
 70
     0
  9
$PEXTMIN
 10
1.0000000000000000E+020
 20
1.0000000000000000E+020
 30
1.0000000000000000E+020
  9
$PEXTMAX
 10
-1.0000000000000000E+020
 20
-1.0000000000000000E+020
 30
-1.0000000000000000E+020
  9
$PLIMMIN
 10
0.0
 20
0.0
  9
$PLIMMAX
 10
420.0
 20
297.0
  9
$UNITMODE
 70
     0
  9
$VISRETAIN
 70
     1
  9
$PLINEGEN
 70
     0
  9
$PSLTSCALE
 70
     1
  0
ENDSEC
  0
SECTION
  2
TABLES
  0
TABLE
  2
VPORT
 70
     1
  0
VPORT
  2
*ACTIVE
 70
     0
 10
0.0
 20
0.0
 11
1.0
 21
1.0
 12
444.42923555881617
 22
384.84193966041812
 13
0.0
 23
0.0
 14
7.5
 24
7.5
 15
30.0
 25
30.0
 16
0.0
 26
0.0
 36
1.0
 17
0.0
 27
0.0
 37
0.0
 40
470.78190537896842
 41
1.757159221076747
 42
50.0
 43
0.0
 44
0.0
 50
0.0
 51
0.0
 71
    16
 72
   100
 73
     1
 74
     1
 75
     0
 76
     0
 77
     0
 78
     0
  0
ENDTAB
  0
TABLE
  2
LTYPE
 70
    21
  0
LTYPE
  2
CONTINUOUS
 70
     0
  3
Solid line
 72
    65
 73
     0
 40
0.0
  0
LTYPE
  2
PHANTOM2
 70
     0
  3
Phantom (.5x) ___ _ _ ___ _ _ ___ _ _ ___ _ _
 72
    65
 73
     6
 40
31.75
 49
15.875
 49
-3.174999999999998
 49
3.174999999999998
 49
-3.174999999999998
 49
3.174999999999998
 49
-3.174999999999998
  0
LTYPE
  2
CENTER
 70
     0
  3
Center ____ _ ____ _ ____ _ ____ _ ____ _ ____
 72
    65
 73
     4
 40
50.799999999999997
 49
31.75
 49
-6.3499999999999979
 49
6.3499999999999979
 49
-6.3499999999999979
  0
LTYPE
  2
ACANSTGBM
 70
     0
  3
__ . . __ . .
 72
    65
 73
     6
 40
9.0
 49
4.0
 49
-1.0
 49
1.0
 49
-1.0
 49
1.0
 49
-1.0
  0
LTYPE
  2
ACANSTGLM
 70
     0
  3
_ _ _ _ _
 72
    65
 73
     2
 40
3.0
 49
2.0
 49
-1.0
  0
LTYPE
  2
GEN3B
 70
     0
  3
 - - - - -
 72
    65
 73
     2
 40
1.0
 49
0.5
 49
-0.5
  0
LTYPE
  2
GEN7A
 70
     0
  3
__ . __ . __
 72
    65
 73
     4
 40
7.375
 49
4.75
 49
-0.875
 49
0.875
 49
-0.875
  0
LTYPE
  2
AM_ISO02W050
 70
     0
  3
__ __ __ __ __ __ __ __ __ __ __ __ __ __ __
 72
    65
 73
     2
 40
7.5
 49
6.0
 49
-1.5
  0
LTYPE
  2
AM_ISO08W050
 70
     0
  3
____ . ____ . ____ . ____ . ____ . ____ . ____
 72
    65
 73
     4
 40
18.0
 49
12.0
 49
-1.5
 49
3.0
 49
-1.5
  0
LTYPE
  2
AM_ISO09W050
 70
     0
  3
_____ . . _____ . . _____ . . ____ .. ____
 72
    65
 73
     6
 40
22.5
 49
12.0
 49
-1.5
 49
3.0
 49
-1.5
 49
3.0
 49
-1.5
  0
LTYPE
  2
AMCONSTR
 70
     0
  3
_______________________
 72
    65
 73
     2
 40
9999.0
 49
9999.0
 49
0.0
  0
LTYPE
  2
AM_ISO02W050X2
 70
     0
  3
 _ _ _ _ _ _ _ _ _ _ _ _
 72
    65
 73
     2
 40
3.75
 49
3.0
 49
-0.75
  0
LTYPE
  2
AM_ISO08W050X2
 70
     0
  3
__ . __ . __ . __ . __ . __
 72
    65
 73
     4
 40
9.0
 49
6.0
 49
-0.75
 49
1.5
 49
-0.75
  0
LTYPE
  2
AMZIGZAG
 70
     0
  3
/\/-/\/-/\/-/\/-/\/-/\/
 72
    65
 73
     2
 40
11.0001
 49
0.0001
 49
-11.0
  0
LTYPE
  2
ACJISTGB
 70
     0
  3
__ . . __ . .
 72
    65
 73
     6
 40
9.0
 49
4.0
 49
-1.0
 49
1.0
 49
-1.0
 49
1.0
 49
-1.0
  0
LTYPE
  2
ACJISTGL
 70
     0
  3
_ _ _ _ _
 72
    65
 73
     2
 40
3.0
 49
2.0
 49
-1.0
  0
LTYPE
  2
ACISOWELD
 70
     0
  3
_ _ _ _ _
 72
    65
 73
     2
 40
2.0
 49
2.0
 49
-1.0
  0
LTYPE
  2
ACISOTGB
 70
     0
  3
__ . . __ . .
 72
    65
 73
     6
 40
9.0
 49
4.0
 49
-1.0
 49
1.0
 49
-1.0
 49
1.0
 49
-1.0
  0
LTYPE
  2
ACISOTGL
 70
     0
  3
_ _ _ _ _
 72
    65
 73
     2
 40
3.0
 49
2.0
 49
-1.0
  0
LTYPE
  2
HIDDEN
 70
     0
  3
Hidden __ __ __ __ __ __ __ __ __ __ __ __ __ _
 72
    65
 73
     2
 40
9.5249999999999968
 49
6.3499999999999979
 49
-3.174999999999998
  0
ENDTAB
  0
TABLE
  2
LAYER
 70
     9
  0
LAYER
  2
0
 70
     0
 62
     7
  6
CONTINUOUS
  0
LAYER
  2
ｽﾝﾎﾟｳｾﾝ
 70
     0
 62
     2
  6
CONTINUOUS
  0
LAYER
  2
DEFPOINTS
 70
     0
 62
     7
  6
CONTINUOUS
  0
LAYER
  2
ｶｸﾚｾﾝ2
 70
     0
 62
     3
  6
GEN3B
  0
LAYER
  2
ﾁｭｳｼﾝｾﾝ1
 70
     0
 62
     1
  6
GEN7A
  0
LAYER
  2
AM_0
 70
     0
 62
     7
  6
CONTINUOUS
  0
LAYER
  2
AM_0N
 70
     0
 62
     7
  6
CONTINUOUS
  0
LAYER
  2
AM_5
 70
     0
 62
     2
  6
CONTINUOUS
  0
LAYER
  2
1
 70
     0
 62
     7
  6
CONTINUOUS
  0
ENDTAB
  0
TABLE
  2
STYLE
 70
     8
  0
STYLE
  2
STANDARD
 70
     0
 40
0.0
 41
0.8299999999999999
 50
0.0
 71
     0
 42
2.5
  3
txt.shx
  4
bigfont.shx
  0
STYLE
  2
ACANSTS
 70
     0
 40
1.0
 41
1.0
 50
0.0
 71
     0
 42
2.5
  3
romans.shx
  4
bigfont.shx
  0
STYLE
  2
ACANSGDT
 70
     0
 40
0.0
 41
1.0
 50
0.0
 71
     0
 42
2.5
  3
amgdtans.shx
  4

  0
STYLE
  2

 70
     1
 40
0.0
 41
1.0
 50
0.0
 71
     0
 42
2.5
  3
ltypeshp.shx
  4

  0
STYLE
  2
ACJISTS
 70
     0
 40
1.0
 41
1.0
 50
0.0
 71
     0
 42
2.5
  3
isocp.shx
  4
bigfont.shx
  0
STYLE
  2
ACJISGDT
 70
     0
 40
0.0
 41
1.0
 50
0.0
 71
     0
 42
2.5
  3
amgdt.shx
  4

  0
STYLE
  2
ACISOTS
 70
     0
 40
3.0
 41
1.0
 50
0.0
 71
     0
 42
2.5
  3
isocp.shx
  4
extfont.shx
  0
STYLE
  2
ACISOGDT
 70
     0
 40
0.0
 41
1.0
 50
0.0
 71
     0
 42
2.5
  3
amgdt.shx
  4

  0
ENDTAB
  0
TABLE
  2
VIEW
 70
    12
  0
VIEW
  2
GEN1
 70
     0
 40
95.824742268041234
 10
71.5
 20
137.08762886597941
 41
143.0
 11
0.0
 21
0.0
 31
1.0
 12
0.0
 22
0.0
 32
0.0
 42
50.0
 43
0.0
 44
0.0
 50
0.0
 71
     0
  0
VIEW
  2
GEN2
 70
     0
 40
95.824742268041234
 10
214.5
 20
137.08762886597941
 41
143.0
 11
0.0
 21
0.0
 31
1.0
 12
0.0
 22
0.0
 32
0.0
 42
50.0
 43
0.0
 44
0.0
 50
0.0
 71
     0
  0
VIEW
  2
GEN3
 70
     0
 40
95.824742268041234
 10
71.5
 20
47.912371134020603
 41
143.0
 11
0.0
 21
0.0
 31
1.0
 12
0.0
 22
0.0
 32
0.0
 42
50.0
 43
0.0
 44
0.0
 50
0.0
 71
     0
  0
VIEW
  2
GEN4
 70
     0
 40
95.824742268041234
 10
214.5
 20
47.912371134020603
 41
143.0
 11
0.0
 21
0.0
 31
1.0
 12
0.0
 22
0.0
 32
0.0
 42
50.0
 43
0.0
 44
0.0
 50
0.0
 71
     0
  0
VIEW
  2
GEN5
 70
     0
 40
95.824742268041234
 10
143.0
 20
92.500000000000057
 41
143.0
 11
0.0
 21
0.0
 31
1.0
 12
0.0
 22
0.0
 32
0.0
 42
50.0
 43
0.0
 44
0.0
 50
0.0
 71
     0
  0
VIEW
  2
GEN6
 70
     0
 40
191.64756804123709
 10
143.0
 20
92.5
 41
285.99714
 11
0.0
 21
0.0
 31
1.0
 12
0.0
 22
0.0
 32
0.0
 42
50.0
 43
0.0
 44
0.0
 50
0.0
 71
     0
  0
VIEW
  2
AM_VIEW1
 70
     0
 40
277.50000000000011
 10
249.64779005524869
 20
416.25000000000011
 41
499.29558011049721
 11
0.0
 21
0.0
 31
1.0
 12
0.0
 22
0.0
 32
0.0
 42
50.0
 43
0.0
 44
0.0
 50
0.0
 71
    16
  0
VIEW
  2
AM_VIEW2
 70
     0
 40
277.50000000000011
 10
603.85220994475117
 20
416.25000000000011
 41
499.29558011049721
 11
0.0
 21
0.0
 31
1.0
 12
0.0
 22
0.0
 32
0.0
 42
50.0
 43
0.0
 44
0.0
 50
0.0
 71
    16
  0
VIEW
  2
AM_VIEW3
 70
     0
 40
277.50000000000011
 10
249.64779005524869
 20
138.75
 41
499.29558011049721
 11
0.0
 21
0.0
 31
1.0
 12
0.0
 22
0.0
 32
0.0
 42
50.0
 43
0.0
 44
0.0
 50
0.0
 71
    16
  0
VIEW
  2
AM_VIEW4
 70
     0
 40
277.50000000000011
 10
603.85220994475117
 20
138.75
 41
499.29558011049721
 11
0.0
 21
0.0
 31
1.0
 12
0.0
 22
0.0
 32
0.0
 42
50.0
 43
0.0
 44
0.0
 50
0.0
 71
    16
  0
VIEW
  2
AM_VIEW5
 70
     0
 40
277.50000000000011
 10
426.75
 20
277.50000000000011
 41
499.2955801104971
 11
0.0
 21
0.0
 31
1.0
 12
0.0
 22
0.0
 32
0.0
 42
50.0
 43
0.0
 44
0.0
 50
0.0
 71
    16
  0
VIEW
  2
AM_VIEW6
 70
     0
 40
554.99445000000014
 10
426.75
 20
277.5
 41
998.5811743093924
 11
0.0
 21
0.0
 31
1.0
 12
0.0
 22
0.0
 32
0.0
 42
50.0
 43
0.0
 44
0.0
 50
0.0
 71
    16
  0
ENDTAB
  0
TABLE
  2
UCS
 70
     0
  0
ENDTAB
  0
TABLE
  2
APPID
 70
    97
  0
APPID
  2
ACAD
 70
     0
  0
APPID
  2
MCAD_NO_VIS
 70
     0
  0
APPID
  2
ACAD_TEMP_GRAPHIC
 70
     0
  0
APPID
  2
AD_DRAW
 70
     0
  0
APPID
  2
DESIGNERASSEMBLIES
 70
     0
  0
APPID
  2
ASURF_PCURVE_APPNAME
 70
     0
  0
APPID
  2
GENIUS_GE3SECT_13
 70
     0
  0
APPID
  2
GENIUS_GENCFG_13
 70
     0
  0
APPID
  2
GENIUS_GE3CFG0_13
 70
     0
  0
APPID
  2
GENIUS_GENCFG0_13
 70
     0
  0
APPID
  2
GENIUS_GENCFG1_13
 70
     0
  0
APPID
  2
GENIUS_GENCFG2_13
 70
     0
  0
APPID
  2
GENIUS_GENCFG3_13
 70
     0
  0
APPID
  2
GENIUS_GENCFG4_13
 70
     0
  0
APPID
  2
GENIUS_GEVCFG0_13
 70
     0
  0
APPID
  2
GENIUS_GENOENT_13
 70
     0
  0
APPID
  2
GENIUS_GENREC_14
 70
     0
  0
APPID
  2
GENIUS_GENODEF_13
 70
     0
  0
APPID
  2
GENIUS_GENOBJ-N-REC_13
 70
     0
  0
APPID
  2
GENIUS_GENHINW_13
 70
     0
  0
APPID
  2
GENIUS_FIRSTVISTXT_14
 70
     0
  0
APPID
  2
GENIUS_GENOBJ-N-LEADER_13
 70
     0
  0
APPID
  2
GENIUS_GENOREF_13
 70
     0
  0
APPID
  2
GENIUS_GENOLIS_13
 70
     0
  0
APPID
  2
GEV_VCCNULL_SWITCH_OFF
 70
     0
  0
APPID
  2
GENIUS_GENDTOL_13
 70
     0
  0
APPID
  2
GENIUS_GEFCFG0_13
 70
     0
  0
APPID
  2
GENIUS_GENOBJ-N-TIT_13
 70
     0
  0
APPID
  2
GENIUS_GENTITLE_13
 70
     0
  0
APPID
  2
GENIUS_GENZVEED_13
 70
     0
  0
APPID
  2
GENIUS_GENOBJ-N-SDF_13
 70
     0
  0
APPID
  2
GENIUS_GENSCREG_13
 70
     0
  0
APPID
  2
GENIUS_DUMCFG0_13
 70
     0
  0
APPID
  2
GEVID936201362
 70
     0
  0
APPID
  2
GEVDC
 70
     0
  0
APPID
  2
GEVCON
 70
     0
  0
APPID
  2
VCC
 70
     0
  0
APPID
  2
GEVPT
 70
     0
  0
APPID
  2
GEVIT
 70
     0
  0
APPID
  2
GENBH
 70
     0
  0
APPID
  2
GEVMK
 70
     0
  0
APPID
  2
GENIUS_GENBH_13
 70
     0
  0
APPID
  2
GENIUS_GENOBJ-NBEHI-BHF_13
 70
     0
  0
APPID
  2
GENIUS_GENOBJ-NBEHI-BHB_13
 70
     0
  0
APPID
  2
GENIUS_GENOBJ-F-DESC_13
 70
     0
  0
APPID
  2
GENIUS_GEFDESC_14
 70
     0
  0
APPID
  2
GENIUS_GENOBJ-F-PART_13
 70
     0
  0
APPID
  2
GENIUS_GEFSTDP_13
 70
     0
  0
APPID
  2
GENIUS_GEFPARTINS_13
 70
     0
  0
APPID
  2
GENIUS_GENTRA_14
 70
     0
  0
APPID
  2
GENIUS_GENINF13_13
 70
     0
  0
APPID
  2
GENIUS_GENOBJ-N-INFOPT_13
 70
     0
  0
APPID
  2
GENIUS_GENOBJ-N-RSSYM_13
 70
     0
  0
APPID
  2
GENIUS_GENSYMENT_13
 70
     0
  0
APPID
  2
GENIUS_GENSCSYM_13
 70
     0
  0
APPID
  2
GENIUS_GEFINFNAM_13
 70
     0
  0
APPID
  2
GENIUS_GENSCREG_15
 70
     0
  0
APPID
  2
GENIUS_GENOBJ-N-CEN_13
 70
     0
  0
APPID
  2
GENIUS_GENOBJ-N-CRS_13
 70
     0
  0
APPID
  2
GENIUS_GENOBJ-N-CRC_13
 70
     0
  0
APPID
  2
GENIUS_GENCRC_14
 70
     0
  0
APPID
  2
GEVID942827039
 70
     0
  0
APPID
  2
GEVID942827040
 70
     0
  0
APPID
  2
GEVID942827041
 70
     0
  0
APPID
  2
GENIUS_GENOBJ-F-SCPASSM_13
 70
     0
  0
APPID
  2
GENIUS_GENDIMSH_14
 70
     0
  0
APPID
  2
GENIUS_GENFIL_13
 70
     0
  0
APPID
  2
GENIUS_GENOBJ-N-CHA_13
 70
     0
  0
APPID
  2
GENIUS_GENOBJ-N-FIL_13
 70
     0
  0
APPID
  2
GEVID942827042
 70
     0
  0
APPID
  2
GEVID946020473
 70
     0
  0
APPID
  2
GEVID946020474
 70
     0
  0
APPID
  2
GEVID946020475
 70
     0
  0
APPID
  2
GENIUS_GENOBJ-N-HTC_13
 70
     0
  0
APPID
  2
GENIUS_GENHATCH_13
 70
     0
  0
APPID
  2
GEVID948854295
 70
     0
  0
APPID
  2
GEVID939402019
 70
     0
  0
APPID
  2
GEVID952919491
 70
     0
  0
APPID
  2
GEVID952919492
 70
     0
  0
APPID
  2
GENIUS_GEFWELD_13
 70
     0
  0
APPID
  2
GENIUS_GENOBJ-F-WELS_13
 70
     0
  0
APPID
  2
GEVID952919493
 70
     0
  0
APPID
  2
GENIUS_GENOBJ-N-RSBK_13
 70
     0
  0
APPID
  2
GENIUS_GENOBJ-N-LIB_13
 70
     0
  0
APPID
  2
GENIUS_GENSCALE_13
 70
     0
  0
APPID
  2
GEVID986376691
 70
     0
  0
APPID
  2
ACATTRIBSERVICES
 70
     0
  0
APPID
  2
DCO15
 70
     0
  0
APPID
  2
GEVID1088155249
 70
     0
  0
APPID
  2
ACADM_DIM_EDIT
 70
     0
  0
APPID
  2
AMDT_DM_ADJ
 70
     0
  0
APPID
  2
ACAD_MLEADERVER
 70
     0
  0
APPID
  2
ACAD_DSTYLE_DIMBREAK
 70
     0
  0
APPID
  2
ACAD_DSTYLE_DIMJAG
 70
     0
  0
APPID
  2
ACAD_NAV_VCDISPLAY
 70
     0
  0
APPID
  2
ACADANNOPO
 70
     0
  0
APPID
  2
ACAD_EXEMPT_FROM_CAD_STANDARDS
 70
     0
  0
ENDTAB
  0
TABLE
  2
DIMSTYLE
 70
    16
  0
DIMSTYLE
  2
STANDARD
 70
     0
  3

  4

  5

  6

  7

 40
1.0
 41
0.18
 42
0.0625
 43
0.38
 44
0.18
 45
0.0
 46
0.0
 47
0.0
 48
0.0
140
0.18
141
0.09
142
0.0
143
25.399999999999999
144
1.0
145
0.0
146
1.0
147
0.09
 71
     0
 72
     0
 73
     1
 74
     1
 75
     0
 76
     0
 77
     0
 78
     0
170
     0
171
     2
172
     0
173
     0
174
     0
175
     0
176
     0
177
     0
178
     0
  0
DIMSTYLE
  2
AM_JIS
 70
     0
  3

  4
"
  5

  6

  7

 40
1.0
 41
2.5
 42
1.0
 43
7.0
 44
1.0
 45
0.0
 46
0.0
 47
0.1
 48
0.1000000001
140
2.5
141
0.0
142
0.0
143
0.0393701
144
1.0
145
0.0
146
0.71
147
1.0
 71
     0
 72
     0
 73
     0
 74
     0
 75
     0
 76
     0
 77
     3
 78
     8
170
     0
171
     2
172
     1
173
     0
174
     0
175
     0
176
   256
177
   256
178
     4
  0
DIMSTYLE
  2
AM_JIS$3
 70
     0
  3

  4
"
  5

  6

  7

 40
1.0
 41
2.5
 42
1.0
 43
7.0
 44
1.0
 45
0.0
 46
0.0
 47
0.1
 48
0.1000000001
140
2.5
141
0.0
142
0.0
143
0.0393701
144
1.0
145
0.0
146
0.71
147
1.0
 71
     0
 72
     0
 73
     0
 74
     1
 75
     0
 76
     0
 77
     3
 78
     8
170
     0
171
     2
172
     0
173
     0
174
     0
175
     0
176
   256
177
   256
178
     4
  0
DIMSTYLE
  2
AM_JIS$4
 70
     0
  3

  4
"
  5

  6

  7

 40
1.0
 41
2.5
 42
1.0
 43
7.0
 44
1.0
 45
0.0
 46
0.0
 47
0.1
 48
0.1000000001
140
2.5
141
0.0
142
0.0
143
0.0393701
144
1.0
145
0.0
146
0.71
147
1.0
 71
     0
 72
     0
 73
     0
 74
     0
 75
     0
 76
     0
 77
     3
 78
     8
170
     0
171
     2
172
     0
173
     0
174
     0
175
     0
176
   256
177
   256
178
     4
  0
DIMSTYLE
  2
AM_JIS$6
 70
     0
  3

  4
"
  5

  6

  7

 40
1.0
 41
2.5
 42
1.0
 43
7.0
 44
1.0
 45
0.0
 46
0.0
 47
0.1
 48
0.1000000001
140
2.5
141
0.0
142
0.0
143
0.0393701
144
1.0
145
0.0
146
0.71
147
1.0
 71
     0
 72
     0
 73
     0
 74
     0
 75
     0
 76
     0
 77
     0
 78
     8
170
     0
171
     2
172
     1
173
     0
174
     0
175
     0
176
   256
177
   256
178
     4
  0
DIMSTYLE
  2
AM_JIS$7
 70
     0
  3

  4
"
  5

  6

  7

 40
1.0
 41
2.5
 42
1.0
 43
7.0
 44
1.0
 45
0.0
 46
0.0
 47
0.1
 48
0.1000000001
140
2.5
141
0.0
142
0.0
143
0.0393701
144
1.0
145
0.0
146
0.71
147
1.0
 71
     0
 72
     0
 73
     0
 74
     0
 75
     0
 76
     0
 77
     3
 78
     8
170
     0
171
     2
172
     1
173
     0
174
     0
175
     0
176
   256
177
   256
178
     4
  0
DIMSTYLE
  2
AM_JIS$SF
 70
     0
  3

  4
"
  5
OPEN30
  6
OPEN30
  7
OPEN30
 40
1.0
 41
2.5
 42
1.0
 43
10.0
 44
1.0
 45
0.0
 46
0.0
 47
0.1
 48
0.1
140
3.5
141
0.0
142
0.0
143
0.0393701
144
1.0
145
0.0
146
0.71
147
1.5
 71
     0
 72
     0
 73
     0
 74
     0
 75
     1
 76
     1
 77
     3
 78
     8
170
     0
171
     2
172
     1
173
     0
174
     0
175
     0
176
   256
177
   256
178
     4
  0
DIMSTYLE
  2
AM_JIS$SH
 70
     0
  3

  4
"
  5

  6
NONE
  7

 40
1.0
 41
2.5
 42
1.0
 43
10.0
 44
1.0
 45
0.0
 46
0.0
 47
0.1
 48
0.1
140
3.5
141
0.0
142
0.0
143
0.0393701
144
1.0
145
0.0
146
0.71
147
1.5
 71
     0
 72
     0
 73
     0
 74
     0
 75
     1
 76
     0
 77
     3
 78
     8
170
     0
171
     2
172
     1
173
     1
174
     0
175
     0
176
   256
177
   256
178
     4
  0
DIMSTYLE
  2
AM_ISO
 70
     0
  3

  4
"
  5

  6

  7

 40
1.0
 41
2.5
 42
1.0
 43
10.0
 44
1.0
 45
0.0
 46
0.0
 47
0.0
 48
0.000000001
140
3.0
141
0.0
142
0.0
143
0.0393701
144
1.0
145
0.0
146
0.71
147
1.299999999999998
 71
     1
 72
     0
 73
     0
 74
     0
 75
     0
 76
     0
 77
     1
 78
     8
170
     0
171
     2
172
     1
173
     0
174
     0
175
     0
176
   256
177
   256
178
     4
  0
DIMSTYLE
  2
AM_ISO$3
 70
     0
  3

  4
"
  5

  6

  7

 40
1.0
 41
2.5
 42
1.0
 43
10.0
 44
1.0
 45
0.0
 46
0.0
 47
0.0
 48
0.000000001
140
2.5
141
0.0
142
0.0
143
0.0393701
144
1.0
145
0.0
146
0.71
147
1.299999999999998
 71
     1
 72
     0
 73
     0
 74
     1
 75
     0
 76
     0
 77
     1
 78
     8
170
     0
171
     2
172
     0
173
     0
174
     0
175
     0
176
   256
177
   256
178
     4
  0
DIMSTYLE
  2
AM_ISO$4
 70
     0
  3

  4
"
  5

  6

  7

 40
1.0
 41
2.5
 42
1.0
 43
10.0
 44
1.0
 45
0.0
 46
0.0
 47
0.0
 48
0.000000001
140
2.5
141
0.0
142
0.0
143
0.0393701
144
1.0
145
0.0
146
0.71
147
1.299999999999998
 71
     1
 72
     0
 73
     0
 74
     1
 75
     0
 76
     0
 77
     1
 78
     8
170
     0
171
     2
172
     0
173
     0
174
     0
175
     0
176
   256
177
   256
178
     4
  0
DIMSTYLE
  2
AM_ISO$6
 70
     0
  3

  4
"
  5

  6

  7

 40
1.0
 41
2.5
 42
1.0
 43
10.0
 44
1.0
 45
0.0
 46
0.0
 47
0.0
 48
0.000000001
140
2.5
141
0.0
142
0.0
143
0.0393701
144
1.0
145
0.0
146
0.71
147
1.299999999999998
 71
     1
 72
     0
 73
     0
 74
     0
 75
     0
 76
     0
 77
     0
 78
     8
170
     0
171
     2
172
     1
173
     0
174
     0
175
     0
176
   256
177
   256
178
     4
  0
DIMSTYLE
  2
AM_ISO$7
 70
     0
  3

  4
"
  5

  6

  7

 40
1.0
 41
2.5
 42
1.0
 43
10.0
 44
1.0
 45
0.0
 46
0.0
 47
0.0
 48
0.000000001
140
2.5
141
0.0
142
0.0
143
0.0393701
144
1.0
145
0.0
146
0.71
147
1.299999999999998
 71
     1
 72
     0
 73
     0
 74
     0
 75
     0
 76
     0
 77
     1
 78
     8
170
     0
171
     2
172
     1
173
     0
174
     0
175
     0
176
   256
177
   256
178
     4
  0
DIMSTYLE
  2
AM_ISO$SF
 70
     0
  3

  4
"
  5

  6

  7

 40
1.0
 41
2.5
 42
1.0
 43
10.0
 44
1.0
 45
0.0
 46
0.0
 47
0.1
 48
0.1
140
3.5
141
0.0
142
0.0
143
0.0393701
144
1.0
145
0.0
146
0.71
147
1.5
 71
     0
 72
     0
 73
     0
 74
     0
 75
     1
 76
     1
 77
     1
 78
     8
170
     0
171
     2
172
     1
173
     0
174
     0
175
     0
176
   256
177
   256
178
     4
  0
DIMSTYLE
  2
AM_ISO$SH
 70
     0
  3

  4
"
  5

  6
GENAXEH
  7

 40
1.0
 41
2.5
 42
1.0
 43
10.0
 44
1.0
 45
0.0
 46
0.0
 47
0.1
 48
0.1
140
3.5
141
0.0
142
0.0
143
0.0393701
144
2.0
145
0.0
146
0.71
147
1.5
 71
     0
 72
     0
 73
     0
 74
     0
 75
     1
 76
     1
 77
     1
 78
     8
170
     0
171
     2
172
     1
173
     1
174
     0
175
     0
176
   256
177
   256
178
     4
  0
DIMSTYLE
  2
AM_JIS$0
 70
     0
  3

  4
"
  5

  6

  7

 40
1.0
 41
2.5
 42
1.0
 43
7.0
 44
1.0
 45
0.0
 46
0.0
 47
0.1
 48
0.1000000001
140
2.5
141
0.0
142
0.0
143
0.0393701
144
1.0
145
0.0
146
0.71
147
1.0
 71
     0
 72
     0
 73
     0
 74
     0
 75
     0
 76
     0
 77
     3
 78
     8
170
     0
171
     2
172
     1
173
     0
174
     0
175
     0
176
   256
177
   256
178
     4
  0
ENDTAB
  0
ENDSEC
  0
SECTION
  2
BLOCKS
  0
BLOCK
  8
0
  2
$MODEL_SPACE
 70
     0
 10
0.0
 20
0.0
 30
0.0
  3
$MODEL_SPACE
  1

  0
ENDBLK
  5
1A
  8
0
  0
BLOCK
 67
     1
  8
0
  2
$PAPER_SPACE
 70
     0
 10
0.0
 20
0.0
 30
0.0
  3
$PAPER_SPACE
  1

  0
ENDBLK
  5
17
 67
     1
  8
0
  0
BLOCK
  8
0
  2
_OPEN30
 70
     0
 10
0.0
 20
0.0
 30
0.0
  3
_OPEN30
  1

  0
LINE
  5
21C5
  8
0
 62
     0
 10
-1.0
 20
0.26794919
 30
0.0
 11
0.0
 21
0.0
 31
0.0
  0
LINE
  5
21C6
  8
0
 62
     0
 10
0.0
 20
0.0
 30
0.0
 11
-1.0
 21
-0.26794919
 31
0.0
  0
LINE
  5
21C7
  8
0
 62
     0
 10
0.0
 20
0.0
 30
0.0
 11
-1.0
 21
0.0
 31
0.0
  0
ENDBLK
  5
21C9
  8
0
  0
BLOCK
  8
0
  2
GENAXEH
 70
     0
 10
0.0
 20
0.0
 30
0.0
  3
GENAXEH
  1

  0
LINE
  5
21D0
  8
0
 10
-1.0
 20
0.0
 30
0.0
 11
1.0
 21
0.0
 31
0.0
  0
ENDBLK
  5
21D2
  8
0
  0
BLOCK
  8
0
  2
_NONE
 70
     0
 10
0.0
 20
0.0
 30
0.0
  3
_NONE
  1

  0
ENDBLK
  5
8193
  8
0
  0
BLOCK
  8
0
  2
NEW_BLOCK
 70
     0
 10
0.0
 20
0.0
 30
0.0
  3
NEW_BLOCK
  1

  0
LINE
  5
15FAB
  8
AM_0
 10
-0.899999999999977
 20
37.800000000000011
 30
0.0
 11
-0.899999999999977
 21
28.800000000000011
 31
0.0
  0
LINE
  5
15FAC
  8
AM_0
 10
-6.2999999999999527
 20
27.900000000000009
 30
0.0
 11
-6.2999999999999527
 21
38.700000000000031
 31
0.0
  0
LINE
  5
15FAD
  8
AM_0
 10
-0.899999999999977
 20
28.800000000000011
 30
0.0
 11
-6.2999999999999527
 21
28.800000000000011
 31
0.0
  0
LINE
  5
15FAE
  8
AM_0
 10
0.0
 20
27.900000000000009
 30
0.0
 11
-6.2999999999999527
 21
27.900000000000009
 31
0.0
  0
LINE
  5
15FAF
  8
AM_0
 10
-6.2999999999999527
 20
37.800000000000011
 30
0.0
 11
-0.899999999999977
 21
37.800000000000011
 31
0.0
  0
LINE
  5
15FB0
  8
AM_0
 10
0.0
 20
38.700000000000031
 30
0.0
 11
-6.2999999999999527
 21
38.700000000000031
 31
0.0
  0
LINE
  5
15FB1
  8
AM_0
 10
-6.2999999999999527
 20
-27.900000000000009
 30
0.0
 11
-6.2999999999999527
 21
-38.700000000000031
 31
0.0
  0
LINE
  5
15FB2
  8
AM_0
 10
-0.899999999999977
 20
-37.800000000000011
 30
0.0
 11
-0.899999999999977
 21
-28.800000000000011
 31
0.0
  0
LINE
  5
15FB3
  8
AM_0
 10
0.0
 20
-38.700000000000031
 30
0.0
 11
-6.2999999999999527
 21
-38.700000000000031
 31
0.0
  0
LINE
  5
15FB4
  8
AM_0
 10
-6.2999999999999527
 20
-37.800000000000011
 30
0.0
 11
-0.899999999999977
 21
-37.800000000000011
 31
0.0
  0
LINE
  5
15FB5
  8
AM_0
 10
0.0
 20
-27.900000000000009
 30
0.0
 11
-6.2999999999999527
 21
-27.900000000000009
 31
0.0
  0
LINE
  5
15FB6
  8
AM_0
 10
-0.899999999999977
 20
-28.800000000000011
 30
0.0
 11
-6.2999999999999527
 21
-28.800000000000011
 31
0.0
  0
ENDBLK
  5
15FB8
  8
0
  0
ENDSEC
  0
SECTION
  2
ENTITIES
  0
POINT
  5
1B94
  8
0
 10
0.0
 20
0.0
 30
0.0
1001
GENIUS_GENODEF_13
1002
{
1000
HIER
1070
     1
1002
}
1002
{
1000
MANEDIT
1070
     0
1002
}
1002
{
1000
NOSEL
1070
     0
1002
}
1002
{
1000
BEHIND
1070
     0
1002
}
1002
{
1000
REACTOR
1002
}
1001
GENIUS_GENOBJ-N-SDF_13
1002
{
1000
OWNER
1000
GEN
1002
}
1001
GENIUS_GENOENT_13
1002
{
1000
MYREF
1005
1B94
1002
}
1002
{
1000
GRP
1005
0
1002
}
1001
GENIUS_GENOLIS_13
1002
{
1000
ENT
1005
89
1002
}
  0
LINE
  5
15EB9
  8
0
  6
CONTINUOUS
 62
     7
 10
459.35509101176621
 20
209.4783732865825
 30
0.0
 11
408.04585639262558
 21
209.4783732865825
 31
0.0
  0
LINE
  5
15EBB
  8
0
  6
CONTINUOUS
 62
     7
 10
459.35509101176621
 20
325.4783732865825
 30
0.0
 11
408.04585639262558
 21
325.4783732865825
 31
0.0
  0
LINE
  5
15EBD
  8
0
  6
CONTINUOUS
 62
     7
 10
544.84703437114115
 20
245.97030138716829
 30
0.0
 11
544.84703437114115
 21
288.98644518599639
 31
0.0
  0
LINE
  5
15EBE
  8
0
  6
CONTINUOUS
 62
     7
 10
521.64821234965666
 20
325.4783732865825
 30
0.0
 11
490.33897773051638
 21
325.4783732865825
 31
0.0
  0
ARC
  5
15EBF
  8
0
  6
CONTINUOUS
 62
     7
 10
543.84703437114126
 20
304.47837328658238
 30
0.0
 40
10.999999999999989
 50
198.43494865478681
 51
255.52248765290841
  0
ARC
  5
15EC0
  8
0
  6
CONTINUOUS
 62
     7
 10
539.84703437114115
 20
288.98644518599639
 30
0.0
 40
5.000000000000016
 50
359.99999499104308
 51
75.522489474143015
  0
ARC
  5
15EC1
  8
0
  6
CONTINUOUS
 62
     7
 10
521.64821234965666
 20
320.47837328658238
 30
0.0
 40
5.0000000000000107
 50
18.434948768476399
 51
89.999997495521541
  0
LINE
  5
15EC2
  8
0
  6
CONTINUOUS
 62
     7
 10
533.41151801371961
 20
300.9998729203715
 30
0.0
 11
526.3916510703599
 21
322.05951189742223
 31
0.0
  0
LINE
  5
15EC3
  8
0
  6
CONTINUOUS
 62
     7
 10
543.84703437114126
 20
307.94246935591832
 30
0.0
 11
540.84703437114149
 21
306.21042895064488
 31
0.0
  0
LINE
  5
15EC4
  8
0
  6
CONTINUOUS
 62
     7
 10
543.84703437114126
 20
301.01427721724639
 30
0.0
 11
540.84703437114149
 21
302.74631762251983
 31
0.0
  0
CIRCLE
  5
15EC5
  8
0
  6
CONTINUOUS
 62
     7
 10
543.84703437114126
 20
304.47837328658238
 30
0.0
 40
4.9999999999999991
  0
ARC
  5
15EC6
  8
0
  6
CONTINUOUS
 62
     7
 10
543.84703437114126
 20
304.47837328658238
 30
0.0
 40
5.5000000000000044
 50
89.999997495521541
 51
270.00000250447852
  0
LINE
  5
15EC7
  8
0
  6
CONTINUOUS
 62
     7
 10
546.84703437114126
 20
302.74631762251983
 30
0.0
 11
546.84703437114126
 21
306.21042895064488
 31
0.0
  0
LINE
  5
15EC8
  8
0
  6
CONTINUOUS
 62
     7
 10
550.84703437114126
 20
309.97837328658238
 30
0.0
 11
543.84703437114126
 21
309.97837328658238
 31
0.0
  0
LINE
  5
15EC9
  8
0
  6
CONTINUOUS
 62
     7
 10
546.84703437114126
 20
306.21042895064488
 30
0.0
 11
543.84703437114126
 21
307.94246935591832
 31
0.0
  0
LINE
  5
15ECA
  8
0
  6
CONTINUOUS
 62
     7
 10
550.84703437114126
 20
298.97837328658233
 30
0.0
 11
543.84703437114126
 21
298.97837328658233
 31
0.0
  0
LINE
  5
15ECB
  8
0
  6
CONTINUOUS
 62
     7
 10
546.84703437114126
 20
302.74631762251983
 30
0.0
 11
543.84703437114126
 21
301.01427721724639
 31
0.0
  0
LINE
  5
15ECC
  8
0
  6
CONTINUOUS
 62
     7
 10
540.84703437114149
 20
302.74631762251983
 30
0.0
 11
540.84703437114149
 21
306.21042895064488
 31
0.0
  0
ARC
  5
15ECD
  8
0
  6
CONTINUOUS
 62
     7
 10
474.84703437114149
 20
324.47837328658233
 30
0.0
 40
11.0
 50
194.47751143647409
 51
345.52249015738431
  0
LINE
  5
15ECE
  8
0
  6
CONTINUOUS
 62
     7
 10
476.57909003520388
 20
321.47837328658233
 30
0.0
 11
473.11497870707871
 21
321.47837328658233
 31
0.0
  0
LINE
  5
15ECF
  8
0
  6
CONTINUOUS
 62
     7
 10
476.57909003520388
 20
327.47837328658233
 30
0.0
 11
473.11497870707871
 21
327.47837328658233
 31
0.0
  0
CIRCLE
  5
15ED0
  8
0
  6
CONTINUOUS
 62
     7
 10
474.84703437114149
 20
324.47837328658233
 30
0.0
 40
4.9999999999999991
  0
ARC
  5
15ED1
  8
0
  6
CONTINUOUS
 62
     7
 10
474.84703437114149
 20
324.47837328658233
 30
0.0
 40
5.4999999999999991
 50
180.0
 51
0.0000050089536519
  0
LINE
  5
15ED2
  8
0
  6
CONTINUOUS
 62
     7
 10
480.34703437114132
 20
331.47837328658238
 30
0.0
 11
480.34703437114132
 21
324.47837328658233
 31
0.0
  0
LINE
  5
15ED3
  8
0
  6
CONTINUOUS
 62
     7
 10
476.57909003520388
 20
327.47837328658233
 30
0.0
 11
478.31114569926638
 21
324.47837328658233
 31
0.0
  0
ARC
  5
15ED4
  8
0
  6
CONTINUOUS
 62
     7
 10
490.33897773051638
 20
320.47837328658238
 30
0.0
 40
5.0000000000000018
 50
89.999997495521541
 51
165.5224885635258
  0
LINE
  5
15ED5
  8
0
  6
CONTINUOUS
 62
     7
 10
478.31114569926638
 20
324.47837328658233
 30
0.0
 11
476.57909003520388
 21
321.47837328658233
 31
0.0
  0
LINE
  5
15ED6
  8
0
  6
CONTINUOUS
 62
     7
 10
469.34703437114149
 20
331.47837328658238
 30
0.0
 11
469.34703437114149
 21
324.47837328658233
 31
0.0
  0
LINE
  5
15ED7
  8
0
  6
CONTINUOUS
 62
     7
 10
473.11497870707871
 20
327.47837328658233
 30
0.0
 11
471.38292304301621
 21
324.47837328658233
 31
0.0
  0
ARC
  5
15ED8
  8
0
  6
CONTINUOUS
 62
     7
 10
459.35509101176621
 20
320.47837328658238
 30
0.0
 40
5.0000000000000089
 50
14.477509842612401
 51
89.999997495521541
  0
LINE
  5
15ED9
  8
0
  6
CONTINUOUS
 62
     7
 10
471.38292304301621
 20
324.47837328658233
 30
0.0
 11
473.11497870707871
 21
321.47837328658233
 31
0.0
  0
LINE
  5
15EDA
  8
0
  6
CONTINUOUS
 62
     7
 10
521.64821234965666
 20
209.4783732865825
 30
0.0
 11
490.33897773051638
 21
209.4783732865825
 31
0.0
  0
ARC
  5
15EDB
  8
0
  6
CONTINUOUS
 62
     7
 10
521.64821234965666
 20
214.47837328658241
 30
0.0
 40
5.0000000000000018
 50
270.00000250447852
 51
341.56505123152363
  0
LINE
  5
15EDC
  8
0
  6
CONTINUOUS
 62
     7
 10
543.84703437114126
 20
227.0142772172465
 30
0.0
 11
540.84703437114149
 21
228.74631762252
 31
0.0
  0
LINE
  5
15EDD
  8
0
  6
CONTINUOUS
 62
     7
 10
546.84703437114126
 20
228.74631762252
 30
0.0
 11
543.84703437114126
 21
227.0142772172465
 31
0.0
  0
ARC
  5
15EDE
  8
0
  6
CONTINUOUS
 62
     7
 10
543.84703437114126
 20
230.4783732865825
 30
0.0
 40
5.5000000000000044
 50
89.999997495521541
 51
270.00000250447852
  0
CIRCLE
  5
15EDF
  8
0
  6
CONTINUOUS
 62
     7
 10
543.84703437114126
 20
230.4783732865825
 30
0.0
 40
4.9999999999999991
  0
LINE
  5
15EE0
  8
0
  6
CONTINUOUS
 62
     7
 10
533.41151801371961
 20
233.95687365279329
 30
0.0
 11
526.3916510703599
 21
212.89724230513701
 31
0.0
  0
LINE
  5
15EE1
  8
0
  6
CONTINUOUS
 62
     7
 10
543.84703437114126
 20
233.94246935591829
 30
0.0
 11
540.84703437114149
 21
232.2104289506448
 31
0.0
  0
ARC
  5
15EE2
  8
0
  6
CONTINUOUS
 62
     7
 10
543.84703437114126
 20
230.4783732865825
 30
0.0
 40
10.999999999999989
 50
104.4775123470916
 51
161.56505134521319
  0
ARC
  5
15EE3
  8
0
  6
CONTINUOUS
 62
     7
 10
539.84703437114115
 20
245.97030138716821
 30
0.0
 40
5.0000000000000044
 50
284.4775105258571
 51
0.0000050089536519
  0
LINE
  5
15EE4
  8
0
  6
CONTINUOUS
 62
     7
 10
550.84703437114126
 20
235.9783732865825
 30
0.0
 11
543.84703437114126
 21
235.9783732865825
 31
0.0
  0
LINE
  5
15EE5
  8
0
  6
CONTINUOUS
 62
     7
 10
546.84703437114126
 20
228.74631762252
 30
0.0
 11
546.84703437114126
 21
232.2104289506448
 31
0.0
  0
LINE
  5
15EE6
  8
0
  6
CONTINUOUS
 62
     7
 10
546.84703437114126
 20
232.2104289506448
 30
0.0
 11
543.84703437114126
 21
233.94246935591829
 31
0.0
  0
LINE
  5
15EE7
  8
0
  6
CONTINUOUS
 62
     7
 10
540.84703437114149
 20
228.74631762252
 30
0.0
 11
540.84703437114149
 21
232.2104289506448
 31
0.0
  0
LINE
  5
15EE8
  8
0
  6
CONTINUOUS
 62
     7
 10
550.84703437114126
 20
224.97837328658241
 30
0.0
 11
543.84703437114126
 21
224.97837328658241
 31
0.0
  0
CIRCLE
  5
15EE9
  8
0
  6
CONTINUOUS
 62
     7
 10
474.84703437114149
 20
210.4783732865825
 30
0.0
 40
4.9999999999999991
  0
ARC
  5
15EEA
  8
0
  6
CONTINUOUS
 62
     7
 10
474.84703437114149
 20
210.4783732865825
 30
0.0
 40
5.5000000000000178
 50
0.0000050089536519
 51
180.00001001791051
  0
LINE
  5
15EEB
  8
0
  6
CONTINUOUS
 62
     7
 10
480.34703437114132
 20
203.4783732865825
 30
0.0
 11
480.34703437114132
 21
210.4783732865825
 31
0.0
  0
LINE
  5
15EEC
  8
0
  6
CONTINUOUS
 62
     7
 10
469.34703437114149
 20
203.4783732865825
 30
0.0
 11
469.34703437114149
 21
210.4783732865825
 31
0.0
  0
LINE
  5
15EED
  8
0
  6
CONTINUOUS
 62
     7
 10
476.57909003520388
 20
213.4783732865825
 30
0.0
 11
473.11497870707871
 21
213.4783732865825
 31
0.0
  0
LINE
  5
15EEE
  8
0
  6
CONTINUOUS
 62
     7
 10
476.57909003520388
 20
207.4783732865825
 30
0.0
 11
473.11497870707871
 21
207.4783732865825
 31
0.0
  0
ARC
  5
15EEF
  8
0
  6
CONTINUOUS
 62
     7
 10
474.84703437114149
 20
210.4783732865825
 30
0.0
 40
11.0
 50
14.47750984261552
 51
165.5224885635258
  0
ARC
  5
15EF0
  8
0
  6
CONTINUOUS
 62
     7
 10
490.33897773051638
 20
214.47837328658241
 30
0.0
 40
5.0000000000000213
 50
194.47751143647409
 51
270.00000250447852
  0
LINE
  5
15EF1
  8
0
  6
CONTINUOUS
 62
     7
 10
476.57909003520388
 20
207.4783732865825
 30
0.0
 11
478.31114569926638
 21
210.4783732865825
 31
0.0
  0
LINE
  5
15EF2
  8
0
  6
CONTINUOUS
 62
     7
 10
478.31114569926638
 20
210.4783732865825
 30
0.0
 11
476.57909003520388
 21
213.4783732865825
 31
0.0
  0
LINE
  5
15EF3
  8
0
  6
CONTINUOUS
 62
     7
 10
473.11497870707871
 20
207.4783732865825
 30
0.0
 11
471.38292304301621
 21
210.4783732865825
 31
0.0
  0
LINE
  5
15EF4
  8
0
  6
CONTINUOUS
 62
     7
 10
471.38292304301621
 20
210.4783732865825
 30
0.0
 11
473.11497870707871
 21
213.4783732865825
 31
0.0
  0
ARC
  5
15EF5
  8
0
  6
CONTINUOUS
 62
     7
 10
459.35509101176621
 20
214.47837328658241
 30
0.0
 40
5.0000000000000018
 50
270.00000250447852
 51
345.52249015738761
  0
LINE
  5
15EF6
  8
0
  6
CONTINUOUS
 62
     7
 10
384.84703437114138
 20
245.97030138716829
 30
0.0
 11
384.84703437114138
 21
288.98644518599639
 31
0.0
  0
ARC
  5
15EF7
  8
0
  6
CONTINUOUS
 62
     7
 10
389.84703437114149
 20
288.98644518599639
 30
0.0
 40
4.999999999999984
 50
104.4775123470916
 51
180.0
  0
ARC
  5
15EF8
  8
0
  6
CONTINUOUS
 62
     7
 10
385.84703437114138
 20
304.47837328658238
 30
0.0
 40
10.999999999999989
 50
284.4775105258571
 51
341.56505123152363
  0
ARC
  5
15EF9
  8
0
  6
CONTINUOUS
 62
     7
 10
385.84703437114138
 20
304.47837328658238
 30
0.0
 40
5.5000000000000044
 50
270.00000250447852
 51
90.000000683246256
  0
LINE
  5
15EFA
  8
0
  6
CONTINUOUS
 62
     7
 10
403.30244818950081
 20
322.05951189742223
 30
0.0
 11
396.28255072856331
 21
300.9998729203715
 31
0.0
  0
ARC
  5
15EFB
  8
0
  6
CONTINUOUS
 62
     7
 10
408.04585639262558
 20
320.47837328658238
 30
0.0
 40
5.0000000000000018
 50
89.999997495521541
 51
161.56505134521319
  0
LINE
  5
15EFC
  8
0
  6
CONTINUOUS
 62
     7
 10
388.84703437114138
 20
302.74631762251983
 30
0.0
 11
388.84703437114138
 21
306.21042895064488
 31
0.0
  0
LINE
  5
15EFD
  8
0
  6
CONTINUOUS
 62
     7
 10
382.84703437114138
 20
302.74631762251983
 30
0.0
 11
382.84703437114138
 21
306.21042895064488
 31
0.0
  0
CIRCLE
  5
15EFE
  8
0
  6
CONTINUOUS
 62
     7
 10
385.84703437114138
 20
304.47837328658238
 30
0.0
 40
4.9999999999999991
  0
LINE
  5
15EFF
  8
0
  6
CONTINUOUS
 62
     7
 10
378.84703437114138
 20
309.97837328658238
 30
0.0
 11
385.84703437114138
 21
309.97837328658238
 31
0.0
  0
LINE
  5
15F00
  8
0
  6
CONTINUOUS
 62
     7
 10
388.84703437114138
 20
306.21042895064488
 30
0.0
 11
385.84703437114138
 21
307.94246935591832
 31
0.0
  0
LINE
  5
15F01
  8
0
  6
CONTINUOUS
 62
     7
 10
385.84703437114138
 20
307.94246935591832
 30
0.0
 11
382.84703437114138
 21
306.21042895064488
 31
0.0
  0
LINE
  5
15F02
  8
0
  6
CONTINUOUS
 62
     7
 10
378.84703437114138
 20
298.97837328658233
 30
0.0
 11
385.84703437114138
 21
298.97837328658233
 31
0.0
  0
LINE
  5
15F03
  8
0
  6
CONTINUOUS
 62
     7
 10
388.84703437114138
 20
302.74631762251983
 30
0.0
 11
385.84703437114138
 21
301.01427721724639
 31
0.0
  0
LINE
  5
15F04
  8
0
  6
CONTINUOUS
 62
     7
 10
385.84703437114138
 20
301.01427721724639
 30
0.0
 11
382.84703437114138
 21
302.74631762251983
 31
0.0
  0
ARC
  5
15F05
  8
0
  6
CONTINUOUS
 62
     7
 10
385.84703437114138
 20
230.4783732865825
 30
0.0
 40
11.000000000000011
 50
18.434948768476399
 51
75.522489474143015
  0
ARC
  5
15F06
  8
0
  6
CONTINUOUS
 62
     7
 10
385.84703437114138
 20
230.4783732865825
 30
0.0
 40
5.5000000000000044
 50
270.00000250447852
 51
90.000000683246256
  0
LINE
  5
15F07
  8
0
  6
CONTINUOUS
 62
     7
 10
403.30244818950081
 20
212.89724230513701
 30
0.0
 11
396.28255072856331
 21
233.95687365279329
 31
0.0
  0
ARC
  5
15F08
  8
0
  6
CONTINUOUS
 62
     7
 10
408.04585639262558
 20
214.47837328658241
 30
0.0
 40
4.999999999999984
 50
198.43494865478681
 51
270.00000250447852
  0
LINE
  5
15F09
  8
0
  6
CONTINUOUS
 62
     7
 10
388.84703437114138
 20
228.74631762252
 30
0.0
 11
385.84703437114138
 21
227.0142772172465
 31
0.0
  0
LINE
  5
15F0A
  8
0
  6
CONTINUOUS
 62
     7
 10
385.84703437114138
 20
227.0142772172465
 30
0.0
 11
382.84703437114138
 21
228.74631762252
 31
0.0
  0
CIRCLE
  5
15F0B
  8
0
  6
CONTINUOUS
 62
     7
 10
385.84703437114138
 20
230.4783732865825
 30
0.0
 40
4.9999999999999991
  0
ARC
  5
15F0C
  8
0
  6
CONTINUOUS
 62
     7
 10
389.84703437114149
 20
245.97030138716829
 30
0.0
 40
4.9999999999999991
 50
180.0
 51
255.52248765290841
  0
LINE
  5
15F0D
  8
0
  6
CONTINUOUS
 62
     7
 10
378.84703437114138
 20
235.9783732865825
 30
0.0
 11
385.84703437114138
 21
235.9783732865825
 31
0.0
  0
LINE
  5
15F0E
  8
0
  6
CONTINUOUS
 62
     7
 10
382.84703437114138
 20
228.74631762252
 30
0.0
 11
382.84703437114138
 21
232.2104289506448
 31
0.0
  0
LINE
  5
15F0F
  8
0
  6
CONTINUOUS
 62
     7
 10
388.84703437114138
 20
228.74631762252
 30
0.0
 11
388.84703437114138
 21
232.2104289506448
 31
0.0
  0
LINE
  5
15F10
  8
0
  6
CONTINUOUS
 62
     7
 10
388.84703437114138
 20
232.2104289506448
 30
0.0
 11
385.84703437114138
 21
233.94246935591829
 31
0.0
  0
LINE
  5
15F11
  8
0
  6
CONTINUOUS
 62
     7
 10
385.84703437114138
 20
233.94246935591829
 30
0.0
 11
382.84703437114138
 21
232.2104289506448
 31
0.0
  0
LINE
  5
15F12
  8
0
  6
CONTINUOUS
 62
     7
 10
378.84703437114138
 20
224.97837328658241
 30
0.0
 11
385.84703437114138
 21
224.97837328658241
 31
0.0
  0
LINE
  5
177B1
  8
ﾁｭｳｼﾝｾﾝ1
 10
808.29199720371082
 20
267.47837092838688
 30
0.0
 11
372.59703249359529
 21
267.47837092838671
 31
0.0
  0
LINE
  5
177B2
  8
AM_0
 10
538.84706777954614
 20
331.47837283573563
 30
0.0
 11
390.84703285122339
 21
331.47837283573563
 31
0.0
  0
LINE
  5
177B3
  8
AM_0
 10
538.84706777954614
 20
203.47836902103839
 30
0.0
 11
390.84703285122339
 21
203.47836902103839
 31
0.0
  0
CIRCLE
  5
177B4
  8
AM_0
 10
441.84703437114149
 20
267.47837092838688
 30
0.0
 40
37.500001117587097
  0
LINE
  5
177B5
  8
ﾁｭｳｼﾝｾﾝ1
 10
441.84703437114149
 20
337.72837283573529
 30
0.0
 11
441.84703437114149
 21
197.22836902103811
 31
0.0
  0
ARC
  5
177B6
  8
AM_0
 10
164.68854161117079
 20
267.47837092838131
 30
0.0
 40
397.24800335175252
 50
353.33928567968309
 51
6.6607143203168917
  0
LINE
  5
177B7
  8
AM_0
 10
558.93654496292356
 20
313.20708956648099
 30
0.0
 11
558.93654496292231
 21
221.749652290293
 31
0.0
  0
LINE
  5
177B8
  8
AM_0
 10
577.34706813717378
 20
328.97836092838719
 30
0.0
 11
577.34706813717378
 21
205.97838092838691
 31
0.0
  0
LINE
  5
177B9
  8
AM_0
 10
588.34706813717355
 20
203.97840592838679
 30
0.0
 11
588.34706813717355
 21
330.97836592838621
 31
0.0
  0
LINE
  5
177BA
  8
AM_0
 10
550.84706813717355
 20
319.47837247810781
 30
0.0
 11
550.84706813717355
 21
215.47836937866609
 31
0.0
  0
LINE
  5
177BC
  8
AM_0
 10
556.27553378348728
 20
218.749652290293
 30
0.0
 11
551.84706813717355
 21
218.749652290293
 31
0.0
  0
ARC
  5
177BD
  8
AM_0
 10
538.84706777954614
 20
215.47836937866609
 30
0.0
 40
12.00000035762791
 50
269.999999316757
 51
359.99999499104308
  0
LINE
  5
177BE
  8
AM_0
 10
575.22048405969997
 20
205.97838092838691
 30
0.0
 11
547.13864518860998
 21
205.97838092838731
 31
0.0
  0
LINE
  5
177BF
  8
AM_0
 10
588.34706813717355
 20
203.97840592838679
 30
0.0
 11
579.22046530957823
 21
203.97840592838679
 31
0.0
  0
LINE
  5
177C0
  8
AM_0
 10
588.34706813717355
 20
230.3383909283871
 30
0.0
 11
578.34706813717378
 21
230.3383909283871
 31
0.0
  0
LINE
  5
177C1
  8
AM_0
 10
588.34706813717355
 20
215.43838092838701
 30
0.0
 11
578.34706813717378
 21
215.43838092838701
 31
0.0
  0
LINE
  5
177C2
  8
AM_0
 10
588.34710940382411
 20
230.33838092840949
 30
0.0
 11
578.34710940383025
 21
230.3383698172982
 31
0.0
  0
LINE
  5
177C3
  8
AM_0
 10
588.34712595939095
 20
215.43837092841861
 30
0.0
 11
578.34712595939732
 21
215.43835981730729
 31
0.0
  0
ARC
  5
177C4
  8
AM_0
 10
579.22046530957823
 20
206.97840592838671
 30
0.0
 40
2.9999999999999978
 50
216.87025574530239
 51
270.0
1001
GENIUS_GENOBJ-N-FIL_13
1002
{
1000
OWNER
1000
GEN
1002
}
1001
GENIUS_GENODEF_13
1002
{
1000
HIER
1070
     0
1002
}
1002
{
1000
MANEDIT
1070
     0
1002
}
1002
{
1000
NOSEL
1070
     0
1002
}
1002
{
1000
BEHIND
1070
     0
1002
}
1002
{
1000
OTHER
1070
     0
1002
}
1002
{
1000
REACTOR
1002
}
  0
ARC
  5
177C5
  8
AM_0
 10
575.22048405969997
 20
203.97838092838691
 30
0.0
 40
2.0
 50
36.87025574530243
 51
90.0
1001
GENIUS_GENODEF_13
1002
{
1000
HIER
1070
     0
1002
}
1002
{
1000
MANEDIT
1070
     0
1002
}
1002
{
1000
NOSEL
1070
     0
1002
}
1002
{
1000
BEHIND
1070
     0
1002
}
1002
{
1000
OTHER
1070
     0
1002
}
1002
{
1000
REACTOR
1002
}
1001
GENIUS_GENOBJ-N-FIL_13
1002
{
1000
OWNER
1000
GEN
1002
}
  0
ARC
  5
177C6
  8
AM_0
 10
556.27553378348728
 20
221.749652290293
 30
0.0
 40
2.9999999999999978
 50
270.0
 51
353.33928567968309
1001
GENIUS_GENOBJ-N-FIL_13
1002
{
1000
OWNER
1000
GEN
1002
}
1001
GENIUS_GENODEF_13
1002
{
1000
HIER
1070
     0
1002
}
1002
{
1000
MANEDIT
1070
     0
1002
}
1002
{
1000
NOSEL
1070
     0
1002
}
1002
{
1000
BEHIND
1070
     0
1002
}
1002
{
1000
OTHER
1070
     0
1002
}
1002
{
1000
REACTOR
1002
}
  0
LINE
  5
177CA
  8
ﾁｭｳｼﾝｾﾝ1
 10
538.84706777954614
 20
223.97836963198591
 30
0.0
 11
538.84706777954614
 21
206.97836912534649
 31
0.0
  0
ARC
  5
177CB
  8
AM_0
 10
547.13864518860987
 20
202.97838092838739
 30
0.0
 40
2.9999999999999978
 50
90.0
 51
123.5573788631699
1001
GENIUS_GENOBJ-N-FIL_13
1002
{
1000
OWNER
1000
GEN
1002
}
1001
GENIUS_GENODEF_13
1002
{
1000
HIER
1070
     0
1002
}
1002
{
1000
MANEDIT
1070
     0
1002
}
1002
{
1000
NOSEL
1070
     0
1002
}
1002
{
1000
BEHIND
1070
     0
1002
}
1002
{
1000
OTHER
1070
     0
1002
}
1002
{
1000
REACTOR
1002
}
  0
LINE
  5
177CC
  8
ﾁｭｳｼﾝｾﾝ1
 10
547.34706803286565
 20
215.47836937866609
 30
0.0
 11
530.34703700864713
 21
215.47836937866609
 31
0.0
  0
CIRCLE
  5
177CE
  8
AM_0
 10
538.84706777954614
 20
215.47836937866609
 30
0.0
 40
5.5000001639127731
  0
LINE
  5
177CF
  8
AM_0
 10
556.27553378348603
 20
316.20708956648122
 30
0.0
 11
551.84706813717355
 21
316.20708956648087
 31
0.0
  0
ARC
  5
177D0
  8
AM_0
 10
538.84706777954614
 20
319.47837247810781
 30
0.0
 40
12.000000357627879
 50
359.99999499104308
 51
89.999997495524809
  0
LINE
  5
177D1
  8
AM_0
 10
575.22046155958355
 20
328.97836092838708
 30
0.0
 11
547.13864518860987
 21
328.97836092838662
 31
0.0
  0
LINE
  5
177D2
  8
AM_0
 10
588.34706813717355
 20
304.6183509283868
 30
0.0
 11
578.34706813717378
 21
304.6183509283868
 31
0.0
  0
ARC
  5
177D3
  8
AM_0
 10
556.27553378348603
 20
313.20708956648122
 30
0.0
 40
2.9999999999999978
 50
6.6607143203168917
 51
90.0
1001
GENIUS_GENODEF_13
1002
{
1000
HIER
1070
     0
1002
}
1002
{
1000
MANEDIT
1070
     0
1002
}
1002
{
1000
NOSEL
1070
     0
1002
}
1002
{
1000
BEHIND
1070
     0
1002
}
1002
{
1000
OTHER
1070
     0
1002
}
1002
{
1000
REACTOR
1002
}
1001
GENIUS_GENOBJ-N-FIL_13
1002
{
1000
OWNER
1000
GEN
1002
}
  0
LINE
  5
177D4
  8
AM_0
 10
588.34706813717355
 20
319.51836092838693
 30
0.0
 11
578.34706813717378
 21
319.51836092838693
 31
0.0
  0
LINE
  5
177D5
  8
AM_0
 10
588.34706813717355
 20
330.97836592838661
 30
0.0
 11
579.22046530957823
 21
330.97836592838661
 31
0.0
  0
ARC
  5
177D6
  8
AM_0
 10
579.22046530957823
 20
327.97836592838661
 30
0.0
 40
2.9999999999999978
 50
90.0
 51
143.1301739738407
1001
GENIUS_GENOBJ-N-FIL_13
1002
{
1000
OWNER
1000
GEN
1002
}
1001
GENIUS_GENODEF_13
1002
{
1000
HIER
1070
     0
1002
}
1002
{
1000
MANEDIT
1070
     0
1002
}
1002
{
1000
NOSEL
1070
     0
1002
}
1002
{
1000
BEHIND
1070
     0
1002
}
1002
{
1000
OTHER
1070
     0
1002
}
1002
{
1000
REACTOR
1002
}
  0
ARC
  5
177D7
  8
AM_0
 10
575.22046155958333
 20
330.97836092838708
 30
0.0
 40
2.0
 50
270.0
 51
323.13017397384078
1001
GENIUS_GENODEF_13
1002
{
1000
HIER
1070
     0
1002
}
1002
{
1000
MANEDIT
1070
     0
1002
}
1002
{
1000
NOSEL
1070
     0
1002
}
1002
{
1000
BEHIND
1070
     0
1002
}
1002
{
1000
OTHER
1070
     0
1002
}
1002
{
1000
REACTOR
1002
}
1001
GENIUS_GENOBJ-N-FIL_13
1002
{
1000
OWNER
1000
GEN
1002
}
  0
LINE
  5
177D9
  8
ﾁｭｳｼﾝｾﾝ1
 10
538.84706777954614
 20
327.97837273142733
 30
0.0
 11
538.84706777954614
 21
310.97837222478807
 31
0.0
  0
CIRCLE
  5
177DA
  8
AM_0
 10
538.84706777954614
 20
319.47837247810781
 30
0.0
 40
5.5000001639127731
  0
LINE
  5
177DD
  8
ﾁｭｳｼﾝｾﾝ1
 10
547.34706803286565
 20
319.47837247810781
 30
0.0
 11
530.34703700864713
 21
319.47837247810781
 31
0.0
  0
ARC
  5
177DE
  8
AM_0
 10
547.13864518860987
 20
331.97836092838662
 30
0.0
 40
2.9999999999999978
 50
236.4426211368301
 51
270.0
1001
GENIUS_GENOBJ-N-FIL_13
1002
{
1000
OWNER
1000
GEN
1002
}
1001
GENIUS_GENODEF_13
1002
{
1000
HIER
1070
     0
1002
}
1002
{
1000
MANEDIT
1070
     0
1002
}
1002
{
1000
NOSEL
1070
     0
1002
}
1002
{
1000
BEHIND
1070
     0
1002
}
1002
{
1000
OTHER
1070
     0
1002
}
1002
{
1000
REACTOR
1002
}
  0
LINE
  5
177E0
  8
AM_0
 10
378.84703249359529
 20
319.47837247810781
 30
0.0
 11
378.84703249359529
 21
215.47836937866609
 31
0.0
  0
ARC
  5
177E3
  8
AM_0
 10
390.84703285122339
 20
215.47836937866609
 30
0.0
 40
12.000000357627879
 50
180.0
 51
270.0000025044817
  0
LINE
  5
177E4
  8
ﾁｭｳｼﾝｾﾝ1
 10
399.34703310454302
 20
215.47836937866609
 30
0.0
 11
382.34703259790342
 21
215.47836937866609
 31
0.0
  0
CIRCLE
  5
177E5
  8
AM_0
 10
390.84703285122339
 20
215.47836937866609
 30
0.0
 40
5.5000001639127731
  0
LINE
  5
177E7
  8
ﾁｭｳｼﾝｾﾝ1
 10
390.84703285122339
 20
223.97836963198591
 30
0.0
 11
390.84703285122339
 21
206.97836912534649
 31
0.0
  0
LINE
  5
177E9
  8
ﾁｭｳｼﾝｾﾝ1
 10
390.84703285122339
 20
327.97837273142733
 30
0.0
 11
390.84703285122339
 21
310.97837222478807
 31
0.0
  0
CIRCLE
  5
177EA
  8
AM_0
 10
390.84703285122339
 20
319.47837247810781
 30
0.0
 40
5.5000001639127731
  0
ARC
  5
177ED
  8
AM_0
 10
390.84703285122339
 20
319.47837247810781
 30
0.0
 40
12.00000035762787
 50
89.999997495524809
 51
180.0
  0
LINE
  5
177EE
  8
ﾁｭｳｼﾝｾﾝ1
 10
399.34703310454302
 20
319.47837247810781
 30
0.0
 11
382.34703259790342
 21
319.47837247810781
 31
0.0
  0
INSERT
  5
177F0
  8
AM_0
  2
NEW_BLOCK
 10
225.7940825448226
 20
267.47837092838699
 30
0.0
 41
1.1111111111110841
 42
1.1111111111110841
 43
1.1111111111110841
  0
ARC
  5
177F1
  8
AM_0
 10
176.77717108450929
 20
267.46837092838689
 30
0.0
 40
64.003665999999996
 50
145.87476838391359
 51
214.12523161608701
  0
LINE
  5
177F2
  8
AM_0
 10
229.7940902934269
 20
229.9783698107999
 30
0.0
 11
229.7940902934269
 21
304.97837204597408
 31
0.0
  0
LINE
  5
177F3
  8
AM_0
 10
127.7940719948003
 20
204.83988029208331
 30
0.0
 11
127.7940719948003
 21
330.11689208226971
 31
0.0
  0
LINE
  5
177F4
  8
AM_0
 10
205.79408194877621
 20
203.47836902103839
 30
0.0
 11
205.79408194877621
 21
331.47837283573563
 31
0.0
  0
LINE
  5
177F5
  8
ﾁｭｳｼﾝｾﾝ1
 10
176.794081084509
 20
151.09253038667831
 30
0.0
 11
176.794081084509
 21
337.72837114095239
 31
0.0
  0
LINE
  5
177F6
  8
AM_0
 10
123.7940795049859
 20
229.9783698107999
 30
0.0
 11
123.7940795049859
 21
304.97837204597408
 31
0.0
  0
LINE
  5
177F7
  8
AM_0
 10
225.7940825448226
 20
203.82745960761389
 30
0.0
 11
225.7940825448226
 21
331.1292822491601
 31
0.0
  0
ARC
  5
177F9
  8
AM_0
 10
176.77717108450929
 20
267.46837092838689
 30
0.0
 40
64.014987999999974
 50
19.083224534581049
 51
34.086207951879793
  0
ARC
  5
177FA
  8
AM_0
 10
176.767471084509
 20
267.47588092838703
 30
0.0
 40
63.989566999999987
 50
270.02382639558652
 51
276.22718035921872
  0
LINE
  5
177FB
  8
AM_0
 10
205.79408194877621
 20
203.47836902103839
 30
0.0
 11
127.7940719948003
 21
204.83988029208331
 31
0.0
  0
LINE
  5
177FC
  8
AM_0
 10
167.6106614775955
 20
204.14486544094819
 30
0.0
 11
183.70848056485841
 21
203.86387677633121
 31
0.0
  0
LINE
  5
177FD
  8
ﾁｭｳｼﾝｾﾝ1
 10
124.044075809498
 20
215.47836937866609
 30
0.0
 11
229.54408635952029
 21
215.47836937866609
 31
0.0
  0
LINE
  5
177FE
  8
ｶｸﾚｾﾝ2
 10
127.79407962419521
 20
220.97836954257909
 30
0.0
 11
225.79409017421759
 21
220.97836954257909
 31
0.0
  0
LINE
  5
177FF
  8
ｶｸﾚｾﾝ2
 10
127.79407962419521
 20
209.97836921475351
 30
0.0
 11
225.79409017421759
 21
209.97836921475351
 31
0.0
  0
LINE
  5
17800
  8
ﾁｭｳｼﾝｾﾝ1
 10
294.19341735431772
 20
267.47837092838768
 30
0.0
 11
106.5235058657145
 21
267.47837092838648
 31
0.0
  0
ARC
  5
17801
  8
AM_0
 10
144.62529108450909
 20
201.556020928387
 30
0.0
 40
2.0097484999999988
 50
1.7779099999985699
 51
157.0903460000016
  0
ARC
  5
17802
  8
AM_0
 10
141.79420108450901
 20
202.58560092838709
 30
0.0
 40
1.000226099999999
 50
179.2686670000009
 51
358.43981999999932
  0
LINE
  5
17803
  8
AM_0
 10
140.72088143133161
 20
204.61422861033711
 30
0.0
 11
140.794081084509
 21
202.558360928387
 31
0.0
  0
LINE
  5
17804
  8
AM_0
 10
142.85347523677149
 20
204.5770040221918
 30
0.0
 11
142.774091084509
 21
202.33837092838701
 31
0.0
  0
ARC
  5
17805
  8
AM_0
 10
130.304641084509
 20
220.98891892838699
 30
0.0
 40
5.010561899999999
 50
180.12064999999691
 51
239.93027090092221
  0
ARC
  5
17806
  8
AM_0
 10
122.29409108450881
 20
228.49509507133149
 30
0.0
 40
2.9999999999999978
 50
0.0
 51
29.631860164016562
1001
GENIUS_GENOBJ-N-FIL_13
1002
{
1000
OWNER
1000
GEN
1002
}
1001
GENIUS_GENODEF_13
1002
{
1000
HIER
1070
     0
1002
}
1002
{
1000
MANEDIT
1070
     0
1002
}
1002
{
1000
NOSEL
1070
     0
1002
}
1002
{
1000
BEHIND
1070
     0
1002
}
1002
{
1000
OTHER
1070
     0
1002
}
1002
{
1000
REACTOR
1002
}
  0
LINE
  5
17807
  8
AM_0
 10
123.7940795049859
 20
229.9783698107999
 30
0.0
 11
127.79407962419521
 21
229.9783698107999
 31
0.0
  0
LINE
  5
17808
  8
AM_0
 10
125.29409108450881
 20
220.97836792838689
 30
0.0
 11
125.29409108450881
 21
228.49509507133141
 31
0.0
  0
ARC
  5
17809
  8
AM_0
 10
176.767471084509
 20
267.47588092838703
 30
0.0
 40
63.989566999999987
 50
261.77281830828667
 51
270.02382639558652
  0
ARC
  5
1780A
  8
AM_0
 10
239.66490108450941
 20
242.47895592838739
 30
0.0
 40
1.000625599999998
 50
270.5255399999993
 51
87.182930000002045
  0
ARC
  5
1780B
  8
AM_0
 10
237.19055108450951
 20
242.46880092838751
 30
0.0
 40
1.090437399999999
 50
270.1853199999984
 51
87.712330000001145
  0
LINE
  5
1780C
  8
AM_0
 10
238.2940710845096
 20
242.4783679283874
 30
0.0
 11
238.2940710845096
 21
233.21837392838739
 31
0.0
  0
LINE
  5
1780D
  8
AM_0
 10
229.7940810845094
 20
231.19190704456039
 30
0.0
 11
237.6540710845095
 21
231.47837592838741
 31
0.0
  0
LINE
  5
1780E
  8
AM_0
 10
231.1925948361725
 20
233.69740680675559
 30
0.0
 11
237.6540710845095
 21
233.47836792838731
 31
0.0
  0
LINE
  5
1780F
  8
AM_0
 10
238.2940710845096
 20
240.23836992838741
 30
0.0
 11
240.31407108450961
 21
240.09837092838731
 31
0.0
  0
LINE
  5
17810
  8
AM_0
 10
238.2940710845096
 20
241.41836992838731
 30
0.0
 11
239.71406108450941
 21
241.4783679283874
 31
0.0
  0
ARC
  5
17811
  8
AM_0
 10
240.2937110845094
 20
239.5984319283873
 30
0.0
 40
0.50035203
 50
359.99289000000249
 51
87.668830000000781
  0
LINE
  5
17812
  8
AM_0
 10
240.7940710845096
 20
238.97836792838731
 30
0.0
 11
240.7940710845096
 21
239.5983709283874
 31
0.0
  0
ARC
  5
17813
  8
AM_0
 10
237.6081810845094
 20
232.4788869283874
 30
0.0
 40
1.000534899999999
 50
270.3367800000006
 51
87.371690000003312
  0
LINE
  5
17814
  8
AM_0
 10
238.2940810845096
 20
237.6983689283874
 30
0.0
 11
240.31407108450961
 21
237.8383689283873
 31
0.0
  0
ARC
  5
17815
  8
AM_0
 10
240.2798410845096
 20
238.3516209283874
 30
0.0
 40
0.5143923799999999
 50
273.81460999999979
 51
358.5236700000022
  0
LINE
  5
17816
  8
AM_0
 10
240.7940710845096
 20
238.97836792838731
 30
0.0
 11
240.7940710845096
 21
238.3383689283873
 31
0.0
  0
LINE
  5
17817
  8
AM_0
 10
235.2394731096208
 20
241.31700128273829
 30
0.0
 11
237.23407108450959
 21
241.37836992838729
 31
0.0
  0
LINE
  5
17818
  8
AM_0
 10
236.20791983872039
 20
243.59867593380139
 30
0.0
 11
239.71408108450939
 21
243.47836792838731
 31
0.0
  0
ARC
  5
17819
  8
AM_0
 10
211.79393108450901
 20
202.58628092838711
 30
0.0
 40
1.000231299999998
 50
181.598942999999
 51
0.6925799999990046
  0
LINE
  5
1781A
  8
AM_0
 10
225.7940825448226
 20
203.82745960761389
 30
0.0
 11
205.79408194877621
 21
203.47836902103839
 31
0.0
  0
LINE
  5
1781B
  8
AM_0
 10
205.794081084509
 20
203.47837092838711
 30
0.0
 11
183.70848056485801
 21
203.86387677633121
 31
0.0
  0
ARC
  5
1781C
  8
AM_0
 10
208.95244108450891
 20
201.56039092838719
 30
0.0
 40
1.9992131999999989
 50
22.901329999994228
 51
178.33797800000431
  0
LINE
  5
1781D
  8
AM_0
 10
210.75055866729821
 20
203.5648877566444
 30
0.0
 11
210.79405108450911
 21
202.33837092838701
 31
0.0
  0
LINE
  5
1781E
  8
AM_0
 10
212.82956461895211
 20
203.60117743976321
 30
0.0
 11
212.79405108450891
 21
202.55837092838709
 31
0.0
  0
LINE
  5
1781F
  8
AM_0
 10
229.7940902934269
 20
229.9783698107999
 30
0.0
 11
225.79409017421759
 21
229.9783698107999
 31
0.0
  0
ARC
  5
17820
  8
AM_0
 10
223.30043108450889
 20
220.97201992838691
 30
0.0
 40
4.9936542999999984
 50
299.95791578702313
 51
0.0728599999961039
  0
ARC
  5
17821
  8
AM_0
 10
231.2940810845088
 20
228.46729194983209
 30
0.0
 40
2.9999999999999978
 50
149.75537130699649
 51
180.0
1001
GENIUS_GENOBJ-N-FIL_13
1002
{
1000
OWNER
1000
GEN
1002
}
1001
GENIUS_GENODEF_13
1002
{
1000
HIER
1070
     0
1002
}
1002
{
1000
MANEDIT
1070
     0
1002
}
1002
{
1000
NOSEL
1070
     0
1002
}
1002
{
1000
BEHIND
1070
     0
1002
}
1002
{
1000
OTHER
1070
     0
1002
}
1002
{
1000
REACTOR
1002
}
  0
LINE
  5
17822
  8
AM_0
 10
228.2940810845088
 20
228.46729194983209
 30
0.0
 11
228.2940810845088
 21
220.97836792838689
 31
0.0
  0
ARC
  5
17823
  8
AM_0
 10
112.5340410845095
 20
252.4784709283866
 30
0.0
 40
1.000099699999998
 50
91.144090000003274
 51
270.00178000000392
  0
ARC
  5
17824
  8
AM_0
 10
113.88942108450961
 20
242.47868092838669
 30
0.0
 40
1.000317799999999
 50
92.025309999997987
 51
270.26620999999898
  0
ARC
  5
17825
  8
AM_0
 10
116.3637810845095
 20
242.46854892838661
 30
0.0
 40
1.0902267999999991
 50
91.561810000000804
 51
270.54054000000241
  0
LINE
  5
17826
  8
AM_0
 10
115.2940810845095
 20
242.47836792838669
 30
0.0
 11
115.2940810845096
 21
233.21837392838671
 31
0.0
  0
LINE
  5
17827
  8
AM_0
 10
118.41506113554441
 20
241.31433755681641
 30
0.0
 11
116.3340610845095
 21
241.37836992838649
 31
0.0
  0
LINE
  5
17828
  8
AM_0
 10
123.7940810845096
 20
231.1911694236048
 30
0.0
 11
115.9140810845097
 21
231.47836792838649
 31
0.0
  0
LINE
  5
17829
  8
AM_0
 10
122.45899059332299
 20
233.70023604554751
 30
0.0
 11
115.9140810845097
 21
233.4783759283865
 31
0.0
  0
ARC
  5
1782A
  8
AM_0
 10
113.27678108450949
 20
239.61587992838651
 30
0.0
 40
0.48302591
 50
92.694639999999524
 51
182.07724900000059
  0
LINE
  5
1782B
  8
AM_0
 10
112.7940810845095
 20
238.9783679283866
 30
0.0
 11
112.7940810845095
 21
239.5983709283866
 31
0.0
  0
ARC
  5
1782C
  8
AM_0
 10
113.2911210845095
 20
238.33407292838669
 30
0.0
 40
0.4970828599999999
 50
179.50425600000011
 51
265.72385549999922
  0
LINE
  5
1782D
  8
AM_0
 10
112.7940810845095
 20
238.9783679283866
 30
0.0
 11
112.7940810845095
 21
238.33836892838659
 31
0.0
  0
ARC
  5
1782E
  8
AM_0
 10
115.9470310845095
 20
232.4769339283867
 30
0.0
 40
0.9985855199999996
 50
109.477449999996
 51
270.40369000000447
  0
LINE
  5
1782F
  8
AM_0
 10
115.2940810845095
 20
237.6983689283866
 30
0.0
 11
113.2540710845096
 21
237.8383689283865
 31
0.0
  0
LINE
  5
17830
  8
AM_0
 10
115.2940510845096
 20
240.23836992838659
 30
0.0
 11
113.2540710845096
 21
240.0983709283866
 31
0.0
  0
LINE
  5
17831
  8
AM_0
 10
115.2940810845095
 20
241.4183699283866
 30
0.0
 11
113.8540810845095
 21
241.47837592838661
 31
0.0
  0
LINE
  5
17832
  8
AM_0
 10
117.4442635484246
 20
243.6015603114287
 30
0.0
 11
113.85405108450951
 21
243.47836792838649
 31
0.0
  0
LINE
  5
17834
  8
AM_0
 10
114.88026535655371
 20
251.395053700668
 30
0.0
 11
112.5140810845097
 21
251.47837092838651
 31
0.0
  0
ARC
  5
17835
  8
AM_0
 10
111.8611610845096
 20
262.47851092838658
 30
0.0
 40
1.000225199999998
 50
91.552349999999223
 51
270.73918000000248
  0
LINE
  5
17836
  8
AM_0
 10
113.1159405820559
 20
261.43416896754042
 30
0.0
 11
111.8340910845093
 21
261.4783709283866
 31
0.0
  0
LINE
  5
17837
  8
AM_0
 10
114.3629449250092
 20
253.5421256135991
 30
0.0
 11
112.5140510845093
 21
253.47837092838671
 31
0.0
  0
LINE
  5
17838
  8
AM_0
 10
112.9557900224376
 20
271.4357741661459
 30
0.0
 11
111.8340610845093
 21
271.4783709283866
 31
0.0
  0
LINE
  5
17839
  8
AM_0
 10
113.12011850150969
 20
273.52270956524421
 30
0.0
 11
111.8340910845093
 21
273.4783709283866
 31
0.0
  0
ARC
  5
1783A
  8
AM_0
 10
111.8610110845093
 20
272.47823092838649
 30
0.0
 40
1.000223999999998
 50
89.251230000004782
 51
268.45723920000478
  0
LINE
  5
1783B
  8
AM_0
 10
112.95394938093411
 20
263.50672195077101
 30
0.0
 11
111.8340910845093
 21
263.47837092838648
 31
0.0
  0
ARC
  5
1783C
  8
AM_0
 10
176.78404108450891
 20
267.47202092838671
 30
0.0
 40
64.006351000000123
 50
83.719456375075197
 51
89.991012616410785
  0
LINE
  5
1783D
  8
AM_0
 10
205.79408194877621
 20
331.47837283573563
 30
0.0
 11
127.7940719948003
 21
330.11689208226971
 31
0.0
  0
LINE
  5
1783E
  8
ﾁｭｳｼﾝｾﾝ1
 10
124.0440758094975
 20
319.47837247810787
 30
0.0
 11
229.54408635952009
 21
319.47837247810787
 31
0.0
  0
LINE
  5
1783F
  8
ｶｸﾚｾﾝ2
 10
127.79407962419521
 20
324.97837264202047
 30
0.0
 11
225.79409017421759
 21
324.97837264202047
 31
0.0
  0
LINE
  5
17840
  8
ｶｸﾚｾﾝ2
 10
127.79407962419521
 20
313.97837231419493
 30
0.0
 11
225.79409017421759
 21
313.97837231419493
 31
0.0
  0
ARC
  5
17841
  8
AM_0
 10
130.3004610845091
 20
313.9719909283869
 30
0.0
 40
5.0063781999999977
 50
120.04217682435279
 51
179.92705000000001
  0
LINE
  5
17842
  8
AM_0
 10
240.7940710845092
 20
295.97837092838728
 30
0.0
 11
240.7940710845092
 21
295.33837092838729
 31
0.0
  0
LINE
  5
17843
  8
AM_0
 10
238.2940710845092
 20
301.73838092838741
 30
0.0
 11
238.29407108450931
 21
292.47837092838728
 31
0.0
  0
LINE
  5
17844
  8
AM_0
 10
238.29407108450931
 20
293.51838092838739
 30
0.0
 11
239.7140610845091
 21
293.47837092838728
 31
0.0
  0
LINE
  5
17845
  8
AM_0
 10
238.2940810845092
 20
294.69837092838742
 30
0.0
 11
240.31407108450921
 21
294.83837092838741
 31
0.0
  0
ARC
  5
17846
  8
AM_0
 10
240.2798410845092
 20
295.35163092838718
 30
0.0
 40
0.5143923799999999
 50
273.81460999999979
 51
358.5236700000022
  0
ARC
  5
17847
  8
AM_0
 10
239.66507108450909
 20
292.47779092838732
 30
0.0
 40
1.0006207999999981
 50
272.80749999999563
 51
89.484029999999294
  0
ARC
  5
17848
  8
AM_0
 10
237.19055108450911
 20
292.46880092838728
 30
0.0
 40
1.090437399999999
 50
270.1853100000036
 51
87.712330000001145
  0
LINE
  5
17849
  8
AM_0
 10
236.1905055217691
 20
291.35746401737708
 30
0.0
 11
239.71406108450921
 21
291.47837092838739
 31
0.0
  0
LINE
  5
1784A
  8
AM_0
 10
235.22158650965241
 20
293.63577447897251
 30
0.0
 11
237.23407108450931
 21
293.55837092838721
 31
0.0
  0
LINE
  5
1784B
  8
AM_0
 10
125.29409108450881
 20
306.44164678544252
 30
0.0
 11
125.29409108450881
 21
313.97837092838711
 31
0.0
  0
LINE
  5
1784C
  8
AM_0
 10
229.7940810845092
 20
303.74693493101603
 30
0.0
 11
237.6540810845091
 21
303.47837092838728
 31
0.0
  0
LINE
  5
1784D
  8
AM_0
 10
231.17701469406811
 20
301.24051258939051
 30
0.0
 11
237.6540710845091
 21
301.47837092838739
 31
0.0
  0
ARC
  5
1784E
  8
AM_0
 10
237.608351084509
 20
302.47785092838723
 30
0.0
 40
1.000530599999998
 50
272.61872999999878
 51
89.672799999999285
  0
LINE
  5
1784F
  8
AM_0
 10
238.2940810845092
 20
297.25837092838731
 30
0.0
 11
240.31407108450921
 21
297.09836092838731
 31
0.0
  0
ARC
  5
17850
  8
AM_0
 10
240.293711084509
 20
296.59844092838722
 30
0.0
 40
0.50035203
 50
359.99289000000249
 51
87.668830000000781
  0
LINE
  5
17851
  8
AM_0
 10
240.7940710845092
 20
295.97837092838728
 30
0.0
 11
240.7940710845092
 21
296.59836092838742
 31
0.0
  0
ARC
  5
17852
  8
AM_0
 10
122.29409108450881
 20
306.44164678544252
 30
0.0
 40
2.9999999999999978
 50
330.80663173194722
 51
0.0
1001
GENIUS_GENOBJ-N-FIL_13
1002
{
1000
OWNER
1000
GEN
1002
}
1001
GENIUS_GENODEF_13
1002
{
1000
HIER
1070
     0
1002
}
1002
{
1000
MANEDIT
1070
     0
1002
}
1002
{
1000
NOSEL
1070
     0
1002
}
1002
{
1000
BEHIND
1070
     0
1002
}
1002
{
1000
OTHER
1070
     0
1002
}
1002
{
1000
REACTOR
1002
}
  0
LINE
  5
17853
  8
AM_0
 10
123.7940795049859
 20
304.97837204597408
 30
0.0
 11
127.79407962419521
 21
304.97837204597408
 31
0.0
  0
ARC
  5
17854
  8
AM_0
 10
161.79448108450919
 20
331.71768092838698
 30
0.0
 40
1.000413999999999
 50
2.331049999997969
 51
179.96048300000029
  0
ARC
  5
17855
  8
AM_0
 10
151.79432108450899
 20
330.3621589283868
 30
0.0
 40
1.000393499999999
 50
10.99352963525819
 51
179.0714379999965
  0
LINE
  5
17856
  8
AM_0
 10
160.75653699288861
 20
330.69222833770129
 30
0.0
 11
160.794081084509
 21
331.75837692838689
 31
0.0
  0
ARC
  5
17857
  8
AM_0
 10
176.78404108450891
 20
267.47202092838671
 30
0.0
 40
64.006351000000123
 50
89.991012616410785
 51
98.280567367618843
  0
LINE
  5
17858
  8
AM_0
 10
162.829575734466
 20
330.72841379318669
 30
0.0
 11
162.79405108450891
 21
331.75837292838702
 31
0.0
  0
LINE
  5
17859
  8
AM_0
 10
172.82112595561441
 20
331.36956476340168
 30
0.0
 11
172.7940810845088
 21
332.43837292838703
 31
0.0
  0
LINE
  5
1785A
  8
AM_0
 10
170.75158684798291
 20
331.20603536088743
 30
0.0
 11
170.794081084509
 21
332.43836892838709
 31
0.0
  0
ARC
  5
1785B
  8
AM_0
 10
171.79463108450901
 20
332.39062792838689
 30
0.0
 40
1.0005847999999991
 50
2.7350400000044401
 51
179.5564910000007
  0
ARC
  5
1785C
  8
AM_0
 10
223.3046410845088
 20
313.98891092838699
 30
0.0
 40
4.9894699999999981
 50
359.87895100000162
 51
60.070185938252052
  0
LINE
  5
1785D
  8
AM_0
 10
112.7940810845092
 20
295.97837092838648
 30
0.0
 11
112.7940810845092
 21
295.33837092838661
 31
0.0
  0
LINE
  5
1785E
  8
AM_0
 10
115.2940810845092
 20
301.73838092838662
 30
0.0
 11
115.2940810845092
 21
292.4783709283866
 31
0.0
  0
LINE
  5
1785F
  8
AM_0
 10
114.37266528513371
 20
281.41428105978702
 30
0.0
 11
112.51405108450911
 21
281.47837092838648
 31
0.0
  0
ARC
  5
17860
  8
AM_0
 10
112.5339510845094
 20
282.47828092838648
 30
0.0
 40
1.0000987999999991
 50
89.99342000000108
 51
268.8606962000012
  0
LINE
  5
17861
  8
AM_0
 10
114.89176943460571
 20
283.56209252111978
 30
0.0
 11
112.51405108450911
 21
283.47837092838671
 31
0.0
  0
LINE
  5
17862
  8
AM_0
 10
118.43324700346
 20
293.63910077455409
 30
0.0
 11
116.3340610845092
 21
293.55837092838652
 31
0.0
  0
LINE
  5
17863
  8
AM_0
 10
117.4616756917568
 20
291.35458031053679
 30
0.0
 11
113.8540810845092
 21
291.47837092838671
 31
0.0
  0
ARC
  5
17865
  8
AM_0
 10
113.2911210845092
 20
295.33406092838652
 30
0.0
 40
0.4970828599999999
 50
179.50425600000011
 51
265.72385549999922
  0
LINE
  5
17866
  8
AM_0
 10
115.2940810845092
 20
294.69837092838668
 30
0.0
 11
113.25407108450931
 21
294.83837092838661
 31
0.0
  0
LINE
  5
17867
  8
AM_0
 10
115.2940810845092
 20
293.51836092838658
 30
0.0
 11
113.8540810845092
 21
293.47837092838648
 31
0.0
  0
ARC
  5
17868
  8
AM_0
 10
113.8892610845095
 20
292.47806092838653
 30
0.0
 40
1.000315299999998
 50
89.724210000002714
 51
267.98426220000368
  0
ARC
  5
17869
  8
AM_0
 10
116.3637810845092
 20
292.46854092838669
 30
0.0
 40
1.0902267999999991
 50
91.561799999997689
 51
270.54056000000202
  0
LINE
  5
1786A
  8
AM_0
 10
229.7940902934269
 20
304.97837204597408
 30
0.0
 11
225.79409017421759
 21
304.97837204597408
 31
0.0
  0
LINE
  5
1786B
  8
AM_0
 10
228.2940810845088
 20
313.97837092838711
 30
0.0
 11
228.2940810845088
 21
306.4694499069418
 31
0.0
  0
LINE
  5
1786C
  8
AM_0
 10
123.7940810845091
 20
303.74761952661947
 30
0.0
 11
115.91408108450931
 21
303.47837092838648
 31
0.0
  0
LINE
  5
1786D
  8
AM_0
 10
122.47442614436
 20
301.23745362133758
 30
0.0
 11
115.91408108450931
 21
301.47837092838671
 31
0.0
  0
ARC
  5
1786E
  8
AM_0
 10
231.2940810845088
 20
306.4694499069418
 30
0.0
 40
2.9999999999999978
 50
180.0
 51
209.80345756372549
1001
GENIUS_GENODEF_13
1002
{
1000
HIER
1070
     0
1002
}
1002
{
1000
MANEDIT
1070
     0
1002
}
1002
{
1000
NOSEL
1070
     0
1002
}
1002
{
1000
BEHIND
1070
     0
1002
}
1002
{
1000
OTHER
1070
     0
1002
}
1002
{
1000
REACTOR
1002
}
1001
GENIUS_GENOBJ-N-FIL_13
1002
{
1000
OWNER
1000
GEN
1002
}
  0
ARC
  5
1786F
  8
AM_0
 10
113.2767810845092
 20
296.61588092838667
 30
0.0
 40
0.48302591
 50
92.694639999999524
 51
182.07724900000059
  0
LINE
  5
17870
  8
AM_0
 10
112.7940810845092
 20
295.97837092838648
 30
0.0
 11
112.7940810845092
 21
296.59836092838651
 31
0.0
  0
ARC
  5
17871
  8
AM_0
 10
115.94560108450899
 20
302.48006092838659
 30
0.0
 40
0.9983469799999998
 50
89.514460000001336
 51
250.6043899999965
  0
LINE
  5
17872
  8
AM_0
 10
115.2940810845092
 20
297.25837092838651
 30
0.0
 11
113.25407108450921
 21
297.09836092838651
 31
0.0
  0
LINE
  5
17873
  8
AM_0
 10
225.7940825448226
 20
331.1292822491601
 30
0.0
 11
205.79408194877621
 21
331.47837283573563
 31
0.0
  0
LINE
  5
17874
  8
AM_0
 10
180.7536787354567
 20
331.3744417500904
 30
0.0
 11
180.794081084509
 21
332.43836892838709
 31
0.0
  0
LINE
  5
17875
  8
AM_0
 10
182.83636152518281
 20
331.21223755819381
 30
0.0
 11
182.7940810845088
 21
332.43836892838709
 31
0.0
  0
ARC
  5
17876
  8
AM_0
 10
181.7935010845089
 20
332.38994892838701
 30
0.0
 40
1.000603799999999
 50
0.4821899999981778
 51
177.22628299999701
  0
LINE
  5
17877
  8
AM_0
 10
192.81192121813339
 20
331.25176379436363
 30
0.0
 11
192.7940810845088
 21
331.75837292838702
 31
0.0
  0
LINE
  5
17878
  8
AM_0
 10
190.77538837192779
 20
331.21621555921843
 30
0.0
 11
190.794081084509
 21
331.75837292838702
 31
0.0
  0
ARC
  5
17879
  8
AM_0
 10
191.79365108450901
 20
331.71700592838698
 30
0.0
 40
1.000428199999998
 50
0.0782199999979826
 51
177.63024800000301
  0
ARC
  5
1787A
  8
AM_0
 10
176.77717108450929
 20
267.46837092838689
 30
0.0
 40
64.014987999999974
 50
325.9137920481208
 51
340.93924469697492
  0
LINE
  5
1787B
  8
0
 10
286.80108717349378
 20
284.47837092838779
 30
0.0
 11
254.80108717349381
 21
284.47837092838762
 31
0.0
  0
LINE
  5
1787C
  8
0
 10
286.8010871734939
 20
281.47837092838779
 30
0.0
 11
244.8010871734939
 21
281.47837092838762
 31
0.0
  0
LINE
  5
1787D
  8
0
 10
286.80108717349401
 20
253.47837092838759
 30
0.0
 11
244.80108717349401
 21
253.47837092838739
 31
0.0
  0
LINE
  5
1787E
  8
AM_0
 10
286.80108717349401
 20
253.47837092838759
 30
0.0
 11
286.80108717349378
 21
284.47837092838779
 31
0.0
  0
LINE
  5
1787F
  8
0
 10
254.80108717349381
 20
284.47837092838762
 30
0.0
 11
254.8010871734939
 21
281.47837092838762
 31
0.0
  0
LINE
  5
17880
  8
0
 10
244.80108717349381
 20
284.97837092838751
 30
0.0
 11
244.80108717349401
 21
249.97837092838751
 31
0.0
  0
LINE
  5
17881
  8
0
 10
244.80108717349381
 20
284.97837092838751
 30
0.0
 11
233.79408278324161
 21
289.97837159893948
 31
0.0
  0
LINE
  5
17882
  8
AM_0
 10
233.79408278324161
 20
289.97837159893948
 30
0.0
 11
233.79408278324189
 21
244.97837025783531
 31
0.0
  0
LINE
  5
17883
  8
AM_0
 10
233.79408278324161
 20
289.97837159893948
 30
0.0
 11
229.79408266403209
 21
289.97837159893948
 31
0.0
  0
LINE
  5
17884
  8
0
 10
244.80108717349401
 20
249.97837092838751
 30
0.0
 11
233.79408278324189
 21
244.97837025783531
 31
0.0
  0
LINE
  5
17885
  8
AM_0
 10
233.79408278324189
 20
244.97837025783531
 30
0.0
 11
229.7940826640324
 21
244.97837025783519
 31
0.0
  0
CIRCLE
  5
17886
  8
AM_0
 10
441.84703437114149
 20
267.47837328658233
 30
0.0
 40
22.50000067055224
  0
ARC
  5
17887
  8
0
 10
441.84703437114149
 20
267.47837092838688
 30
0.0
 40
14.00000000000014
 50
106.6015495990234
 51
73.398450400976586
  0
CIRCLE
  5
17888
  8
ｽﾝﾎﾟｳｾﾝ
 10
441.84703437114149
 20
267.47837092838688
 30
0.0
 40
4.0
  0
LINE
  5
17889
  8
0
 10
445.84703437114149
 20
277.47837092838671
 30
0.0
 11
437.84703437114138
 21
277.47837092838671
 31
0.0
  0
LINE
  5
1788A
  8
0
 10
445.84703437114149
 20
284.47837092838648
 30
0.0
 11
437.8470343711416
 21
284.47837092838648
 31
0.0
  0
LINE
  5
1788B
  8
0
 10
445.84703437114149
 20
284.47837092838648
 30
0.0
 11
445.84703437114149
 21
277.47837092838671
 31
0.0
  0
LINE
  5
1788C
  8
0
 10
437.84703437114138
 20
284.47837092838648
 30
0.0
 11
437.84703437114138
 21
277.47837092838671
 31
0.0
  0
CIRCLE
  5
1788D
  8
AM_0
 10
441.84703437114149
 20
267.47837328658233
 30
0.0
 40
3.399999999999999
  0
LINE
  5
1788E
  8
AM_0
 10
478.84703437114149
 20
504.67019956663228
 30
0.0
 11
470.84703437114121
 21
504.67019956663228
 31
0.0
  0
LINE
  5
1788F
  8
AM_0
 10
468.84703437114109
 20
510.67019956663228
 30
0.0
 11
480.8470343711416
 21
510.67019956663228
 31
0.0
  0
LINE
  5
17890
  8
AM_0
 10
479.34703548872852
 20
499.67019944742282
 30
0.0
 11
404.3470332535544
 21
499.67019944742282
 31
0.0
  0
LINE
  5
17891
  8
AM_0
 10
479.34703548872852
 20
605.67021023586358
 30
0.0
 11
404.3470332535544
 21
605.67021023586358
 31
0.0
  0
LINE
  5
17892
  8
AM_0
 10
549.48555686612872
 20
601.67021011665474
 30
0.0
 11
380.20851324706132
 21
601.67021011665474
 31
0.0
  0
LINE
  5
17893
  8
AM_0
 10
550.49797755059785
 20
503.67019956663211
 30
0.0
 11
379.19612308017088
 21
503.67019956663228
 31
0.0
  0
LINE
  5
17894
  8
AM_0
 10
550.84706813717355
 20
523.67020016267873
 30
0.0
 11
378.84703249359529
 21
523.67020016267884
 31
0.0
  0
LINE
  5
17895
  8
ﾁｭｳｼﾝｾﾝ1
 10
803.86590730306273
 20
552.67020102694573
 30
0.0
 11
372.59703249359518
 21
552.67020102694585
 31
0.0
1001
GENIUS_GENODEF_13
1002
{
1000
HIER
1070
     0
1002
}
1002
{
1000
MANEDIT
1070
     0
1002
}
1002
{
1000
NOSEL
1070
     0
1002
}
1002
{
1000
BEHIND
1070
     0
1002
}
1002
{
1000
REACTOR
1002
}
1001
GENIUS_GENOBJ-N-CEN_13
1002
{
1000
OWNER
1000
GEN
1002
}
  0
LINE
  5
17896
  8
AM_0
 10
577.34706813717355
 20
614.17019602694631
 30
0.0
 11
577.34706813717355
 21
491.17021602694598
 31
0.0
  0
LINE
  5
17897
  8
AM_0
 10
550.84706813709772
 20
523.67020016267873
 30
0.0
 11
549.48555686612872
 21
601.67021011665463
 31
0.0
  0
LINE
  5
17898
  8
ｶｸﾚｾﾝ2
 10
533.34706761563314
 20
601.67020248725964
 30
0.0
 11
533.34706761563314
 21
503.67019193723712
 31
0.0
  0
LINE
  5
17899
  8
ﾁｭｳｼﾝｾﾝ1
 10
538.84706777954602
 20
605.42020630195691
 30
0.0
 11
538.84706777954602
 21
499.92019575193439
 31
0.0
  0
LINE
  5
1789A
  8
ｶｸﾚｾﾝ2
 10
544.34706794345868
 20
601.67020248725964
 30
0.0
 11
544.34706794345868
 21
503.67019193723712
 31
0.0
  0
LINE
  5
1789B
  8
AM_0
 10
588.34706813717355
 20
616.67023102694623
 30
0.0
 11
588.34706813717355
 21
488.67021602694609
 31
0.0
  0
LINE
  5
1789C
  8
AM_0
 10
588.34706813717355
 20
515.53022602694614
 30
0.0
 11
578.34706813717344
 21
515.53022602694614
 31
0.0
  0
LINE
  5
1789D
  8
AM_0
 10
588.34710940382411
 20
515.53021602696845
 30
0.0
 11
578.34710940383025
 21
515.53020491585733
 31
0.0
  0
LINE
  5
1789E
  8
AM_0
 10
588.34706813717355
 20
500.63021602694619
 30
0.0
 11
578.34706813717344
 21
500.63021602694619
 31
0.0
  0
LINE
  5
1789F
  8
AM_0
 10
588.34712595939095
 20
500.63020602697782
 30
0.0
 11
578.34712595939686
 21
500.63019491586653
 31
0.0
  0
LINE
  5
178A0
  8
AM_0
 10
588.34706813717355
 20
488.67021602694609
 30
0.0
 11
579.220465309578
 21
488.67021602694609
 31
0.0
  0
LINE
  5
178A1
  8
AM_0
 10
558.48843768162135
 20
523.84451164817403
 30
0.0
 11
561.18734108902493
 21
492.99590454145073
 31
0.0
  0
LINE
  5
178A2
  8
AM_0
 10
574.34706813717366
 20
491.17021602694598
 30
0.0
 11
563.17973048520832
 21
491.17021602694621
 31
0.0
  0
ARC
  5
178A3
  8
AM_0
 10
574.34706813717366
 20
488.17021602694609
 30
0.0
 40
2.9999999999999978
 50
35.685334712654601
 51
89.999999999999986
1001
GENIUS_GENOBJ-N-FIL_13
1002
{
1000
OWNER
1000
GEN
1002
}
1001
GENIUS_GENODEF_13
1002
{
1000
HIER
1070
     0
1002
}
1002
{
1000
MANEDIT
1070
     0
1002
}
1002
{
1000
NOSEL
1070
     0
1002
}
1002
{
1000
BEHIND
1070
     0
1002
}
1002
{
1000
OTHER
1070
     0
1002
}
1002
{
1000
REACTOR
1002
}
  0
ARC
  5
178A4
  8
AM_0
 10
579.220465309578
 20
491.67021602694598
 30
0.0
 40
2.9999999999999978
 50
215.68533471265459
 51
270.0
1001
GENIUS_GENOBJ-N-FIL_13
1002
{
1000
OWNER
1000
GEN
1002
}
1001
GENIUS_GENODEF_13
1002
{
1000
HIER
1070
     0
1002
}
1002
{
1000
MANEDIT
1070
     0
1002
}
1002
{
1000
NOSEL
1070
     0
1002
}
1002
{
1000
BEHIND
1070
     0
1002
}
1002
{
1000
OTHER
1070
     0
1002
}
1002
{
1000
REACTOR
1002
}
  0
ARC
  5
178A5
  8
AM_0
 10
563.17973048520832
 20
493.17021602694632
 30
0.0
 40
2.0
 50
184.99999999999969
 51
270.0
1001
GENIUS_GENOBJ-N-FIL_13
1002
{
1000
OWNER
1000
GEN
1002
}
1001
GENIUS_GENODEF_13
1002
{
1000
HIER
1070
     0
1002
}
1002
{
1000
MANEDIT
1070
     0
1002
}
1002
{
1000
NOSEL
1070
     0
1002
}
1002
{
1000
BEHIND
1070
     0
1002
}
1002
{
1000
OTHER
1070
     0
1002
}
1002
{
1000
REACTOR
1002
}
  0
ARC
  5
178A6
  8
AM_0
 10
556.49604828543784
 20
523.67020016267873
 30
0.0
 40
2.0
 50
4.9999999999997327
 51
89.999999999999986
1001
GENIUS_GENOBJ-N-FIL_13
1002
{
1000
OWNER
1000
GEN
1002
}
1001
GENIUS_GENODEF_13
1002
{
1000
HIER
1070
     0
1002
}
1002
{
1000
MANEDIT
1070
     0
1002
}
1002
{
1000
NOSEL
1070
     0
1002
}
1002
{
1000
BEHIND
1070
     0
1002
}
1002
{
1000
OTHER
1070
     0
1002
}
1002
{
1000
REACTOR
1002
}
  0
LINE
  5
178A7
  8
AM_0
 10
550.49797755059785
 20
503.67019956663211
 30
0.0
 11
550.84706813717355
 21
523.67020016267873
 31
0.0
  0
ARC
  5
178A8
  8
AM_0
 10
551.82976519825183
 20
524.67020016267873
 30
0.0
 40
1.0
 50
89.999999999999986
 51
181.0000117735006
1001
GENIUS_GENOBJ-N-FIL_13
1002
{
1000
OWNER
1000
GEN
1002
}
1001
GENIUS_GENODEF_13
1002
{
1000
HIER
1070
     0
1002
}
1002
{
1000
MANEDIT
1070
     0
1002
}
1002
{
1000
NOSEL
1070
     0
1002
}
1002
{
1000
BEHIND
1070
     0
1002
}
1002
{
1000
OTHER
1070
     0
1002
}
1002
{
1000
REACTOR
1002
}
  0
LINE
  5
178A9
  8
AM_0
 10
556.49604828543784
 20
525.67020016267873
 30
0.0
 11
551.82976519825183
 21
525.67020016267873
 31
0.0
  0
LINE
  5
178AA
  8
AM_0
 10
479.84703437114138
 20
510.67019956663228
 30
0.0
 11
479.84703437114138
 21
505.67019956663228
 31
0.0
  0
LINE
  5
178AB
  8
AM_0
 10
480.8470343711416
 20
503.67019956663211
 30
0.0
 11
480.8470343711416
 21
510.67019956663228
 31
0.0
  0
ARC
  5
178AC
  8
AM_0
 10
478.84703437114149
 20
505.67019956663228
 30
0.0
 40
1.0
 50
270.0
 51
360.0
1001
GENIUS_GENOBJ-N-FIL_13
1002
{
1000
OWNER
1000
GEN
1002
}
1001
GENIUS_GENODEF_13
1002
{
1000
HIER
1070
     0
1002
}
1002
{
1000
MANEDIT
1070
     0
1002
}
1002
{
1000
NOSEL
1070
     0
1002
}
1002
{
1000
BEHIND
1070
     0
1002
}
1002
{
1000
OTHER
1070
     0
1002
}
1002
{
1000
REACTOR
1002
}
  0
LINE
  5
178AD
  8
AM_0
 10
479.34703548872852
 20
605.67021023586358
 30
0.0
 11
479.34703548872852
 21
601.6702101166544
 31
0.0
  0
LINE
  5
178AE
  8
AM_0
 10
588.34706813717355
 20
616.67019602694609
 30
0.0
 11
579.220465309578
 21
616.67019602694609
 31
0.0
  0
LINE
  5
178AF
  8
AM_0
 10
588.34706813717355
 20
604.71019602694605
 30
0.0
 11
578.34706813717344
 21
604.71019602694605
 31
0.0
  0
LINE
  5
178B0
  8
AM_0
 10
588.34706813717355
 20
589.8101860269461
 30
0.0
 11
578.34706813717344
 21
589.8101860269461
 31
0.0
  0
LINE
  5
178B1
  8
AM_0
 10
564.51437202310649
 20
599.67021011665474
 30
0.0
 11
551.48586152939117
 21
599.67021011665474
 31
0.0
  0
LINE
  5
178B2
  8
AM_0
 10
567.45589171142865
 20
612.34450751244151
 30
0.0
 11
566.50676141929011
 21
601.49589863115932
 31
0.0
  0
ARC
  5
178B3
  8
AM_0
 10
564.51437202310649
 20
601.67021011665474
 30
0.0
 40
2.0
 50
270.0
 51
355.00000000000023
1001
GENIUS_GENOBJ-N-FIL_13
1002
{
1000
OWNER
1000
GEN
1002
}
1001
GENIUS_GENODEF_13
1002
{
1000
HIER
1070
     0
1002
}
1002
{
1000
MANEDIT
1070
     0
1002
}
1002
{
1000
NOSEL
1070
     0
1002
}
1002
{
1000
BEHIND
1070
     0
1002
}
1002
{
1000
OTHER
1070
     0
1002
}
1002
{
1000
REACTOR
1002
}
  0
LINE
  5
178B4
  8
AM_0
 10
574.34706813717366
 20
614.17019602694631
 30
0.0
 11
569.44828110761216
 21
614.17019602694631
 31
0.0
  0
ARC
  5
178B5
  8
AM_0
 10
579.220465309578
 20
613.67019602694631
 30
0.0
 40
2.9999999999999978
 50
89.999999999999986
 51
144.31466528734529
1001
GENIUS_GENOBJ-N-FIL_13
1002
{
1000
OWNER
1000
GEN
1002
}
1001
GENIUS_GENODEF_13
1002
{
1000
HIER
1070
     0
1002
}
1002
{
1000
MANEDIT
1070
     0
1002
}
1002
{
1000
NOSEL
1070
     0
1002
}
1002
{
1000
BEHIND
1070
     0
1002
}
1002
{
1000
OTHER
1070
     0
1002
}
1002
{
1000
REACTOR
1002
}
  0
ARC
  5
178B6
  8
AM_0
 10
574.34706813717366
 20
617.17019602694597
 30
0.0
 40
2.9999999999999978
 50
270.0
 51
324.31466528734529
1001
GENIUS_GENOBJ-N-FIL_13
1002
{
1000
OWNER
1000
GEN
1002
}
1001
GENIUS_GENODEF_13
1002
{
1000
HIER
1070
     0
1002
}
1002
{
1000
MANEDIT
1070
     0
1002
}
1002
{
1000
NOSEL
1070
     0
1002
}
1002
{
1000
BEHIND
1070
     0
1002
}
1002
{
1000
OTHER
1070
     0
1002
}
1002
{
1000
REACTOR
1002
}
  0
ARC
  5
178B7
  8
AM_0
 10
569.44828110761216
 20
612.1701960269462
 30
0.0
 40
2.0
 50
89.999999999999986
 51
175.00000000000011
1001
GENIUS_GENOBJ-N-FIL_13
1002
{
1000
OWNER
1000
GEN
1002
}
1001
GENIUS_GENODEF_13
1002
{
1000
HIER
1070
     0
1002
}
1002
{
1000
MANEDIT
1070
     0
1002
}
1002
{
1000
NOSEL
1070
     0
1002
}
1002
{
1000
BEHIND
1070
     0
1002
}
1002
{
1000
OTHER
1070
     0
1002
}
1002
{
1000
REACTOR
1002
}
  0
ARC
  5
178B8
  8
AM_0
 10
551.48586152939117
 20
601.67021011665474
 30
0.0
 40
2.0
 50
181.000011773556
 51
270.0
1001
GENIUS_GENOBJ-N-FIL_13
1002
{
1000
OWNER
1000
GEN
1002
}
1001
GENIUS_GENODEF_13
1002
{
1000
HIER
1070
     0
1002
}
1002
{
1000
MANEDIT
1070
     0
1002
}
1002
{
1000
NOSEL
1070
     0
1002
}
1002
{
1000
BEHIND
1070
     0
1002
}
1002
{
1000
OTHER
1070
     0
1002
}
1002
{
1000
REACTOR
1002
}
  0
LINE
  5
178B9
  8
AM_0
 10
479.34703548872852
 20
499.67019944742282
 30
0.0
 11
479.34703548872852
 21
503.67019956663188
 31
0.0
  0
LINE
  5
178BA
  8
ﾁｭｳｼﾝｾﾝ1
 10
441.84703437114138
 20
437.66319493796112
 30
0.0
 11
441.84703437114149
 21
614.67021035507298
 31
0.0
  0
LINE
  5
178BB
  8
ｶｸﾚｾﾝ2
 10
396.34703301513639
 20
601.67020248725964
 30
0.0
 11
396.34703301513639
 21
503.67019193723729
 31
0.0
  0
LINE
  5
178BC
  8
ﾁｭｳｼﾝｾﾝ1
 10
390.84703285122328
 20
605.42020630195725
 30
0.0
 11
390.84703285122328
 21
499.92019575193478
 31
0.0
  0
LINE
  5
178BD
  8
ｶｸﾚｾﾝ2
 10
385.34703268731067
 20
601.67020248725964
 30
0.0
 11
385.34703268731067
 21
503.67019193723729
 31
0.0
  0
LINE
  5
178BE
  8
AM_0
 10
378.84703249359529
 20
523.67020016267884
 30
0.0
 11
380.20851324706132
 21
601.67021011665474
 31
0.0
  0
LINE
  5
178C2
  8
AM_0
 10
469.84703437114121
 20
505.67019956663228
 30
0.0
 11
469.84703437114121
 21
510.67019956663228
 31
0.0
  0
LINE
  5
178C3
  8
AM_0
 10
468.84703437114109
 20
503.67019956663211
 30
0.0
 11
468.84703437114109
 21
510.67019956663228
 31
0.0
  0
ARC
  5
178C4
  8
AM_0
 10
470.84703437114121
 20
505.67019956663228
 30
0.0
 40
1.0
 50
180.0
 51
270.0
1001
GENIUS_GENOBJ-N-FIL_13
1002
{
1000
OWNER
1000
GEN
1002
}
1001
GENIUS_GENODEF_13
1002
{
1000
HIER
1070
     0
1002
}
1002
{
1000
MANEDIT
1070
     0
1002
}
1002
{
1000
NOSEL
1070
     0
1002
}
1002
{
1000
BEHIND
1070
     0
1002
}
1002
{
1000
OTHER
1070
     0
1002
}
1002
{
1000
REACTOR
1002
}
  0
LINE
  5
178C5
  8
AM_0
 10
404.3470332535544
 20
605.67021023586358
 30
0.0
 11
404.3470332535544
 21
601.6702101166544
 31
0.0
  0
LINE
  5
178C6
  8
AM_0
 10
379.19612308017088
 20
503.67019956663228
 30
0.0
 11
378.84703249359529
 21
523.67020016267884
 31
0.0
  0
LINE
  5
178C7
  8
AM_0
 10
404.3470332535544
 20
499.67019944742282
 30
0.0
 11
404.3470332535544
 21
503.67019956663188
 31
0.0
  0
LINE
  5
178C8
  8
0
 10
455.8470343711416
 20
442.66319493796101
 30
0.0
 11
455.8470343711416
 21
484.6631949379609
 31
0.0
  0
LINE
  5
178C9
  8
0
 10
427.84703437114172
 20
442.66319493796101
 30
0.0
 11
427.84703437114172
 21
484.6631949379609
 31
0.0
  0
LINE
  5
178CA
  8
AM_0
 10
427.84703437114172
 20
442.66319493796101
 30
0.0
 11
455.8470343711416
 21
442.66319493796101
 31
0.0
  0
LINE
  5
178CB
  8
0
 10
445.8470343711416
 20
474.6631949379609
 30
0.0
 11
437.8470343711416
 21
474.6631949379609
 31
0.0
  0
LINE
  5
178CC
  8
0
 10
459.34703437114138
 20
484.6631949379609
 30
0.0
 11
424.3470343711416
 21
484.6631949379609
 31
0.0
  0
LINE
  5
178CD
  8
0
 10
459.34703437114138
 20
484.6631949379609
 30
0.0
 11
464.34703504169369
 21
495.67019932821307
 31
0.0
  0
LINE
  5
178CE
  8
AM_0
 10
464.34703504169369
 20
495.67019932821307
 30
0.0
 11
419.34703370058952
 21
495.67019932821307
 31
0.0
  0
LINE
  5
178CF
  8
AM_0
 10
464.34703504169369
 20
495.67019932821307
 30
0.0
 11
464.34703504169369
 21
499.67019944742282
 31
0.0
  0
LINE
  5
178D0
  8
0
 10
424.3470343711416
 20
484.6631949379609
 30
0.0
 11
419.34703370058952
 21
495.67019932821307
 31
0.0
  0
LINE
  5
178D1
  8
AM_0
 10
419.34703370058952
 20
495.67019932821307
 30
0.0
 11
419.34703370058952
 21
499.67019944742282
 31
0.0
  0
LINE
  5
178D2
  8
AM_0
 10
445.84703437114149
 20
442.66319493796101
 30
0.0
 11
445.8470343711416
 21
474.66319493796112
 31
0.0
  0
LINE
  5
178D3
  8
AM_0
 10
437.84703437114138
 20
442.66319493796101
 30
0.0
 11
437.8470343711416
 21
474.66319493796112
 31
0.0
  0
ARC
  5
178D4
  8
AM_0
 10
441.8470343711416
 20
474.6631949379609
 30
0.0
 40
4.0
 50
0.000000000000007
 51
180.0
  0
LINE
  5
178D5
  8
AM_0
 10
720.34709813717359
 20
616.56018102694566
 30
0.0
 11
667.34709813717348
 21
616.56018102694588
 31
0.0
  0
LINE
  5
178D6
  8
AM_0
 10
720.34709813717359
 20
617.91019102694577
 30
0.0
 11
667.34709813717348
 21
617.91019102694577
 31
0.0
  0
LINE
  5
178D7
  8
AM_0
 10
720.34709813717359
 20
618.59018102694574
 30
0.0
 11
667.34709813717348
 21
618.59018102694574
 31
0.0
  0
LINE
  5
178D8
  8
AM_0
 10
720.34709813717359
 20
488.78019002694572
 30
0.0
 11
667.34709813717348
 21
488.78019002694572
 31
0.0
  0
LINE
  5
178D9
  8
AM_0
 10
720.34709813717359
 20
487.43017602694579
 30
0.0
 11
667.34709813717348
 21
487.43017602694579
 31
0.0
  0
LINE
  5
178DA
  8
AM_0
 10
720.34709813717359
 20
486.76019402694578
 30
0.0
 11
667.34709813717348
 21
486.76019402694578
 31
0.0
  0
LINE
  5
178DB
  8
AM_0
 10
698.34709813717359
 20
506.32018102694582
 30
0.0
 11
596.34709813717348
 21
506.32018102694582
 31
0.0
  0
LINE
  5
178DC
  8
AM_0
 10
698.34709813717359
 20
599.02019102694567
 30
0.0
 11
596.34709813717348
 21
599.02019102694567
 31
0.0
  0
LINE
  5
178DD
  8
AM_0
 10
602.99706813717341
 20
516.67020102694585
 30
0.0
 11
737.79704813717331
 21
516.67020102694573
 31
0.0
  0
LINE
  5
178DE
  8
AM_0
 10
729.66710813717373
 20
589.3901810269457
 30
0.0
 11
599.52709813717365
 21
589.3901810269457
 31
0.0
  0
LINE
  5
178DF
  8
AM_0
 10
602.99706813717341
 20
588.67020102694573
 30
0.0
 11
728.79704813717342
 21
588.67020102694573
 31
0.0
  0
LINE
  5
178E0
  8
AM_0
 10
720.34709813717359
 20
614.53018102694557
 30
0.0
 11
603.53710813717362
 21
614.53018102694591
 31
0.0
  0
LINE
  5
178E1
  8
AM_0
 10
720.34709813717359
 20
490.81018902694581
 30
0.0
 11
603.53710813717362
 21
490.81018902694581
 31
0.0
  0
LINE
  5
178E2
  8
AM_0
 10
743.34709813717336
 20
610.10019102694571
 30
0.0
 11
743.34709813717336
 21
552.67020102694573
 31
0.0
  0
ARC
  5
178E3
  8
AM_0
 10
723.84746813717345
 20
498.18982002694582
 30
0.0
 40
1.5003600999999991
 50
90.013814999999994
 51
179.9861839999985
  0
LINE
  5
178E4
  8
AM_0
 10
739.12706813717364
 20
495.99018202694577
 30
0.0
 11
740.08708813717362
 21
500.45019602694578
 31
0.0
  0
LINE
  5
178E5
  8
AM_0
 10
743.34709813717336
 20
495.24019702694568
 30
0.0
 11
743.34709813717336
 21
552.67020102694573
 31
0.0
  0
ARC
  5
178E6
  8
AM_0
 10
720.34599813717364
 20
488.75661502694561
 30
0.0
 40
1.996427999999999
 50
270.0323900000019
 51
345.30536999999958
  0
ARC
  5
178E7
  8
AM_0
 10
720.34728813717356
 20
489.43000902694581
 30
0.0
 40
1.999824
 50
269.99493999999868
 51
0.0050600000012224
  0
ARC
  5
178E8
  8
AM_0
 10
720.34459813717342
 20
490.78270002694569
 30
0.0
 40
2.0025157999999981
 50
270.0718999999998
 51
359.92810000000009
  0
ARC
  5
178E9
  8
AM_0
 10
720.34545813717364
 20
492.81182902694559
 30
0.0
 40
2.001640099999999
 50
270.04695999999808
 51
359.95303999999533
  0
LINE
  5
178EA
  8
AM_0
 10
737.20708813717374
 20
491.00018402694559
 30
0.0
 11
723.84709813717359
 21
491.00018402694559
 31
0.0
  0
LINE
  5
178EB
  8
AM_0
 10
737.23711813717364
 20
489.37017902694572
 30
0.0
 11
723.73711813717364
 21
489.37017902694572
 31
0.0
  0
LINE
  5
178EC
  8
AM_0
 10
737.17705813717362
 20
494.41018002694568
 30
0.0
 11
723.84709813717359
 21
494.41018002694568
 31
0.0
  0
LINE
  5
178ED
  8
AM_0
 10
739.17705813717362
 20
490.88019602694578
 30
0.0
 11
740.05705813717373
 21
494.4201970269458
 31
0.0
  0
ARC
  5
178EE
  8
AM_0
 10
737.20915813717374
 20
493.00212202694581
 30
0.0
 40
2.001947899999998
 50
269.94051999999891
 51
346.6588600000016
  0
ARC
  5
178EF
  8
AM_0
 10
737.23467813717355
 20
491.37449702694579
 30
0.0
 40
2.0043239999999991
 50
270.0689100000011
 51
345.72195000000039
  0
LINE
  5
178F0
  8
AM_0
 10
741.53710813717362
 20
497.57019102694568
 30
0.0
 11
739.47710813717345
 21
497.57019102694568
 31
0.0
  0
LINE
  5
178F1
  8
AM_0
 10
741.5170881371738
 20
495.55019402694569
 30
0.0
 11
739.86705813717344
 21
495.55019402694569
 31
0.0
  0
LINE
  5
178F2
  8
AM_0
 10
743.34709813717336
 20
495.2401820269456
 30
0.0
 11
740.52709813717365
 21
495.17018202694572
 31
0.0
  0
ARC
  5
178F3
  8
AM_0
 10
741.51213813717357
 20
494.04840902694571
 30
0.0
 40
1.501779999999999
 50
89.810617000000804
 51
165.66716400000041
  0
ARC
  5
178F4
  8
AM_0
 10
741.53276813717355
 20
496.07385302694581
 30
0.0
 40
1.4963319999999991
 50
89.8354099999992
 51
166.61756199999849
  0
LINE
  5
178F5
  8
AM_0
 10
739.15709813717342
 20
492.54017702694568
 30
0.0
 11
740.07713813717373
 21
496.4201740269458
 31
0.0
  0
ARC
  5
178F6
  8
AM_0
 10
737.17516813717361
 20
496.40589202694571
 30
0.0
 40
1.995695899999999
 50
270.05521999999718
 51
347.9774699999997
  0
ARC
  5
178F7
  8
AM_0
 10
723.8456981371736
 20
489.50162602694559
 30
0.0
 40
1.498559999999999
 50
89.944884999996873
 51
180.05511999999931
  0
LINE
  5
178F8
  8
AM_0
 10
722.34709813717336
 20
490.78018302694568
 30
0.0
 11
722.34709813717336
 21
498.19018602694581
 31
0.0
  0
ARC
  5
178F9
  8
AM_0
 10
723.72838813717362
 20
487.86990402694579
 30
0.0
 40
1.5003120000000001
 50
89.668336999999084
 51
165.31696600000021
  0
ARC
  5
178FA
  8
AM_0
 10
723.84862813717336
 20
492.9086690269458
 30
0.0
 40
1.5015080999999979
 50
90.057548999996854
 51
179.94245300200009
  0
ARC
  5
178FB
  8
AM_0
 10
738.8870781371736
 20
527.65018102694569
 30
0.0
 40
1.4599999999999991
 50
270.0
 51
89.999997000002296
  0
LINE
  5
178FC
  8
AM_0
 10
602.99706813717341
 20
518.67019102694587
 30
0.0
 11
737.79704813717331
 21
518.67019102694564
 31
0.0
  0
LINE
  5
178FD
  8
AM_0
 10
600.40212813717335
 20
526.67018692694592
 30
0.0
 11
737.79704813717331
 21
526.67018102694578
 31
0.0
  0
LINE
  5
178FE
  8
AM_0
 10
600.40212808481351
 20
528.67019512694583
 30
0.0
 11
737.79704813717331
 21
528.67020102694573
 31
0.0
  0
LINE
  5
178FF
  8
AM_0
 10
738.8870781371736
 20
526.19019102694574
 30
0.0
 11
599.31209813717351
 21
526.19018102694565
 31
0.0
  0
LINE
  5
17900
  8
AM_0
 10
698.34703813717374
 20
506.32019102694579
 30
0.0
 11
733.34703813717374
 21
508.35019102694582
 31
0.0
  0
LINE
  5
17901
  8
AM_0
 10
733.34709813717359
 20
504.32019102694568
 30
0.0
 11
733.34709813717359
 21
516.01019141481424
 31
0.0
  0
ARC
  5
17902
  8
AM_0
 10
734.17687813717362
 20
511.07731102694572
 30
0.0
 40
5.0021839000000003
 50
99.548574999998323
 51
174.5754740000024
  0
LINE
  5
17903
  8
AM_0
 10
743.34709813717336
 20
509.98019102694587
 30
0.0
 11
733.34709813717359
 21
509.98019102694587
 31
0.0
  0
LINE
  5
17904
  8
AM_0
 10
743.34709813717336
 20
504.32019102694568
 30
0.0
 11
733.34709813717359
 21
504.32019102694568
 31
0.0
  0
LINE
  5
17905
  8
AM_0
 10
737.11711813717375
 20
499.69018602694581
 30
0.0
 11
723.84709813717359
 21
499.69018602694581
 31
0.0
  0
LINE
  5
17906
  8
AM_0
 10
741.55712813717344
 20
501.64019102694579
 30
0.0
 11
739.1370781371736
 21
501.64019102694579
 31
0.0
  0
ARC
  5
17907
  8
AM_0
 10
741.55693813717335
 20
500.13739802694568
 30
0.0
 40
1.5027881000000001
 50
89.995332000003089
 51
167.98665799999739
  0
LINE
  5
17908
  8
AM_0
 10
739.62706813717364
 20
504.32019102694568
 30
0.0
 11
739.08702813717343
 21
501.33017002694572
 31
0.0
  0
ARC
  5
17909
  8
AM_0
 10
737.1201081371737
 20
501.68981202694567
 30
0.0
 40
1.9996280999999989
 50
269.91467
 51
349.63923999999753
  0
ARC
  5
1790A
  8
AM_0
 10
733.71684813717366
 20
515.01669102694575
 30
0.0
 40
6.007896399999999
 50
225.38273000000689
 51
266.47155000000168
  0
ARC
  5
1790B
  8
AM_0
 10
730.20055813717363
 20
511.4612810269457
 30
0.0
 40
1.007376
 50
174.93659510000259
 51
225.70967999999641
  0
LINE
  5
1790C
  8
AM_0
 10
743.34709813717336
 20
518.37019102694569
 30
0.0
 11
740.17705813717362
 21
518.37019102694569
 31
0.0
  0
ARC
  5
1790D
  8
AM_0
 10
737.7970455072516
 20
517.67018397694585
 30
0.0
 40
1.000007050003423
 50
270.00015068234609
 51
89.999849317653798
  0
ARC
  5
1790E
  8
AM_0
 10
738.66710813717373
 20
517.62518102694582
 30
0.0
 40
1.6750081000000001
 50
270.0
 51
89.999997000002296
  0
ARC
  5
1790F
  8
AM_0
 10
737.79704813717331
 20
527.67019102694576
 30
0.0
 40
1.0000040999999991
 50
270.0
 51
89.999997000002296
  0
ARC
  5
17910
  8
AM_0
 10
721.34709813717348
 20
517.67018102694578
 30
0.0
 40
1.0000040999999991
 50
270.0
 51
89.999997000002296
  0
ARC
  5
17911
  8
AM_0
 10
721.34709813717348
 20
527.67019102694576
 30
0.0
 40
1.0000040999999991
 50
270.0
 51
89.999997000002296
  0
LINE
  5
17912
  8
AM_0
 10
600.41212249029513
 20
548.67017905761679
 30
0.0
 11
737.78710813717362
 21
548.67020102694573
 31
0.0
  0
LINE
  5
17913
  8
AM_0
 10
739.07707813717354
 20
548.94019102694574
 30
0.0
 11
599.12209807067632
 21
548.94018502694576
 31
0.0
  0
LINE
  5
17914
  8
AM_0
 10
739.07707813717354
 20
556.41019102694565
 30
0.0
 11
599.12209813717357
 21
556.41016702694583
 31
0.0
  0
LINE
  5
17915
  8
AM_0
 10
739.07707813717354
 20
558.94019102694574
 30
0.0
 11
599.12209807093814
 21
558.94017502694567
 31
0.0
  0
LINE
  5
17916
  8
AM_0
 10
600.41212259501469
 20
556.67018299718745
 30
0.0
 11
737.78710813717362
 21
556.67018102694556
 31
0.0
  0
LINE
  5
17917
  8
AM_0
 10
600.41212249029513
 20
558.67017905761656
 30
0.0
 11
737.78710813717362
 21
558.67020102694573
 31
0.0
  0
LINE
  5
17918
  8
AM_0
 10
739.07707813717354
 20
546.40019102694566
 30
0.0
 11
599.12209813717357
 21
546.40017702694593
 31
0.0
  0
LINE
  5
17919
  8
AM_0
 10
738.8870781371736
 20
529.11020102694556
 30
0.0
 11
599.31209806072809
 21
529.11018102694584
 31
0.0
  0
LINE
  5
1791A
  8
AM_0
 10
739.01708813717346
 20
536.33018102694575
 30
0.0
 11
599.18208813717365
 21
536.33020102694582
 31
0.0
  0
LINE
  5
1791B
  8
AM_0
 10
600.41212259501469
 20
536.67020299718729
 30
0.0
 11
737.78710813717362
 21
536.67020102694573
 31
0.0
  0
LINE
  5
1791C
  8
AM_0
 10
739.01708813717346
 20
538.99019102694581
 30
0.0
 11
599.18208806753501
 21
538.9902010269459
 31
0.0
  0
LINE
  5
1791D
  8
AM_0
 10
600.41212259501469
 20
546.67018299718745
 30
0.0
 11
737.78710813717362
 21
546.67020102694573
 31
0.0
  0
LINE
  5
1791E
  8
AM_0
 10
600.41212249029513
 20
538.67019905761663
 30
0.0
 11
737.78710813717362
 21
538.67018102694578
 31
0.0
  0
ARC
  5
1791F
  8
AM_0
 10
737.79576813717358
 20
537.67020102694573
 30
0.0
 40
1.000035999999999
 50
269.50070999999838
 51
90.499283999999861
  0
ARC
  5
17920
  8
AM_0
 10
739.01708813717346
 20
537.66020102694574
 30
0.0
 40
1.3300000000000001
 50
270.0
 51
89.999997000002296
  0
ARC
  5
17921
  8
AM_0
 10
721.34709813717348
 20
537.67020102694573
 30
0.0
 40
1.0000040999999991
 50
270.0
 51
89.999997000002296
  0
ARC
  5
17922
  8
AM_0
 10
739.07707813717354
 20
547.67018102694578
 30
0.0
 40
1.270003999999999
 50
270.0
 51
89.999997000002296
  0
ARC
  5
17923
  8
AM_0
 10
737.79576813717358
 20
547.67018102694578
 30
0.0
 40
1.000035999999999
 50
269.50070999999838
 51
90.499283999999861
  0
ARC
  5
17924
  8
AM_0
 10
737.79576813717358
 20
557.67018102694556
 30
0.0
 40
1.000035999999999
 50
269.50070999999838
 51
90.499283999999861
  0
ARC
  5
17925
  8
AM_0
 10
739.07707813717354
 20
557.6751710269458
 30
0.0
 40
1.265004
 50
270.0
 51
89.999997000002296
  0
ARC
  5
17926
  8
AM_0
 10
721.34709813717348
 20
547.67018102694578
 30
0.0
 40
1.0000040999999991
 50
270.0
 51
89.999997000002296
  0
ARC
  5
17927
  8
AM_0
 10
721.34709813717348
 20
557.67018102694556
 30
0.0
 40
1.0000040999999991
 50
270.0
 51
89.999997000002296
  0
ARC
  5
17928
  8
AM_0
 10
734.18218813717351
 20
594.26796102694573
 30
0.0
 40
5.0078917000000001
 50
185.4746799999993
 51
260.40127999999891
  0
LINE
  5
17929
  8
AM_0
 10
733.34709813717359
 20
601.0201710269456
 30
0.0
 11
733.34709813717359
 21
586.98018102694573
 31
0.0
  0
LINE
  5
1792A
  8
AM_0
 10
739.01708813717346
 20
566.35019102694571
 30
0.0
 11
599.18208813717365
 21
566.35019102694571
 31
0.0
  0
LINE
  5
1792B
  8
AM_0
 10
739.01708813717346
 20
569.0101810269457
 30
0.0
 11
599.18208806753501
 21
569.0101910269459
 31
0.0
  0
LINE
  5
1792C
  8
AM_0
 10
729.8870781371736
 20
576.2301910269457
 30
0.0
 11
599.31708813717364
 21
576.2301910269457
 31
0.0
  0
LINE
  5
1792D
  8
AM_0
 10
729.8870781371736
 20
579.1601710269457
 30
0.0
 11
599.31708806046618
 21
579.16019102694577
 31
0.0
  0
LINE
  5
1792E
  8
AM_0
 10
600.41212259501469
 20
566.67020299718752
 30
0.0
 11
737.78710813717362
 21
566.67018102694556
 31
0.0
  0
LINE
  5
1792F
  8
AM_0
 10
600.41212249029513
 20
568.67019905761674
 30
0.0
 11
737.78710813717362
 21
568.67018102694567
 31
0.0
  0
LINE
  5
17930
  8
AM_0
 10
600.4071181371736
 20
576.67017692694571
 30
0.0
 11
728.79704813717342
 21
576.67020102694573
 31
0.0
  0
LINE
  5
17931
  8
AM_0
 10
600.40711808481365
 20
578.67018512694608
 30
0.0
 11
728.79704813717342
 21
578.67018102694556
 31
0.0
  0
LINE
  5
17932
  8
AM_0
 10
602.99708713729581
 20
586.67018267267781
 30
0.0
 11
728.79704813717342
 21
586.67018102694556
 31
0.0
  0
ARC
  5
17933
  8
AM_0
 10
739.01708813717346
 20
567.68019102694575
 30
0.0
 40
1.3300000000000001
 50
270.0
 51
89.999997000002296
  0
ARC
  5
17934
  8
AM_0
 10
737.79576813717358
 20
567.67020102694573
 30
0.0
 40
1.000035999999999
 50
269.50070999999838
 51
90.499283999999861
  0
ARC
  5
17935
  8
AM_0
 10
721.34709813717348
 20
567.67020102694573
 30
0.0
 40
1.0000040999999991
 50
270.0
 51
89.999997000002296
  0
LINE
  5
17936
  8
AM_0
 10
743.34709813717336
 20
586.98018102694573
 30
0.0
 11
733.34709813717359
 21
586.98018102694573
 31
0.0
  0
ARC
  5
17937
  8
AM_0
 10
728.79704813717342
 20
577.67018102694556
 30
0.0
 40
1.0000040999999991
 50
270.0
 51
89.999997000002296
  0
ARC
  5
17938
  8
AM_0
 10
729.8870781371736
 20
577.69519102694574
 30
0.0
 40
1.4650000000000001
 50
270.0
 51
89.999997000002296
  0
ARC
  5
17939
  8
AM_0
 10
721.34709813717348
 20
577.67018102694556
 30
0.0
 40
1.0000040999999991
 50
270.0
 51
89.999997000002296
  0
ARC
  5
1793A
  8
AM_0
 10
728.79704813717342
 20
587.67018102694556
 30
0.0
 40
1.0000040999999991
 50
270.0
 51
89.999997000002296
  0
ARC
  5
1793B
  8
AM_0
 10
729.66710813717373
 20
587.71518102694574
 30
0.0
 40
1.6750081000000001
 50
270.0
 51
89.999997000002296
  0
ARC
  5
1793C
  8
AM_0
 10
721.34709813717348
 20
587.67018102694556
 30
0.0
 40
1.0000040999999991
 50
270.0
 51
89.999997000002296
  0
LINE
  5
1793D
  8
AM_0
 10
698.34709813717359
 20
599.02017102694572
 30
0.0
 11
733.34709813717359
 21
596.99017102694575
 31
0.0
  0
ARC
  5
1793E
  8
AM_0
 10
720.34459813717342
 20
616.59534102694556
 30
0.0
 40
1.994844099999999
 50
14.362799999999631
 51
89.928342000002075
  0
ARC
  5
1793F
  8
AM_0
 10
720.35253813717372
 20
615.9156210269457
 30
0.0
 40
1.9945760999999991
 50
359.84400999999713
 51
90.155991999999998
  0
ARC
  5
17940
  8
AM_0
 10
720.34984813717347
 20
614.56297102694566
 30
0.0
 40
1.9972080000000001
 50
359.91986000000099
 51
90.080142999999538
  0
ARC
  5
17941
  8
AM_0
 10
720.35069813717337
 20
612.53380102694575
 30
0.0
 40
1.996383999999999
 50
359.89615999999728
 51
90.103836999999956
  0
ARC
  5
17942
  8
AM_0
 10
723.85277813717335
 20
607.1558510269457
 30
0.0
 40
1.505676
 50
180.21552999999889
 51
269.78448000000111
  0
ARC
  5
17943
  8
AM_0
 10
737.1252381371736
 20
603.65675102694559
 30
0.0
 40
1.993431999999999
 50
10.21196999999977
 51
90.234116000000725
  0
LINE
  5
17944
  8
AM_0
 10
739.12706813717364
 20
609.36018102694572
 30
0.0
 11
740.08708813717362
 21
604.89018102694558
 31
0.0
  0
LINE
  5
17945
  8
AM_0
 10
743.34709813717336
 20
601.0201710269456
 30
0.0
 11
733.34709813717359
 21
601.0201710269456
 31
0.0
  0
LINE
  5
17946
  8
AM_0
 10
743.34709813717336
 20
595.36018102694572
 30
0.0
 11
733.34709813717359
 21
595.36018102694572
 31
0.0
  0
LINE
  5
17947
  8
AM_0
 10
741.55712813717344
 20
603.71017102694577
 30
0.0
 11
739.1370781371736
 21
603.71017102694577
 31
0.0
  0
ARC
  5
17948
  8
AM_0
 10
741.55589813717381
 20
605.21432102694575
 30
0.0
 40
1.50414
 50
192.44475000000341
 51
270.04575000000142
  0
LINE
  5
17949
  8
AM_0
 10
739.62706813717364
 20
601.02019102694578
 30
0.0
 11
739.08702813717343
 21
604.01019102694568
 31
0.0
  0
ARC
  5
1794A
  8
AM_0
 10
730.19719813717347
 20
593.88034102694564
 30
0.0
 40
1.004135999999999
 50
134.20256399999931
 51
185.1511600000043
  0
ARC
  5
1794B
  8
AM_0
 10
733.72588813717346
 20
590.33824102694575
 30
0.0
 40
6.0039081999999979
 50
93.617285999997847
 51
134.77630699999949
  0
LINE
  5
1794C
  8
AM_0
 10
737.23711813717364
 20
615.97018102694574
 30
0.0
 11
723.73711813717364
 21
615.97018102694574
 31
0.0
  0
LINE
  5
1794D
  8
AM_0
 10
737.20708813717374
 20
614.34018102694574
 30
0.0
 11
723.84709813717359
 21
614.34018102694574
 31
0.0
  0
LINE
  5
1794E
  8
AM_0
 10
737.17705813717362
 20
610.94019102694574
 30
0.0
 11
723.84709813717359
 21
610.94019102694574
 31
0.0
  0
LINE
  5
1794F
  8
AM_0
 10
737.11711813717375
 20
605.65018102694557
 30
0.0
 11
723.84709813717359
 21
605.65018102694557
 31
0.0
  0
LINE
  5
17950
  8
AM_0
 10
739.17711813717381
 20
614.4602010269457
 30
0.0
 11
740.05712813717344
 21
610.9302110269457
 31
0.0
  0
ARC
  5
17951
  8
AM_0
 10
737.21428813717341
 20
612.34473102694574
 30
0.0
 40
1.9954841000000001
 50
13.194079999998561
 51
90.206542000000866
  0
LINE
  5
17952
  8
AM_0
 10
741.5170881371738
 20
609.79019102694565
 30
0.0
 11
739.86705813717344
 21
609.79019102694565
 31
0.0
  0
LINE
  5
17953
  8
AM_0
 10
743.34715813717355
 20
610.10019102694571
 30
0.0
 11
740.52709813717365
 21
610.17018102694567
 31
0.0
  0
ARC
  5
17954
  8
AM_0
 10
741.5187981371738
 20
611.29729102694569
 30
0.0
 40
1.5070961
 50
194.09782000000331
 51
269.9351799999983
  0
LINE
  5
17955
  8
AM_0
 10
741.53710813717362
 20
607.77017102694572
 30
0.0
 11
739.47710813717345
 21
607.77017102694572
 31
0.0
  0
ARC
  5
17956
  8
AM_0
 10
741.53789813717378
 20
609.27299102694565
 30
0.0
 40
1.5028081
 50
193.57782000000239
 51
269.96920999999838
  0
ARC
  5
17957
  8
AM_0
 10
737.17540813717369
 20
608.94479102694561
 30
0.0
 40
1.9953879999999991
 50
12.01538000000021
 51
89.951933000002214
  0
LINE
  5
17958
  8
AM_0
 10
739.15709813717342
 20
612.80019102694575
 30
0.0
 11
740.07713813717373
 21
608.92020102694573
 31
0.0
  0
ARC
  5
17959
  8
AM_0
 10
737.23979813717369
 20
613.97241102694557
 30
0.0
 40
1.9977800999999991
 50
14.1322300000031
 51
90.076919000002235
  0
LINE
  5
1795A
  8
AM_0
 10
722.34709813717336
 20
614.56018102694566
 30
0.0
 11
722.34709813717336
 21
607.15018102694569
 31
0.0
  0
ARC
  5
1795B
  8
AM_0
 10
723.84886813717367
 20
612.44197102694568
 30
0.0
 40
1.5017959999999979
 50
180.06854999999891
 51
269.93145000000101
  0
ARC
  5
1795C
  8
AM_0
 10
723.73345813717344
 20
617.47708102694571
 30
0.0
 40
1.506888
 50
194.8769300000051
 51
270.1377700000005
  0
ARC
  5
1795D
  8
AM_0
 10
723.85094813717365
 20
615.84402102694571
 30
0.0
 40
1.503848099999999
 50
180.14640000000301
 51
269.85359999999702
  0
LINE
  5
1795E
  8
AM_0
 10
596.34709813717348
 20
615.67019602694631
 30
0.0
 11
596.34709812098095
 21
489.67022705111123
 31
0.0
  0
LINE
  5
1795F
  8
ﾁｭｳｼﾝｾﾝ1
 10
647.34709813717336
 20
591.67020102694573
 30
0.0
 11
647.34709813717336
 21
513.67020102694585
 31
0.0
1001
GENIUS_GENODEF_13
1002
{
1000
HIER
1070
     0
1002
}
1002
{
1000
MANEDIT
1070
     0
1002
}
1002
{
1000
NOSEL
1070
     0
1002
}
1002
{
1000
BEHIND
1070
     0
1002
}
1002
{
1000
REACTOR
1002
}
1001
GENIUS_GENOBJ-N-CEN_13
1002
{
1000
OWNER
1000
GEN
1002
}
  0
LINE
  5
17960
  8
AM_0
 10
599.53707813717381
 20
493.75017602694578
 30
0.0
 11
598.09706813717355
 21
500.45017302694589
 31
0.0
  0
LINE
  5
17961
  8
AM_0
 10
601.60707813717363
 20
492.2901770269458
 30
0.0
 11
598.14708813717345
 21
505.2101830269458
 31
0.0
  0
ARC
  5
17962
  8
AM_0
 10
667.34795813717358
 20
488.76105602694571
 30
0.0
 40
2.0008759
 50
180.02511000000229
 51
269.97488999999757
  0
ARC
  5
17963
  8
AM_0
 10
667.34941813717364
 20
489.43252602694582
 30
0.0
 40
2.002332
 50
180.06674000000129
 51
269.93325999999871
  0
ARC
  5
17964
  8
AM_0
 10
667.35210813717356
 20
490.78519502694581
 30
0.0
 40
2.0050240000000001
 50
180.1434100000013
 51
269.85658999999868
  0
LINE
  5
17965
  8
AM_0
 10
665.34709813717359
 20
488.76018602694569
 30
0.0
 11
665.34709813717359
 21
490.81018902694581
 31
0.0
  0
LINE
  5
17966
  8
AM_0
 10
601.63710813717341
 20
492.17018202694589
 30
0.0
 11
596.34709813717348
 21
492.17018202694589
 31
0.0
  0
ARC
  5
17967
  8
AM_0
 10
603.54167813717345
 20
492.81459902694593
 30
0.0
 40
2.0044159999999991
 50
195.16665999999921
 51
269.86852000000118
  0
ARC
  5
17968
  8
AM_0
 10
601.49776813717347
 20
494.17672002694587
 30
0.0
 40
2.0065319999999991
 50
192.27313000000419
 51
269.98073000000318
  0
LINE
  5
17969
  8
AM_0
 10
595.34709813717359
 20
488.67021602694598
 30
0.0
 11
588.34706813717355
 21
488.67021602694598
 31
0.0
  0
ARC
  5
1796A
  8
AM_0
 10
595.34691813717359
 20
489.67040702694612
 30
0.0
 40
1.000179999999999
 50
270.01032000000009
 51
359.98968999999448
  0
LINE
  5
1796B
  8
AM_0
 10
738.66710813717373
 20
515.95018102694576
 30
0.0
 11
599.52709813717365
 21
515.95018102694587
 31
0.0
  0
LINE
  5
1796C
  8
AM_0
 10
596.63707813717338
 20
501.6401910269459
 30
0.0
 11
599.0470781371738
 21
501.6401910269459
 31
0.0
  0
ARC
  5
1796D
  8
AM_0
 10
596.70177813717351
 20
504.82418902694587
 30
0.0
 40
1.495995999999999
 50
14.952339999994781
 51
90.178293000000224
  0
LINE
  5
1796E
  8
AM_0
 10
595.34709813717359
 20
500.63018102694582
 30
0.0
 11
588.34706813717355
 21
500.63018102694582
 31
0.0
  0
ARC
  5
1796F
  8
AM_0
 10
595.34761813717364
 20
501.62966202694582
 30
0.0
 40
0.9994760199999999
 50
269.9700799999996
 51
0.0299099999979561
  0
ARC
  5
17970
  8
AM_0
 10
596.64000813717371
 20
500.14085502694581
 30
0.0
 40
1.499328
 50
11.90615999999928
 51
90.111848999999864
  0
ARC
  5
17971
  8
AM_0
 10
599.52709813717365
 20
517.62518102694582
 30
0.0
 40
1.675
 50
89.999997000002296
 51
270.0
  0
LINE
  5
17972
  8
AM_0
 10
599.52709813717365
 20
519.30019102694575
 30
0.0
 11
738.66710813717373
 21
519.30019102694575
 31
0.0
  0
ARC
  5
17973
  8
AM_0
 10
603.00527813717372
 20
517.6701810269459
 30
0.0
 40
1.000031899999998
 50
90.469299999997858
 51
269.53070000000201
  0
LINE
  5
17974
  8
AM_0
 10
596.34709813717348
 20
515.52018102694592
 30
0.0
 11
588.34706813717355
 21
515.52018102694592
 31
0.0
  0
ARC
  5
17975
  8
AM_0
 10
667.34770813717364
 20
616.58957102694569
 30
0.0
 40
2.000623899999999
 50
90.017824000002122
 51
179.98217599900121
  0
ARC
  5
17976
  8
AM_0
 10
667.34416813717371
 20
615.91310102694558
 30
0.0
 40
1.9970881
 50
89.916374999999235
 51
180.08362000000139
  0
ARC
  5
17977
  8
AM_0
 10
667.34685813717374
 20
614.56045102694588
 30
0.0
 40
1.9997199999999991
 50
89.991937999999706
 51
180.00806000000401
  0
LINE
  5
17978
  8
AM_0
 10
665.34709813717359
 20
616.59018102694574
 30
0.0
 11
665.34709813717359
 21
614.53018102694591
 31
0.0
  0
ARC
  5
17979
  8
AM_0
 10
599.52709813717365
 20
587.71518102694586
 30
0.0
 40
1.675
 50
89.999997000002296
 51
270.0
  0
LINE
  5
1797A
  8
AM_0
 10
599.52709813717365
 20
586.0401810269459
 30
0.0
 11
729.66710813717373
 21
586.04018102694567
 31
0.0
  0
ARC
  5
1797B
  8
AM_0
 10
603.00527813717372
 20
587.6701810269459
 30
0.0
 40
1.000031899999998
 50
90.469299999997858
 51
269.53070000000201
  0
LINE
  5
1797C
  8
AM_0
 10
596.34709813717348
 20
589.82019102694574
 30
0.0
 11
588.34706813717355
 21
589.82019102694574
 31
0.0
  0
LINE
  5
1797D
  8
AM_0
 10
601.60707813717363
 20
613.05019102694575
 30
0.0
 11
598.14708813717345
 21
600.13017102694585
 31
0.0
  0
LINE
  5
1797E
  8
AM_0
 10
599.53710813717362
 20
611.59022102694576
 30
0.0
 11
598.09709813717348
 21
604.89023102694591
 31
0.0
  0
LINE
  5
1797F
  8
AM_0
 10
596.63707813717338
 20
603.71017102694589
 30
0.0
 11
599.0470781371738
 21
603.71017102694589
 31
0.0
  0
LINE
  5
17980
  8
AM_0
 10
595.34709813717359
 20
604.71019102694572
 30
0.0
 11
588.34706813717355
 21
604.71019102694572
 31
0.0
  0
ARC
  5
17981
  8
AM_0
 10
596.6968281371735
 20
600.52258102694577
 30
0.0
 40
1.502391899999999
 50
270.00936000000002
 51
344.85998999999839
  0
ARC
  5
17982
  8
AM_0
 10
595.35268813717335
 20
603.71580102694566
 30
0.0
 40
0.9944000200000001
 50
359.6764900000021
 51
90.323508999999945
  0
ARC
  5
17983
  8
AM_0
 10
596.64125813717328
 20
605.2106610269459
 30
0.0
 40
1.500475999999999
 50
269.84172000000018
 51
347.66777000000121
  0
LINE
  5
17984
  8
AM_0
 10
601.63710813717341
 20
613.1701810269459
 30
0.0
 11
596.34709813717348
 21
613.1701810269459
 31
0.0
  0
ARC
  5
17985
  8
AM_0
 10
601.49263813717346
 20
611.17001102694587
 30
0.0
 40
2.0001799999999981
 50
89.872485000002015
 51
167.87364800000199
  0
ARC
  5
17986
  8
AM_0
 10
603.53664813717364
 20
612.53238102694559
 30
0.0
 40
1.997795899999999
 50
89.986419000002854
 51
164.9784029999982
  0
LINE
  5
17987
  8
AM_0
 10
595.34709813717359
 20
616.67019602694609
 30
0.0
 11
588.34706813717355
 21
616.67019602694609
 31
0.0
  0
ARC
  5
17988
  8
AM_0
 10
595.3520481371736
 20
615.67515602694596
 30
0.0
 40
0.9950640200000001
 50
359.714940000002
 51
90.285061999999485
  0
ARC
  5
17989
  8
AM_0
 10
599.31708813717364
 20
577.69519102694574
 30
0.0
 40
1.4650000000000001
 50
90.00000299999769
 51
270.0
  0
ARC
  5
1798A
  8
AM_0
 10
600.4071181371736
 20
577.67018102694556
 30
0.0
 40
1.0000040999999991
 50
90.00000299999769
 51
270.0
  0
ARC
  5
1798B
  8
AM_0
 10
600.40340813717341
 20
567.67020102694573
 30
0.0
 40
1.000035999999999
 50
89.500716000000097
 51
270.49929000000162
  0
ARC
  5
1798C
  8
AM_0
 10
599.18208813717365
 20
567.68019102694586
 30
0.0
 40
1.3300000000000001
 50
90.00000299999769
 51
270.0
  0
ARC
  5
1798D
  8
AM_0
 10
599.12209813717357
 20
557.67517102694592
 30
0.0
 40
1.265004
 50
90.00000299999769
 51
270.0
  0
ARC
  5
1798E
  8
AM_0
 10
600.40340813717341
 20
557.6701810269459
 30
0.0
 40
1.000035999999999
 50
89.500716000000097
 51
270.49929000000162
  0
ARC
  5
1798F
  8
AM_0
 10
600.40340813717341
 20
547.67018102694578
 30
0.0
 40
1.000035999999999
 50
89.500716000000097
 51
270.49929000000162
  0
ARC
  5
17990
  8
AM_0
 10
599.12209813717357
 20
547.67018102694578
 30
0.0
 40
1.270003999999999
 50
90.00000299999769
 51
270.0
  0
ARC
  5
17991
  8
AM_0
 10
599.18208813717365
 20
537.66020102694586
 30
0.0
 40
1.3300000000000001
 50
90.00000299999769
 51
270.0
  0
ARC
  5
17992
  8
AM_0
 10
600.40340813717341
 20
537.67020102694585
 30
0.0
 40
1.000035999999999
 50
89.500716000000097
 51
270.49929000000162
  0
ARC
  5
17993
  8
AM_0
 10
600.40212813717335
 20
527.67019102694587
 30
0.0
 40
1.0000040999999991
 50
90.00000299999769
 51
270.0
  0
ARC
  5
17994
  8
AM_0
 10
599.31209813717351
 20
527.6501810269458
 30
0.0
 40
1.4599999999999991
 50
90.00000299999769
 51
270.0
  0
LINE
  5
17995
  8
ｶｸﾚｾﾝ2
 10
694.84709813717359
 20
516.67022434164255
 30
0.0
 11
611.34709813717359
 21
516.67022434164255
 31
0.0
  0
LINE
  5
17996
  8
ｶｸﾚｾﾝ2
 10
611.34709813717359
 20
588.67022434164255
 30
0.0
 11
694.84709813717359
 21
588.67022434164255
 31
0.0
  0
ARC
  5
17997
  8
ｶｸﾚｾﾝ2
 10
694.84709813717359
 20
585.17022434164255
 30
0.0
 40
3.5
 50
360.0
 51
89.999999999999986
  0
ARC
  5
17998
  8
ｶｸﾚｾﾝ2
 10
694.84709813717359
 20
520.17022434164232
 30
0.0
 40
3.5
 50
270.0
 51
360.0
  0
LINE
  5
17999
  8
ｶｸﾚｾﾝ2
 10
698.34709813717359
 20
585.17022434164232
 30
0.0
 11
698.34709813717257
 21
520.17022434164232
 31
0.0
  0
ARC
  5
1799A
  8
ｶｸﾚｾﾝ2
 10
611.84709813717359
 20
575.17022434164255
 30
0.0
 40
2.0
 50
360.0
 51
89.999999999999986
  0
ARC
  5
1799B
  8
ｶｸﾚｾﾝ2
 10
611.34709813717359
 20
586.67022434164255
 30
0.0
 40
2.0
 50
89.999999999999986
 51
180.0
  0
LINE
  5
1799C
  8
ｶｸﾚｾﾝ2
 10
611.34709813717359
 20
577.17022434164255
 30
0.0
 11
611.84709813717359
 21
577.17022434164255
 31
0.0
  0
ARC
  5
1799D
  8
ｶｸﾚｾﾝ2
 10
611.34709813717359
 20
579.17022434164255
 30
0.0
 40
2.0
 50
180.0
 51
270.0
  0
LINE
  5
1799E
  8
ｶｸﾚｾﾝ2
 10
609.34709813717336
 20
586.67022434164255
 30
0.0
 11
609.34709813717336
 21
579.17022434164255
 31
0.0
  0
ARC
  5
1799F
  8
ｶｸﾚｾﾝ2
 10
611.84709813717359
 20
530.17022434164255
 30
0.0
 40
2.0
 50
270.0
 51
360.0
  0
LINE
  5
179A0
  8
ｶｸﾚｾﾝ2
 10
613.84709813717336
 20
530.17022434164255
 30
0.0
 11
613.84709813717336
 21
575.17022434164255
 31
0.0
  0
LINE
  5
179A1
  8
ｶｸﾚｾﾝ2
 10
626.79684560547935
 20
516.67022434164255
 30
0.0
 11
625.34709813717348
 21
516.67022434164255
 31
0.0
  0
LINE
  5
179A2
  8
ｶｸﾚｾﾝ2
 10
626.79684560547935
 20
516.67022434164255
 30
0.0
 11
625.34709813717348
 21
516.67022434164255
 31
0.0
  0
ARC
  5
179A3
  8
ｶｸﾚｾﾝ2
 10
611.34709813717359
 20
526.17022434164255
 30
0.0
 40
2.0
 50
89.999999999999986
 51
180.0
  0
LINE
  5
179A4
  8
ｶｸﾚｾﾝ2
 10
611.84709813717359
 20
528.17022434164255
 30
0.0
 11
611.34709813717359
 21
528.17022434164255
 31
0.0
  0
ARC
  5
179A5
  8
ｶｸﾚｾﾝ2
 10
611.34709813717359
 20
518.67022434164255
 30
0.0
 40
2.0
 50
180.0
 51
270.0
  0
LINE
  5
179A6
  8
ｶｸﾚｾﾝ2
 10
609.34709813717336
 20
526.17022434164255
 30
0.0
 11
609.34709813717336
 21
518.67022434164255
 31
0.0
  0
LINE
  5
179A7
  8
ｶｸﾚｾﾝ2
 10
609.34709813717336
 20
526.17022434164255
 30
0.0
 11
609.34709813717336
 21
518.67022434164255
 31
0.0
  0
LINE
  5
179A8
  8
AM_0
 10
702.34700813717336
 20
313.82833592838671
 30
0.0
 11
733.34706813717366
 21
311.79833592838668
 31
0.0
  0
LINE
  5
179A9
  8
AM_0
 10
720.34706813717366
 20
203.5883459283865
 30
0.0
 11
679.02064813717379
 21
203.5883459283865
 31
0.0
  0
LINE
  5
179AA
  8
AM_0
 10
702.34700813717336
 20
221.12844592838661
 30
0.0
 11
733.3470081371737
 21
223.15844592838681
 31
0.0
  0
LINE
  5
179AB
  8
AM_0
 10
635.34706813717389
 20
293.47836592838661
 30
0.0
 11
728.79707813717346
 21
293.47836592838661
 31
0.0
  0
LINE
  5
179AC
  8
AM_0
 10
635.34706813717389
 20
301.47836592838672
 30
0.0
 11
728.79707813717346
 21
301.47836592838672
 31
0.0
  0
LINE
  5
179AD
  8
AM_0
 10
635.34706813717389
 20
241.47836592838661
 30
0.0
 11
728.81141813717397
 21
241.47836592838661
 31
0.0
  0
LINE
  5
179AE
  8
AM_0
 10
739.07704813717385
 20
261.20834592838668
 30
0.0
 11
666.61195813717336
 21
261.20834592838668
 31
0.0
  0
LINE
  5
179AF
  8
AM_0
 10
729.88704813717368
 20
243.9183059283867
 30
0.0
 11
599.31282813717382
 21
243.9183059283867
 31
0.0
  0
LINE
  5
179B0
  8
AM_0
 10
603.01423813717372
 20
243.47836592838661
 30
0.0
 11
728.81141813717397
 21
243.47836592838661
 31
0.0
  0
LINE
  5
179B1
  8
AM_0
 10
739.01704813717379
 20
251.1383959283867
 30
0.0
 11
666.67579813717373
 21
251.1383959283867
 31
0.0
  0
LINE
  5
179B2
  8
AM_0
 10
667.90498813717386
 20
251.47836592838669
 30
0.0
 11
737.79707813717346
 21
251.47836592838669
 31
0.0
  0
LINE
  5
179B3
  8
AM_0
 10
739.01704813717379
 20
253.79830592838681
 30
0.0
 11
666.67579813717373
 21
253.79830592838681
 31
0.0
  0
LINE
  5
179B4
  8
AM_0
 10
667.90498813717386
 20
263.47836592838672
 30
0.0
 11
737.79707813717346
 21
263.47836592838672
 31
0.0
  0
LINE
  5
179B5
  8
AM_0
 10
667.90498813717386
 20
261.47836592838672
 30
0.0
 11
737.79707813717346
 21
261.47836592838672
 31
0.0
  0
LINE
  5
179B6
  8
AM_0
 10
739.07704813717385
 20
263.7483859283866
 30
0.0
 11
666.61195813717336
 21
263.7483859283866
 31
0.0
  0
LINE
  5
179B7
  8
AM_0
 10
739.07704813717385
 20
271.2183559283867
 30
0.0
 11
666.61195813717336
 21
271.2183559283867
 31
0.0
  0
LINE
  5
179B8
  8
AM_0
 10
739.07704813717385
 20
273.75839592838668
 30
0.0
 11
666.61195813717336
 21
273.75839592838668
 31
0.0
  0
LINE
  5
179B9
  8
AM_0
 10
739.01704813717379
 20
281.1584159283866
 30
0.0
 11
666.6883781371738
 21
281.1584159283866
 31
0.0
  0
LINE
  5
179BA
  8
AM_0
 10
739.01704813717379
 20
283.82833592838682
 30
0.0
 11
666.67579813717373
 21
283.82833592838682
 31
0.0
  0
LINE
  5
179BB
  8
AM_0
 10
729.88704813717368
 20
291.04830592838681
 30
0.0
 11
599.31282813717382
 21
291.04830592838681
 31
0.0
  0
LINE
  5
179BC
  8
AM_0
 10
729.88704813717368
 20
293.9683559283867
 30
0.0
 11
635.34706813717389
 21
293.9683559283867
 31
0.0
  0
LINE
  5
179BD
  8
AM_0
 10
729.67708813717366
 20
300.8483559283867
 30
0.0
 11
635.32704813717373
 21
300.8483559283867
 31
0.0
  0
LINE
  5
179BE
  8
AM_0
 10
729.67708813717366
 20
304.20834592838668
 30
0.0
 11
599.52705813717375
 21
304.20834592838668
 31
0.0
  0
LINE
  5
179BF
  8
AM_0
 10
635.34706813717389
 20
233.47836592838669
 30
0.0
 11
728.81141813717397
 21
233.47836592838669
 31
0.0
  0
LINE
  5
179C0
  8
AM_0
 10
729.88704813717368
 20
240.9983859283866
 30
0.0
 11
635.34706813717389
 21
240.9983859283866
 31
0.0
  0
LINE
  5
179C1
  8
AM_0
 10
667.90498813717386
 20
271.47836592838672
 30
0.0
 11
737.79707813717346
 21
271.47836592838672
 31
0.0
  0
LINE
  5
179C2
  8
AM_0
 10
667.90498813717386
 20
273.47836592838672
 30
0.0
 11
737.79707813717346
 21
273.47836592838672
 31
0.0
  0
LINE
  5
179C3
  8
AM_0
 10
667.90834813717379
 20
281.47836592838672
 30
0.0
 11
737.79707813717346
 21
281.47836592838672
 31
0.0
  0
LINE
  5
179C4
  8
AM_0
 10
667.90834813717379
 20
283.47836592838672
 30
0.0
 11
737.79707813717346
 21
283.47836592838672
 31
0.0
  0
LINE
  5
179C5
  8
AM_0
 10
603.01423813717372
 20
291.47836592838661
 30
0.0
 11
728.79707813717346
 21
291.47836592838661
 31
0.0
  0
LINE
  5
179C6
  8
AM_0
 10
603.00703813717382
 20
303.47836592838672
 30
0.0
 11
728.79707813717346
 21
303.47836592838672
 31
0.0
  0
LINE
  5
179C7
  8
AM_0
 10
720.34706813717366
 20
331.36837592838668
 30
0.0
 11
601.82710813717381
 21
331.36837592838668
 31
0.0
  0
LINE
  5
179C8
  8
AM_0
 10
720.34706813717366
 20
332.72836592838661
 30
0.0
 11
602.11940813717388
 21
332.72836592838661
 31
0.0
  0
LINE
  5
179C9
  8
AM_0
 10
720.34706813717366
 20
333.39840592838669
 30
0.0
 11
602.26338813717382
 21
333.39840592838669
 31
0.0
  0
LINE
  5
179CA
  8
AM_0
 10
720.34706813717366
 20
329.33834592838667
 30
0.0
 11
603.53706813717383
 21
329.33834592838667
 31
0.0
  0
LINE
  5
179CB
  8
AM_0
 10
667.90498813717386
 20
253.47836592838669
 30
0.0
 11
737.79707813717346
 21
253.47836592838669
 31
0.0
  0
LINE
  5
179CC
  8
AM_0
 10
720.34706813717366
 20
205.6183759283868
 30
0.0
 11
603.53706813717383
 21
205.6183759283868
 31
0.0
  0
LINE
  5
179CD
  8
AM_0
 10
729.67708813717366
 20
230.7583959283867
 30
0.0
 11
647.34706813717389
 21
230.7583959283867
 31
0.0
  0
LINE
  5
179CE
  8
AM_0
 10
647.34706813717389
 20
231.47836592838669
 30
0.0
 11
728.81141813717397
 21
231.47836592838669
 31
0.0
  0
LINE
  5
179CF
  8
AM_0
 10
729.67708813717366
 20
234.11837592838671
 30
0.0
 11
635.32704813717373
 21
234.11837592838671
 31
0.0
  0
LINE
  5
179D1
  8
AM_0
 10
793.34706813717355
 20
232.94930592838659
 30
0.0
 11
793.34706813717355
 21
302.00741592838682
 31
0.0
  0
LINE
  5
179D2
  8
AM_0
 10
748.34706813717355
 20
230.2933059283867
 30
0.0
 11
748.34706813717355
 21
304.66439592838651
 31
0.0
  0
LINE
  5
179D3
  8
AM_0
 10
790.84706813717378
 20
214.69637592838669
 30
0.0
 11
790.84706813717378
 21
320.22836592838638
 31
0.0
  0
LINE
  5
179D4
  8
AM_0
 10
798.84849823717377
 20
323.47836592838672
 30
0.0
 11
798.848498237174
 21
272.47836592838661
 31
0.0
  0
LINE
  5
179D5
  8
AM_0
 10
743.34706813717355
 20
208.72836592838649
 30
0.0
 11
743.34706813717355
 21
267.47836592838672
 31
0.0
  0
LINE
  5
179D6
  8
AM_0
 10
791.34706813717366
 20
214.72836592838669
 30
0.0
 11
743.34706813717355
 21
214.72836592838669
 31
0.0
  0
LINE
  5
179D7
  8
AM_0
 10
790.84706813717378
 20
233.83737592838659
 30
0.0
 11
748.34706813717355
 21
233.83737592838659
 31
0.0
  0
LINE
  5
179D8
  8
AM_0
 10
790.84706813717378
 20
223.58737592838659
 30
0.0
 11
748.34706813717355
 21
223.58737592838659
 31
0.0
  0
LINE
  5
179D9
  8
AM_0
 10
755.34706813717355
 20
207.47836592838669
 30
0.0
 11
752.34706813717355
 21
207.47836592838669
 31
0.0
  0
LINE
  5
179DA
  8
AM_0
 10
768.34706813717355
 20
208.72836592838669
 30
0.0
 11
743.34706813717355
 21
208.72836592838669
 31
0.0
  0
LINE
  5
179DB
  8
AM_0
 10
789.84849823717366
 20
202.47836592838669
 30
0.0
 11
752.34706813717355
 21
202.47836592838669
 31
0.0
  0
LINE
  5
179DD
  8
AM_0
 10
792.14705813717364
 20
233.18734592838669
 30
0.0
 11
792.14705813717364
 21
223.9873959283866
 31
0.0
  0
LINE
  5
179DE
  8
AM_0
 10
788.84849823717366
 20
207.47836592838669
 30
0.0
 11
765.34706813717355
 21
207.47836592838669
 31
0.0
  0
ARC
  5
179E0
  8
AM_0
 10
788.84849823717366
 20
212.47836592838661
 30
0.0
 40
5.0
 50
270.00004999999851
 51
0.0000200000020199
  0
ARC
  5
179E1
  8
AM_0
 10
789.84849823717366
 20
211.47836592838669
 30
0.0
 40
9.0
 50
270.00004999999851
 51
0.0000200000020199
  0
LINE
  5
179E2
  8
AM_0
 10
793.34706813717355
 20
224.2254359283867
 30
0.0
 11
793.34706813717355
 21
216.72836592838669
 31
0.0
  0
ARC
  5
179E3
  8
AM_0
 10
791.34706813717366
 20
216.72836592838669
 30
0.0
 40
2.0
 50
270.00004999999851
 51
0.0000200000020199
  0
ARC
  5
179E4
  8
AM_0
 10
792.44703813717376
 20
227.08737592838651
 30
0.0
 40
3.0
 50
270.00004999999851
 51
297.8496734972
  0
LINE
  5
179E5
  8
AM_0
 10
792.44703813717376
 20
224.08737592838659
 30
0.0
 11
792.14705813717364
 21
224.08737592838659
 31
0.0
  0
LINE
  5
179E6
  8
AM_0
 10
792.14705813717364
 20
223.9873959283866
 30
0.0
 11
790.84706813717378
 21
223.9873959283866
 31
0.0
  0
LINE
  5
179E7
  8
AM_0
 10
768.34706813717355
 20
208.72836592838669
 30
0.0
 11
768.34706813717355
 21
214.72836592838669
 31
0.0
  0
LINE
  5
179E8
  8
AM_0
 10
755.34706813717355
 20
208.72836592838669
 30
0.0
 11
755.34706813717355
 21
202.47836592838669
 31
0.0
  0
LINE
  5
179E9
  8
AM_0
 10
765.34706813717355
 20
208.72836592838669
 30
0.0
 11
765.34706813717355
 21
202.47836592838669
 31
0.0
  0
ARC
  5
179EA
  8
AM_0
 10
792.44703813717376
 20
230.08737592838659
 30
0.0
 40
3.0
 50
62.150326502800027
 51
90.000011000002416
  0
LINE
  5
179EB
  8
AM_0
 10
792.44703813717376
 20
233.08737592838651
 30
0.0
 11
792.14705813717364
 21
233.08737592838651
 31
0.0
  0
LINE
  5
179EC
  8
AM_0
 10
792.14705813717364
 20
233.18734592838669
 30
0.0
 11
790.84706813717378
 21
233.18734592838669
 31
0.0
  0
LINE
  5
179ED
  8
AM_0
 10
733.34706813717366
 20
219.12838592838659
 30
0.0
 11
733.34706813717366
 21
233.1783159283867
 31
0.0
  0
ARC
  5
179EE
  8
AM_0
 10
734.18422813717393
 20
225.88985592838659
 30
0.0
 40
4.9991421999999961
 50
99.6399350000015
 51
174.62197310000059
  0
ARC
  5
179EF
  8
AM_0
 10
730.20625813717368
 20
226.26803592838669
 30
0.0
 40
1.0032491999999991
 50
174.83235659999909
 51
225.01880999999901
  0
LINE
  5
179F0
  8
AM_0
 10
737.64644813717337
 20
205.80831592838661
 30
0.0
 11
723.60432813717375
 21
205.80831592838661
 31
0.0
  0
LINE
  5
179F1
  8
AM_0
 10
729.58723813717393
 20
214.4983859283866
 30
0.0
 11
723.84706813717378
 21
214.4983859283866
 31
0.0
  0
LINE
  5
179F2
  8
AM_0
 10
729.64943813717366
 20
209.2183559283867
 30
0.0
 11
723.84706813717378
 21
209.2183559283867
 31
0.0
  0
LINE
  5
179F3
  8
AM_0
 10
731.40278813717396
 20
210.7884159283866
 30
0.0
 11
732.36274813717398
 21
215.25839592838659
 31
0.0
  0
ARC
  5
179F4
  8
AM_0
 10
741.53383813717392
 20
210.88070592838679
 30
0.0
 40
1.497715799999999
 50
89.87735500000214
 51
166.5756209999972
  0
LINE
  5
179F5
  8
AM_0
 10
741.51704813717367
 20
210.35836592838669
 30
0.0
 11
739.86708813717382
 21
210.35836592838669
 31
0.0
  0
LINE
  5
179F6
  8
AM_0
 10
743.34706813717355
 20
210.0483959283867
 30
0.0
 11
740.52705813717375
 21
209.98840592838661
 31
0.0
  0
LINE
  5
179F7
  8
AM_0
 10
741.53706813717395
 20
212.37838592838659
 30
0.0
 11
731.74428813717395
 21
212.37838592838659
 31
0.0
  0
ARC
  5
179F8
  8
AM_0
 10
741.51936813717373
 20
208.86007592838661
 30
0.0
 40
1.4982997
 50
90.089049999998792
 51
165.7702599999952
  0
LINE
  5
179F9
  8
AM_0
 10
752.34706813717355
 20
207.47836592838669
 30
0.0
 11
752.34706813717355
 21
202.47836592838669
 31
0.0
  0
LINE
  5
179FA
  8
AM_0
 10
739.58571813717344
 20
207.3193959283866
 30
0.0
 11
740.06703813717365
 21
209.22842592838651
 31
0.0
  0
ARC
  5
179FB
  8
AM_0
 10
737.64644813717337
 20
207.80831592838661
 30
0.0
 40
2.0
 50
270.000010000001
 51
345.84925000000038
  0
ARC
  5
179FC
  8
AM_0
 10
737.21022813717377
 20
207.80892592838671
 30
0.0
 40
2.0005671999999981
 50
270.19569000000058
 51
346.69041000000442
  0
LINE
  5
179FD
  8
AM_0
 10
739.15706813717372
 20
207.34832592838671
 30
0.0
 11
740.07704813717385
 21
211.22839592838659
 31
0.0
  0
ARC
  5
179FE
  8
AM_0
 10
729.44972813717379
 20
211.20541592838649
 30
0.0
 40
1.997119399999999
 50
269.80137000000121
 51
347.94475999999821
  0
LINE
  5
179FF
  8
AM_0
 10
743.34706813717355
 20
224.7884159283866
 30
0.0
 11
733.34706813717366
 21
224.7884159283866
 31
0.0
  0
LINE
  5
17A00
  8
AM_0
 10
743.34706813717355
 20
219.12838592838659
 30
0.0
 11
733.34706813717366
 21
219.12838592838659
 31
0.0
  0
LINE
  5
17A01
  8
AM_0
 10
748.34706813717355
 20
223.58737592838659
 30
0.0
 11
748.34706813717355
 21
214.72836592838669
 31
0.0
  0
ARC
  5
17A02
  8
AM_0
 10
733.61390813717412
 20
220.2183559283867
 30
0.0
 40
1.5
 50
100.24788999999799
 51
169.76262100000099
  0
ARC
  5
17A03
  8
AM_0
 10
729.38765813717396
 20
216.48360592838671
 30
0.0
 40
1.9952742999999991
 50
270.14858000000021
 51
350.03521999999941
  0
LINE
  5
17A04
  8
AM_0
 10
733.83278813717368
 20
216.43832592838669
 30
0.0
 11
731.41279813717347
 21
216.43832592838669
 31
0.0
  0
ARC
  5
17A05
  8
AM_0
 10
733.83021813717392
 20
214.93600592838681
 30
0.0
 40
1.502416299999999
 50
89.901382999997679
 51
167.60811299999961
  0
LINE
  5
17A06
  8
AM_0
 10
732.13783813717384
 20
220.4850159283867
 30
0.0
 11
731.35280813717395
 21
216.1383359283866
 31
0.0
  0
ARC
  5
17A07
  8
AM_0
 10
733.72737813717345
 20
229.82369592838671
 30
0.0
 40
6.0073843
 50
225.23615000000501
 51
266.37026000000259
  0
LINE
  5
17A08
  8
AM_0
 10
722.34706813717355
 20
205.5893259283867
 30
0.0
 11
722.34706813717355
 21
212.9983859283866
 31
0.0
  0
ARC
  5
17A09
  8
AM_0
 10
720.34614813717394
 20
205.5893259283867
 30
0.0
 40
2.0009109999999981
 50
270.02609000000348
 51
359.999989999999
  0
ARC
  5
17A0A
  8
AM_0
 10
723.60432813717375
 20
204.30831592838669
 30
0.0
 40
1.5
 50
89.999997000002296
 51
158.5382910000028
  0
ARC
  5
17A0B
  8
AM_0
 10
723.85017813717377
 20
207.71517592838671
 30
0.0
 40
1.503128599999999
 50
90.119130000001164
 51
179.8808703500043
  0
ARC
  5
17A0C
  8
AM_0
 10
720.34700813717382
 20
207.61837592838671
 30
0.0
 40
2.0000371999999991
 50
270.00107000000349
 51
359.99894000000398
  0
ARC
  5
17A0D
  8
AM_0
 10
723.84901813717386
 20
212.99642592838671
 30
0.0
 40
1.501982699999999
 50
90.075586999995195
 51
179.92441279799939
  0
ARC
  5
17A0E
  8
AM_0
 10
729.89277813717365
 20
242.44833592838671
 30
0.0
 40
1.460011199999999
 50
269.77526000000302
 51
90.224751999995519
  0
ARC
  5
17A0F
  8
AM_0
 10
728.80421813717373
 20
242.47836592838669
 30
0.0
 40
1.000025599999997
 50
269.58948000000038
 51
90.410525999999223
  0
ARC
  5
17A10
  8
AM_0
 10
728.80421813717373
 20
232.47836592838669
 30
0.0
 40
1.000025599999997
 50
269.58948000000038
 51
90.410525999999223
  0
LINE
  5
17A11
  8
AM_0
 10
743.34706813717355
 20
233.1783159283867
 30
0.0
 11
733.34706813717366
 21
233.1783159283867
 31
0.0
  0
ARC
  5
17A12
  8
AM_0
 10
729.67708813717366
 20
232.42831592838661
 30
0.0
 40
1.6800002000000001
 50
270.0
 51
89.999997000002296
  0
ARC
  5
17A13
  8
AM_0
 10
737.79707813717346
 20
252.47836592838669
 30
0.0
 40
1.000005699999998
 50
270.0
 51
89.999997000002296
  0
ARC
  5
17A14
  8
AM_0
 10
739.02333813717382
 20
252.4683559283867
 30
0.0
 40
1.3300148000000001
 50
269.72940999999679
 51
90.270582000000445
  0
ARC
  5
17A15
  8
AM_0
 10
721.35426813717334
 20
232.47836592838669
 30
0.0
 40
1.0000259
 50
269.5875400000013
 51
90.412465999999768
  0
ARC
  5
17A16
  8
AM_0
 10
721.35426813717334
 20
242.47836592838669
 30
0.0
 40
1.0000259
 50
269.5875400000013
 51
90.412465999999768
  0
ARC
  5
17A17
  8
AM_0
 10
721.35426813717334
 20
252.47836592838669
 30
0.0
 40
1.0000259
 50
269.5875400000013
 51
90.412465999999768
  0
LINE
  5
17A18
  8
AM_0
 10
768.34706813717355
 20
326.22836592838649
 30
0.0
 11
768.34706813717355
 21
320.22836592838638
 31
0.0
  0
ARC
  5
17A19
  8
AM_0
 10
788.84849823717366
 20
322.47836592838672
 30
0.0
 40
5.0
 50
0.000000000000007
 51
90.000011000002416
  0
ARC
  5
17A1A
  8
AM_0
 10
789.84849823717366
 20
323.47836592838672
 30
0.0
 40
9.0
 50
0.0000200000020199
 51
90.000011000002416
  0
ARC
  5
17A1B
  8
AM_0
 10
729.44972813717379
 20
323.75130592838673
 30
0.0
 40
1.997119399999999
 50
12.05524000000181
 51
90.198633000001507
  0
ARC
  5
17A1C
  8
AM_0
 10
741.52748813717335
 20
326.10372592838672
 30
0.0
 40
1.505448699999999
 50
194.04752999999951
 51
269.60313000000008
  0
LINE
  5
17A1D
  8
AM_0
 10
739.15706813717372
 20
327.6083659283866
 30
0.0
 11
740.07710813717335
 21
323.73837592838669
 31
0.0
  0
LINE
  5
17A1E
  8
AM_0
 10
743.34706813717355
 20
326.22836592838672
 30
0.0
 11
743.34706813717355
 21
267.47836592838672
 31
0.0
  0
LINE
  5
17A1F
  8
AM_0
 10
722.34706813717355
 20
329.36837592838668
 30
0.0
 11
722.34706813717355
 21
321.96835592838659
 31
0.0
  0
LINE
  5
17A20
  8
AM_0
 10
791.34706813717366
 20
320.22836592838638
 30
0.0
 11
743.34706813717355
 21
320.22836592838638
 31
0.0
  0
LINE
  5
17A21
  8
AM_0
 10
790.84706813717378
 20
301.11935592838648
 30
0.0
 11
748.34706813717355
 21
301.11935592838648
 31
0.0
  0
LINE
  5
17A22
  8
AM_0
 10
790.84706813717378
 20
311.36935592838648
 30
0.0
 11
748.34706813717355
 21
311.36935592838648
 31
0.0
  0
LINE
  5
17A23
  8
AM_0
 10
799.84703813717374
 20
262.47836592838672
 30
0.0
 11
799.84703813717374
 21
272.47836592838672
 31
0.0
  0
LINE
  5
17A25
  8
AM_0
 10
793.34706813717355
 20
262.47836592838672
 30
0.0
 11
799.84703813717374
 21
262.47836592838672
 31
0.0
  0
LINE
  5
17A27
  8
AM_0
 10
793.34706813717355
 20
272.47836592838672
 30
0.0
 11
799.84703813717374
 21
272.47836592838672
 31
0.0
  0
LINE
  5
17A28
  8
AM_0
 10
792.14705813717364
 20
301.76938592838661
 30
0.0
 11
792.14705813717364
 21
310.9693359283865
 31
0.0
  0
ARC
  5
17A29
  8
AM_0
 10
792.44703813717376
 20
307.86935592838648
 30
0.0
 40
3.0
 50
62.150326502800283
 51
89.99995000000149
  0
ARC
  5
17A2A
  8
AM_0
 10
792.44703813717376
 20
304.86935592838648
 30
0.0
 40
3.0
 50
269.99998899999758
 51
297.84967349719972
  0
LINE
  5
17A2C
  8
AM_0
 10
792.44703813717376
 20
301.86935592838648
 30
0.0
 11
792.14705813717364
 21
301.86935592838648
 31
0.0
  0
LINE
  5
17A2D
  8
AM_0
 10
792.14705813717364
 20
301.76938592838661
 30
0.0
 11
790.84706813717378
 21
301.76938592838661
 31
0.0
  0
LINE
  5
17A2E
  8
AM_0
 10
793.84849823717366
 20
212.47836592838661
 30
0.0
 11
793.84849823717411
 21
262.47836592838672
 31
0.0
  0
LINE
  5
17A2F
  8
AM_0
 10
793.34706813717355
 20
310.73129592838649
 30
0.0
 11
793.34706813717355
 21
318.22836592838638
 31
0.0
  0
LINE
  5
17A30
  8
AM_0
 10
792.44703813717376
 20
310.8693559283866
 30
0.0
 11
792.14705813717364
 21
310.8693559283866
 31
0.0
  0
LINE
  5
17A31
  8
AM_0
 10
792.14705813717364
 20
310.9693359283865
 30
0.0
 11
790.84706813717378
 21
310.9693359283865
 31
0.0
  0
ARC
  5
17A32
  8
AM_0
 10
791.34706813717366
 20
318.22836592838638
 30
0.0
 40
2.0
 50
359.999979999998
 51
89.99995000000149
  0
ARC
  5
17A33
  8
AM_0
 10
721.35426813717334
 20
292.47836592838672
 30
0.0
 40
1.0000259
 50
269.5875400000013
 51
90.412465999999768
  0
ARC
  5
17A34
  8
AM_0
 10
728.80421813717373
 20
292.47836592838672
 30
0.0
 40
1.000025599999997
 50
269.58948000000038
 51
90.410525999999223
  0
ARC
  5
17A35
  8
AM_0
 10
729.89277813717365
 20
292.50839592838679
 30
0.0
 40
1.460011199999999
 50
269.77526000000302
 51
90.224751999995519
  0
ARC
  5
17A36
  8
AM_0
 10
737.79707813717346
 20
262.47836592838672
 30
0.0
 40
1.000005699999998
 50
270.0
 51
89.999997000002296
  0
ARC
  5
17A37
  8
AM_0
 10
739.08528813717373
 20
262.47836592838672
 30
0.0
 40
1.2700266
 50
269.62931000000458
 51
90.370678999997239
  0
ARC
  5
17A38
  8
AM_0
 10
737.79707813717346
 20
272.47836592838672
 30
0.0
 40
1.000005699999998
 50
270.0
 51
89.999997000002296
  0
ARC
  5
17A39
  8
AM_0
 10
739.08528813717373
 20
272.48837592838657
 30
0.0
 40
1.2700266
 50
269.62934000000359
 51
90.370672000003751
  0
ARC
  5
17A3A
  8
AM_0
 10
737.79707813717346
 20
282.47836592838672
 30
0.0
 40
1.000005699999998
 50
270.0
 51
89.999997000002296
  0
ARC
  5
17A3B
  8
AM_0
 10
739.02333813717382
 20
282.49337592838668
 30
0.0
 40
1.3350147999999991
 50
269.7304299999999
 51
90.269565000002885
  0
ARC
  5
17A3C
  8
AM_0
 10
721.35426813717334
 20
262.47836592838672
 30
0.0
 40
1.0000259
 50
269.5875400000013
 51
90.412465999999768
  0
ARC
  5
17A3D
  8
AM_0
 10
721.35426813717334
 20
272.47836592838672
 30
0.0
 40
1.0000259
 50
269.5875400000013
 51
90.412465999999768
  0
ARC
  5
17A3E
  8
AM_0
 10
721.35426813717334
 20
282.47836592838672
 30
0.0
 40
1.0000259
 50
269.5875400000013
 51
90.412465999999768
  0
ARC
  5
17A3F
  8
AM_0
 10
730.20515813717373
 20
308.69906592838657
 30
0.0
 40
1.002184699999999
 50
134.95269300000061
 51
185.19613999999669
  0
ARC
  5
17A40
  8
AM_0
 10
728.80421813717373
 20
302.47836592838672
 30
0.0
 40
1.000025599999997
 50
269.58948000000038
 51
90.410525999999223
  0
ARC
  5
17A41
  8
AM_0
 10
734.19148813717345
 20
309.0725959283867
 30
0.0
 40
5.0059714
 50
185.32112000000191
 51
260.2890200000021
  0
LINE
  5
17A42
  8
AM_0
 10
729.39277813717376
 20
320.4683559283867
 30
0.0
 11
723.84706813717378
 21
320.4683559283867
 31
0.0
  0
LINE
  5
17A43
  8
AM_0
 10
733.34706813717366
 20
315.82833592838671
 30
0.0
 11
733.34706813717366
 21
301.7884159283866
 31
0.0
  0
LINE
  5
17A44
  8
AM_0
 10
743.34706813717355
 20
301.7884159283866
 30
0.0
 11
733.34706813717366
 21
301.7884159283866
 31
0.0
  0
ARC
  5
17A45
  8
AM_0
 10
729.67708813717366
 20
302.5284059283868
 30
0.0
 40
1.6800002000000001
 50
270.0
 51
89.999997000002296
  0
LINE
  5
17A46
  8
AM_0
 10
741.51704813717367
 20
324.59835592838652
 30
0.0
 11
739.86708813717382
 21
324.59835592838652
 31
0.0
  0
LINE
  5
17A47
  8
AM_0
 10
743.34706813717355
 20
324.90835592838653
 30
0.0
 11
740.52705813717375
 21
324.97836592838672
 31
0.0
  0
LINE
  5
17A48
  8
AM_0
 10
741.53706813717395
 20
322.57833592838659
 30
0.0
 11
731.74428813717395
 21
322.57833592838659
 31
0.0
  0
LINE
  5
17A49
  8
AM_0
 10
743.34706813717355
 20
315.82833592838671
 30
0.0
 11
733.34706813717366
 21
315.82833592838671
 31
0.0
  0
LINE
  5
17A4A
  8
AM_0
 10
743.34706813717355
 20
310.16830592838681
 30
0.0
 11
733.34706813717366
 21
310.16830592838681
 31
0.0
  0
ARC
  5
17A4B
  8
AM_0
 10
741.54188813717371
 20
324.08321592838672
 30
0.0
 40
1.5048382
 50
193.24691999999871
 51
269.81735999999921
  0
LINE
  5
17A4C
  8
AM_0
 10
748.34706813717355
 20
311.36935592838648
 30
0.0
 11
748.34706813717355
 21
320.22836592838638
 31
0.0
  0
LINE
  5
17A4D
  8
AM_0
 10
732.13777813717377
 20
314.47173592838652
 30
0.0
 11
731.35273813717345
 21
318.81841592838668
 31
0.0
  0
ARC
  5
17A4E
  8
AM_0
 10
733.72609813717395
 20
305.14584592838679
 30
0.0
 40
6.0044340999999992
 50
93.619178000004084
 51
134.77442200000581
  0
ARC
  5
17A4F
  8
AM_0
 10
733.61390813717412
 20
314.73837592838669
 30
0.0
 40
1.5
 50
190.2373800000006
 51
259.75211000000189
  0
ARC
  5
17A50
  8
AM_0
 10
729.38765813717396
 20
318.47311592838662
 30
0.0
 40
1.9952742999999991
 50
9.9647800000006086
 51
89.851419999999905
  0
LINE
  5
17A51
  8
AM_0
 10
733.83278813717368
 20
318.51839592838672
 30
0.0
 11
731.41279813717347
 21
318.51839592838672
 31
0.0
  0
ARC
  5
17A52
  8
AM_0
 10
733.83021813717392
 20
320.02071592838661
 30
0.0
 40
1.502416299999999
 50
192.39186999999939
 51
270.09862000000447
  0
LINE
  5
17A53
  8
AM_0
 10
731.40278813717396
 20
324.16836592838672
 30
0.0
 11
732.36274813717398
 21
319.69839592838662
 31
0.0
  0
ARC
  5
17A54
  8
AM_0
 10
721.35426813717334
 20
302.47836592838672
 30
0.0
 40
1.0000259
 50
269.5875400000013
 51
90.412465999999768
  0
ARC
  5
17A55
  8
AM_0
 10
723.85078813717382
 20
321.97213592838659
 30
0.0
 40
1.5037541000000001
 50
180.14286000000141
 51
269.85712999999902
  0
LINE
  5
17A56
  8
AM_0
 10
755.34706813717355
 20
327.47836592838672
 30
0.0
 11
752.34706813717355
 21
327.47836592838672
 31
0.0
  0
LINE
  5
17A57
  8
AM_0
 10
789.84849823717366
 20
332.47836592838672
 30
0.0
 11
752.34706813717355
 21
332.47836592838672
 31
0.0
  0
LINE
  5
17A58
  8
AM_0
 10
768.34706813717355
 20
326.22836592838649
 30
0.0
 11
743.34706813717355
 21
326.22836592838649
 31
0.0
  0
LINE
  5
17A59
  8
AM_0
 10
788.84849823717366
 20
327.47836592838672
 30
0.0
 11
765.34706813717355
 21
327.47836592838672
 31
0.0
  0
LINE
  5
17A5A
  8
AM_0
 10
765.34706813717355
 20
326.22836592838672
 30
0.0
 11
765.34706813717355
 21
332.47836592838672
 31
0.0
  0
LINE
  5
17A5B
  8
AM_0
 10
755.34706813717355
 20
326.22836592838672
 30
0.0
 11
755.34706813717355
 21
332.47836592838672
 31
0.0
  0
LINE
  5
17A5C
  8
AM_0
 10
737.23707813717374
 20
330.77840592838669
 30
0.0
 11
723.73707813717351
 21
330.77840592838669
 31
0.0
  0
LINE
  5
17A5D
  8
AM_0
 10
737.21705813717369
 20
329.14840592838669
 30
0.0
 11
723.84706813717378
 21
329.14840592838669
 31
0.0
  0
LINE
  5
17A5E
  8
AM_0
 10
729.45662813717377
 20
325.74838592838648
 30
0.0
 11
723.84706813717378
 21
325.74838592838648
 31
0.0
  0
LINE
  5
17A5F
  8
AM_0
 10
752.34706813717355
 20
327.47836592838672
 30
0.0
 11
752.34706813717355
 21
332.47836592838672
 31
0.0
  0
LINE
  5
17A60
  8
AM_0
 10
739.17708813717366
 20
329.26839592838661
 30
0.0
 11
740.06709813717373
 21
325.73837592838669
 31
0.0
  0
ARC
  5
17A61
  8
AM_0
 10
737.24220813717386
 20
328.78378592838652
 30
0.0
 40
1.994612099999999
 50
14.061139999996159
 51
90.148008000004197
  0
ARC
  5
17A62
  8
AM_0
 10
737.21681813717407
 20
327.15609592838661
 30
0.0
 40
1.9922863
 50
13.12160999999614
 51
89.992278999999442
  0
ARC
  5
17A63
  8
AM_0
 10
720.35328813717388
 20
331.4018259283867
 30
0.0
 40
1.9964978999999961
 50
14.39939000000026
 51
90.178517999999769
  0
ARC
  5
17A64
  8
AM_0
 10
723.74214813717344
 20
332.28353592838653
 30
0.0
 40
1.505230099999999
 50
194.82822000000141
 51
269.80579
  0
ARC
  5
17A65
  8
AM_0
 10
723.85396813717375
 20
330.65524592838671
 30
0.0
 40
1.506942899999999
 50
180.26336999999921
 51
269.73663000000079
  0
ARC
  5
17A66
  8
AM_0
 10
723.85194813717385
 20
327.25326592838672
 30
0.0
 40
1.504891299999997
 50
180.18593000000379
 51
269.8140700000028
  0
ARC
  5
17A67
  8
AM_0
 10
720.35292813717365
 20
329.37423592838672
 30
0.0
 40
1.994130499999996
 50
359.8311099999994
 51
90.168893999997536
  0
ARC
  5
17A68
  8
AM_0
 10
720.35377813717366
 20
327.34505592838673
 30
0.0
 40
1.9933081999999991
 50
359.80733000000151
 51
90.192676999995797
  0
ARC
  5
17A69
  8
AM_0
 10
720.35060813717382
 20
330.7319059283866
 30
0.0
 40
1.996488899999999
 50
359.8991500000011
 51
90.100851999998326
  0
LINE
  5
17A6A
  8
AM_0
 10
596.34706813717366
 20
204.97836592838669
 30
0.0
 11
596.34706813717366
 21
329.97836592838672
 31
0.0
  0
LINE
  5
17A6B
  8
AM_0
 10
617.36708813717382
 20
234.11837592838671
 30
0.0
 11
599.52705813717375
 21
234.11837592838671
 31
0.0
  0
LINE
  5
17A6C
  8
AM_0
 10
617.34706813717355
 20
240.9983859283866
 30
0.0
 11
599.31282813717382
 21
240.9983859283866
 31
0.0
  0
LINE
  5
17A6D
  8
AM_0
 10
603.00703813717382
 20
233.47836592838669
 30
0.0
 11
617.34706813717355
 21
233.47836592838669
 31
0.0
  0
LINE
  5
17A6E
  8
AM_0
 10
603.01423813717372
 20
241.47836592838661
 30
0.0
 11
617.34706813717355
 21
241.47836592838661
 31
0.0
  0
LINE
  5
17A6F
  8
AM_0
 10
615.83345813717381
 20
197.47836592838649
 30
0.0
 11
604.3308881371737
 21
197.47836592838649
 31
0.0
  0
LINE
  5
17A70
  8
AM_0
 10
603.00703813717382
 20
231.47836592838669
 30
0.0
 11
647.34706813717389
 21
231.47836592838669
 31
0.0
  0
LINE
  5
17A71
  8
AM_0
 10
647.34706813717389
 20
230.7583959283867
 30
0.0
 11
599.52705813717375
 21
230.7583959283867
 31
0.0
  0
LINE
  5
17A72
  8
AM_0
 10
702.34706813717355
 20
221.12838592838659
 30
0.0
 11
596.34706813717366
 21
221.12838592838659
 31
0.0
  0
ARC
  5
17A73
  8
AM_0
 10
615.83345813717381
 20
195.97836592838649
 30
0.0
 40
1.5
 50
1.500000000002738
 51
89.999997000002296
  0
LINE
  5
17A74
  8
AM_0
 10
617.41250612703982
 20
192.97836592838689
 30
0.0
 11
617.08149813717375
 21
205.61843592838659
 31
0.0
  0
LINE
  5
17A75
  8
AM_0
 10
677.28153463525359
 20
192.97836592838689
 30
0.0
 11
677.61256813717375
 21
205.61834592838659
 31
0.0
  0
LINE
  5
17A76
  8
AM_0
 10
613.84706813717355
 20
192.97836592838701
 30
0.0
 11
680.84706813717355
 21
192.97836592838701
 31
0.0
  0
LINE
  5
17A77
  8
AM_0
 10
656.42554844849985
 20
185.47836592838669
 30
0.0
 11
657.92554844849985
 21
185.47836592838669
 31
0.0
  0
LINE
  5
17A78
  8
AM_0
 10
656.42554844849985
 20
181.47836592838641
 30
0.0
 11
657.92554844849985
 21
181.47836592838681
 31
0.0
  0
LINE
  5
17A79
  8
AM_0
 10
618.22219440302069
 20
156.47836592838669
 30
0.0
 11
693.69649926618024
 21
156.47836592838721
 31
0.0
  0
LINE
  5
17A7A
  8
AM_0
 10
694.02219440302156
 20
160.47836592838721
 30
0.0
 11
617.72219440302104
 21
173.47836592838641
 31
0.0
  0
LINE
  5
17A7B
  8
AM_0
 10
694.02219440302156
 20
160.47836592838721
 30
0.0
 11
617.72219440302104
 21
173.47836592838641
 31
0.0
  0
LINE
  5
17A7C
  8
AM_0
 10
617.3964992661796
 20
169.47836592838649
 30
0.0
 11
693.69649926618024
 21
156.47836592838721
 31
0.0
  0
LINE
  5
17A7D
  8
AM_0
 10
690.82219440302129
 20
190.47836592838721
 30
0.0
 11
610.34706813717401
 21
190.47836592838681
 31
0.0
  0
LINE
  5
17A7E
  8
ﾁｭｳｼﾝｾﾝ1
 10
681.52219440302122
 20
185.47836592838709
 30
0.0
 11
681.52219440302122
 21
161.47836592838709
 31
0.0
  0
LINE
  5
17A7F
  8
AM_0
 10
696.62219440302158
 20
189.47836592838709
 30
0.0
 11
696.62219440302135
 21
161.47836592838721
 31
0.0
  0
LINE
  5
17A80
  8
AM_0
 10
698.62219440302044
 20
165.47836592838721
 30
0.0
 11
698.62219440302044
 21
157.97836592838721
 31
0.0
  0
ARC
  5
17A81
  8
AM_0
 10
681.52219440302122
 20
173.47836592838709
 30
0.0
 40
9.2999999999997076
 50
180.0
 51
0.000000000000007
  0
LINE
  5
17A82
  8
AM_0
 10
694.10361818723209
 20
161.47836592838721
 30
0.0
 11
662.12554844850001
 21
166.92679196513029
 31
0.0
  0
ARC
  5
17A83
  8
AM_0
 10
696.62219440302124
 20
157.97836592838721
 30
0.0
 40
1.499999999999998
 50
270.0
 51
0.000000000000007
  0
ARC
  5
17A84
  8
AM_0
 10
697.12219440302044
 20
157.97836592838721
 30
0.0
 40
1.5000000000001099
 50
270.00000000000648
 51
0.000000000000007
  0
LINE
  5
17A85
  8
AM_0
 10
698.12219440302169
 20
160.47836592838721
 30
0.0
 11
694.02219440302156
 21
160.47836592838721
 31
0.0
  0
LINE
  5
17A86
  8
AM_0
 10
694.10361818723209
 20
161.47836592838721
 30
0.0
 11
698.12219440302169
 21
161.47836592838721
 31
0.0
  0
LINE
  5
17A87
  8
AM_0
 10
697.82219440302094
 20
160.47836592838721
 30
0.0
 11
694.02219440302156
 21
160.47836592838721
 31
0.0
  0
LINE
  5
17A88
  8
AM_0
 10
697.12219440302044
 20
156.47836592838721
 30
0.0
 11
696.82370850686357
 21
156.47836592838721
 31
0.0
  0
LINE
  5
17A89
  8
AM_0
 10
696.62219440302124
 20
156.47836592838721
 30
0.0
 11
693.69649926618024
 21
156.47836592838721
 31
0.0
  0
LINE
  5
17A8A
  8
AM_0
 10
698.12219440302169
 20
161.47836592838721
 30
0.0
 11
698.12219440302169
 21
157.97836592838721
 31
0.0
  0
LINE
  5
17A8B
  8
ﾁｭｳｼﾝｾﾝ1
 10
693.52219440302088
 20
173.47836592838709
 30
0.0
 11
669.5221944030211
 21
173.47836592838709
 31
0.0
  0
CIRCLE
  5
17A8C
  8
AM_0
 10
681.52219440302122
 20
173.47836592838709
 30
0.0
 40
6.2999999999996117
  0
LINE
  5
17A8D
  8
AM_0
 10
690.82219440302129
 20
190.47836592838721
 30
0.0
 11
690.82219440302174
 21
173.47836592838709
 31
0.0
  0
LINE
  5
17A8E
  8
AM_0
 10
696.62219440302135
 20
165.47836592838721
 30
0.0
 11
697.82219440302094
 21
165.47836592838721
 31
0.0
  0
LINE
  5
17A8F
  8
AM_0
 10
697.82219440302094
 20
165.47836592838721
 30
0.0
 11
698.62219440302044
 21
165.47836592838721
 31
0.0
  0
LINE
  5
17A90
  8
AM_0
 10
695.62219440302158
 20
190.47836592838721
 30
0.0
 11
690.82219440302129
 21
190.47836592838721
 31
0.0
  0
ARC
  5
17A91
  8
AM_0
 10
695.62219440302158
 20
189.47836592838709
 30
0.0
 40
1.0
 50
0.000000000000007
 51
90.0
  0
LINE
  5
17A92
  8
AM_0
 10
660.12554844849967
 20
167.26755212240431
 30
0.0
 11
660.12554844849967
 21
185.47836592838721
 31
0.0
  0
LINE
  5
17A93
  8
AM_0
 10
662.12554844850001
 20
185.47836592838669
 30
0.0
 11
662.12554844850001
 21
166.92679196513029
 31
0.0
  0
LINE
  5
17A94
  8
AM_0
 10
657.92554844849985
 20
185.47836592838669
 30
0.0
 11
657.92554844849985
 21
167.64238829540599
 31
0.0
  0
LINE
  5
17A95
  8
AM_0
 10
672.2221944030216
 20
190.47836592838681
 30
0.0
 11
672.2221944030216
 21
173.47836592838681
 31
0.0
  0
LINE
  5
17A96
  8
AM_0
 10
660.12554844849967
 20
167.26755212240431
 30
0.0
 11
657.92554844849985
 21
167.64238829540599
 31
0.0
  0
LINE
  5
17A97
  8
AM_0
 10
680.84706813717355
 20
192.97836592838701
 30
0.0
 11
680.84706813717355
 21
190.47836592838681
 31
0.0
  0
LINE
  5
17A98
  8
AM_0
 10
660.12554844849967
 20
185.47836592838721
 30
0.0
 11
662.12554844850001
 21
185.47836592838669
 31
0.0
  0
LINE
  5
17A99
  8
AM_0
 10
660.12554844849967
 20
181.47836592838681
 30
0.0
 11
662.12554844850001
 21
181.47836592838681
 31
0.0
  0
LINE
  5
17A9A
  8
AM_0
 10
615.72219440302035
 20
168.97836592838669
 30
0.0
 11
615.72219440302035
 21
158.97836592838681
 31
0.0
  0
LINE
  5
17A9B
  8
AM_0
 10
625.99204288400392
 20
156.47836592838669
 30
0.0
 11
625.99204288400392
 21
168.01385653085489
 31
0.0
  0
ARC
  5
17A9C
  8
AM_0
 10
618.22219440302069
 20
158.97836592838681
 30
0.0
 40
2.5
 50
180.0
 51
270.0
  0
LINE
  5
17A9D
  8
AM_0
 10
634.20877822111288
 20
171.68325347176179
 30
0.0
 11
624.34706813717423
 21
173.36349241135849
 31
0.0
  0
LINE
  5
17A9E
  8
AM_0
 10
639.41213226659045
 20
185.47836592838669
 30
0.0
 11
639.41213226659056
 21
170.79670560031769
 31
0.0
  0
LINE
  5
17A9F
  8
AM_0
 10
637.91213226659056
 20
171.05227571827311
 30
0.0
 11
637.91213226659056
 21
185.47836592838669
 31
0.0
  0
LINE
  5
17AA0
  8
AM_0
 10
635.70877822111311
 20
185.47836592838669
 30
0.0
 11
635.70877822111311
 21
171.42768335380649
 31
0.0
  0
LINE
  5
17AA1
  8
AM_0
 10
634.20877822111288
 20
171.68325347176179
 30
0.0
 11
634.20877822111288
 21
185.47836592838669
 31
0.0
  0
LINE
  5
17AA2
  8
AM_0
 10
650.52219440302258
 20
185.47836592838669
 30
0.0
 11
650.52219440302258
 21
168.90377233985089
 31
0.0
  0
LINE
  5
17AA3
  8
AM_0
 10
648.52219440301917
 20
169.24453249712531
 30
0.0
 11
648.52219440301906
 21
185.47836592838959
 31
0.0
  0
LINE
  5
17AA4
  8
AM_0
 10
646.8188403575449
 20
185.47836592838669
 30
0.0
 11
646.81884035754524
 21
169.53475009333999
 31
0.0
  0
LINE
  5
17AA5
  8
AM_0
 10
645.31884035754524
 20
169.7903202112951
 30
0.0
 11
645.31884035754501
 21
185.47836592838669
 31
0.0
  0
LINE
  5
17AA6
  8
AM_0
 10
643.11548631206745
 20
185.47836592838669
 30
0.0
 11
643.11548631206756
 21
170.16572784682859
 31
0.0
  0
LINE
  5
17AA7
  8
AM_0
 10
641.61548631206756
 20
170.4212979647842
 30
0.0
 11
641.61548631206756
 21
185.47836592838669
 31
0.0
  0
LINE
  5
17AA8
  8
AM_0
 10
656.42554844849985
 20
167.8979584133611
 30
0.0
 11
656.42554844849985
 21
185.47836592838669
 31
0.0
  0
LINE
  5
17AA9
  8
AM_0
 10
654.22554844849992
 20
185.47836592838669
 30
0.0
 11
654.22554844849992
 21
168.2727945863621
 31
0.0
  0
LINE
  5
17AAA
  8
AM_0
 10
652.72554844849992
 20
168.52836470431751
 30
0.0
 11
652.72554844849992
 21
185.47836592838669
 31
0.0
  0
LINE
  5
17AAB
  8
AM_0
 10
645.31884035754524
 20
169.7903202112951
 30
0.0
 11
643.11548631206756
 21
170.16572784682859
 31
0.0
  0
LINE
  5
17AAC
  8
AM_0
 10
652.72554844849992
 20
168.52836470431751
 30
0.0
 11
650.52219440302258
 21
168.90377233985089
 31
0.0
  0
LINE
  5
17AAD
  8
AM_0
 10
656.42554844849985
 20
167.8979584133611
 30
0.0
 11
654.22554844849992
 21
168.2727945863621
 31
0.0
  0
LINE
  5
17AAE
  8
AM_0
 10
648.52219440301917
 20
169.24453249712531
 30
0.0
 11
646.81884035754524
 21
169.53475009333999
 31
0.0
  0
LINE
  5
17AAF
  8
AM_0
 10
641.61548631206756
 20
170.4212979647842
 30
0.0
 11
639.41213226659056
 21
170.79670560031769
 31
0.0
  0
LINE
  5
17AB0
  8
AM_0
 10
637.91213226659056
 20
171.05227571827311
 30
0.0
 11
635.70877822111311
 21
171.42768335380649
 31
0.0
  0
LINE
  5
17AB1
  8
AM_0
 10
652.72554844849992
 20
185.47836592838669
 30
0.0
 11
654.22554844849992
 21
185.47836592838669
 31
0.0
  0
LINE
  5
17AB2
  8
AM_0
 10
652.72554844849992
 20
181.47836592838641
 30
0.0
 11
654.22554844849992
 21
181.47836592838641
 31
0.0
  0
LINE
  5
17AB3
  8
AM_0
 10
648.52219440301906
 20
185.47836592838669
 30
0.0
 11
650.52219440302258
 21
185.47836592838669
 31
0.0
  0
LINE
  5
17AB4
  8
AM_0
 10
648.52219440301906
 20
181.47836592838641
 30
0.0
 11
650.52219440302258
 21
181.47836592838641
 31
0.0
  0
LINE
  5
17AB5
  8
AM_0
 10
645.31884035754501
 20
185.47836592838669
 30
0.0
 11
646.8188403575449
 21
185.47836592838669
 31
0.0
  0
LINE
  5
17AB6
  8
AM_0
 10
645.31884035754467
 20
181.47836592838641
 30
0.0
 11
646.8188403575449
 21
181.47836592838641
 31
0.0
  0
LINE
  5
17AB7
  8
AM_0
 10
637.91213226659056
 20
185.47836592838669
 30
0.0
 11
639.41213226659045
 21
185.47836592838669
 31
0.0
  0
LINE
  5
17AB8
  8
AM_0
 10
637.91213226659056
 20
181.47836592838641
 30
0.0
 11
639.41213226659045
 21
181.47836592838641
 31
0.0
  0
LINE
  5
17AB9
  8
AM_0
 10
641.61548631206756
 20
185.47836592838669
 30
0.0
 11
643.11548631206745
 21
185.47836592838669
 31
0.0
  0
LINE
  5
17ABA
  8
AM_0
 10
641.61548631206756
 20
181.47836592838641
 30
0.0
 11
643.11548631206745
 21
181.47836592838641
 31
0.0
  0
LINE
  5
17ABB
  8
AM_0
 10
634.20877822111288
 20
185.47836592838669
 30
0.0
 11
635.70877822111311
 21
185.47836592838669
 31
0.0
  0
LINE
  5
17ABC
  8
AM_0
 10
634.20877822111288
 20
181.47836592838641
 30
0.0
 11
635.70877822111311
 21
181.47836592838641
 31
0.0
  0
LINE
  5
17ABD
  8
AM_0
 10
609.34706813717423
 20
173.47836592838681
 30
0.0
 11
609.34706813717423
 21
189.47836592838649
 31
0.0
  0
LINE
  5
17ABE
  8
AM_0
 10
624.34706813717423
 20
173.36349241135849
 30
0.0
 11
624.34706813717423
 21
190.47836592838681
 31
0.0
  0
LINE
  5
17ABF
  8
AM_0
 10
625.12219440302022
 20
168.16416070108929
 30
0.0
 11
625.12219440302067
 21
172.21755334647301
 31
0.0
  0
LINE
  5
17AC0
  8
AM_0
 10
609.34706813717423
 20
173.47836592838681
 30
0.0
 11
609.34706813717423
 21
169.97836592838649
 31
0.0
  0
LINE
  5
17AC1
  8
AM_0
 10
615.22219440302047
 20
169.47836592838649
 30
0.0
 11
609.84706813717412
 21
169.47836592838649
 31
0.0
  0
ARC
  5
17AC2
  8
AM_0
 10
615.22219440302047
 20
168.97836592838669
 30
0.0
 40
0.5
 50
0.000000000000007
 51
90.0
  0
LINE
  5
17AC3
  8
AM_0
 10
615.22219440302047
 20
169.47836592838649
 30
0.0
 11
617.3964992661796
 21
169.47836592838649
 31
0.0
  0
ARC
  5
17AC4
  8
AM_0
 10
609.84706813717412
 20
169.97836592838649
 30
0.0
 40
0.5
 50
180.0
 51
270.0
  0
LINE
  5
17AC5
  8
AM_0
 10
609.34706813717423
 20
173.47836592838681
 30
0.0
 11
617.72219440302104
 21
173.47836592838641
 31
0.0
  0
ARC
  5
17AC6
  8
AM_0
 10
610.34706813717401
 20
189.47836592838649
 30
0.0
 40
1.0
 50
90.0
 51
180.0
  0
LINE
  5
17AC7
  8
AM_0
 10
613.84706813717355
 20
192.97836592838701
 30
0.0
 11
613.84706813717355
 21
190.47836592838681
 31
0.0
  0
ARC
  5
17AC8
  8
AM_0
 10
679.02064813717379
 20
202.0883459283865
 30
0.0
 40
1.5
 50
89.999997000002296
 51
178.4999972999976
  0
ARC
  5
17AC9
  8
AM_0
 10
667.90834813717379
 20
252.47836592838669
 30
0.0
 40
1.000005699999998
 50
89.999997000002296
 51
270.000010000001
  0
ARC
  5
17ACA
  8
AM_0
 10
666.68208813717365
 20
252.4683559283867
 30
0.0
 40
1.3300148000000001
 50
89.729432999998991
 51
270.27058000000142
  0
LINE
  5
17ACB
  8
AM_0
 10
634.32704813717373
 20
239.97836592838669
 30
0.0
 11
634.32704813717373
 21
235.1183759283868
 31
0.0
  0
LINE
  5
17ACC
  8
AM_0
 10
633.84706813717366
 20
239.97836592838669
 30
0.0
 11
633.84706813717366
 21
234.97836592838669
 31
0.0
  0
ARC
  5
17ACD
  8
AM_0
 10
635.32704813717373
 20
235.1183759283868
 30
0.0
 40
1.0
 50
179.99999931675049
 51
270.000010000001
  0
ARC
  5
17ACE
  8
AM_0
 10
635.34706813717389
 20
234.97836592838669
 30
0.0
 40
1.5
 50
179.99999931675049
 51
270.000010000001
  0
ARC
  5
17ACF
  8
AM_0
 10
635.34706813717389
 20
239.97836592838669
 30
0.0
 40
1.02
 50
89.999997000002296
 51
180.0
  0
ARC
  5
17AD0
  8
AM_0
 10
635.34706813717389
 20
239.97836592838669
 30
0.0
 40
1.5
 50
89.999997000002296
 51
180.0
  0
CIRCLE
  5
17AD1
  8
AM_0
 10
628.84706813717366
 20
238.97836592838669
 30
0.0
 40
1.149999999999999
  0
CIRCLE
  5
17AD2
  8
AM_0
 10
628.84706813717366
 20
238.97836592838669
 30
0.0
 40
1.1000000000000001
  0
CIRCLE
  5
17AD3
  8
AM_0
 10
623.84706813717378
 20
238.97836592838669
 30
0.0
 40
1.0
  0
LINE
  5
17AD4
  8
AM_0
 10
618.36708813717382
 20
239.97836592838669
 30
0.0
 11
618.36708813717382
 21
235.1183759283868
 31
0.0
  0
LINE
  5
17AD5
  8
AM_0
 10
618.84706813717389
 20
239.97836592838669
 30
0.0
 11
618.84706813717389
 21
234.97836592838669
 31
0.0
  0
ARC
  5
17AD6
  8
AM_0
 10
617.36708813717382
 20
235.1183759283868
 30
0.0
 40
1.0
 50
270.0
 51
0.0000100000010134
  0
ARC
  5
17AD7
  8
AM_0
 10
617.34706813717355
 20
234.97836592838669
 30
0.0
 40
1.5
 50
270.0
 51
0.0000100000010134
  0
ARC
  5
17AD8
  8
AM_0
 10
617.34706813717355
 20
239.97836592838669
 30
0.0
 40
1.02
 50
359.999989999999
 51
89.999997000002296
  0
ARC
  5
17AD9
  8
AM_0
 10
617.34706813717355
 20
239.97836592838669
 30
0.0
 40
1.5
 50
359.999989999999
 51
89.999997000002296
  0
LINE
  5
17ADA
  8
AM_0
 10
601.60707813717374
 20
207.10842592838671
 30
0.0
 11
598.1470881371738
 21
220.0183959283867
 31
0.0
  0
ARC
  5
17ADB
  8
AM_0
 10
595.3540281371736
 20
204.9714059283865
 30
0.0
 40
0.99304521
 50
269.59731999999991
 51
0.4026900000005682
  0
LINE
  5
17ADC
  8
AM_0
 10
601.63704813717379
 20
206.97836592838669
 30
0.0
 11
596.34706813717366
 21
206.97836592838669
 31
0.0
  0
LINE
  5
17ADD
  8
AM_0
 10
597.34706813717389
 20
206.97842592838671
 30
0.0
 11
603.07286813717337
 21
198.1614959283865
 31
0.0
  0
ARC
  5
17ADE
  8
AM_0
 10
604.3308881371737
 20
198.97836592838661
 30
0.0
 40
1.5
 50
213.00000000000199
 51
270.000010000001
  0
ARC
  5
17ADF
  8
AM_0
 10
603.54579813717385
 20
207.6246059283867
 30
0.0
 40
2.0062942999999991
 50
194.91156000000271
 51
269.75067000000109
  0
LINE
  5
17AE0
  8
AM_0
 10
595.34706813717366
 20
203.97836592838661
 30
0.0
 11
588.34706813717355
 21
203.97836592838661
 31
0.0
  0
ARC
  5
17AE1
  8
AM_0
 10
595.35469813717384
 20
216.4307559283867
 30
0.0
 40
0.99237448
 50
269.5580300000035
 51
0.4419800000019566
  0
ARC
  5
17AE2
  8
AM_0
 10
596.70338813717376
 20
219.63461592838669
 30
0.0
 40
1.4937901
 50
14.887079999999211
 51
90.243576000004794
  0
LINE
  5
17AE3
  8
AM_0
 10
595.34706813717366
 20
215.43832592838669
 30
0.0
 11
588.34706813717355
 21
215.43832592838669
 31
0.0
  0
ARC
  5
17AE4
  8
AM_0
 10
603.00703813717382
 20
232.47836592838669
 30
0.0
 40
1.0000040999999991
 50
89.999997000002296
 51
270.000010000001
  0
ARC
  5
17AE5
  8
AM_0
 10
599.52705813717375
 20
232.43832592838669
 30
0.0
 40
1.6800077
 50
89.999997000002296
 51
270.000010000001
  0
ARC
  5
17AE6
  8
AM_0
 10
603.00709813717367
 20
242.47836592838669
 30
0.0
 40
1.000025599999997
 50
89.589469000002211
 51
270.41052999999681
  0
ARC
  5
17AE7
  8
AM_0
 10
599.30708813717365
 20
242.44833592838671
 30
0.0
 40
1.460011199999999
 50
89.775249999996646
 51
270.22475000000333
  0
LINE
  5
17AE8
  8
AM_0
 10
596.34706813717366
 20
230.32833592838671
 30
0.0
 11
588.34706813717355
 21
230.32833592838671
 31
0.0
  0
LINE
  5
17AE9
  8
AM_0
 10
617.34706813717355
 20
293.9683559283867
 30
0.0
 11
599.30134813717382
 21
293.9683559283867
 31
0.0
  0
LINE
  5
17AEA
  8
AM_0
 10
617.36708813717382
 20
300.8483559283867
 30
0.0
 11
599.52705813717375
 21
300.8483559283867
 31
0.0
  0
LINE
  5
17AEB
  8
AM_0
 10
602.99989813717355
 20
293.47836592838661
 30
0.0
 11
617.34706813717355
 21
293.47836592838661
 31
0.0
  0
LINE
  5
17AEC
  8
AM_0
 10
603.00703813717382
 20
301.47836592838672
 30
0.0
 11
617.34706813717355
 21
301.47836592838672
 31
0.0
  0
LINE
  5
17AED
  8
AM_0
 10
702.34706813717355
 20
313.82833592838671
 30
0.0
 11
596.34706813717366
 21
313.82833592838671
 31
0.0
  0
ARC
  5
17AEE
  8
AM_0
 10
667.90834813717379
 20
262.47836592838672
 30
0.0
 40
1.000005699999998
 50
89.999997000002296
 51
270.000010000001
  0
ARC
  5
17AEF
  8
AM_0
 10
666.62013813717374
 20
262.47836592838672
 30
0.0
 40
1.2700266
 50
89.629329999995278
 51
270.37067999999999
  0
ARC
  5
17AF0
  8
AM_0
 10
667.90834813717379
 20
272.47836592838672
 30
0.0
 40
1.000005699999998
 50
89.999997000002296
 51
270.000010000001
  0
ARC
  5
17AF1
  8
AM_0
 10
666.62013813717374
 20
272.48837592838657
 30
0.0
 40
1.2700266
 50
89.629329999995278
 51
270.37067999999999
  0
ARC
  5
17AF2
  8
AM_0
 10
667.90834813717379
 20
282.47836592838672
 30
0.0
 40
1.000005699999998
 50
89.999997000002296
 51
270.000010000001
  0
ARC
  5
17AF3
  8
AM_0
 10
666.68208813717365
 20
282.49337592838668
 30
0.0
 40
1.3350147999999991
 50
89.730443999998613
 51
270.2695700000001
  0
ARC
  5
17AF4
  8
AM_0
 10
635.32704813717373
 20
299.83834592838667
 30
0.0
 40
1.0
 50
89.999997000002296
 51
180.0
  0
ARC
  5
17AF5
  8
AM_0
 10
635.34706813717389
 20
299.97836592838672
 30
0.0
 40
1.5
 50
89.999997000002296
 51
180.0
  0
LINE
  5
17AF6
  8
AM_0
 10
633.84706813717366
 20
294.97836592838672
 30
0.0
 11
633.84706813717366
 21
299.97836592838672
 31
0.0
  0
LINE
  5
17AF7
  8
AM_0
 10
634.32704813717373
 20
294.97836592838672
 30
0.0
 11
634.32704813717373
 21
299.83834592838667
 31
0.0
  0
ARC
  5
17AF8
  8
AM_0
 10
635.34706813717389
 20
294.97836592838672
 30
0.0
 40
1.02
 50
179.999999316757
 51
270.000010000001
  0
ARC
  5
17AF9
  8
AM_0
 10
635.34706813717389
 20
294.97836592838672
 30
0.0
 40
1.5
 50
179.99999931675049
 51
270.000010000001
  0
CIRCLE
  5
17AFA
  8
AM_0
 10
628.84706813717366
 20
295.97836592838672
 30
0.0
 40
1.1000000000000001
  0
CIRCLE
  5
17AFB
  8
AM_0
 10
628.84706813717366
 20
295.97836592838672
 30
0.0
 40
1.149999999999999
  0
CIRCLE
  5
17AFC
  8
AM_0
 10
623.84706813717378
 20
295.97836592838672
 30
0.0
 40
1.0
  0
ARC
  5
17AFD
  8
AM_0
 10
617.36708813717382
 20
299.83834592838667
 30
0.0
 40
1.0
 50
359.999989999999
 51
89.999997000002296
  0
ARC
  5
17AFE
  8
AM_0
 10
617.34706813717355
 20
299.97836592838672
 30
0.0
 40
1.5
 50
359.999989999999
 51
89.999997000002296
  0
LINE
  5
17AFF
  8
AM_0
 10
618.36708813717382
 20
294.97836592838672
 30
0.0
 11
618.36708813717382
 21
299.83834592838667
 31
0.0
  0
ARC
  5
17B00
  8
AM_0
 10
617.34706813717355
 20
294.97836592838672
 30
0.0
 40
1.02
 50
270.0
 51
0.0000100000010134
  0
LINE
  5
17B01
  8
AM_0
 10
618.84706813717389
 20
294.97836592838672
 30
0.0
 11
618.84706813717389
 21
299.97836592838672
 31
0.0
  0
ARC
  5
17B02
  8
AM_0
 10
617.34706813717355
 20
294.97836592838672
 30
0.0
 40
1.5
 50
270.0
 51
0.0000100000010134
  0
LINE
  5
17B03
  8
AM_0
 10
600.79686813717365
 20
332.2135559283866
 30
0.0
 11
598.10701813717401
 21
319.69833592838671
 31
0.0
  0
LINE
  5
17B04
  8
AM_0
 10
601.60704813717382
 20
327.85830592838653
 30
0.0
 11
598.14705813717387
 21
314.93835592838673
 31
0.0
  0
ARC
  5
17B05
  8
AM_0
 10
603.00709813717367
 20
292.47836592838672
 30
0.0
 40
1.000025599999997
 50
89.589469000002211
 51
270.41052999999681
  0
ARC
  5
17B06
  8
AM_0
 10
599.30708813717365
 20
292.50839592838679
 30
0.0
 40
1.460011199999999
 50
89.775249999996646
 51
270.22475000000333
  0
ARC
  5
17B07
  8
AM_0
 10
599.52705813717375
 20
302.5284059283868
 30
0.0
 40
1.6800077
 50
89.999997000002296
 51
270.000010000001
  0
ARC
  5
17B08
  8
AM_0
 10
603.00703813717382
 20
302.47836592838672
 30
0.0
 40
1.0000040999999991
 50
89.999997000002296
 51
270.000010000001
  0
LINE
  5
17B09
  8
AM_0
 10
596.34706813717366
 20
304.62838592838659
 30
0.0
 11
588.34706813717355
 21
304.62838592838659
 31
0.0
  0
ARC
  5
17B0A
  8
AM_0
 10
595.34797813717375
 20
318.51925592838671
 30
0.0
 40
0.9990923399999999
 50
359.94791999999558
 51
90.052078000000705
  0
ARC
  5
17B0B
  8
AM_0
 10
596.69691813717384
 20
315.3306559283867
 30
0.0
 40
1.5022733999999991
 50
270.00588000000278
 51
344.86349000000382
  0
ARC
  5
17B0C
  8
AM_0
 10
596.64137813717355
 20
320.0186459283866
 30
0.0
 40
1.500286
 50
269.83583000000482
 51
347.67369000000491
  0
LINE
  5
17B0D
  8
AM_0
 10
596.63704813717345
 20
318.51839592838672
 30
0.0
 11
599.0570281371738
 21
318.51839592838672
 31
0.0
  0
LINE
  5
17B0E
  8
AM_0
 10
595.34706813717366
 20
319.51839592838672
 30
0.0
 11
588.34706813717355
 21
319.51839592838672
 31
0.0
  0
ARC
  5
17B0F
  8
AM_0
 10
595.34724813717355
 20
329.97860592838668
 30
0.0
 40
0.99980682
 50
359.98893000000248
 51
90.01106900000255
  0
LINE
  5
17B10
  8
AM_0
 10
599.88661813717374
 20
327.97836592838661
 30
0.0
 11
596.34706813717366
 21
327.97836592838661
 31
0.0
  0
ARC
  5
17B11
  8
AM_0
 10
602.26338813717382
 20
331.89840592838652
 30
0.0
 40
1.5
 50
89.999997000002296
 51
167.87020799999789
  0
ARC
  5
17B12
  8
AM_0
 10
603.53761813717381
 20
327.33920592838672
 30
0.0
 40
1.9991226
 50
90.015611000000348
 51
164.94920899999991
  0
ARC
  5
17B13
  8
AM_0
 10
601.82710813717381
 20
329.86837592838668
 30
0.0
 40
1.5
 50
89.999997000002296
 51
167.87020799999789
  0
ARC
  5
17B14
  8
AM_0
 10
602.11940813717388
 20
331.22836592838672
 30
0.0
 40
1.5
 50
89.999997000002296
 51
167.87020799999789
  0
LINE
  5
17B15
  8
AM_0
 10
595.34706813717366
 20
330.97836592838661
 30
0.0
 11
588.34706813717355
 21
330.97836592838661
 31
0.0
  0
LINE
  5
17B16
  8
AM_0
 10
790.84706813717378
 20
528.69602938102139
 30
0.0
 11
790.84706813717378
 21
609.67019502694586
 31
0.0
  0
LINE
  5
17B17
  8
AM_0
 10
793.34702813717342
 20
595.92020502694572
 30
0.0
 11
793.34702813717342
 21
607.67021502694593
 31
0.0
  0
LINE
  5
17B18
  8
AM_0
 10
748.34702813717342
 20
560.67020202694584
 30
0.0
 11
748.34702813717342
 21
609.67019502694586
 31
0.0
  0
LINE
  5
17B19
  8
AM_0
 10
784.26707813717348
 20
548.95020102694582
 30
0.0
 11
798.72707813717329
 21
504.44020602694582
 31
0.0
  0
LINE
  5
17B1A
  8
AM_0
 10
779.50706813717329
 20
547.40021202694572
 30
0.0
 11
793.96706813717344
 21
502.90021002694579
 31
0.0
  0
LINE
  5
17B1B
  8
AM_0
 10
790.84706813717378
 20
495.67021602694581
 30
0.0
 11
790.84706813717378
 21
512.50187020951728
 31
0.0
  0
LINE
  5
17B1C
  8
AM_0
 10
748.34702813717342
 20
508.78021602694582
 30
0.0
 11
748.34702813717342
 21
495.67021602694581
 31
0.0
  0
LINE
  5
17B1D
  8
AM_0
 10
791.34707813717364
 20
495.67021602694581
 30
0.0
 11
743.34707813717364
 21
495.67021602694581
 31
0.0
  0
ARC
  5
17B1E
  8
AM_0
 10
796.34702813717342
 20
503.6702020269459
 30
0.0
 40
2.5014680099999991
 50
197.9279300000012
 51
17.927920000001439
  0
ARC
  5
17B1F
  8
AM_0
 10
796.34792813717343
 20
503.6647840269456
 30
0.0
 40
3.0008441999999982
 50
179.89645599999849
 51
354.94180999999992
  0
LINE
  5
17B20
  8
AM_0
 10
799.84706813717366
 20
504.17021502694581
 30
0.0
 11
799.63706813717363
 21
504.17021502694581
 31
0.0
  0
LINE
  5
17B21
  8
AM_0
 10
799.84706813717366
 20
504.17021502694581
 30
0.0
 11
799.84706813717366
 21
503.6702020269459
 31
0.0
  0
ARC
  5
17B22
  8
AM_0
 10
799.63943813717344
 20
503.36587902694561
 30
0.0
 40
0.304344
 50
90.452182999997504
 51
173.52224090000081
  0
ARC
  5
17B23
  8
AM_0
 10
799.63865813717382
 20
503.36513202694567
 30
0.0
 40
0.8050760400000001
 50
90.111534000001527
 51
174.64936809999921
  0
ARC
  5
17B24
  8
AM_0
 10
791.35232813717357
 20
497.66492202694559
 30
0.0
 40
1.9947200399999989
 50
269.84812000000289
 51
0.1518700000000498
  0
LINE
  5
17B25
  8
AM_0
 10
793.34702813717342
 20
504.81021402694552
 30
0.0
 11
793.34702813717342
 21
497.67019902694562
 31
0.0
  0
LINE
  5
17B26
  8
AM_0
 10
790.84706813717378
 20
508.78021602694582
 30
0.0
 11
743.34707813717364
 21
508.78021602694582
 31
0.0
  0
LINE
  5
17B27
  8
AM_0
 10
790.84706813717378
 20
596.56019502694573
 30
0.0
 11
743.34707813717364
 21
596.56019502694573
 31
0.0
  0
LINE
  5
17B28
  8
AM_0
 10
760.34702813717342
 20
544.67020302694584
 30
0.0
 11
743.34707813717364
 21
544.67020302694584
 31
0.0
  0
LINE
  5
17B29
  8
AM_0
 10
760.34702813717342
 20
560.67020202694584
 30
0.0
 11
743.34707813717364
 21
560.67020202694584
 31
0.0
  0
LINE
  5
17B2A
  8
AM_0
 10
793.34702813717342
 20
520.99022502694584
 30
0.0
 11
793.34702813717342
 21
587.20020102694593
 31
0.0
  0
ARC
  5
17B2B
  8
AM_0
 10
775.70462813717359
 20
546.16669302694584
 30
0.0
 40
9.0035201999999952
 50
18.00855000000017
 51
89.984471999995364
  0
LINE
  5
17B2C
  8
ﾁｭｳｼﾝｾﾝ1
 10
760.34702813717342
 20
539.86267029462715
 30
0.0
 11
760.34702813717342
 21
565.4777317592642
 31
0.0
  0
LINE
  5
17B2D
  8
AM_0
 10
765.84707813717364
 20
550.17020202694584
 30
0.0
 11
765.84707813717364
 21
555.17020302694584
 31
0.0
  0
LINE
  5
17B2E
  8
AM_0
 10
752.34707813717364
 20
550.17020202694584
 30
0.0
 11
752.34707813717364
 21
555.17020302694584
 31
0.0
  0
LINE
  5
17B2F
  8
AM_0
 10
754.84706813717355
 20
550.17020202694584
 30
0.0
 11
754.84706813717355
 21
555.17020302694584
 31
0.0
  0
LINE
  5
17B30
  8
AM_0
 10
775.70705813717359
 20
550.17020202694584
 30
0.0
 11
765.84707813717364
 21
550.17020202694584
 31
0.0
  0
ARC
  5
17B31
  8
AM_0
 10
793.2989981371735
 20
515.17032402694576
 30
0.0
 40
4.0504481999999991
 50
315.07940000000309
 51
80.936479999998895
  0
LINE
  5
17B32
  8
AM_0
 10
790.84706813717378
 20
512.51021202694585
 30
0.0
 11
790.84706813717378
 21
508.78021602694582
 31
0.0
  0
ARC
  5
17B33
  8
AM_0
 10
775.70048813717335
 20
546.16968402694533
 30
0.0
 40
4.0005161999999981
 50
17.913929999999759
 51
89.905911999991815
  0
LINE
  5
17B34
  8
AM_0
 10
765.84707813717364
 20
550.67020302694584
 30
0.0
 11
754.84706813717355
 21
550.67020302694584
 31
0.0
  0
ARC
  5
17B35
  8
AM_0
 10
760.35209813717381
 20
552.66422202694582
 30
0.0
 40
7.9940046000000002
 50
269.9641800000021
 51
341.82115999999712
  0
ARC
  5
17B36
  8
AM_0
 10
760.34702813717342
 20
552.66418902694556
 30
0.0
 40
4.9952319000000003
 50
203.52671000000231
 51
336.47329999999539
  0
LINE
  5
17B37
  8
AM_0
 10
754.84706813717355
 20
550.17020202694584
 30
0.0
 11
752.34707813717364
 21
550.17020202694584
 31
0.0
  0
LINE
  5
17B38
  8
AM_0
 10
790.84706813717378
 20
586.31021802694556
 30
0.0
 11
748.34702813717342
 21
586.31021802694556
 31
0.0
  0
LINE
  5
17B39
  8
AM_0
 10
775.70705813717359
 20
555.17020302694584
 30
0.0
 11
765.84707813717364
 21
555.17020302694584
 31
0.0
  0
LINE
  5
17B3A
  8
AM_0
 10
795.4470581371736
 20
590.06021502694534
 30
0.0
 11
795.4470581371736
 21
593.06021502694546
 31
0.0
  0
LINE
  5
17B3B
  8
AM_0
 10
792.14705813717364
 20
586.96021302694567
 30
0.0
 11
792.14705813717364
 21
596.16020502694573
 31
0.0
  0
ARC
  5
17B3C
  8
AM_0
 10
792.4493081371736
 20
590.05271502694575
 30
0.0
 40
2.9977641899999981
 50
264.21340999999683
 51
0.1435499999983982
  0
LINE
  5
17B3D
  8
AM_0
 10
792.14705813717364
 20
586.96021302694567
 30
0.0
 11
790.84706813717378
 21
586.96021302694567
 31
0.0
  0
ARC
  5
17B3E
  8
AM_0
 10
792.44924813717341
 20
593.05769502694545
 30
0.0
 40
2.99777994
 50
0.0478899999999929
 51
95.786117000002065
  0
LINE
  5
17B3F
  8
AM_0
 10
792.14705813717364
 20
596.16020502694573
 30
0.0
 11
790.84706813717378
 21
596.16020502694573
 31
0.0
  0
ARC
  5
17B40
  8
AM_0
 10
760.3463381371738
 20
552.66831102694584
 30
0.0
 40
8.0019083999999996
 50
18.219839999997671
 51
89.994827000009053
  0
LINE
  5
17B41
  8
AM_0
 10
765.84707813717364
 20
554.67020202694584
 30
0.0
 11
754.84706813717355
 21
554.67020202694584
 31
0.0
  0
ARC
  5
17B42
  8
AM_0
 10
760.34702813717342
 20
552.66418902694556
 30
0.0
 40
5.0000519999999984
 50
23.653230000000761
 51
156.34676999999911
  0
LINE
  5
17B43
  8
AM_0
 10
754.84706813717355
 20
555.17020302694584
 30
0.0
 11
752.34707813717364
 21
555.17020302694584
 31
0.0
  0
LINE
  5
17B44
  8
AM_0
 10
791.34707813717364
 20
609.67019502694586
 30
0.0
 11
743.34707813717364
 21
609.67019502694586
 31
0.0
  0
ARC
  5
17B45
  8
AM_0
 10
791.34653813717364
 20
607.66964502694555
 30
0.0
 40
2.0005360199999989
 50
0.0153199999982296
 51
89.984671000001825
  0
LINE
  5
17B46
  8
AM_0
 10
182.82830470711991
 20
332.46837142012538
 30
0.0
 11
191.16522249893461
 21
332.46837142012538
 31
0.0
  0
ARC
  5
17B47
  8
AM_0
 10
176.82924617343451
 20
329.96837142012561
 30
0.0
 40
2.4999999999999969
 50
36.318373132786803
 51
143.6632170090401
  0
LINE
  5
17B48
  8
AM_0
 10
176.82924617343451
 20
332.46837142012538
 30
0.0
 11
180.83093170534229
 21
332.46837142012538
 31
0.0
  0
LINE
  5
17B49
  8
AM_0
 10
175.02924617343419
 20
332.46837142012538
 30
0.0
 11
175.0292461734339
 21
331.70330657741482
 31
0.0
  0
LINE
  5
17B4A
  8
AM_0
 10
175.02924617343439
 20
332.46837142012572
 30
0.0
 11
172.82756064152679
 21
332.46837142012538
 31
0.0
  0
LINE
  5
17B4B
  8
AM_0
 10
178.62924617343469
 20
332.46837142012538
 30
0.0
 11
178.62924617343501
 21
331.70330657741482
 31
0.0
  0
ARC
  5
17B4C
  8
AM_0
 10
197.8292461734346
 20
302.4804375046084
 30
0.0
 40
29.999999999999979
 50
75.043338795978215
 51
88.374920016412489
1001
GENIUS_GENOBJ-N-FIL_13
1002
{
1000
OWNER
1000
GEN
1002
}
1001
GENIUS_GENODEF_13
1002
{
1000
HIER
1070
     0
1002
}
1002
{
1000
MANEDIT
1070
     0
1002
}
1002
{
1000
NOSEL
1070
     0
1002
}
1002
{
1000
BEHIND
1070
     0
1002
}
1002
{
1000
OTHER
1070
     0
1002
}
1002
{
1000
REACTOR
1002
}
  0
LINE
  5
17B4D
  8
AM_0
 10
192.4924098479342
 20
332.46837142012538
 30
0.0
 11
198.6800219832603
 21
332.46837142012538
 31
0.0
  0
LINE
  5
17B4E
  8
AM_0
 10
146.8123361734346
 20
197.4684909283871
 30
0.0
 11
206.8623461734345
 21
197.4684909283871
 31
0.0
  0
LINE
  5
17B4F
  8
1
  6
CONTINUOUS
 62
     7
 10
195.69408108451159
 20
190.4783709283825
 30
0.0
 11
157.8940810845119
 21
190.4783709283825
 31
0.0
  0
LINE
  5
17B50
  8
1
  6
CONTINUOUS
 62
     7
 10
145.39408108450851
 20
156.47837092838279
 30
0.0
 11
208.19408108450821
 21
156.47837092838279
 31
0.0
  0
LINE
  5
17B51
  8
1
  6
CONTINUOUS
 62
     7
 10
212.7940810845104
 20
169.4783709283825
 30
0.0
 11
140.7940810845104
 21
169.4783709283825
 31
0.0
  0
LINE
  5
17B52
  8
0
 10
143.29408871390311
 20
192.99107092838739
 30
0.0
 11
210.29407345511359
 21
192.99107092838739
 31
0.0
  0
LINE
  5
17B53
  8
1
  6
CONTINUOUS
 62
     7
 10
140.794081084509
 20
173.47837092838259
 30
0.0
 11
171.294081084509
 21
173.47837092838259
 31
0.0
  0
LINE
  5
17B54
  8
1
  6
CONTINUOUS
 62
     7
 10
140.7940810845104
 20
189.47837092838279
 30
0.0
 11
140.7940810845104
 21
156.97837092838259
 31
0.0
  0
LINE
  5
17B55
  8
1
  6
CONTINUOUS
 62
     7
 10
152.2940810845102
 20
189.47837092838279
 30
0.0
 11
152.2940810845102
 21
173.47837092838259
 31
0.0
  0
LINE
  5
17B56
  8
1
  6
CONTINUOUS
 62
     7
 10
142.89408108450851
 20
168.01337092838281
 30
0.0
 11
142.89408108450851
 21
158.9783709283825
 31
0.0
  0
LINE
  5
17B57
  8
1
  6
CONTINUOUS
 62
     7
 10
153.1639295654914
 20
169.4783709283825
 30
0.0
 11
153.1639295654914
 21
158.9783709283785
 31
0.0
  0
POLYLINE
  5
17B58
  8
1
 62
     7
 66
     1
 10
0.0
 20
0.0
 30
0.0
 70
     8
  0
VERTEX
  5
17B59
  8
1
 62
     7
 10
153.16366628146591
 20
158.9783238633087
 30
0.0
 70
    32
  0
VERTEX
  5
17B5A
  8
1
 62
     7
 10
153.16366628146591
 20
158.97432386330851
 30
0.0
 70
    32
  0
VERTEX
  5
17B5B
  8
1
 62
     7
 10
153.16366628146591
 20
158.97032386330869
 30
0.0
 70
    32
  0
VERTEX
  5
17B5C
  8
1
 62
     7
 10
153.16366628146591
 20
158.9653238633087
 30
0.0
 70
    32
  0
VERTEX
  5
17B5D
  8
1
 62
     7
 10
153.16366628146591
 20
158.96132386330859
 30
0.0
 70
    32
  0
VERTEX
  5
17B5E
  8
1
 62
     7
 10
153.16366628146591
 20
158.95732386330911
 30
0.0
 70
    32
  0
VERTEX
  5
17B5F
  8
1
 62
     7
 10
153.16366628146591
 20
158.95232386330881
 30
0.0
 70
    32
  0
VERTEX
  5
17B60
  8
1
 62
     7
 10
153.16466628146591
 20
158.9483238633087
 30
0.0
 70
    32
  0
VERTEX
  5
17B61
  8
1
 62
     7
 10
153.16466628146591
 20
158.94432386330851
 30
0.0
 70
    32
  0
VERTEX
  5
17B62
  8
1
 62
     7
 10
153.16466628146591
 20
158.94032386330881
 30
0.0
 70
    32
  0
VERTEX
  5
17B63
  8
1
 62
     7
 10
153.16466628146591
 20
158.9353238633087
 30
0.0
 70
    32
  0
VERTEX
  5
17B64
  8
1
 62
     7
 10
153.16466628146591
 20
158.93132386330859
 30
0.0
 70
    32
  0
VERTEX
  5
17B65
  8
1
 62
     7
 10
153.16466628146591
 20
158.92732386330849
 30
0.0
 70
    32
  0
VERTEX
  5
17B66
  8
1
 62
     7
 10
153.16466628146591
 20
158.9233238633087
 30
0.0
 70
    32
  0
VERTEX
  5
17B67
  8
1
 62
     7
 10
153.16466628146591
 20
158.9183238633087
 30
0.0
 70
    32
  0
VERTEX
  5
17B68
  8
1
 62
     7
 10
153.16466628146591
 20
158.9143238633086
 30
0.0
 70
    32
  0
VERTEX
  5
17B69
  8
1
 62
     7
 10
153.16466628146591
 20
158.9103238633088
 30
0.0
 70
    32
  0
VERTEX
  5
17B6A
  8
1
 62
     7
 10
153.16466628146591
 20
158.90532386330881
 30
0.0
 70
    32
  0
VERTEX
  5
17B6B
  8
1
 62
     7
 10
153.16466628146591
 20
158.9013238633087
 30
0.0
 70
    32
  0
VERTEX
  5
17B6C
  8
1
 62
     7
 10
153.16466628146591
 20
158.89732386330849
 30
0.0
 70
    32
  0
VERTEX
  5
17B6D
  8
1
 62
     7
 10
153.16466628146591
 20
158.89332386330869
 30
0.0
 70
    32
  0
VERTEX
  5
17B6E
  8
1
 62
     7
 10
153.16466628146591
 20
158.8883238633087
 30
0.0
 70
    32
  0
VERTEX
  5
17B6F
  8
1
 62
     7
 10
153.16466628146591
 20
158.88432386330859
 30
0.0
 70
    32
  0
VERTEX
  5
17B70
  8
1
 62
     7
 10
153.16466628146591
 20
158.88032386330849
 30
0.0
 70
    32
  0
VERTEX
  5
17B71
  8
1
 62
     7
 10
153.16466628146591
 20
158.87632386330901
 30
0.0
 70
    32
  0
VERTEX
  5
17B72
  8
1
 62
     7
 10
153.16566628146569
 20
158.8713238633087
 30
0.0
 70
    32
  0
VERTEX
  5
17B73
  8
1
 62
     7
 10
153.16566628146569
 20
158.86732386330851
 30
0.0
 70
    32
  0
VERTEX
  5
17B74
  8
1
 62
     7
 10
153.16566628146569
 20
158.86332386330881
 30
0.0
 70
    32
  0
VERTEX
  5
17B75
  8
1
 62
     7
 10
153.16566628146569
 20
158.85932386330899
 30
0.0
 70
    32
  0
VERTEX
  5
17B76
  8
1
 62
     7
 10
153.16566628146569
 20
158.85432386330859
 30
0.0
 70
    32
  0
VERTEX
  5
17B77
  8
1
 62
     7
 10
153.16566628146569
 20
158.85032386330849
 30
0.0
 70
    32
  0
VERTEX
  5
17B78
  8
1
 62
     7
 10
153.16566628146569
 20
158.8463238633087
 30
0.0
 70
    32
  0
VERTEX
  5
17B79
  8
1
 62
     7
 10
153.16566628146569
 20
158.8413238633087
 30
0.0
 70
    32
  0
VERTEX
  5
17B7A
  8
1
 62
     7
 10
153.16566628146569
 20
158.8373238633086
 30
0.0
 70
    32
  0
VERTEX
  5
17B7B
  8
1
 62
     7
 10
153.16566628146569
 20
158.83332386330841
 30
0.0
 70
    32
  0
VERTEX
  5
17B7C
  8
1
 62
     7
 10
153.16666628146589
 20
158.82932386330901
 30
0.0
 70
    32
  0
VERTEX
  5
17B7D
  8
1
 62
     7
 10
153.16666628146589
 20
158.82432386330871
 30
0.0
 70
    32
  0
VERTEX
  5
17B7E
  8
1
 62
     7
 10
153.16666628146589
 20
158.82032386330849
 30
0.0
 70
    32
  0
VERTEX
  5
17B7F
  8
1
 62
     7
 10
153.16666628146589
 20
158.8163238633087
 30
0.0
 70
    32
  0
VERTEX
  5
17B80
  8
1
 62
     7
 10
153.16666628146589
 20
158.81232386330859
 30
0.0
 70
    32
  0
VERTEX
  5
17B81
  8
1
 62
     7
 10
153.16666628146589
 20
158.8073238633086
 30
0.0
 70
    32
  0
VERTEX
  5
17B82
  8
1
 62
     7
 10
153.16666628146589
 20
158.80332386330849
 30
0.0
 70
    32
  0
VERTEX
  5
17B83
  8
1
 62
     7
 10
153.1676662814659
 20
158.79932386330901
 30
0.0
 70
    32
  0
VERTEX
  5
17B84
  8
1
 62
     7
 10
153.1676662814659
 20
158.79532386330851
 30
0.0
 70
    32
  0
VERTEX
  5
17B85
  8
1
 62
     7
 10
153.1676662814659
 20
158.7903238633086
 30
0.0
 70
    32
  0
VERTEX
  5
17B86
  8
1
 62
     7
 10
153.1676662814659
 20
158.7863238633087
 30
0.0
 70
    32
  0
VERTEX
  5
17B87
  8
1
 62
     7
 10
153.1676662814659
 20
158.78232386330899
 30
0.0
 70
    32
  0
VERTEX
  5
17B88
  8
1
 62
     7
 10
153.1676662814659
 20
158.7773238633086
 30
0.0
 70
    32
  0
VERTEX
  5
17B89
  8
1
 62
     7
 10
153.1676662814659
 20
158.77332386330849
 30
0.0
 70
    32
  0
VERTEX
  5
17B8A
  8
1
 62
     7
 10
153.1686662814659
 20
158.7693238633087
 30
0.0
 70
    32
  0
VERTEX
  5
17B8B
  8
1
 62
     7
 10
153.1686662814659
 20
158.76532386330891
 30
0.0
 70
    32
  0
VERTEX
  5
17B8C
  8
1
 62
     7
 10
153.1686662814659
 20
158.7603238633086
 30
0.0
 70
    32
  0
VERTEX
  5
17B8D
  8
1
 62
     7
 10
153.1686662814659
 20
158.75632386330881
 30
0.0
 70
    32
  0
VERTEX
  5
17B8E
  8
1
 62
     7
 10
153.1686662814659
 20
158.75232386330899
 30
0.0
 70
    32
  0
VERTEX
  5
17B8F
  8
1
 62
     7
 10
153.1696662814656
 20
158.74832386330891
 30
0.0
 70
    32
  0
VERTEX
  5
17B90
  8
1
 62
     7
 10
153.1696662814656
 20
158.74332386330849
 30
0.0
 70
    32
  0
VERTEX
  5
17B91
  8
1
 62
     7
 10
153.1696662814656
 20
158.73932386330841
 30
0.0
 70
    32
  0
VERTEX
  5
17B92
  8
1
 62
     7
 10
153.1696662814656
 20
158.73532386330859
 30
0.0
 70
    32
  0
VERTEX
  5
17B93
  8
1
 62
     7
 10
153.1696662814656
 20
158.7313238633088
 30
0.0
 70
    32
  0
VERTEX
  5
17B94
  8
1
 62
     7
 10
153.1696662814656
 20
158.72632386330849
 30
0.0
 70
    32
  0
VERTEX
  5
17B95
  8
1
 62
     7
 10
153.17066628146571
 20
158.72232386330899
 30
0.0
 70
    32
  0
VERTEX
  5
17B96
  8
1
 62
     7
 10
153.17066628146571
 20
158.71832386330891
 30
0.0
 70
    32
  0
VERTEX
  5
17B97
  8
1
 62
     7
 10
153.17066628146571
 20
158.71432386330869
 30
0.0
 70
    32
  0
VERTEX
  5
17B98
  8
1
 62
     7
 10
153.17066628146571
 20
158.7093238633087
 30
0.0
 70
    32
  0
VERTEX
  5
17B99
  8
1
 62
     7
 10
153.17166628146589
 20
158.70532386330899
 30
0.0
 70
    32
  0
VERTEX
  5
17B9A
  8
1
 62
     7
 10
153.17166628146589
 20
158.7013238633088
 30
0.0
 70
    32
  0
VERTEX
  5
17B9B
  8
1
 62
     7
 10
153.17166628146589
 20
158.69632386330849
 30
0.0
 70
    32
  0
VERTEX
  5
17B9C
  8
1
 62
     7
 10
153.17166628146589
 20
158.6923238633087
 30
0.0
 70
    32
  0
VERTEX
  5
17B9D
  8
1
 62
     7
 10
153.17166628146589
 20
158.6883238633086
 30
0.0
 70
    32
  0
VERTEX
  5
17B9E
  8
1
 62
     7
 10
153.17266628146581
 20
158.6843238633088
 30
0.0
 70
    32
  0
VERTEX
  5
17B9F
  8
1
 62
     7
 10
153.17266628146581
 20
158.67932386330841
 30
0.0
 70
    32
  0
VERTEX
  5
17BA0
  8
1
 62
     7
 10
153.17266628146581
 20
158.67532386330899
 30
0.0
 70
    32
  0
VERTEX
  5
17BA1
  8
1
 62
     7
 10
153.17266628146581
 20
158.67132386330891
 30
0.0
 70
    32
  0
VERTEX
  5
17BA2
  8
1
 62
     7
 10
153.1736662814659
 20
158.6673238633087
 30
0.0
 70
    32
  0
VERTEX
  5
17BA3
  8
1
 62
     7
 10
153.1736662814659
 20
158.6623238633087
 30
0.0
 70
    32
  0
VERTEX
  5
17BA4
  8
1
 62
     7
 10
153.1736662814659
 20
158.6583238633086
 30
0.0
 70
    32
  0
VERTEX
  5
17BA5
  8
1
 62
     7
 10
153.17466628146559
 20
158.6543238633088
 30
0.0
 70
    32
  0
VERTEX
  5
17BA6
  8
1
 62
     7
 10
153.17466628146559
 20
158.6503238633087
 30
0.0
 70
    32
  0
VERTEX
  5
17BA7
  8
1
 62
     7
 10
153.17466628146559
 20
158.64532386330899
 30
0.0
 70
    32
  0
VERTEX
  5
17BA8
  8
1
 62
     7
 10
153.17466628146559
 20
158.6413238633086
 30
0.0
 70
    32
  0
VERTEX
  5
17BA9
  8
1
 62
     7
 10
153.17566628146579
 20
158.63732386330869
 30
0.0
 70
    32
  0
VERTEX
  5
17BAA
  8
1
 62
     7
 10
153.17566628146579
 20
158.63332386330859
 30
0.0
 70
    32
  0
VERTEX
  5
17BAB
  8
1
 62
     7
 10
153.17566628146579
 20
158.62832386330899
 30
0.0
 70
    32
  0
VERTEX
  5
17BAC
  8
1
 62
     7
 10
153.17566628146579
 20
158.6243238633088
 30
0.0
 70
    32
  0
VERTEX
  5
17BAD
  8
1
 62
     7
 10
153.17666628146591
 20
158.6203238633087
 30
0.0
 70
    32
  0
VERTEX
  5
17BAE
  8
1
 62
     7
 10
153.17666628146591
 20
158.61632386330859
 30
0.0
 70
    32
  0
VERTEX
  5
17BAF
  8
1
 62
     7
 10
153.17666628146591
 20
158.6113238633086
 30
0.0
 70
    32
  0
VERTEX
  5
17BB0
  8
1
 62
     7
 10
153.1776662814658
 20
158.60732386330881
 30
0.0
 70
    32
  0
VERTEX
  5
17BB1
  8
1
 62
     7
 10
153.1776662814658
 20
158.6033238633087
 30
0.0
 70
    32
  0
VERTEX
  5
17BB2
  8
1
 62
     7
 10
153.1776662814658
 20
158.59832386330899
 30
0.0
 70
    32
  0
VERTEX
  5
17BB3
  8
1
 62
     7
 10
153.17866628146589
 20
158.59432386330889
 30
0.0
 70
    32
  0
VERTEX
  5
17BB4
  8
1
 62
     7
 10
153.17866628146589
 20
158.5903238633087
 30
0.0
 70
    32
  0
VERTEX
  5
17BB5
  8
1
 62
     7
 10
153.17866628146589
 20
158.58632386330859
 30
0.0
 70
    32
  0
VERTEX
  5
17BB6
  8
1
 62
     7
 10
153.17966628146559
 20
158.58132386330891
 30
0.0
 70
    32
  0
VERTEX
  5
17BB7
  8
1
 62
     7
 10
153.17966628146559
 20
158.57732386330881
 30
0.0
 70
    32
  0
VERTEX
  5
17BB8
  8
1
 62
     7
 10
153.17966628146559
 20
158.5733238633087
 30
0.0
 70
    32
  0
VERTEX
  5
17BB9
  8
1
 62
     7
 10
153.18066628146579
 20
158.56932386330851
 30
0.0
 70
    32
  0
VERTEX
  5
17BBA
  8
1
 62
     7
 10
153.18066628146579
 20
158.56432386330891
 30
0.0
 70
    32
  0
VERTEX
  5
17BBB
  8
1
 62
     7
 10
153.18066628146579
 20
158.56032386330881
 30
0.0
 70
    32
  0
VERTEX
  5
17BBC
  8
1
 62
     7
 10
153.18166628146591
 20
158.55632386330859
 30
0.0
 70
    32
  0
VERTEX
  5
17BBD
  8
1
 62
     7
 10
153.18166628146591
 20
158.55232386330849
 30
0.0
 70
    32
  0
VERTEX
  5
17BBE
  8
1
 62
     7
 10
153.18166628146591
 20
158.5473238633088
 30
0.0
 70
    32
  0
VERTEX
  5
17BBF
  8
1
 62
     7
 10
153.1826662814658
 20
158.5433238633087
 30
0.0
 70
    32
  0
VERTEX
  5
17BC0
  8
1
 62
     7
 10
153.1826662814658
 20
158.5393238633086
 30
0.0
 70
    32
  0
VERTEX
  5
17BC1
  8
1
 62
     7
 10
153.18366628146549
 20
158.53532386330841
 30
0.0
 70
    32
  0
VERTEX
  5
17BC2
  8
1
 62
     7
 10
153.18366628146549
 20
158.53032386330881
 30
0.0
 70
    32
  0
VERTEX
  5
17BC3
  8
1
 62
     7
 10
153.18366628146549
 20
158.52632386330859
 30
0.0
 70
    32
  0
VERTEX
  5
17BC4
  8
1
 62
     7
 10
153.18466628146581
 20
158.52232386330849
 30
0.0
 70
    32
  0
VERTEX
  5
17BC5
  8
1
 62
     7
 10
153.18466628146581
 20
158.51832386330869
 30
0.0
 70
    32
  0
VERTEX
  5
17BC6
  8
1
 62
     7
 10
153.18566628146581
 20
158.5133238633087
 30
0.0
 70
    32
  0
VERTEX
  5
17BC7
  8
1
 62
     7
 10
153.18566628146581
 20
158.50932386330859
 30
0.0
 70
    32
  0
VERTEX
  5
17BC8
  8
1
 62
     7
 10
153.18566628146581
 20
158.50532386330849
 30
0.0
 70
    32
  0
VERTEX
  5
17BC9
  8
1
 62
     7
 10
153.18666628146599
 20
158.50132386330901
 30
0.0
 70
    32
  0
VERTEX
  5
17BCA
  8
1
 62
     7
 10
153.18666628146599
 20
158.4963238633087
 30
0.0
 70
    32
  0
VERTEX
  5
17BCB
  8
1
 62
     7
 10
153.18766628146571
 20
158.4923238633086
 30
0.0
 70
    32
  0
VERTEX
  5
17BCC
  8
1
 62
     7
 10
153.18766628146571
 20
158.48832386330869
 30
0.0
 70
    32
  0
VERTEX
  5
17BCD
  8
1
 62
     7
 10
153.18866628146569
 20
158.48432386330859
 30
0.0
 70
    32
  0
VERTEX
  5
17BCE
  8
1
 62
     7
 10
153.18866628146569
 20
158.47932386330859
 30
0.0
 70
    32
  0
VERTEX
  5
17BCF
  8
1
 62
     7
 10
153.18866628146569
 20
158.47532386330849
 30
0.0
 70
    32
  0
VERTEX
  5
17BD0
  8
1
 62
     7
 10
153.18966628146589
 20
158.4713238633087
 30
0.0
 70
    32
  0
VERTEX
  5
17BD1
  8
1
 62
     7
 10
153.18966628146589
 20
158.46732386330891
 30
0.0
 70
    32
  0
VERTEX
  5
17BD2
  8
1
 62
     7
 10
153.19066628146601
 20
158.4623238633086
 30
0.0
 70
    32
  0
VERTEX
  5
17BD3
  8
1
 62
     7
 10
153.19066628146601
 20
158.45832386330841
 30
0.0
 70
    32
  0
VERTEX
  5
17BD4
  8
1
 62
     7
 10
153.19166628146601
 20
158.45432386330859
 30
0.0
 70
    32
  0
VERTEX
  5
17BD5
  8
1
 62
     7
 10
153.19166628146601
 20
158.45032386330891
 30
0.0
 70
    32
  0
VERTEX
  5
17BD6
  8
1
 62
     7
 10
153.1926662814657
 20
158.44632386330869
 30
0.0
 70
    32
  0
VERTEX
  5
17BD7
  8
1
 62
     7
 10
153.1926662814657
 20
158.4413238633087
 30
0.0
 70
    32
  0
VERTEX
  5
17BD8
  8
1
 62
     7
 10
153.19366628146591
 20
158.4373238633089
 30
0.0
 70
    32
  0
VERTEX
  5
17BD9
  8
1
 62
     7
 10
153.19366628146591
 20
158.4333238633088
 30
0.0
 70
    32
  0
VERTEX
  5
17BDA
  8
1
 62
     7
 10
153.19466628146611
 20
158.4293238633087
 30
0.0
 70
    32
  0
VERTEX
  5
17BDB
  8
1
 62
     7
 10
153.19466628146611
 20
158.42432386330901
 30
0.0
 70
    32
  0
VERTEX
  5
17BDC
  8
1
 62
     7
 10
153.19566628146609
 20
158.42032386330891
 30
0.0
 70
    32
  0
VERTEX
  5
17BDD
  8
1
 62
     7
 10
153.19566628146609
 20
158.41632386330869
 30
0.0
 70
    32
  0
VERTEX
  5
17BDE
  8
1
 62
     7
 10
153.19666628146561
 20
158.41232386330859
 30
0.0
 70
    32
  0
VERTEX
  5
17BDF
  8
1
 62
     7
 10
153.19666628146561
 20
158.40732386330859
 30
0.0
 70
    32
  0
VERTEX
  5
17BE0
  8
1
 62
     7
 10
153.19766628146559
 20
158.4033238633088
 30
0.0
 70
    32
  0
VERTEX
  5
17BE1
  8
1
 62
     7
 10
153.19766628146559
 20
158.39932386330869
 30
0.0
 70
    32
  0
VERTEX
  5
17BE2
  8
1
 62
     7
 10
153.1986662814659
 20
158.39532386330859
 30
0.0
 70
    32
  0
VERTEX
  5
17BE3
  8
1
 62
     7
 10
153.1986662814659
 20
158.39032386330891
 30
0.0
 70
    32
  0
VERTEX
  5
17BE4
  8
1
 62
     7
 10
153.19966628146591
 20
158.3863238633088
 30
0.0
 70
    32
  0
VERTEX
  5
17BE5
  8
1
 62
     7
 10
153.19966628146591
 20
158.3823238633087
 30
0.0
 70
    32
  0
VERTEX
  5
17BE6
  8
1
 62
     7
 10
153.2006662814658
 20
158.37832386330851
 30
0.0
 70
    32
  0
VERTEX
  5
17BE7
  8
1
 62
     7
 10
153.2006662814658
 20
158.37332386330851
 30
0.0
 70
    32
  0
VERTEX
  5
17BE8
  8
1
 62
     7
 10
153.20166628146561
 20
158.36932386330869
 30
0.0
 70
    32
  0
VERTEX
  5
17BE9
  8
1
 62
     7
 10
153.20166628146561
 20
158.36532386330859
 30
0.0
 70
    32
  0
VERTEX
  5
17BEA
  8
1
 62
     7
 10
153.20266628146601
 20
158.36132386330851
 30
0.0
 70
    32
  0
VERTEX
  5
17BEB
  8
1
 62
     7
 10
153.20266628146601
 20
158.35732386330869
 30
0.0
 70
    32
  0
VERTEX
  5
17BEC
  8
1
 62
     7
 10
153.20366628146559
 20
158.3523238633087
 30
0.0
 70
    32
  0
VERTEX
  5
17BED
  8
1
 62
     7
 10
153.2046662814661
 20
158.34832386330851
 30
0.0
 70
    32
  0
VERTEX
  5
17BEE
  8
1
 62
     7
 10
153.2046662814661
 20
158.3443238633084
 30
0.0
 70
    32
  0
VERTEX
  5
17BEF
  8
1
 62
     7
 10
153.20566628146571
 20
158.34032386330861
 30
0.0
 70
    32
  0
VERTEX
  5
17BF0
  8
1
 62
     7
 10
153.20566628146571
 20
158.33532386330859
 30
0.0
 70
    32
  0
VERTEX
  5
17BF1
  8
1
 62
     7
 10
153.2066662814656
 20
158.33132386330851
 30
0.0
 70
    32
  0
VERTEX
  5
17BF2
  8
1
 62
     7
 10
153.2066662814656
 20
158.327323863309
 30
0.0
 70
    32
  0
VERTEX
  5
17BF3
  8
1
 62
     7
 10
153.20766628146581
 20
158.3233238633089
 30
0.0
 70
    32
  0
VERTEX
  5
17BF4
  8
1
 62
     7
 10
153.2086662814659
 20
158.31832386330859
 30
0.0
 70
    32
  0
VERTEX
  5
17BF5
  8
1
 62
     7
 10
153.2086662814659
 20
158.3143238633088
 30
0.0
 70
    32
  0
VERTEX
  5
17BF6
  8
1
 62
     7
 10
153.20966628146579
 20
158.31032386330861
 30
0.0
 70
    32
  0
VERTEX
  5
17BF7
  8
1
 62
     7
 10
153.20966628146579
 20
158.30632386330879
 30
0.0
 70
    32
  0
VERTEX
  5
17BF8
  8
1
 62
     7
 10
153.21066628146571
 20
158.30232386330869
 30
0.0
 70
    32
  0
VERTEX
  5
17BF9
  8
1
 62
     7
 10
153.21166628146551
 20
158.29732386330909
 30
0.0
 70
    32
  0
VERTEX
  5
17BFA
  8
1
 62
     7
 10
153.21166628146551
 20
158.2933238633089
 30
0.0
 70
    32
  0
VERTEX
  5
17BFB
  8
1
 62
     7
 10
153.2126662814658
 20
158.28932386330879
 30
0.0
 70
    32
  0
VERTEX
  5
17BFC
  8
1
 62
     7
 10
153.2126662814658
 20
158.28532386330869
 30
0.0
 70
    32
  0
VERTEX
  5
17BFD
  8
1
 62
     7
 10
153.213666281466
 20
158.28032386330869
 30
0.0
 70
    32
  0
VERTEX
  5
17BFE
  8
1
 62
     7
 10
153.2146662814659
 20
158.2763238633089
 30
0.0
 70
    32
  0
VERTEX
  5
17BFF
  8
1
 62
     7
 10
153.2146662814659
 20
158.2723238633088
 30
0.0
 70
    32
  0
VERTEX
  5
17C00
  8
1
 62
     7
 10
153.2156662814657
 20
158.26832386330861
 30
0.0
 70
    32
  0
VERTEX
  5
17C01
  8
1
 62
     7
 10
153.21666628146599
 20
158.2643238633085
 30
0.0
 70
    32
  0
VERTEX
  5
17C02
  8
1
 62
     7
 10
153.21666628146599
 20
158.25932386330879
 30
0.0
 70
    32
  0
VERTEX
  5
17C03
  8
1
 62
     7
 10
153.21766628146599
 20
158.25532386330869
 30
0.0
 70
    32
  0
VERTEX
  5
17C04
  8
1
 62
     7
 10
153.21766628146599
 20
158.25132386330861
 30
0.0
 70
    32
  0
VERTEX
  5
17C05
  8
1
 62
     7
 10
153.21866628146589
 20
158.24732386330911
 30
0.0
 70
    32
  0
VERTEX
  5
17C06
  8
1
 62
     7
 10
153.21966628146569
 20
158.2423238633088
 30
0.0
 70
    32
  0
VERTEX
  5
17C07
  8
1
 62
     7
 10
153.21966628146569
 20
158.23832386330861
 30
0.0
 70
    32
  0
VERTEX
  5
17C08
  8
1
 62
     7
 10
153.22066628146541
 20
158.23432386330879
 30
0.0
 70
    32
  0
VERTEX
  5
17C09
  8
1
 62
     7
 10
153.2216662814659
 20
158.23032386330871
 30
0.0
 70
    32
  0
VERTEX
  5
17C0A
  8
1
 62
     7
 10
153.2216662814659
 20
158.22632386330889
 30
0.0
 70
    32
  0
VERTEX
  5
17C0B
  8
1
 62
     7
 10
153.2226662814661
 20
158.22132386330861
 30
0.0
 70
    32
  0
VERTEX
  5
17C0C
  8
1
 62
     7
 10
153.22366628146591
 20
158.21732386330851
 30
0.0
 70
    32
  0
VERTEX
  5
17C0D
  8
1
 62
     7
 10
153.22366628146591
 20
158.213323863309
 30
0.0
 70
    32
  0
VERTEX
  5
17C0E
  8
1
 62
     7
 10
153.2246662814658
 20
158.2093238633089
 30
0.0
 70
    32
  0
VERTEX
  5
17C0F
  8
1
 62
     7
 10
153.225666281466
 20
158.2043238633085
 30
0.0
 70
    32
  0
VERTEX
  5
17C10
  8
1
 62
     7
 10
153.225666281466
 20
158.20032386330871
 30
0.0
 70
    32
  0
VERTEX
  5
17C11
  8
1
 62
     7
 10
153.22666628146581
 20
158.19632386330861
 30
0.0
 70
    32
  0
VERTEX
  5
17C12
  8
1
 62
     7
 10
153.22766628146579
 20
158.19232386330879
 30
0.0
 70
    32
  0
VERTEX
  5
17C13
  8
1
 62
     7
 10
153.22866628146559
 20
158.18832386330871
 30
0.0
 70
    32
  0
VERTEX
  5
17C14
  8
1
 62
     7
 10
153.22866628146559
 20
158.18332386330869
 30
0.0
 70
    32
  0
VERTEX
  5
17C15
  8
1
 62
     7
 10
153.22966628146551
 20
158.17932386330861
 30
0.0
 70
    32
  0
VERTEX
  5
17C16
  8
1
 62
     7
 10
153.23066628146549
 20
158.17532386330879
 30
0.0
 70
    32
  0
VERTEX
  5
17C17
  8
1
 62
     7
 10
153.23066628146549
 20
158.1713238633086
 30
0.0
 70
    32
  0
VERTEX
  5
17C18
  8
1
 62
     7
 10
153.2316662814662
 20
158.1673238633085
 30
0.0
 70
    32
  0
VERTEX
  5
17C19
  8
1
 62
     7
 10
153.23266628146581
 20
158.1623238633089
 30
0.0
 70
    32
  0
VERTEX
  5
17C1A
  8
1
 62
     7
 10
153.2336662814657
 20
158.15832386330871
 30
0.0
 70
    32
  0
VERTEX
  5
17C1B
  8
1
 62
     7
 10
153.2336662814657
 20
158.1543238633086
 30
0.0
 70
    32
  0
VERTEX
  5
17C1C
  8
1
 62
     7
 10
153.23466628146579
 20
158.15032386330839
 30
0.0
 70
    32
  0
VERTEX
  5
17C1D
  8
1
 62
     7
 10
153.2356662814656
 20
158.14632386330871
 30
0.0
 70
    32
  0
VERTEX
  5
17C1E
  8
1
 62
     7
 10
153.23666628146589
 20
158.14132386330871
 30
0.0
 70
    32
  0
VERTEX
  5
17C1F
  8
1
 62
     7
 10
153.23666628146589
 20
158.1373238633085
 30
0.0
 70
    32
  0
VERTEX
  5
17C20
  8
1
 62
     7
 10
153.23766628146569
 20
158.1333238633087
 30
0.0
 70
    32
  0
VERTEX
  5
17C21
  8
1
 62
     7
 10
153.2386662814655
 20
158.12932386330891
 30
0.0
 70
    32
  0
VERTEX
  5
17C22
  8
1
 62
     7
 10
153.2396662814659
 20
158.12532386330881
 30
0.0
 70
    32
  0
VERTEX
  5
17C23
  8
1
 62
     7
 10
153.2396662814659
 20
158.1203238633085
 30
0.0
 70
    32
  0
VERTEX
  5
17C24
  8
1
 62
     7
 10
153.24066628146591
 20
158.11632386330899
 30
0.0
 70
    32
  0
VERTEX
  5
17C25
  8
1
 62
     7
 10
153.24166628146591
 20
158.11232386330889
 30
0.0
 70
    32
  0
VERTEX
  5
17C26
  8
1
 62
     7
 10
153.24266628146569
 20
158.10832386330881
 30
0.0
 70
    32
  0
VERTEX
  5
17C27
  8
1
 62
     7
 10
153.24266628146569
 20
158.10432386330859
 30
0.0
 70
    32
  0
VERTEX
  5
17C28
  8
1
 62
     7
 10
153.24366628146589
 20
158.099323863309
 30
0.0
 70
    32
  0
VERTEX
  5
17C29
  8
1
 62
     7
 10
153.24466628146581
 20
158.09532386330881
 30
0.0
 70
    32
  0
VERTEX
  5
17C2A
  8
1
 62
     7
 10
153.2456662814659
 20
158.0913238633087
 30
0.0
 70
    32
  0
VERTEX
  5
17C2B
  8
1
 62
     7
 10
153.24666628146559
 20
158.0873238633086
 30
0.0
 70
    32
  0
VERTEX
  5
17C2C
  8
1
 62
     7
 10
153.24666628146559
 20
158.08332386330849
 30
0.0
 70
    32
  0
VERTEX
  5
17C2D
  8
1
 62
     7
 10
153.24766628146571
 20
158.07832386330881
 30
0.0
 70
    32
  0
VERTEX
  5
17C2E
  8
1
 62
     7
 10
153.24866628146589
 20
158.07432386330871
 30
0.0
 70
    32
  0
VERTEX
  5
17C2F
  8
1
 62
     7
 10
153.24966628146581
 20
158.07032386330849
 30
0.0
 70
    32
  0
VERTEX
  5
17C30
  8
1
 62
     7
 10
153.2506662814659
 20
158.0663238633087
 30
0.0
 70
    32
  0
VERTEX
  5
17C31
  8
1
 62
     7
 10
153.2506662814659
 20
158.0623238633089
 30
0.0
 70
    32
  0
VERTEX
  5
17C32
  8
1
 62
     7
 10
153.2516662814659
 20
158.05732386330891
 30
0.0
 70
    32
  0
VERTEX
  5
17C33
  8
1
 62
     7
 10
153.25266628146579
 20
158.0533238633088
 30
0.0
 70
    32
  0
VERTEX
  5
17C34
  8
1
 62
     7
 10
153.25366628146591
 20
158.04932386330901
 30
0.0
 70
    32
  0
VERTEX
  5
17C35
  8
1
 62
     7
 10
153.2546662814658
 20
158.04532386330891
 30
0.0
 70
    32
  0
VERTEX
  5
17C36
  8
1
 62
     7
 10
153.25566628146589
 20
158.0413238633088
 30
0.0
 70
    32
  0
VERTEX
  5
17C37
  8
1
 62
     7
 10
153.25566628146589
 20
158.03732386330859
 30
0.0
 70
    32
  0
VERTEX
  5
17C38
  8
1
 62
     7
 10
153.25666628146561
 20
158.03232386330859
 30
0.0
 70
    32
  0
VERTEX
  5
17C39
  8
1
 62
     7
 10
153.25766628146579
 20
158.0283238633088
 30
0.0
 70
    32
  0
VERTEX
  5
17C3A
  8
1
 62
     7
 10
153.25866628146579
 20
158.02432386330869
 30
0.0
 70
    32
  0
VERTEX
  5
17C3B
  8
1
 62
     7
 10
153.2596662814658
 20
158.02032386330859
 30
0.0
 70
    32
  0
VERTEX
  5
17C3C
  8
1
 62
     7
 10
153.26066628146569
 20
158.0163238633084
 30
0.0
 70
    32
  0
VERTEX
  5
17C3D
  8
1
 62
     7
 10
153.26166628146581
 20
158.0113238633088
 30
0.0
 70
    32
  0
VERTEX
  5
17C3E
  8
1
 62
     7
 10
153.26166628146581
 20
158.00732386330861
 30
0.0
 70
    32
  0
VERTEX
  5
17C3F
  8
1
 62
     7
 10
153.26266628146581
 20
158.00332386330891
 30
0.0
 70
    32
  0
VERTEX
  5
17C40
  8
1
 62
     7
 10
153.26366628146599
 20
157.99932386330909
 30
0.0
 70
    32
  0
VERTEX
  5
17C41
  8
1
 62
     7
 10
153.26466628146579
 20
157.9953238633089
 30
0.0
 70
    32
  0
VERTEX
  5
17C42
  8
1
 62
     7
 10
153.2656662814656
 20
157.99132386330879
 30
0.0
 70
    32
  0
VERTEX
  5
17C43
  8
1
 62
     7
 10
153.26666628146589
 20
157.98632386330851
 30
0.0
 70
    32
  0
VERTEX
  5
17C44
  8
1
 62
     7
 10
153.26766628146601
 20
157.98232386330869
 30
0.0
 70
    32
  0
VERTEX
  5
17C45
  8
1
 62
     7
 10
153.26866628146601
 20
157.9783238633085
 30
0.0
 70
    32
  0
VERTEX
  5
17C46
  8
1
 62
     7
 10
153.26966628146559
 20
157.97432386330871
 30
0.0
 70
    32
  0
VERTEX
  5
17C47
  8
1
 62
     7
 10
153.26966628146559
 20
157.97032386330861
 30
0.0
 70
    32
  0
VERTEX
  5
17C48
  8
1
 62
     7
 10
153.27066628146531
 20
157.9663238633085
 30
0.0
 70
    32
  0
VERTEX
  5
17C49
  8
1
 62
     7
 10
153.27166628146611
 20
157.96132386330879
 30
0.0
 70
    32
  0
VERTEX
  5
17C4A
  8
1
 62
     7
 10
153.27266628146609
 20
157.95732386330869
 30
0.0
 70
    32
  0
VERTEX
  5
17C4B
  8
1
 62
     7
 10
153.27366628146561
 20
157.95332386330861
 30
0.0
 70
    32
  0
VERTEX
  5
17C4C
  8
1
 62
     7
 10
153.27466628146561
 20
157.94932386330879
 30
0.0
 70
    32
  0
VERTEX
  5
17C4D
  8
1
 62
     7
 10
153.2756662814659
 20
157.945323863309
 30
0.0
 70
    32
  0
VERTEX
  5
17C4E
  8
1
 62
     7
 10
153.27666628146591
 20
157.9413238633089
 30
0.0
 70
    32
  0
VERTEX
  5
17C4F
  8
1
 62
     7
 10
153.27766628146571
 20
157.9363238633085
 30
0.0
 70
    32
  0
VERTEX
  5
17C50
  8
1
 62
     7
 10
153.2786662814656
 20
157.93232386330871
 30
0.0
 70
    32
  0
VERTEX
  5
17C51
  8
1
 62
     7
 10
153.2796662814655
 20
157.92832386330889
 30
0.0
 70
    32
  0
VERTEX
  5
17C52
  8
1
 62
     7
 10
153.28066628146601
 20
157.92432386330881
 30
0.0
 70
    32
  0
VERTEX
  5
17C53
  8
1
 62
     7
 10
153.2816662814661
 20
157.92032386330871
 30
0.0
 70
    32
  0
VERTEX
  5
17C54
  8
1
 62
     7
 10
153.28266628146559
 20
157.91632386330849
 30
0.0
 70
    32
  0
VERTEX
  5
17C55
  8
1
 62
     7
 10
153.2836662814656
 20
157.9113238633085
 30
0.0
 70
    32
  0
VERTEX
  5
17C56
  8
1
 62
     7
 10
153.2846662814658
 20
157.9073238633087
 30
0.0
 70
    32
  0
VERTEX
  5
17C57
  8
1
 62
     7
 10
153.28566628146589
 20
157.90332386330891
 30
0.0
 70
    32
  0
VERTEX
  5
17C58
  8
1
 62
     7
 10
153.28666628146581
 20
157.8993238633085
 30
0.0
 70
    32
  0
VERTEX
  5
17C59
  8
1
 62
     7
 10
153.2876662814657
 20
157.89532386330899
 30
0.0
 70
    32
  0
VERTEX
  5
17C5A
  8
1
 62
     7
 10
153.28866628146551
 20
157.89132386330891
 30
0.0
 70
    32
  0
VERTEX
  5
17C5B
  8
1
 62
     7
 10
153.2896662814658
 20
157.88732386330881
 30
0.0
 70
    32
  0
VERTEX
  5
17C5C
  8
1
 62
     7
 10
153.290666281466
 20
157.88232386330839
 30
0.0
 70
    32
  0
VERTEX
  5
17C5D
  8
1
 62
     7
 10
153.29166628146589
 20
157.87832386330859
 30
0.0
 70
    32
  0
VERTEX
  5
17C5E
  8
1
 62
     7
 10
153.29266628146561
 20
157.8743238633088
 30
0.0
 70
    32
  0
VERTEX
  5
17C5F
  8
1
 62
     7
 10
153.2936662814659
 20
157.8703238633087
 30
0.0
 70
    32
  0
VERTEX
  5
17C60
  8
1
 62
     7
 10
153.29466628146599
 20
157.86632386330859
 30
0.0
 70
    32
  0
VERTEX
  5
17C61
  8
1
 62
     7
 10
153.29566628146591
 20
157.86232386330849
 30
0.0
 70
    32
  0
VERTEX
  5
17C62
  8
1
 62
     7
 10
153.2966662814658
 20
157.85732386330881
 30
0.0
 70
    32
  0
VERTEX
  5
17C63
  8
1
 62
     7
 10
153.29766628146541
 20
157.85332386330859
 30
0.0
 70
    32
  0
VERTEX
  5
17C64
  8
1
 62
     7
 10
153.2986662814659
 20
157.84932386330891
 30
0.0
 70
    32
  0
VERTEX
  5
17C65
  8
1
 62
     7
 10
153.29966628146579
 20
157.84532386330909
 30
0.0
 70
    32
  0
VERTEX
  5
17C66
  8
1
 62
     7
 10
153.30066628146591
 20
157.8413238633089
 30
0.0
 70
    32
  0
VERTEX
  5
17C67
  8
1
 62
     7
 10
153.3016662814658
 20
157.8373238633088
 30
0.0
 70
    32
  0
VERTEX
  5
17C68
  8
1
 62
     7
 10
153.302666281466
 20
157.83332386330869
 30
0.0
 70
    32
  0
VERTEX
  5
17C69
  8
1
 62
     7
 10
153.30366628146581
 20
157.8293238633085
 30
0.0
 70
    32
  0
VERTEX
  5
17C6A
  8
1
 62
     7
 10
153.30466628146581
 20
157.82432386330851
 30
0.0
 70
    32
  0
VERTEX
  5
17C6B
  8
1
 62
     7
 10
153.30566628146559
 20
157.82032386330869
 30
0.0
 70
    32
  0
VERTEX
  5
17C6C
  8
1
 62
     7
 10
153.3066662814654
 20
157.81632386330861
 30
0.0
 70
    32
  0
VERTEX
  5
17C6D
  8
1
 62
     7
 10
153.30866628146549
 20
157.81232386330851
 30
0.0
 70
    32
  0
VERTEX
  5
17C6E
  8
1
 62
     7
 10
153.30966628146581
 20
157.808323863309
 30
0.0
 70
    32
  0
VERTEX
  5
17C6F
  8
1
 62
     7
 10
153.3106662814657
 20
157.80432386330889
 30
0.0
 70
    32
  0
VERTEX
  5
17C70
  8
1
 62
     7
 10
153.3116662814659
 20
157.80032386330879
 30
0.0
 70
    32
  0
VERTEX
  5
17C71
  8
1
 62
     7
 10
153.31266628146571
 20
157.7963238633086
 30
0.0
 70
    32
  0
VERTEX
  5
17C72
  8
1
 62
     7
 10
153.31366628146591
 20
157.791323863309
 30
0.0
 70
    32
  0
VERTEX
  5
17C73
  8
1
 62
     7
 10
153.3146662814658
 20
157.78732386330881
 30
0.0
 70
    32
  0
VERTEX
  5
17C74
  8
1
 62
     7
 10
153.3156662814655
 20
157.78332386330871
 30
0.0
 70
    32
  0
VERTEX
  5
17C75
  8
1
 62
     7
 10
153.31666628146581
 20
157.7793238633086
 30
0.0
 70
    32
  0
VERTEX
  5
17C76
  8
1
 62
     7
 10
153.31866628146591
 20
157.7753238633085
 30
0.0
 70
    32
  0
VERTEX
  5
17C77
  8
1
 62
     7
 10
153.31966628146569
 20
157.77132386330899
 30
0.0
 70
    32
  0
VERTEX
  5
17C78
  8
1
 62
     7
 10
153.32066628146589
 20
157.76732386330889
 30
0.0
 70
    32
  0
VERTEX
  5
17C79
  8
1
 62
     7
 10
153.32166628146581
 20
157.7633238633087
 30
0.0
 70
    32
  0
VERTEX
  5
17C7A
  8
1
 62
     7
 10
153.3226662814659
 20
157.7583238633087
 30
0.0
 70
    32
  0
VERTEX
  5
17C7B
  8
1
 62
     7
 10
153.32366628146559
 20
157.75432386330891
 30
0.0
 70
    32
  0
VERTEX
  5
17C7C
  8
1
 62
     7
 10
153.32466628146571
 20
157.75032386330881
 30
0.0
 70
    32
  0
VERTEX
  5
17C7D
  8
1
 62
     7
 10
153.3266662814658
 20
157.7463238633087
 30
0.0
 70
    32
  0
VERTEX
  5
17C7E
  8
1
 62
     7
 10
153.32766628146589
 20
157.7423238633086
 30
0.0
 70
    32
  0
VERTEX
  5
17C7F
  8
1
 62
     7
 10
153.32866628146559
 20
157.73832386330869
 30
0.0
 70
    32
  0
VERTEX
  5
17C80
  8
1
 62
     7
 10
153.32966628146579
 20
157.73432386330859
 30
0.0
 70
    32
  0
VERTEX
  5
17C81
  8
1
 62
     7
 10
153.3306662814658
 20
157.7303238633088
 30
0.0
 70
    32
  0
VERTEX
  5
17C82
  8
1
 62
     7
 10
153.3316662814658
 20
157.72632386330869
 30
0.0
 70
    32
  0
VERTEX
  5
17C83
  8
1
 62
     7
 10
153.33366628146561
 20
157.72232386330859
 30
0.0
 70
    32
  0
VERTEX
  5
17C84
  8
1
 62
     7
 10
153.33466628146579
 20
157.71732386330891
 30
0.0
 70
    32
  0
VERTEX
  5
17C85
  8
1
 62
     7
 10
153.3356662814659
 20
157.7133238633088
 30
0.0
 70
    32
  0
VERTEX
  5
17C86
  8
1
 62
     7
 10
153.3366662814658
 20
157.70932386330861
 30
0.0
 70
    32
  0
VERTEX
  5
17C87
  8
1
 62
     7
 10
153.3376662814656
 20
157.70532386330851
 30
0.0
 70
    32
  0
VERTEX
  5
17C88
  8
1
 62
     7
 10
153.33966628146581
 20
157.70132386330869
 30
0.0
 70
    32
  0
VERTEX
  5
17C89
  8
1
 62
     7
 10
153.34066628146601
 20
157.6973238633089
 30
0.0
 70
    32
  0
VERTEX
  5
17C8A
  8
1
 62
     7
 10
153.34166628146579
 20
157.69332386330879
 30
0.0
 70
    32
  0
VERTEX
  5
17C8B
  8
1
 62
     7
 10
153.3426662814656
 20
157.68932386330869
 30
0.0
 70
    32
  0
VERTEX
  5
17C8C
  8
1
 62
     7
 10
153.344666281466
 20
157.6853238633085
 30
0.0
 70
    32
  0
VERTEX
  5
17C8D
  8
1
 62
     7
 10
153.34566628146601
 20
157.68132386330839
 30
0.0
 70
    32
  0
VERTEX
  5
17C8E
  8
1
 62
     7
 10
153.3466662814655
 20
157.67732386330891
 30
0.0
 70
    32
  0
VERTEX
  5
17C8F
  8
1
 62
     7
 10
153.34766628146591
 20
157.67232386330861
 30
0.0
 70
    32
  0
VERTEX
  5
17C90
  8
1
 62
     7
 10
153.34966628146611
 20
157.6683238633085
 30
0.0
 70
    32
  0
VERTEX
  5
17C91
  8
1
 62
     7
 10
153.35066628146561
 20
157.66432386330871
 30
0.0
 70
    32
  0
VERTEX
  5
17C92
  8
1
 62
     7
 10
153.3516662814657
 20
157.66032386330889
 30
0.0
 70
    32
  0
VERTEX
  5
17C93
  8
1
 62
     7
 10
153.3526662814659
 20
157.65632386330881
 30
0.0
 70
    32
  0
VERTEX
  5
17C94
  8
1
 62
     7
 10
153.354666281466
 20
157.6523238633086
 30
0.0
 70
    32
  0
VERTEX
  5
17C95
  8
1
 62
     7
 10
153.35566628146549
 20
157.64832386330849
 30
0.0
 70
    32
  0
VERTEX
  5
17C96
  8
1
 62
     7
 10
153.356666281466
 20
157.64432386330901
 30
0.0
 70
    32
  0
VERTEX
  5
17C97
  8
1
 62
     7
 10
153.35766628146601
 20
157.64032386330891
 30
0.0
 70
    32
  0
VERTEX
  5
17C98
  8
1
 62
     7
 10
153.35966628146571
 20
157.6363238633088
 30
0.0
 70
    32
  0
VERTEX
  5
17C99
  8
1
 62
     7
 10
153.3606662814656
 20
157.63232386330861
 30
0.0
 70
    32
  0
VERTEX
  5
17C9A
  8
1
 62
     7
 10
153.3616662814658
 20
157.62832386330851
 30
0.0
 70
    32
  0
VERTEX
  5
17C9B
  8
1
 62
     7
 10
153.36366628146581
 20
157.62432386330869
 30
0.0
 70
    32
  0
VERTEX
  5
17C9C
  8
1
 62
     7
 10
153.3646662814657
 20
157.61932386330869
 30
0.0
 70
    32
  0
VERTEX
  5
17C9D
  8
1
 62
     7
 10
153.36566628146551
 20
157.61532386330859
 30
0.0
 70
    32
  0
VERTEX
  5
17C9E
  8
1
 62
     7
 10
153.367666281466
 20
157.61132386330851
 30
0.0
 70
    32
  0
VERTEX
  5
17C9F
  8
1
 62
     7
 10
153.36866628146589
 20
157.60732386330869
 30
0.0
 70
    32
  0
VERTEX
  5
17CA0
  8
1
 62
     7
 10
153.36966628146561
 20
157.6033238633085
 30
0.0
 70
    32
  0
VERTEX
  5
17CA1
  8
1
 62
     7
 10
153.37166628146599
 20
157.59932386330871
 30
0.0
 70
    32
  0
VERTEX
  5
17CA2
  8
1
 62
     7
 10
153.37266628146591
 20
157.59532386330861
 30
0.0
 70
    32
  0
VERTEX
  5
17CA3
  8
1
 62
     7
 10
153.3736662814658
 20
157.5913238633085
 30
0.0
 70
    32
  0
VERTEX
  5
17CA4
  8
1
 62
     7
 10
153.3756662814659
 20
157.58732386330871
 30
0.0
 70
    32
  0
VERTEX
  5
17CA5
  8
1
 62
     7
 10
153.3766662814661
 20
157.58332386330849
 30
0.0
 70
    32
  0
VERTEX
  5
17CA6
  8
1
 62
     7
 10
153.37766628146591
 20
157.57932386330879
 30
0.0
 70
    32
  0
VERTEX
  5
17CA7
  8
1
 62
     7
 10
153.37966628146589
 20
157.5753238633086
 30
0.0
 70
    32
  0
VERTEX
  5
17CA8
  8
1
 62
     7
 10
153.38066628146581
 20
157.57132386330849
 30
0.0
 70
    32
  0
VERTEX
  5
17CA9
  8
1
 62
     7
 10
153.38166628146581
 20
157.56732386330901
 30
0.0
 70
    32
  0
VERTEX
  5
17CAA
  8
1
 62
     7
 10
153.38366628146551
 20
157.56332386330891
 30
0.0
 70
    32
  0
VERTEX
  5
17CAB
  8
1
 62
     7
 10
153.3846662814656
 20
157.5593238633088
 30
0.0
 70
    32
  0
VERTEX
  5
17CAC
  8
1
 62
     7
 10
153.38666628146581
 20
157.5553238633087
 30
0.0
 70
    32
  0
VERTEX
  5
17CAD
  8
1
 62
     7
 10
153.38766628146561
 20
157.55132386330851
 30
0.0
 70
    32
  0
VERTEX
  5
17CAE
  8
1
 62
     7
 10
153.3886662814659
 20
157.54732386330869
 30
0.0
 70
    32
  0
VERTEX
  5
17CAF
  8
1
 62
     7
 10
153.3906662814658
 20
157.54332386330859
 30
0.0
 70
    32
  0
VERTEX
  5
17CB0
  8
1
 62
     7
 10
153.3916662814658
 20
157.53932386330879
 30
0.0
 70
    32
  0
VERTEX
  5
17CB1
  8
1
 62
     7
 10
153.39366628146581
 20
157.53532386330869
 30
0.0
 70
    32
  0
VERTEX
  5
17CB2
  8
1
 62
     7
 10
153.3946662814659
 20
157.5313238633085
 30
0.0
 70
    32
  0
VERTEX
  5
17CB3
  8
1
 62
     7
 10
153.39566628146591
 20
157.52732386330871
 30
0.0
 70
    32
  0
VERTEX
  5
17CB4
  8
1
 62
     7
 10
153.39766628146589
 20
157.523323863309
 30
0.0
 70
    32
  0
VERTEX
  5
17CB5
  8
1
 62
     7
 10
153.39866628146581
 20
157.51932386330881
 30
0.0
 70
    32
  0
VERTEX
  5
17CB6
  8
1
 62
     7
 10
153.40066628146559
 20
157.5143238633085
 30
0.0
 70
    32
  0
VERTEX
  5
17CB7
  8
1
 62
     7
 10
153.40166628146559
 20
157.51032386330871
 30
0.0
 70
    32
  0
VERTEX
  5
17CB8
  8
1
 62
     7
 10
153.4036662814658
 20
157.50632386330889
 30
0.0
 70
    32
  0
VERTEX
  5
17CB9
  8
1
 62
     7
 10
153.40466628146589
 20
157.50232386330879
 30
0.0
 70
    32
  0
VERTEX
  5
17CBA
  8
1
 62
     7
 10
153.40666628146579
 20
157.4983238633086
 30
0.0
 70
    32
  0
VERTEX
  5
17CBB
  8
1
 62
     7
 10
153.40766628146591
 20
157.49432386330849
 30
0.0
 70
    32
  0
VERTEX
  5
17CBC
  8
1
 62
     7
 10
153.40966628146589
 20
157.4903238633091
 30
0.0
 70
    32
  0
VERTEX
  5
17CBD
  8
1
 62
     7
 10
153.41066628146561
 20
157.48632386330891
 30
0.0
 70
    32
  0
VERTEX
  5
17CBE
  8
1
 62
     7
 10
153.41266628146579
 20
157.48232386330881
 30
0.0
 70
    32
  0
VERTEX
  5
17CBF
  8
1
 62
     7
 10
153.41366628146579
 20
157.47832386330859
 30
0.0
 70
    32
  0
VERTEX
  5
17CC0
  8
1
 62
     7
 10
153.4156662814658
 20
157.47432386330851
 30
0.0
 70
    32
  0
VERTEX
  5
17CC1
  8
1
 62
     7
 10
153.41666628146581
 20
157.47032386330909
 30
0.0
 70
    32
  0
VERTEX
  5
17CC2
  8
1
 62
     7
 10
153.41866628146579
 20
157.46632386330859
 30
0.0
 70
    32
  0
VERTEX
  5
17CC3
  8
1
 62
     7
 10
153.4196662814656
 20
157.4623238633088
 30
0.0
 70
    32
  0
VERTEX
  5
17CC4
  8
1
 62
     7
 10
153.421666281466
 20
157.45832386330869
 30
0.0
 70
    32
  0
VERTEX
  5
17CC5
  8
1
 62
     7
 10
153.42266628146601
 20
157.4543238633085
 30
0.0
 70
    32
  0
VERTEX
  5
17CC6
  8
1
 62
     7
 10
153.42466628146531
 20
157.4513238633086
 30
0.0
 70
    32
  0
VERTEX
  5
17CC7
  8
1
 62
     7
 10
153.42566628146611
 20
157.4473238633085
 30
0.0
 70
    32
  0
VERTEX
  5
17CC8
  8
1
 62
     7
 10
153.42766628146549
 20
157.44332386330899
 30
0.0
 70
    32
  0
VERTEX
  5
17CC9
  8
1
 62
     7
 10
153.42866628146569
 20
157.43932386330891
 30
0.0
 70
    32
  0
VERTEX
  5
17CCA
  8
1
 62
     7
 10
153.4306662814659
 20
157.43532386330881
 30
0.0
 70
    32
  0
VERTEX
  5
17CCB
  8
1
 62
     7
 10
153.43166628146599
 20
157.43132386330859
 30
0.0
 70
    32
  0
VERTEX
  5
17CCC
  8
1
 62
     7
 10
153.43366628146549
 20
157.42732386330849
 30
0.0
 70
    32
  0
VERTEX
  5
17CCD
  8
1
 62
     7
 10
153.4356662814661
 20
157.42332386330901
 30
0.0
 70
    32
  0
VERTEX
  5
17CCE
  8
1
 62
     7
 10
153.4366662814657
 20
157.4193238633089
 30
0.0
 70
    32
  0
VERTEX
  5
17CCF
  8
1
 62
     7
 10
153.4386662814658
 20
157.4153238633088
 30
0.0
 70
    32
  0
VERTEX
  5
17CD0
  8
1
 62
     7
 10
153.43966628146589
 20
157.41132386330861
 30
0.0
 70
    32
  0
VERTEX
  5
17CD1
  8
1
 62
     7
 10
153.44166628146559
 20
157.40732386330851
 30
0.0
 70
    32
  0
VERTEX
  5
17CD2
  8
1
 62
     7
 10
153.4436662814658
 20
157.40332386330871
 30
0.0
 70
    32
  0
VERTEX
  5
17CD3
  8
1
 62
     7
 10
153.444666281466
 20
157.39932386330861
 30
0.0
 70
    32
  0
VERTEX
  5
17CD4
  8
1
 62
     7
 10
153.4466662814657
 20
157.39532386330879
 30
0.0
 70
    32
  0
VERTEX
  5
17CD5
  8
1
 62
     7
 10
153.4476662814659
 20
157.39132386330871
 30
0.0
 70
    32
  0
VERTEX
  5
17CD6
  8
1
 62
     7
 10
153.44966628146591
 20
157.38732386330889
 30
0.0
 70
    32
  0
VERTEX
  5
17CD7
  8
1
 62
     7
 10
153.45166628146541
 20
157.3833238633091
 30
0.0
 70
    32
  0
VERTEX
  5
17CD8
  8
1
 62
     7
 10
153.45266628146621
 20
157.37932386330891
 30
0.0
 70
    32
  0
VERTEX
  5
17CD9
  8
1
 62
     7
 10
153.4546662814659
 20
157.37532386330881
 30
0.0
 70
    32
  0
VERTEX
  5
17CDA
  8
1
 62
     7
 10
153.45666628146591
 20
157.3713238633087
 30
0.0
 70
    32
  0
VERTEX
  5
17CDB
  8
1
 62
     7
 10
153.45766628146581
 20
157.3673238633086
 30
0.0
 70
    32
  0
VERTEX
  5
17CDC
  8
1
 62
     7
 10
153.4596662814657
 20
157.36332386330881
 30
0.0
 70
    32
  0
VERTEX
  5
17CDD
  8
1
 62
     7
 10
153.46166628146591
 20
157.36032386330851
 30
0.0
 70
    32
  0
VERTEX
  5
17CDE
  8
1
 62
     7
 10
153.4626662814658
 20
157.35632386330869
 30
0.0
 70
    32
  0
VERTEX
  5
17CDF
  8
1
 62
     7
 10
153.46466628146561
 20
157.3523238633089
 30
0.0
 70
    32
  0
VERTEX
  5
17CE0
  8
1
 62
     7
 10
153.46666628146571
 20
157.34832386330879
 30
0.0
 70
    32
  0
VERTEX
  5
17CE1
  8
1
 62
     7
 10
153.4676662814658
 20
157.3443238633086
 30
0.0
 70
    32
  0
VERTEX
  5
17CE2
  8
1
 62
     7
 10
153.46966628146549
 20
157.3403238633085
 30
0.0
 70
    32
  0
VERTEX
  5
17CE3
  8
1
 62
     7
 10
153.4716662814659
 20
157.33632386330899
 30
0.0
 70
    32
  0
VERTEX
  5
17CE4
  8
1
 62
     7
 10
153.47266628146591
 20
157.33232386330889
 30
0.0
 70
    32
  0
VERTEX
  5
17CE5
  8
1
 62
     7
 10
153.47466628146589
 20
157.32832386330881
 30
0.0
 70
    32
  0
VERTEX
  5
17CE6
  8
1
 62
     7
 10
153.47666628146609
 20
157.32432386330871
 30
0.0
 70
    32
  0
VERTEX
  5
17CE7
  8
1
 62
     7
 10
153.47866628146571
 20
157.32032386330849
 30
0.0
 70
    32
  0
VERTEX
  5
17CE8
  8
1
 62
     7
 10
153.47966628146591
 20
157.3163238633087
 30
0.0
 70
    32
  0
VERTEX
  5
17CE9
  8
1
 62
     7
 10
153.48166628146589
 20
157.31332386330851
 30
0.0
 70
    32
  0
VERTEX
  5
17CEA
  8
1
 62
     7
 10
153.48366628146579
 20
157.30932386330869
 30
0.0
 70
    32
  0
VERTEX
  5
17CEB
  8
1
 62
     7
 10
153.4856662814658
 20
157.3053238633089
 30
0.0
 70
    32
  0
VERTEX
  5
17CEC
  8
1
 62
     7
 10
153.48666628146589
 20
157.30132386330871
 30
0.0
 70
    32
  0
VERTEX
  5
17CED
  8
1
 62
     7
 10
153.48866628146581
 20
157.29732386330861
 30
0.0
 70
    32
  0
VERTEX
  5
17CEE
  8
1
 62
     7
 10
153.49066628146579
 20
157.2933238633085
 30
0.0
 70
    32
  0
VERTEX
  5
17CEF
  8
1
 62
     7
 10
153.4926662814658
 20
157.28932386330899
 30
0.0
 70
    32
  0
VERTEX
  5
17CF0
  8
1
 62
     7
 10
153.49366628146581
 20
157.28532386330889
 30
0.0
 70
    32
  0
VERTEX
  5
17CF1
  8
1
 62
     7
 10
153.49566628146579
 20
157.28132386330881
 30
0.0
 70
    32
  0
VERTEX
  5
17CF2
  8
1
 62
     7
 10
153.49766628146591
 20
157.2783238633088
 30
0.0
 70
    32
  0
VERTEX
  5
17CF3
  8
1
 62
     7
 10
153.49966628146601
 20
157.27432386330869
 30
0.0
 70
    32
  0
VERTEX
  5
17CF4
  8
1
 62
     7
 10
153.5016662814659
 20
157.27032386330859
 30
0.0
 70
    32
  0
VERTEX
  5
17CF5
  8
1
 62
     7
 10
153.50266628146591
 20
157.2663238633084
 30
0.0
 70
    32
  0
VERTEX
  5
17CF6
  8
1
 62
     7
 10
153.50466628146549
 20
157.26232386330901
 30
0.0
 70
    32
  0
VERTEX
  5
17CF7
  8
1
 62
     7
 10
153.5066662814659
 20
157.25832386330879
 30
0.0
 70
    32
  0
VERTEX
  5
17CF8
  8
1
 62
     7
 10
153.50866628146599
 20
157.25432386330871
 30
0.0
 70
    32
  0
VERTEX
  5
17CF9
  8
1
 62
     7
 10
153.510666281466
 20
157.25132386330881
 30
0.0
 70
    32
  0
VERTEX
  5
17CFA
  8
1
 62
     7
 10
153.51166628146601
 20
157.24732386330871
 30
0.0
 70
    32
  0
VERTEX
  5
17CFB
  8
1
 62
     7
 10
153.51366628146559
 20
157.24332386330849
 30
0.0
 70
    32
  0
VERTEX
  5
17CFC
  8
1
 62
     7
 10
153.5156662814658
 20
157.23932386330841
 30
0.0
 70
    32
  0
VERTEX
  5
17CFD
  8
1
 62
     7
 10
153.51766628146581
 20
157.23532386330859
 30
0.0
 70
    32
  0
VERTEX
  5
17CFE
  8
1
 62
     7
 10
153.5196662814655
 20
157.2313238633088
 30
0.0
 70
    32
  0
VERTEX
  5
17CFF
  8
1
 62
     7
 10
153.521666281466
 20
157.2273238633087
 30
0.0
 70
    32
  0
VERTEX
  5
17D00
  8
1
 62
     7
 10
153.52366628146569
 20
157.22432386330871
 30
0.0
 70
    32
  0
VERTEX
  5
17D01
  8
1
 62
     7
 10
153.52566628146599
 20
157.22032386330861
 30
0.0
 70
    32
  0
VERTEX
  5
17D02
  8
1
 62
     7
 10
153.52666628146591
 20
157.2163238633085
 30
0.0
 70
    32
  0
VERTEX
  5
17D03
  8
1
 62
     7
 10
153.52866628146541
 20
157.21232386330871
 30
0.0
 70
    32
  0
VERTEX
  5
17D04
  8
1
 62
     7
 10
153.5306662814661
 20
157.20832386330889
 30
0.0
 70
    32
  0
VERTEX
  5
17D05
  8
1
 62
     7
 10
153.53266628146591
 20
157.20532386330859
 30
0.0
 70
    32
  0
VERTEX
  5
17D06
  8
1
 62
     7
 10
153.5346662814658
 20
157.2013238633088
 30
0.0
 70
    32
  0
VERTEX
  5
17D07
  8
1
 62
     7
 10
153.53666628146561
 20
157.1973238633087
 30
0.0
 70
    32
  0
VERTEX
  5
17D08
  8
1
 62
     7
 10
153.53866628146591
 20
157.19332386330859
 30
0.0
 70
    32
  0
VERTEX
  5
17D09
  8
1
 62
     7
 10
153.5406662814658
 20
157.18932386330911
 30
0.0
 70
    32
  0
VERTEX
  5
17D0A
  8
1
 62
     7
 10
153.54266628146581
 20
157.1863238633085
 30
0.0
 70
    32
  0
VERTEX
  5
17D0B
  8
1
 62
     7
 10
153.54466628146579
 20
157.18232386330871
 30
0.0
 70
    32
  0
VERTEX
  5
17D0C
  8
1
 62
     7
 10
153.54666628146549
 20
157.17832386330889
 30
0.0
 70
    32
  0
VERTEX
  5
17D0D
  8
1
 62
     7
 10
153.5486662814659
 20
157.17432386330881
 30
0.0
 70
    32
  0
VERTEX
  5
17D0E
  8
1
 62
     7
 10
153.55066628146571
 20
157.17032386330871
 30
0.0
 70
    32
  0
VERTEX
  5
17D0F
  8
1
 62
     7
 10
153.5526662814658
 20
157.1673238633087
 30
0.0
 70
    32
  0
VERTEX
  5
17D10
  8
1
 62
     7
 10
153.55466628146559
 20
157.16332386330859
 30
0.0
 70
    32
  0
VERTEX
  5
17D11
  8
1
 62
     7
 10
153.55666628146591
 20
157.15932386330849
 30
0.0
 70
    32
  0
VERTEX
  5
17D12
  8
1
 62
     7
 10
153.55866628146589
 20
157.15532386330869
 30
0.0
 70
    32
  0
VERTEX
  5
17D13
  8
1
 62
     7
 10
153.56066628146581
 20
157.1513238633089
 30
0.0
 70
    32
  0
VERTEX
  5
17D14
  8
1
 62
     7
 10
153.56266628146579
 20
157.1483238633086
 30
0.0
 70
    32
  0
VERTEX
  5
17D15
  8
1
 62
     7
 10
153.56466628146561
 20
157.14432386330881
 30
0.0
 70
    32
  0
VERTEX
  5
17D16
  8
1
 62
     7
 10
153.56666628146581
 20
157.14032386330871
 30
0.0
 70
    32
  0
VERTEX
  5
17D17
  8
1
 62
     7
 10
153.56866628146591
 20
157.1363238633086
 30
0.0
 70
    32
  0
VERTEX
  5
17D18
  8
1
 62
     7
 10
153.5706662814658
 20
157.13332386330859
 30
0.0
 70
    32
  0
VERTEX
  5
17D19
  8
1
 62
     7
 10
153.57266628146581
 20
157.12932386330851
 30
0.0
 70
    32
  0
VERTEX
  5
17D1A
  8
1
 62
     7
 10
153.57466628146591
 20
157.12532386330869
 30
0.0
 70
    32
  0
VERTEX
  5
17D1B
  8
1
 62
     7
 10
153.57666628146589
 20
157.12132386330859
 30
0.0
 70
    32
  0
VERTEX
  5
17D1C
  8
1
 62
     7
 10
153.5786662814653
 20
157.1183238633086
 30
0.0
 70
    32
  0
VERTEX
  5
17D1D
  8
1
 62
     7
 10
153.58066628146611
 20
157.1143238633089
 30
0.0
 70
    32
  0
VERTEX
  5
17D1E
  8
1
 62
     7
 10
153.58266628146569
 20
157.11032386330871
 30
0.0
 70
    32
  0
VERTEX
  5
17D1F
  8
1
 62
     7
 10
153.5846662814659
 20
157.10732386330881
 30
0.0
 70
    32
  0
VERTEX
  5
17D20
  8
1
 62
     7
 10
153.58766628146549
 20
157.10332386330859
 30
0.0
 70
    32
  0
VERTEX
  5
17D21
  8
1
 62
     7
 10
153.58966628146609
 20
157.09932386330851
 30
0.0
 70
    32
  0
VERTEX
  5
17D22
  8
1
 62
     7
 10
153.59166628146559
 20
157.09532386330869
 30
0.0
 70
    32
  0
VERTEX
  5
17D23
  8
1
 62
     7
 10
153.59366628146589
 20
157.09232386330851
 30
0.0
 70
    32
  0
VERTEX
  5
17D24
  8
1
 62
     7
 10
153.5956662814657
 20
157.088323863309
 30
0.0
 70
    32
  0
VERTEX
  5
17D25
  8
1
 62
     7
 10
153.59766628146599
 20
157.0843238633089
 30
0.0
 70
    32
  0
VERTEX
  5
17D26
  8
1
 62
     7
 10
153.59966628146589
 20
157.0813238633086
 30
0.0
 70
    32
  0
VERTEX
  5
17D27
  8
1
 62
     7
 10
153.6016662814659
 20
157.07732386330881
 30
0.0
 70
    32
  0
VERTEX
  5
17D28
  8
1
 62
     7
 10
153.60466628146571
 20
157.0733238633087
 30
0.0
 70
    32
  0
VERTEX
  5
17D29
  8
1
 62
     7
 10
153.60666628146589
 20
157.07032386330869
 30
0.0
 70
    32
  0
VERTEX
  5
17D2A
  8
1
 62
     7
 10
153.6086662814659
 20
157.06632386330861
 30
0.0
 70
    32
  0
VERTEX
  5
17D2B
  8
1
 62
     7
 10
153.610666281466
 20
157.06232386330851
 30
0.0
 70
    32
  0
VERTEX
  5
17D2C
  8
1
 62
     7
 10
153.61266628146581
 20
157.05932386330861
 30
0.0
 70
    32
  0
VERTEX
  5
17D2D
  8
1
 62
     7
 10
153.61566628146591
 20
157.05532386330879
 30
0.0
 70
    32
  0
VERTEX
  5
17D2E
  8
1
 62
     7
 10
153.6176662814658
 20
157.0513238633086
 30
0.0
 70
    32
  0
VERTEX
  5
17D2F
  8
1
 62
     7
 10
153.61966628146581
 20
157.0483238633087
 30
0.0
 70
    32
  0
VERTEX
  5
17D30
  8
1
 62
     7
 10
153.62166628146579
 20
157.04432386330859
 30
0.0
 70
    32
  0
VERTEX
  5
17D31
  8
1
 62
     7
 10
153.62366628146549
 20
157.0403238633088
 30
0.0
 70
    32
  0
VERTEX
  5
17D32
  8
1
 62
     7
 10
153.6266662814659
 20
157.03732386330881
 30
0.0
 70
    32
  0
VERTEX
  5
17D33
  8
1
 62
     7
 10
153.628666281466
 20
157.03332386330871
 30
0.0
 70
    32
  0
VERTEX
  5
17D34
  8
1
 62
     7
 10
153.63066628146601
 20
157.0293238633086
 30
0.0
 70
    32
  0
VERTEX
  5
17D35
  8
1
 62
     7
 10
153.6326662814657
 20
157.0263238633087
 30
0.0
 70
    32
  0
VERTEX
  5
17D36
  8
1
 62
     7
 10
153.63566628146589
 20
157.02232386330849
 30
0.0
 70
    32
  0
VERTEX
  5
17D37
  8
1
 62
     7
 10
153.63766628146581
 20
157.01932386330861
 30
0.0
 70
    32
  0
VERTEX
  5
17D38
  8
1
 62
     7
 10
153.63966628146579
 20
157.01532386330911
 30
0.0
 70
    32
  0
VERTEX
  5
17D39
  8
1
 62
     7
 10
153.6416662814656
 20
157.011323863309
 30
0.0
 70
    32
  0
VERTEX
  5
17D3A
  8
1
 62
     7
 10
153.64466628146579
 20
157.0083238633087
 30
0.0
 70
    32
  0
VERTEX
  5
17D3B
  8
1
 62
     7
 10
153.6466662814658
 20
157.0043238633086
 30
0.0
 70
    32
  0
VERTEX
  5
17D3C
  8
1
 62
     7
 10
153.64866628146581
 20
157.0013238633087
 30
0.0
 70
    32
  0
VERTEX
  5
17D3D
  8
1
 62
     7
 10
153.65166628146591
 20
156.99732386330891
 30
0.0
 70
    32
  0
VERTEX
  5
17D3E
  8
1
 62
     7
 10
153.65366628146589
 20
156.9933238633088
 30
0.0
 70
    32
  0
VERTEX
  5
17D3F
  8
1
 62
     7
 10
153.6556662814659
 20
156.99032386330879
 30
0.0
 70
    32
  0
VERTEX
  5
17D40
  8
1
 62
     7
 10
153.6586662814658
 20
156.98632386330871
 30
0.0
 70
    32
  0
VERTEX
  5
17D41
  8
1
 62
     7
 10
153.66066628146589
 20
156.9833238633087
 30
0.0
 70
    32
  0
VERTEX
  5
17D42
  8
1
 62
     7
 10
153.66266628146599
 20
156.97932386330859
 30
0.0
 70
    32
  0
VERTEX
  5
17D43
  8
1
 62
     7
 10
153.665666281466
 20
156.97632386330869
 30
0.0
 70
    32
  0
VERTEX
  5
17D44
  8
1
 62
     7
 10
153.66766628146561
 20
156.97232386330859
 30
0.0
 70
    32
  0
VERTEX
  5
17D45
  8
1
 62
     7
 10
153.67066628146591
 20
156.9693238633086
 30
0.0
 70
    32
  0
VERTEX
  5
17D46
  8
1
 62
     7
 10
153.67266628146569
 20
156.9653238633085
 30
0.0
 70
    32
  0
VERTEX
  5
17D47
  8
1
 62
     7
 10
153.6746662814657
 20
156.96132386330899
 30
0.0
 70
    32
  0
VERTEX
  5
17D48
  8
1
 62
     7
 10
153.67766628146569
 20
156.95832386330841
 30
0.0
 70
    32
  0
VERTEX
  5
17D49
  8
1
 62
     7
 10
153.67966628146601
 20
156.95432386330901
 30
0.0
 70
    32
  0
VERTEX
  5
17D4A
  8
1
 62
     7
 10
153.6826662814654
 20
156.95132386330869
 30
0.0
 70
    32
  0
VERTEX
  5
17D4B
  8
1
 62
     7
 10
153.68466628146609
 20
156.9473238633089
 30
0.0
 70
    32
  0
VERTEX
  5
17D4C
  8
1
 62
     7
 10
153.68766628146591
 20
156.94432386330871
 30
0.0
 70
    32
  0
VERTEX
  5
17D4D
  8
1
 62
     7
 10
153.6896662814658
 20
156.94032386330889
 30
0.0
 70
    32
  0
VERTEX
  5
17D4E
  8
1
 62
     7
 10
153.6916662814655
 20
156.9373238633089
 30
0.0
 70
    32
  0
VERTEX
  5
17D4F
  8
1
 62
     7
 10
153.6946662814658
 20
156.9333238633088
 30
0.0
 70
    32
  0
VERTEX
  5
17D50
  8
1
 62
     7
 10
153.69666628146581
 20
156.9303238633089
 30
0.0
 70
    32
  0
VERTEX
  5
17D51
  8
1
 62
     7
 10
153.6996662814658
 20
156.92632386330871
 30
0.0
 70
    32
  0
VERTEX
  5
17D52
  8
1
 62
     7
 10
153.70166628146569
 20
156.92332386330881
 30
0.0
 70
    32
  0
VERTEX
  5
17D53
  8
1
 62
     7
 10
153.70466628146571
 20
156.92032386330851
 30
0.0
 70
    32
  0
VERTEX
  5
17D54
  8
1
 62
     7
 10
153.7066662814658
 20
156.9163238633088
 30
0.0
 70
    32
  0
VERTEX
  5
17D55
  8
1
 62
     7
 10
153.70966628146539
 20
156.91332386330879
 30
0.0
 70
    32
  0
VERTEX
  5
17D56
  8
1
 62
     7
 10
153.7116662814658
 20
156.90932386330871
 30
0.0
 70
    32
  0
VERTEX
  5
17D57
  8
1
 62
     7
 10
153.71466628146581
 20
156.90632386330881
 30
0.0
 70
    32
  0
VERTEX
  5
17D58
  8
1
 62
     7
 10
153.71666628146579
 20
156.9023238633086
 30
0.0
 70
    32
  0
VERTEX
  5
17D59
  8
1
 62
     7
 10
153.71966628146581
 20
156.89932386330869
 30
0.0
 70
    32
  0
VERTEX
  5
17D5A
  8
1
 62
     7
 10
153.72266628146591
 20
156.89632386330879
 30
0.0
 70
    32
  0
VERTEX
  5
17D5B
  8
1
 62
     7
 10
153.72466628146569
 20
156.8923238633086
 30
0.0
 70
    32
  0
VERTEX
  5
17D5C
  8
1
 62
     7
 10
153.72766628146559
 20
156.8893238633087
 30
0.0
 70
    32
  0
VERTEX
  5
17D5D
  8
1
 62
     7
 10
153.729666281466
 20
156.8853238633086
 30
0.0
 70
    32
  0
VERTEX
  5
17D5E
  8
1
 62
     7
 10
153.7326662814659
 20
156.88232386330861
 30
0.0
 70
    32
  0
VERTEX
  5
17D5F
  8
1
 62
     7
 10
153.73566628146591
 20
156.87932386330871
 30
0.0
 70
    32
  0
VERTEX
  5
17D60
  8
1
 62
     7
 10
153.73766628146589
 20
156.87532386330861
 30
0.0
 70
    32
  0
VERTEX
  5
17D61
  8
1
 62
     7
 10
153.74066628146559
 20
156.87232386330871
 30
0.0
 70
    32
  0
VERTEX
  5
17D62
  8
1
 62
     7
 10
153.742666281466
 20
156.86832386330849
 30
0.0
 70
    32
  0
VERTEX
  5
17D63
  8
1
 62
     7
 10
153.74566628146559
 20
156.86532386330859
 30
0.0
 70
    32
  0
VERTEX
  5
17D64
  8
1
 62
     7
 10
153.74866628146569
 20
156.86232386330869
 30
0.0
 70
    32
  0
VERTEX
  5
17D65
  8
1
 62
     7
 10
153.7506662814655
 20
156.8583238633085
 30
0.0
 70
    32
  0
VERTEX
  5
17D66
  8
1
 62
     7
 10
153.75366628146591
 20
156.8553238633086
 30
0.0
 70
    32
  0
VERTEX
  5
17D67
  8
1
 62
     7
 10
153.75666628146601
 20
156.8523238633087
 30
0.0
 70
    32
  0
VERTEX
  5
17D68
  8
1
 62
     7
 10
153.75866628146571
 20
156.84832386330891
 30
0.0
 70
    32
  0
VERTEX
  5
17D69
  8
1
 62
     7
 10
153.76166628146609
 20
156.84532386330861
 30
0.0
 70
    32
  0
VERTEX
  5
17D6A
  8
1
 62
     7
 10
153.76466628146591
 20
156.84232386330871
 30
0.0
 70
    32
  0
VERTEX
  5
17D6B
  8
1
 62
     7
 10
153.76766628146561
 20
156.83932386330881
 30
0.0
 70
    32
  0
VERTEX
  5
17D6C
  8
1
 62
     7
 10
153.7696662814659
 20
156.83532386330859
 30
0.0
 70
    32
  0
VERTEX
  5
17D6D
  8
1
 62
     7
 10
153.77266628146589
 20
156.83232386330869
 30
0.0
 70
    32
  0
VERTEX
  5
17D6E
  8
1
 62
     7
 10
153.77566628146579
 20
156.82932386330879
 30
0.0
 70
    32
  0
VERTEX
  5
17D6F
  8
1
 62
     7
 10
153.77866628146569
 20
156.8253238633086
 30
0.0
 70
    32
  0
VERTEX
  5
17D70
  8
1
 62
     7
 10
153.7806662814659
 20
156.8223238633087
 30
0.0
 70
    32
  0
VERTEX
  5
17D71
  8
1
 62
     7
 10
153.7836662814658
 20
156.8193238633088
 30
0.0
 70
    32
  0
VERTEX
  5
17D72
  8
1
 62
     7
 10
153.78666628146539
 20
156.81632386330881
 30
0.0
 70
    32
  0
VERTEX
  5
17D73
  8
1
 62
     7
 10
153.78966628146591
 20
156.81232386330871
 30
0.0
 70
    32
  0
VERTEX
  5
17D74
  8
1
 62
     7
 10
153.79166628146581
 20
156.8093238633088
 30
0.0
 70
    32
  0
VERTEX
  5
17D75
  8
1
 62
     7
 10
153.7946662814656
 20
156.80632386330851
 30
0.0
 70
    32
  0
VERTEX
  5
17D76
  8
1
 62
     7
 10
153.79766628146581
 20
156.80332386330889
 30
0.0
 70
    32
  0
VERTEX
  5
17D77
  8
1
 62
     7
 10
153.80066628146579
 20
156.80032386330871
 30
0.0
 70
    32
  0
VERTEX
  5
17D78
  8
1
 62
     7
 10
153.80366628146581
 20
156.79632386330891
 30
0.0
 70
    32
  0
VERTEX
  5
17D79
  8
1
 62
     7
 10
153.80666628146599
 20
156.79332386330859
 30
0.0
 70
    32
  0
VERTEX
  5
17D7A
  8
1
 62
     7
 10
153.80866628146549
 20
156.790323863309
 30
0.0
 70
    32
  0
VERTEX
  5
17D7B
  8
1
 62
     7
 10
153.8116662814661
 20
156.7873238633087
 30
0.0
 70
    32
  0
VERTEX
  5
17D7C
  8
1
 62
     7
 10
153.81466628146589
 20
156.78432386330849
 30
0.0
 70
    32
  0
VERTEX
  5
17D7D
  8
1
 62
     7
 10
153.81766628146551
 20
156.7813238633085
 30
0.0
 70
    32
  0
VERTEX
  5
17D7E
  8
1
 62
     7
 10
153.82066628146609
 20
156.7783238633086
 30
0.0
 70
    32
  0
VERTEX
  5
17D7F
  8
1
 62
     7
 10
153.82366628146579
 20
156.7743238633085
 30
0.0
 70
    32
  0
VERTEX
  5
17D80
  8
1
 62
     7
 10
153.82666628146569
 20
156.77132386330891
 30
0.0
 70
    32
  0
VERTEX
  5
17D81
  8
1
 62
     7
 10
153.82966628146599
 20
156.76832386330861
 30
0.0
 70
    32
  0
VERTEX
  5
17D82
  8
1
 62
     7
 10
153.83266628146589
 20
156.76532386330871
 30
0.0
 70
    32
  0
VERTEX
  5
17D83
  8
1
 62
     7
 10
153.83566628146559
 20
156.76232386330869
 30
0.0
 70
    32
  0
VERTEX
  5
17D84
  8
1
 62
     7
 10
153.83866628146609
 20
156.75932386330879
 30
0.0
 70
    32
  0
VERTEX
  5
17D85
  8
1
 62
     7
 10
153.8416662814659
 20
156.75632386330889
 30
0.0
 70
    32
  0
VERTEX
  5
17D86
  8
1
 62
     7
 10
153.84466628146561
 20
156.75332386330899
 30
0.0
 70
    32
  0
VERTEX
  5
17D87
  8
1
 62
     7
 10
153.8476662814661
 20
156.75032386330869
 30
0.0
 70
    32
  0
VERTEX
  5
17D88
  8
1
 62
     7
 10
153.85066628146581
 20
156.74732386330879
 30
0.0
 70
    32
  0
VERTEX
  5
17D89
  8
1
 62
     7
 10
153.85366628146579
 20
156.74432386330889
 30
0.0
 70
    32
  0
VERTEX
  5
17D8A
  8
1
 62
     7
 10
153.856666281466
 20
156.74132386330891
 30
0.0
 70
    32
  0
VERTEX
  5
17D8B
  8
1
 62
     7
 10
153.85966628146599
 20
156.73832386330861
 30
0.0
 70
    32
  0
VERTEX
  5
17D8C
  8
1
 62
     7
 10
153.86266628146561
 20
156.73532386330871
 30
0.0
 70
    32
  0
VERTEX
  5
17D8D
  8
1
 62
     7
 10
153.86566628146579
 20
156.73232386330881
 30
0.0
 70
    32
  0
VERTEX
  5
17D8E
  8
1
 62
     7
 10
153.86866628146581
 20
156.72932386330891
 30
0.0
 70
    32
  0
VERTEX
  5
17D8F
  8
1
 62
     7
 10
153.87166628146559
 20
156.72632386330889
 30
0.0
 70
    32
  0
VERTEX
  5
17D90
  8
1
 62
     7
 10
153.87466628146581
 20
156.72332386330859
 30
0.0
 70
    32
  0
VERTEX
  5
17D91
  8
1
 62
     7
 10
153.87766628146579
 20
156.72032386330869
 30
0.0
 70
    32
  0
VERTEX
  5
17D92
  8
1
 62
     7
 10
153.88066628146581
 20
156.71732386330851
 30
0.0
 70
    32
  0
VERTEX
  5
17D93
  8
1
 62
     7
 10
153.88366628146599
 20
156.71432386330889
 30
0.0
 70
    32
  0
VERTEX
  5
17D94
  8
1
 62
     7
 10
153.88666628146589
 20
156.71132386330859
 30
0.0
 70
    32
  0
VERTEX
  5
17D95
  8
1
 62
     7
 10
153.88966628146591
 20
156.70832386330869
 30
0.0
 70
    32
  0
VERTEX
  5
17D96
  8
1
 62
     7
 10
153.89366628146601
 20
156.70532386330871
 30
0.0
 70
    32
  0
VERTEX
  5
17D97
  8
1
 62
     7
 10
153.896666281466
 20
156.70232386330881
 30
0.0
 70
    32
  0
VERTEX
  5
17D98
  8
1
 62
     7
 10
153.89966628146561
 20
156.6993238633089
 30
0.0
 70
    32
  0
VERTEX
  5
17D99
  8
1
 62
     7
 10
153.9026662814658
 20
156.6973238633085
 30
0.0
 70
    32
  0
VERTEX
  5
17D9A
  8
1
 62
     7
 10
153.90566628146601
 20
156.69432386330851
 30
0.0
 70
    32
  0
VERTEX
  5
17D9B
  8
1
 62
     7
 10
153.90866628146571
 20
156.69132386330861
 30
0.0
 70
    32
  0
VERTEX
  5
17D9C
  8
1
 62
     7
 10
153.91266628146559
 20
156.68832386330871
 30
0.0
 70
    32
  0
VERTEX
  5
17D9D
  8
1
 62
     7
 10
153.91566628146609
 20
156.68532386330881
 30
0.0
 70
    32
  0
VERTEX
  5
17D9E
  8
1
 62
     7
 10
153.9186662814659
 20
156.6823238633088
 30
0.0
 70
    32
  0
VERTEX
  5
17D9F
  8
1
 62
     7
 10
153.9216662814656
 20
156.6803238633091
 30
0.0
 70
    32
  0
VERTEX
  5
17DA0
  8
1
 62
     7
 10
153.92566628146579
 20
156.67732386330849
 30
0.0
 70
    32
  0
VERTEX
  5
17DA1
  8
1
 62
     7
 10
153.92866628146569
 20
156.67432386330859
 30
0.0
 70
    32
  0
VERTEX
  5
17DA2
  8
1
 62
     7
 10
153.93166628146551
 20
156.671323863309
 30
0.0
 70
    32
  0
VERTEX
  5
17DA3
  8
1
 62
     7
 10
153.93466628146589
 20
156.6693238633089
 30
0.0
 70
    32
  0
VERTEX
  5
17DA4
  8
1
 62
     7
 10
153.93866628146591
 20
156.66632386330861
 30
0.0
 70
    32
  0
VERTEX
  5
17DA5
  8
1
 62
     7
 10
153.94166628146559
 20
156.6633238633091
 30
0.0
 70
    32
  0
VERTEX
  5
17DA6
  8
1
 62
     7
 10
153.94466628146549
 20
156.66132386330861
 30
0.0
 70
    32
  0
VERTEX
  5
17DA7
  8
1
 62
     7
 10
153.94866628146559
 20
156.65832386330871
 30
0.0
 70
    32
  0
VERTEX
  5
17DA8
  8
1
 62
     7
 10
153.9516662814658
 20
156.65532386330881
 30
0.0
 70
    32
  0
VERTEX
  5
17DA9
  8
1
 62
     7
 10
153.95466628146579
 20
156.653323863309
 30
0.0
 70
    32
  0
VERTEX
  5
17DAA
  8
1
 62
     7
 10
153.9586662814657
 20
156.6503238633085
 30
0.0
 70
    32
  0
VERTEX
  5
17DAB
  8
1
 62
     7
 10
153.96166628146591
 20
156.64732386330849
 30
0.0
 70
    32
  0
VERTEX
  5
17DAC
  8
1
 62
     7
 10
153.9646662814659
 20
156.64532386330879
 30
0.0
 70
    32
  0
VERTEX
  5
17DAD
  8
1
 62
     7
 10
153.96866628146589
 20
156.64232386330889
 30
0.0
 70
    32
  0
VERTEX
  5
17DAE
  8
1
 62
     7
 10
153.9716662814655
 20
156.64032386330911
 30
0.0
 70
    32
  0
VERTEX
  5
17DAF
  8
1
 62
     7
 10
153.97566628146549
 20
156.63732386330889
 30
0.0
 70
    32
  0
VERTEX
  5
17DB0
  8
1
 62
     7
 10
153.97866628146591
 20
156.63432386330859
 30
0.0
 70
    32
  0
VERTEX
  5
17DB1
  8
1
 62
     7
 10
153.98166628146549
 20
156.6323238633089
 30
0.0
 70
    32
  0
VERTEX
  5
17DB2
  8
1
 62
     7
 10
153.98566628146571
 20
156.62932386330891
 30
0.0
 70
    32
  0
VERTEX
  5
17DB3
  8
1
 62
     7
 10
153.9886662814659
 20
156.6273238633085
 30
0.0
 70
    32
  0
VERTEX
  5
17DB4
  8
1
 62
     7
 10
153.99266628146609
 20
156.6243238633086
 30
0.0
 70
    32
  0
VERTEX
  5
17DB5
  8
1
 62
     7
 10
153.9956662814659
 20
156.62232386330891
 30
0.0
 70
    32
  0
VERTEX
  5
17DB6
  8
1
 62
     7
 10
153.99966628146549
 20
156.61932386330861
 30
0.0
 70
    32
  0
VERTEX
  5
17DB7
  8
1
 62
     7
 10
154.00266628146579
 20
156.61732386330851
 30
0.0
 70
    32
  0
VERTEX
  5
17DB8
  8
1
 62
     7
 10
154.00666628146581
 20
156.61532386330879
 30
0.0
 70
    32
  0
VERTEX
  5
17DB9
  8
1
 62
     7
 10
154.0096662814658
 20
156.61232386330889
 30
0.0
 70
    32
  0
VERTEX
  5
17DBA
  8
1
 62
     7
 10
154.01366628146599
 20
156.61032386330851
 30
0.0
 70
    32
  0
VERTEX
  5
17DBB
  8
1
 62
     7
 10
154.0166662814658
 20
156.60732386330861
 30
0.0
 70
    32
  0
VERTEX
  5
17DBC
  8
1
 62
     7
 10
154.02066628146591
 20
156.6053238633088
 30
0.0
 70
    32
  0
VERTEX
  5
17DBD
  8
1
 62
     7
 10
154.02466628146601
 20
156.60332386330839
 30
0.0
 70
    32
  0
VERTEX
  5
17DBE
  8
1
 62
     7
 10
154.02766628146571
 20
156.60032386330849
 30
0.0
 70
    32
  0
VERTEX
  5
17DBF
  8
1
 62
     7
 10
154.03166628146579
 20
156.59832386330879
 30
0.0
 70
    32
  0
VERTEX
  5
17DC0
  8
1
 62
     7
 10
154.0346662814658
 20
156.5963238633087
 30
0.0
 70
    32
  0
VERTEX
  5
17DC1
  8
1
 62
     7
 10
154.03866628146591
 20
156.5933238633088
 30
0.0
 70
    32
  0
VERTEX
  5
17DC2
  8
1
 62
     7
 10
154.04266628146601
 20
156.5913238633087
 30
0.0
 70
    32
  0
VERTEX
  5
17DC3
  8
1
 62
     7
 10
154.04566628146591
 20
156.58932386330861
 30
0.0
 70
    32
  0
VERTEX
  5
17DC4
  8
1
 62
     7
 10
154.04966628146539
 20
156.5873238633086
 30
0.0
 70
    32
  0
VERTEX
  5
17DC5
  8
1
 62
     7
 10
154.05366628146561
 20
156.58432386330861
 30
0.0
 70
    32
  0
VERTEX
  5
17DC6
  8
1
 62
     7
 10
154.05666628146591
 20
156.58232386330889
 30
0.0
 70
    32
  0
VERTEX
  5
17DC7
  8
1
 62
     7
 10
154.06066628146601
 20
156.58032386330851
 30
0.0
 70
    32
  0
VERTEX
  5
17DC8
  8
1
 62
     7
 10
154.064666281466
 20
156.57832386330881
 30
0.0
 70
    32
  0
VERTEX
  5
17DC9
  8
1
 62
     7
 10
154.06766628146539
 20
156.57632386330911
 30
0.0
 70
    32
  0
VERTEX
  5
17DCA
  8
1
 62
     7
 10
154.0716662814657
 20
156.57432386330859
 30
0.0
 70
    32
  0
VERTEX
  5
17DCB
  8
1
 62
     7
 10
154.0756662814656
 20
156.5723238633089
 30
0.0
 70
    32
  0
VERTEX
  5
17DCC
  8
1
 62
     7
 10
154.07866628146579
 20
156.56932386330871
 30
0.0
 70
    32
  0
VERTEX
  5
17DCD
  8
1
 62
     7
 10
154.08266628146569
 20
156.5673238633089
 30
0.0
 70
    32
  0
VERTEX
  5
17DCE
  8
1
 62
     7
 10
154.0866662814658
 20
156.56532386330849
 30
0.0
 70
    32
  0
VERTEX
  5
17DCF
  8
1
 62
     7
 10
154.09066628146601
 20
156.56332386330851
 30
0.0
 70
    32
  0
VERTEX
  5
17DD0
  8
1
 62
     7
 10
154.0936662814658
 20
156.5613238633087
 30
0.0
 70
    32
  0
VERTEX
  5
17DD1
  8
1
 62
     7
 10
154.09766628146591
 20
156.55932386330869
 30
0.0
 70
    32
  0
VERTEX
  5
17DD2
  8
1
 62
     7
 10
154.10166628146601
 20
156.5573238633086
 30
0.0
 70
    32
  0
VERTEX
  5
17DD3
  8
1
 62
     7
 10
154.1056662814658
 20
156.5553238633089
 30
0.0
 70
    32
  0
VERTEX
  5
17DD4
  8
1
 62
     7
 10
154.10966628146559
 20
156.55332386330849
 30
0.0
 70
    32
  0
VERTEX
  5
17DD5
  8
1
 62
     7
 10
154.11266628146569
 20
156.5523238633086
 30
0.0
 70
    32
  0
VERTEX
  5
17DD6
  8
1
 62
     7
 10
154.11666628146571
 20
156.55032386330851
 30
0.0
 70
    32
  0
VERTEX
  5
17DD7
  8
1
 62
     7
 10
154.1206662814659
 20
156.54832386330881
 30
0.0
 70
    32
  0
VERTEX
  5
17DD8
  8
1
 62
     7
 10
154.12466628146589
 20
156.54632386330869
 30
0.0
 70
    32
  0
VERTEX
  5
17DD9
  8
1
 62
     7
 10
154.12866628146611
 20
156.5443238633087
 30
0.0
 70
    32
  0
VERTEX
  5
17DDA
  8
1
 62
     7
 10
154.1326662814659
 20
156.54232386330861
 30
0.0
 70
    32
  0
VERTEX
  5
17DDB
  8
1
 62
     7
 10
154.13666628146601
 20
156.5413238633088
 30
0.0
 70
    32
  0
VERTEX
  5
17DDC
  8
1
 62
     7
 10
154.13966628146571
 20
156.53932386330899
 30
0.0
 70
    32
  0
VERTEX
  5
17DDD
  8
1
 62
     7
 10
154.14366628146561
 20
156.53732386330859
 30
0.0
 70
    32
  0
VERTEX
  5
17DDE
  8
1
 62
     7
 10
154.14766628146589
 20
156.53532386330889
 30
0.0
 70
    32
  0
VERTEX
  5
17DDF
  8
1
 62
     7
 10
154.15166628146579
 20
156.53432386330871
 30
0.0
 70
    32
  0
VERTEX
  5
17DE0
  8
1
 62
     7
 10
154.1556662814661
 20
156.53232386330899
 30
0.0
 70
    32
  0
VERTEX
  5
17DE1
  8
1
 62
     7
 10
154.15966628146569
 20
156.53032386330861
 30
0.0
 70
    32
  0
VERTEX
  5
17DE2
  8
1
 62
     7
 10
154.16366628146579
 20
156.52932386330869
 30
0.0
 70
    32
  0
VERTEX
  5
17DE3
  8
1
 62
     7
 10
154.16766628146601
 20
156.5273238633086
 30
0.0
 70
    32
  0
VERTEX
  5
17DE4
  8
1
 62
     7
 10
154.17166628146541
 20
156.52532386330861
 30
0.0
 70
    32
  0
VERTEX
  5
17DE5
  8
1
 62
     7
 10
154.17566628146551
 20
156.52432386330869
 30
0.0
 70
    32
  0
VERTEX
  5
17DE6
  8
1
 62
     7
 10
154.17966628146559
 20
156.522323863309
 30
0.0
 70
    32
  0
VERTEX
  5
17DE7
  8
1
 62
     7
 10
154.1836662814658
 20
156.52132386330879
 30
0.0
 70
    32
  0
VERTEX
  5
17DE8
  8
1
 62
     7
 10
154.18766628146591
 20
156.5193238633087
 30
0.0
 70
    32
  0
VERTEX
  5
17DE9
  8
1
 62
     7
 10
154.19166628146601
 20
156.51832386330881
 30
0.0
 70
    32
  0
VERTEX
  5
17DEA
  8
1
 62
     7
 10
154.19566628146589
 20
156.5163238633084
 30
0.0
 70
    32
  0
VERTEX
  5
17DEB
  8
1
 62
     7
 10
154.19966628146591
 20
156.51532386330891
 30
0.0
 70
    32
  0
VERTEX
  5
17DEC
  8
1
 62
     7
 10
154.20366628146539
 20
156.5143238633087
 30
0.0
 70
    32
  0
VERTEX
  5
17DED
  8
1
 62
     7
 10
154.20766628146561
 20
156.51232386330901
 30
0.0
 70
    32
  0
VERTEX
  5
17DEE
  8
1
 62
     7
 10
154.2116662814656
 20
156.5113238633088
 30
0.0
 70
    32
  0
VERTEX
  5
17DEF
  8
1
 62
     7
 10
154.21566628146559
 20
156.5103238633086
 30
0.0
 70
    32
  0
VERTEX
  5
17DF0
  8
1
 62
     7
 10
154.21966628146589
 20
156.5083238633089
 30
0.0
 70
    32
  0
VERTEX
  5
17DF1
  8
1
 62
     7
 10
154.22366628146611
 20
156.5073238633083
 30
0.0
 70
    32
  0
VERTEX
  5
17DF2
  8
1
 62
     7
 10
154.2276662814659
 20
156.50632386330881
 30
0.0
 70
    32
  0
VERTEX
  5
17DF3
  8
1
 62
     7
 10
154.23266628146609
 20
156.50532386330889
 30
0.0
 70
    32
  0
VERTEX
  5
17DF4
  8
1
 62
     7
 10
154.23666628146569
 20
156.5043238633086
 30
0.0
 70
    32
  0
VERTEX
  5
17DF5
  8
1
 62
     7
 10
154.24066628146579
 20
156.50232386330859
 30
0.0
 70
    32
  0
VERTEX
  5
17DF6
  8
1
 62
     7
 10
154.24466628146601
 20
156.50132386330881
 30
0.0
 70
    32
  0
VERTEX
  5
17DF7
  8
1
 62
     7
 10
154.2486662814654
 20
156.50032386330861
 30
0.0
 70
    32
  0
VERTEX
  5
17DF8
  8
1
 62
     7
 10
154.25266628146551
 20
156.49932386330909
 30
0.0
 70
    32
  0
VERTEX
  5
17DF9
  8
1
 62
     7
 10
154.25666628146561
 20
156.49832386330851
 30
0.0
 70
    32
  0
VERTEX
  5
17DFA
  8
1
 62
     7
 10
154.2606662814658
 20
156.49732386330859
 30
0.0
 70
    32
  0
VERTEX
  5
17DFB
  8
1
 62
     7
 10
154.26566628146571
 20
156.49632386330839
 30
0.0
 70
    32
  0
VERTEX
  5
17DFC
  8
1
 62
     7
 10
154.2696662814659
 20
156.4953238633089
 30
0.0
 70
    32
  0
VERTEX
  5
17DFD
  8
1
 62
     7
 10
154.27366628146589
 20
156.49432386330869
 30
0.0
 70
    32
  0
VERTEX
  5
17DFE
  8
1
 62
     7
 10
154.27766628146591
 20
156.49332386330849
 30
0.0
 70
    32
  0
VERTEX
  5
17DFF
  8
1
 62
     7
 10
154.2816662814659
 20
156.49232386330871
 30
0.0
 70
    32
  0
VERTEX
  5
17E00
  8
1
 62
     7
 10
154.28566628146581
 20
156.49132386330879
 30
0.0
 70
    32
  0
VERTEX
  5
17E01
  8
1
 62
     7
 10
154.290666281466
 20
156.49132386330879
 30
0.0
 70
    32
  0
VERTEX
  5
17E02
  8
1
 62
     7
 10
154.29466628146591
 20
156.49032386330859
 30
0.0
 70
    32
  0
VERTEX
  5
17E03
  8
1
 62
     7
 10
154.2986662814653
 20
156.48932386330841
 30
0.0
 70
    32
  0
VERTEX
  5
17E04
  8
1
 62
     7
 10
154.30266628146569
 20
156.48832386330889
 30
0.0
 70
    32
  0
VERTEX
  5
17E05
  8
1
 62
     7
 10
154.3066662814656
 20
156.48732386330869
 30
0.0
 70
    32
  0
VERTEX
  5
17E06
  8
1
 62
     7
 10
154.31166628146559
 20
156.48732386330869
 30
0.0
 70
    32
  0
VERTEX
  5
17E07
  8
1
 62
     7
 10
154.31566628146581
 20
156.48632386330851
 30
0.0
 70
    32
  0
VERTEX
  5
17E08
  8
1
 62
     7
 10
154.31966628146591
 20
156.48532386330891
 30
0.0
 70
    32
  0
VERTEX
  5
17E09
  8
1
 62
     7
 10
154.3236662814659
 20
156.48532386330891
 30
0.0
 70
    32
  0
VERTEX
  5
17E0A
  8
1
 62
     7
 10
154.3286662814659
 20
156.4843238633087
 30
0.0
 70
    32
  0
VERTEX
  5
17E0B
  8
1
 62
     7
 10
154.33266628146581
 20
156.4833238633085
 30
0.0
 70
    32
  0
VERTEX
  5
17E0C
  8
1
 62
     7
 10
154.3366662814658
 20
156.4833238633085
 30
0.0
 70
    32
  0
VERTEX
  5
17E0D
  8
1
 62
     7
 10
154.3406662814661
 20
156.48232386330869
 30
0.0
 70
    32
  0
VERTEX
  5
17E0E
  8
1
 62
     7
 10
154.3456662814659
 20
156.48232386330869
 30
0.0
 70
    32
  0
VERTEX
  5
17E0F
  8
1
 62
     7
 10
154.34966628146589
 20
156.4813238633088
 30
0.0
 70
    32
  0
VERTEX
  5
17E10
  8
1
 62
     7
 10
154.35366628146591
 20
156.4813238633088
 30
0.0
 70
    32
  0
VERTEX
  5
17E11
  8
1
 62
     7
 10
154.35766628146581
 20
156.4803238633086
 30
0.0
 70
    32
  0
VERTEX
  5
17E12
  8
1
 62
     7
 10
154.36266628146581
 20
156.4803238633086
 30
0.0
 70
    32
  0
VERTEX
  5
17E13
  8
1
 62
     7
 10
154.36666628146551
 20
156.4803238633086
 30
0.0
 70
    32
  0
VERTEX
  5
17E14
  8
1
 62
     7
 10
154.37066628146559
 20
156.47932386330871
 30
0.0
 70
    32
  0
VERTEX
  5
17E15
  8
1
 62
     7
 10
154.37466628146569
 20
156.47932386330871
 30
0.0
 70
    32
  0
VERTEX
  5
17E16
  8
1
 62
     7
 10
154.37966628146569
 20
156.47932386330871
 30
0.0
 70
    32
  0
VERTEX
  5
17E17
  8
1
 62
     7
 10
154.38366628146559
 20
156.47932386330871
 30
0.0
 70
    32
  0
VERTEX
  5
17E18
  8
1
 62
     7
 10
154.38766628146581
 20
156.4783238633089
 30
0.0
 70
    32
  0
VERTEX
  5
17E19
  8
1
 62
     7
 10
154.3916662814658
 20
156.4783238633089
 30
0.0
 70
    32
  0
VERTEX
  5
17E1A
  8
1
 62
     7
 10
154.39666628146591
 20
156.4783238633089
 30
0.0
 70
    32
  0
VERTEX
  5
17E1B
  8
1
 62
     7
 10
154.4006662814659
 20
156.4783238633089
 30
0.0
 70
    32
  0
VERTEX
  5
17E1C
  8
1
 62
     7
 10
154.40466628146581
 20
156.4783238633089
 30
0.0
 70
    32
  0
VERTEX
  5
17E1D
  8
1
 62
     7
 10
154.4096662814658
 20
156.4783238633089
 30
0.0
 70
    32
  0
VERTEX
  5
17E1E
  8
1
 62
     7
 10
154.41366628146579
 20
156.4783238633089
 30
0.0
 70
    32
  0
VERTEX
  5
17E1F
  8
1
 62
     7
 10
154.41766628146561
 20
156.4783238633089
 30
0.0
 70
    32
  0
VERTEX
  5
17E20
  8
1
 62
     7
 10
154.42166628146589
 20
156.4783238633089
 30
0.0
 70
    32
  0
VERTEX
  5
17E21
  8
1
 62
     7
 10
154.42666628146591
 20
156.4783238633089
 30
0.0
 70
    32
  0
VERTEX
  5
17E22
  8
1
 62
     7
 10
154.4306662814659
 20
156.47932386330871
 30
0.0
 70
    32
  0
VERTEX
  5
17E23
  8
1
 62
     7
 10
154.43466628146581
 20
156.47932386330871
 30
0.0
 70
    32
  0
VERTEX
  5
17E24
  8
1
 62
     7
 10
154.4386662814656
 20
156.47932386330871
 30
0.0
 70
    32
  0
VERTEX
  5
17E25
  8
1
 62
     7
 10
154.44366628146551
 20
156.47932386330871
 30
0.0
 70
    32
  0
VERTEX
  5
17E26
  8
1
 62
     7
 10
154.44766628146559
 20
156.4803238633086
 30
0.0
 70
    32
  0
VERTEX
  5
17E27
  8
1
 62
     7
 10
154.45166628146569
 20
156.4803238633086
 30
0.0
 70
    32
  0
VERTEX
  5
17E28
  8
1
 62
     7
 10
154.45566628146591
 20
156.4803238633086
 30
0.0
 70
    32
  0
VERTEX
  5
17E29
  8
1
 62
     7
 10
154.46066628146559
 20
156.4813238633088
 30
0.0
 70
    32
  0
VERTEX
  5
17E2A
  8
1
 62
     7
 10
154.46466628146581
 20
156.4813238633088
 30
0.0
 70
    32
  0
VERTEX
  5
17E2B
  8
1
 62
     7
 10
154.4686662814658
 20
156.4813238633088
 30
0.0
 70
    32
  0
VERTEX
  5
17E2C
  8
1
 62
     7
 10
154.47266628146599
 20
156.48232386330869
 30
0.0
 70
    32
  0
VERTEX
  5
17E2D
  8
1
 62
     7
 10
154.4776662814659
 20
156.48232386330869
 30
0.0
 70
    32
  0
VERTEX
  5
17E2E
  8
1
 62
     7
 10
154.48166628146581
 20
156.4833238633085
 30
0.0
 70
    32
  0
VERTEX
  5
17E2F
  8
1
 62
     7
 10
154.4856662814658
 20
156.4833238633085
 30
0.0
 70
    32
  0
VERTEX
  5
17E30
  8
1
 62
     7
 10
154.48966628146559
 20
156.4843238633087
 30
0.0
 70
    32
  0
VERTEX
  5
17E31
  8
1
 62
     7
 10
154.49466628146561
 20
156.4843238633087
 30
0.0
 70
    32
  0
VERTEX
  5
17E32
  8
1
 62
     7
 10
154.49866628146589
 20
156.48532386330891
 30
0.0
 70
    32
  0
VERTEX
  5
17E33
  8
1
 62
     7
 10
154.50266628146591
 20
156.48532386330891
 30
0.0
 70
    32
  0
VERTEX
  5
17E34
  8
1
 62
     7
 10
154.50666628146561
 20
156.48632386330851
 30
0.0
 70
    32
  0
VERTEX
  5
17E35
  8
1
 62
     7
 10
154.51166628146581
 20
156.48632386330851
 30
0.0
 70
    32
  0
VERTEX
  5
17E36
  8
1
 62
     7
 10
154.5156662814656
 20
156.48732386330869
 30
0.0
 70
    32
  0
VERTEX
  5
17E37
  8
1
 62
     7
 10
154.51966628146559
 20
156.48732386330869
 30
0.0
 70
    32
  0
VERTEX
  5
17E38
  8
1
 62
     7
 10
154.52366628146589
 20
156.48832386330889
 30
0.0
 70
    32
  0
SEQEND
  5
17E39
  8
1
 62
     7
  0
ARC
  5
17E3A
  8
1
  6
CONTINUOUS
 62
     7
 10
145.39408108450851
 20
158.9783709283825
 30
0.0
 40
2.4999999999999991
 50
180.0
 51
270.0
  0
LINE
  5
17E3B
  8
1
  6
CONTINUOUS
 62
     7
 10
141.29408108450889
 20
156.47837092838279
 30
0.0
 11
145.39408108450851
 21
156.47837092838279
 31
0.0
  0
ARC
  5
17E3C
  8
1
  6
CONTINUOUS
 62
     7
 10
141.29408108450889
 20
156.97837092838259
 30
0.0
 40
0.5
 50
180.0
 51
270.0
  0
LINE
  5
17E3D
  8
1
  6
CONTINUOUS
 62
     7
 10
151.71408108450899
 20
169.4783709283825
 30
0.0
 11
142.89408108450851
 21
168.01337092838281
 31
0.0
  0
LINE
  5
17E3E
  8
1
  6
CONTINUOUS
 62
     7
 10
152.2940810845102
 20
173.47837092838259
 30
0.0
 11
140.7940810845104
 21
173.47837092838259
 31
0.0
  0
LINE
  5
17E3F
  8
AM_0
 10
146.8123361734346
 20
197.4684909283871
 30
0.0
 11
163.66118617343469
 21
197.4684909283871
 31
0.0
  0
LINE
  5
17E40
  8
1
  6
CONTINUOUS
 62
     7
 10
157.8940810845119
 20
190.4783709283825
 30
0.0
 11
152.2940810845102
 21
190.4783709283825
 31
0.0
  0
LINE
  5
17E41
  8
AM_0
 10
143.29408871390311
 20
190.4910709283873
 30
0.0
 11
143.29408871390311
 21
192.99107092838739
 31
0.0
  0
LINE
  5
17E42
  8
1
  6
CONTINUOUS
 62
     7
 10
150.69408108451151
 20
190.4783709283825
 30
0.0
 11
141.79408108451051
 21
190.4783709283825
 31
0.0
  0
ARC
  5
17E43
  8
1
  6
CONTINUOUS
 62
     7
 10
141.79408108451051
 20
189.47837092838279
 30
0.0
 40
0.9999999999998864
 50
90.0
 51
180.0
  0
ARC
  5
17E44
  8
1
  6
CONTINUOUS
 62
     7
 10
151.29408108451031
 20
189.47837092838279
 30
0.0
 40
0.9999999999999998
 50
0.0
 51
90.0
  0
LINE
  5
17E45
  8
1
  6
CONTINUOUS
 62
     7
 10
152.2940810845102
 20
190.4783709283825
 30
0.0
 11
151.29408108451031
 21
190.4783709283825
 31
0.0
  0
LINE
  5
17E46
  8
1
  6
CONTINUOUS
 62
     7
 10
151.29408108451031
 20
190.4783709283825
 30
0.0
 11
150.69408108451151
 21
190.4783709283825
 31
0.0
  0
LINE
  5
17E47
  8
1
  6
CONTINUOUS
 62
     7
 10
201.2940810845104
 20
189.47837092838279
 30
0.0
 11
201.2940810845104
 21
173.47837092838259
 31
0.0
  0
LINE
  5
17E48
  8
1
  6
CONTINUOUS
 62
     7
 10
212.7940810845104
 20
156.97837092838259
 30
0.0
 11
212.7940810845104
 21
189.47837092838279
 31
0.0
  0
LINE
  5
17E49
  8
1
  6
CONTINUOUS
 62
     7
 10
182.294081084509
 20
183.7615844881546
 30
0.0
 11
182.294081084509
 21
169.4783709283829
 31
0.0
  0
LINE
  5
17E4A
  8
1
  6
CONTINUOUS
 62
     7
 10
171.2940810845086
 20
169.4783709283829
 30
0.0
 11
171.2940810845086
 21
183.7615844881546
 31
0.0
  0
LINE
  5
17E4B
  8
1
  6
CONTINUOUS
 62
     7
 10
182.294081084509
 20
173.47837092838259
 30
0.0
 11
212.79408108450889
 21
173.47837092838259
 31
0.0
  0
LINE
  5
17E4C
  8
1
  6
CONTINUOUS
 62
     7
 10
201.87408108450899
 20
169.4783709283825
 30
0.0
 11
210.69408108450821
 21
168.01337092838281
 31
0.0
  0
LINE
  5
17E4D
  8
1
  6
CONTINUOUS
 62
     7
 10
212.7940810845104
 20
173.47837092838259
 30
0.0
 11
201.2940810845104
 21
173.47837092838259
 31
0.0
  0
LINE
  5
17E4E
  8
1
  6
CONTINUOUS
 62
     7
 10
200.4242326035255
 20
169.4783709283825
 30
0.0
 11
200.4242326035255
 21
158.9783709283825
 31
0.0
  0
POLYLINE
  5
17E4F
  8
1
 62
     7
 66
     1
 10
0.0
 20
0.0
 30
0.0
 70
     8
  0
VERTEX
  5
17E50
  8
1
 62
     7
 10
199.28426628146559
 20
156.48832386330889
 30
0.0
 70
    32
  0
VERTEX
  5
17E51
  8
1
 62
     7
 10
199.28846628146599
 20
156.48932386330841
 30
0.0
 70
    32
  0
VERTEX
  5
17E52
  8
1
 62
     7
 10
199.29276628146559
 20
156.49032386330859
 30
0.0
 70
    32
  0
VERTEX
  5
17E53
  8
1
 62
     7
 10
199.29696628146539
 20
156.49132386330879
 30
0.0
 70
    32
  0
VERTEX
  5
17E54
  8
1
 62
     7
 10
199.3012662814655
 20
156.49232386330871
 30
0.0
 70
    32
  0
VERTEX
  5
17E55
  8
1
 62
     7
 10
199.30546628146581
 20
156.49332386330849
 30
0.0
 70
    32
  0
VERTEX
  5
17E56
  8
1
 62
     7
 10
199.3097662814659
 20
156.49432386330869
 30
0.0
 70
    32
  0
VERTEX
  5
17E57
  8
1
 62
     7
 10
199.3139662814657
 20
156.4953238633089
 30
0.0
 70
    32
  0
VERTEX
  5
17E58
  8
1
 62
     7
 10
199.31816628146581
 20
156.49632386330839
 30
0.0
 70
    32
  0
VERTEX
  5
17E59
  8
1
 62
     7
 10
199.32246628146561
 20
156.49732386330859
 30
0.0
 70
    32
  0
VERTEX
  5
17E5A
  8
1
 62
     7
 10
199.326666281466
 20
156.49832386330851
 30
0.0
 70
    32
  0
VERTEX
  5
17E5B
  8
1
 62
     7
 10
199.3308662814658
 20
156.49932386330909
 30
0.0
 70
    32
  0
VERTEX
  5
17E5C
  8
1
 62
     7
 10
199.33516628146589
 20
156.50032386330861
 30
0.0
 70
    32
  0
VERTEX
  5
17E5D
  8
1
 62
     7
 10
199.339366281466
 20
156.50132386330881
 30
0.0
 70
    32
  0
VERTEX
  5
17E5E
  8
1
 62
     7
 10
199.3435662814656
 20
156.50232386330859
 30
0.0
 70
    32
  0
VERTEX
  5
17E5F
  8
1
 62
     7
 10
199.3477662814654
 20
156.50332386330851
 30
0.0
 70
    32
  0
VERTEX
  5
17E60
  8
1
 62
     7
 10
199.35196628146571
 20
156.5043238633086
 30
0.0
 70
    32
  0
VERTEX
  5
17E61
  8
1
 62
     7
 10
199.35616628146559
 20
156.50632386330881
 30
0.0
 70
    32
  0
VERTEX
  5
17E62
  8
1
 62
     7
 10
199.36036628146539
 20
156.5073238633083
 30
0.0
 70
    32
  0
VERTEX
  5
17E63
  8
1
 62
     7
 10
199.36446628146589
 20
156.5083238633089
 30
0.0
 70
    32
  0
VERTEX
  5
17E64
  8
1
 62
     7
 10
199.36866628146589
 20
156.50932386330911
 30
0.0
 70
    32
  0
VERTEX
  5
17E65
  8
1
 62
     7
 10
199.37286628146569
 20
156.5103238633086
 30
0.0
 70
    32
  0
VERTEX
  5
17E66
  8
1
 62
     7
 10
199.3769662814654
 20
156.51232386330901
 30
0.0
 70
    32
  0
VERTEX
  5
17E67
  8
1
 62
     7
 10
199.38116628146611
 20
156.51332386330881
 30
0.0
 70
    32
  0
VERTEX
  5
17E68
  8
1
 62
     7
 10
199.38526628146579
 20
156.5143238633087
 30
0.0
 70
    32
  0
VERTEX
  5
17E69
  8
1
 62
     7
 10
199.38936628146541
 20
156.5163238633084
 30
0.0
 70
    32
  0
VERTEX
  5
17E6A
  8
1
 62
     7
 10
199.39346628146581
 20
156.517323863309
 30
0.0
 70
    32
  0
VERTEX
  5
17E6B
  8
1
 62
     7
 10
199.39766628146589
 20
156.51832386330881
 30
0.0
 70
    32
  0
VERTEX
  5
17E6C
  8
1
 62
     7
 10
199.40166628146579
 20
156.52032386330859
 30
0.0
 70
    32
  0
VERTEX
  5
17E6D
  8
1
 62
     7
 10
199.40576628146539
 20
156.52132386330879
 30
0.0
 70
    32
  0
VERTEX
  5
17E6E
  8
1
 62
     7
 10
199.4098662814655
 20
156.52332386330849
 30
0.0
 70
    32
  0
VERTEX
  5
17E6F
  8
1
 62
     7
 10
199.4139662814656
 20
156.52432386330869
 30
0.0
 70
    32
  0
VERTEX
  5
17E70
  8
1
 62
     7
 10
199.41796628146551
 20
156.5263238633091
 30
0.0
 70
    32
  0
VERTEX
  5
17E71
  8
1
 62
     7
 10
199.42206628146559
 20
156.5273238633086
 30
0.0
 70
    32
  0
VERTEX
  5
17E72
  8
1
 62
     7
 10
199.42606628146561
 20
156.52932386330869
 30
0.0
 70
    32
  0
VERTEX
  5
17E73
  8
1
 62
     7
 10
199.43006628146571
 20
156.53132386330881
 30
0.0
 70
    32
  0
VERTEX
  5
17E74
  8
1
 62
     7
 10
199.4340662814657
 20
156.53232386330899
 30
0.0
 70
    32
  0
VERTEX
  5
17E75
  8
1
 62
     7
 10
199.43806628146589
 20
156.53432386330871
 30
0.0
 70
    32
  0
VERTEX
  5
17E76
  8
1
 62
     7
 10
199.44206628146611
 20
156.53632386330881
 30
0.0
 70
    32
  0
VERTEX
  5
17E77
  8
1
 62
     7
 10
199.44606628146599
 20
156.53832386330879
 30
0.0
 70
    32
  0
VERTEX
  5
17E78
  8
1
 62
     7
 10
199.4499662814662
 20
156.53932386330899
 30
0.0
 70
    32
  0
VERTEX
  5
17E79
  8
1
 62
     7
 10
199.4539662814656
 20
156.5413238633088
 30
0.0
 70
    32
  0
VERTEX
  5
17E7A
  8
1
 62
     7
 10
199.45786628146581
 20
156.5433238633085
 30
0.0
 70
    32
  0
VERTEX
  5
17E7B
  8
1
 62
     7
 10
199.46186628146609
 20
156.54532386330891
 30
0.0
 70
    32
  0
VERTEX
  5
17E7C
  8
1
 62
     7
 10
199.46576628146579
 20
156.54732386330861
 30
0.0
 70
    32
  0
VERTEX
  5
17E7D
  8
1
 62
     7
 10
199.46966628146569
 20
156.54932386330901
 30
0.0
 70
    32
  0
VERTEX
  5
17E7E
  8
1
 62
     7
 10
199.47356628146619
 20
156.55132386330871
 30
0.0
 70
    32
  0
VERTEX
  5
17E7F
  8
1
 62
     7
 10
199.47746628146581
 20
156.55332386330849
 30
0.0
 70
    32
  0
VERTEX
  5
17E80
  8
1
 62
     7
 10
199.4813662814658
 20
156.5553238633089
 30
0.0
 70
    32
  0
VERTEX
  5
17E81
  8
1
 62
     7
 10
199.4852662814657
 20
156.5573238633086
 30
0.0
 70
    32
  0
VERTEX
  5
17E82
  8
1
 62
     7
 10
199.48906628146591
 20
156.55932386330869
 30
0.0
 70
    32
  0
VERTEX
  5
17E83
  8
1
 62
     7
 10
199.49296628146581
 20
156.5613238633087
 30
0.0
 70
    32
  0
VERTEX
  5
17E84
  8
1
 62
     7
 10
199.49676628146551
 20
156.56332386330851
 30
0.0
 70
    32
  0
VERTEX
  5
17E85
  8
1
 62
     7
 10
199.50056628146569
 20
156.56532386330849
 30
0.0
 70
    32
  0
VERTEX
  5
17E86
  8
1
 62
     7
 10
199.5044662814654
 20
156.5673238633089
 30
0.0
 70
    32
  0
VERTEX
  5
17E87
  8
1
 62
     7
 10
199.50826628146609
 20
156.56932386330871
 30
0.0
 70
    32
  0
VERTEX
  5
17E88
  8
1
 62
     7
 10
199.51206628146579
 20
156.57132386330869
 30
0.0
 70
    32
  0
VERTEX
  5
17E89
  8
1
 62
     7
 10
199.515766281466
 20
156.57332386330879
 30
0.0
 70
    32
  0
VERTEX
  5
17E8A
  8
1
 62
     7
 10
199.51956628146601
 20
156.57532386330891
 30
0.0
 70
    32
  0
VERTEX
  5
17E8B
  8
1
 62
     7
 10
199.52336628146551
 20
156.57832386330881
 30
0.0
 70
    32
  0
VERTEX
  5
17E8C
  8
1
 62
     7
 10
199.52706628146569
 20
156.58032386330851
 30
0.0
 70
    32
  0
VERTEX
  5
17E8D
  8
1
 62
     7
 10
199.53086628146559
 20
156.58232386330889
 30
0.0
 70
    32
  0
VERTEX
  5
17E8E
  8
1
 62
     7
 10
199.5345662814656
 20
156.58432386330861
 30
0.0
 70
    32
  0
VERTEX
  5
17E8F
  8
1
 62
     7
 10
199.53826628146581
 20
156.5873238633086
 30
0.0
 70
    32
  0
VERTEX
  5
17E90
  8
1
 62
     7
 10
199.54206628146579
 20
156.58932386330861
 30
0.0
 70
    32
  0
VERTEX
  5
17E91
  8
1
 62
     7
 10
199.5457662814658
 20
156.5913238633087
 30
0.0
 70
    32
  0
VERTEX
  5
17E92
  8
1
 62
     7
 10
199.54936628146581
 20
156.5933238633088
 30
0.0
 70
    32
  0
VERTEX
  5
17E93
  8
1
 62
     7
 10
199.5530662814655
 20
156.5963238633087
 30
0.0
 70
    32
  0
VERTEX
  5
17E94
  8
1
 62
     7
 10
199.5567662814656
 20
156.59832386330879
 30
0.0
 70
    32
  0
VERTEX
  5
17E95
  8
1
 62
     7
 10
199.56036628146569
 20
156.60032386330849
 30
0.0
 70
    32
  0
VERTEX
  5
17E96
  8
1
 62
     7
 10
199.5640662814659
 20
156.60332386330839
 30
0.0
 70
    32
  0
VERTEX
  5
17E97
  8
1
 62
     7
 10
199.5676662814659
 20
156.6053238633088
 30
0.0
 70
    32
  0
VERTEX
  5
17E98
  8
1
 62
     7
 10
199.57136628146571
 20
156.60832386330881
 30
0.0
 70
    32
  0
VERTEX
  5
17E99
  8
1
 62
     7
 10
199.57496628146589
 20
156.61032386330851
 30
0.0
 70
    32
  0
VERTEX
  5
17E9A
  8
1
 62
     7
 10
199.5785662814659
 20
156.61232386330889
 30
0.0
 70
    32
  0
VERTEX
  5
17E9B
  8
1
 62
     7
 10
199.58216628146559
 20
156.61532386330879
 30
0.0
 70
    32
  0
VERTEX
  5
17E9C
  8
1
 62
     7
 10
199.58566628146599
 20
156.61732386330851
 30
0.0
 70
    32
  0
VERTEX
  5
17E9D
  8
1
 62
     7
 10
199.589266281466
 20
156.6203238633085
 30
0.0
 70
    32
  0
VERTEX
  5
17E9E
  8
1
 62
     7
 10
199.59286628146569
 20
156.62232386330891
 30
0.0
 70
    32
  0
VERTEX
  5
17E9F
  8
1
 62
     7
 10
199.59636628146581
 20
156.62532386330881
 30
0.0
 70
    32
  0
VERTEX
  5
17EA0
  8
1
 62
     7
 10
199.59986628146561
 20
156.6273238633085
 30
0.0
 70
    32
  0
VERTEX
  5
17EA1
  8
1
 62
     7
 10
199.60336628146581
 20
156.63032386330849
 30
0.0
 70
    32
  0
VERTEX
  5
17EA2
  8
1
 62
     7
 10
199.60696628146579
 20
156.6333238633087
 30
0.0
 70
    32
  0
VERTEX
  5
17EA3
  8
1
 62
     7
 10
199.6103662814659
 20
156.6353238633088
 30
0.0
 70
    32
  0
VERTEX
  5
17EA4
  8
1
 62
     7
 10
199.6138662814659
 20
156.6383238633087
 30
0.0
 70
    32
  0
VERTEX
  5
17EA5
  8
1
 62
     7
 10
199.61736628146551
 20
156.64032386330911
 30
0.0
 70
    32
  0
VERTEX
  5
17EA6
  8
1
 62
     7
 10
199.62086628146579
 20
156.64332386330869
 30
0.0
 70
    32
  0
VERTEX
  5
17EA7
  8
1
 62
     7
 10
199.62426628146579
 20
156.64632386330871
 30
0.0
 70
    32
  0
VERTEX
  5
17EA8
  8
1
 62
     7
 10
199.6277662814656
 20
156.64832386330869
 30
0.0
 70
    32
  0
VERTEX
  5
17EA9
  8
1
 62
     7
 10
199.63116628146619
 20
156.6513238633087
 30
0.0
 70
    32
  0
VERTEX
  5
17EAA
  8
1
 62
     7
 10
199.6345662814654
 20
156.6543238633086
 30
0.0
 70
    32
  0
VERTEX
  5
17EAB
  8
1
 62
     7
 10
199.63796628146579
 20
156.65632386330859
 30
0.0
 70
    32
  0
VERTEX
  5
17EAC
  8
1
 62
     7
 10
199.64136628146591
 20
156.65932386330891
 30
0.0
 70
    32
  0
VERTEX
  5
17EAD
  8
1
 62
     7
 10
199.64476628146591
 20
156.66232386330881
 30
0.0
 70
    32
  0
VERTEX
  5
17EAE
  8
1
 62
     7
 10
199.6480662814655
 20
156.6653238633088
 30
0.0
 70
    32
  0
VERTEX
  5
17EAF
  8
1
 62
     7
 10
199.65146628146579
 20
156.66732386330881
 30
0.0
 70
    32
  0
VERTEX
  5
17EB0
  8
1
 62
     7
 10
199.6547662814657
 20
156.6703238633084
 30
0.0
 70
    32
  0
VERTEX
  5
17EB1
  8
1
 62
     7
 10
199.6581662814657
 20
156.6733238633087
 30
0.0
 70
    32
  0
VERTEX
  5
17EB2
  8
1
 62
     7
 10
199.66146628146581
 20
156.67632386330899
 30
0.0
 70
    32
  0
VERTEX
  5
17EB3
  8
1
 62
     7
 10
199.6647662814654
 20
156.67832386330869
 30
0.0
 70
    32
  0
VERTEX
  5
17EB4
  8
1
 62
     7
 10
199.6680662814658
 20
156.68132386330859
 30
0.0
 70
    32
  0
VERTEX
  5
17EB5
  8
1
 62
     7
 10
199.67136628146611
 20
156.68432386330849
 30
0.0
 70
    32
  0
VERTEX
  5
17EB6
  8
1
 62
     7
 10
199.67466628146539
 20
156.68732386330851
 30
0.0
 70
    32
  0
VERTEX
  5
17EB7
  8
1
 62
     7
 10
199.67796628146601
 20
156.69032386330881
 30
0.0
 70
    32
  0
VERTEX
  5
17EB8
  8
1
 62
     7
 10
199.68116628146609
 20
156.69332386330871
 30
0.0
 70
    32
  0
VERTEX
  5
17EB9
  8
1
 62
     7
 10
199.68446628146569
 20
156.69632386330861
 30
0.0
 70
    32
  0
VERTEX
  5
17EBA
  8
1
 62
     7
 10
199.6876662814654
 20
156.6993238633089
 30
0.0
 70
    32
  0
VERTEX
  5
17EBB
  8
1
 62
     7
 10
199.6908662814655
 20
156.70232386330881
 30
0.0
 70
    32
  0
VERTEX
  5
17EBC
  8
1
 62
     7
 10
199.69406628146601
 20
156.7043238633085
 30
0.0
 70
    32
  0
VERTEX
  5
17EBD
  8
1
 62
     7
 10
199.6972662814662
 20
156.707323863309
 30
0.0
 70
    32
  0
VERTEX
  5
17EBE
  8
1
 62
     7
 10
199.70046628146579
 20
156.7103238633087
 30
0.0
 70
    32
  0
VERTEX
  5
17EBF
  8
1
 62
     7
 10
199.7036662814659
 20
156.713323863309
 30
0.0
 70
    32
  0
VERTEX
  5
17EC0
  8
1
 62
     7
 10
199.70686628146581
 20
156.71632386330859
 30
0.0
 70
    32
  0
VERTEX
  5
17EC1
  8
1
 62
     7
 10
199.70996628146571
 20
156.71932386330849
 30
0.0
 70
    32
  0
VERTEX
  5
17EC2
  8
1
 62
     7
 10
199.7131662814659
 20
156.72232386330879
 30
0.0
 70
    32
  0
VERTEX
  5
17EC3
  8
1
 62
     7
 10
199.71626628146589
 20
156.72532386330869
 30
0.0
 70
    32
  0
VERTEX
  5
17EC4
  8
1
 62
     7
 10
199.7193662814658
 20
156.7283238633087
 30
0.0
 70
    32
  0
VERTEX
  5
17EC5
  8
1
 62
     7
 10
199.7225662814659
 20
156.7313238633086
 30
0.0
 70
    32
  0
VERTEX
  5
17EC6
  8
1
 62
     7
 10
199.72566628146609
 20
156.7343238633085
 30
0.0
 70
    32
  0
VERTEX
  5
17EC7
  8
1
 62
     7
 10
199.7287662814656
 20
156.7373238633088
 30
0.0
 70
    32
  0
VERTEX
  5
17EC8
  8
1
 62
     7
 10
199.7317662814655
 20
156.74032386330899
 30
0.0
 70
    32
  0
VERTEX
  5
17EC9
  8
1
 62
     7
 10
199.7348662814658
 20
156.74432386330889
 30
0.0
 70
    32
  0
VERTEX
  5
17ECA
  8
1
 62
     7
 10
199.7379662814659
 20
156.74732386330879
 30
0.0
 70
    32
  0
VERTEX
  5
17ECB
  8
1
 62
     7
 10
199.74096628146589
 20
156.75032386330869
 30
0.0
 70
    32
  0
VERTEX
  5
17ECC
  8
1
 62
     7
 10
199.74406628146579
 20
156.75332386330899
 30
0.0
 70
    32
  0
VERTEX
  5
17ECD
  8
1
 62
     7
 10
199.74706628146549
 20
156.75632386330889
 30
0.0
 70
    32
  0
VERTEX
  5
17ECE
  8
1
 62
     7
 10
199.7500662814661
 20
156.75932386330879
 30
0.0
 70
    32
  0
VERTEX
  5
17ECF
  8
1
 62
     7
 10
199.75306628146581
 20
156.76232386330869
 30
0.0
 70
    32
  0
VERTEX
  5
17ED0
  8
1
 62
     7
 10
199.75606628146551
 20
156.76532386330871
 30
0.0
 70
    32
  0
VERTEX
  5
17ED1
  8
1
 62
     7
 10
199.75906628146589
 20
156.76932386330881
 30
0.0
 70
    32
  0
VERTEX
  5
17ED2
  8
1
 62
     7
 10
199.76206628146579
 20
156.77232386330871
 30
0.0
 70
    32
  0
VERTEX
  5
17ED3
  8
1
 62
     7
 10
199.76506628146561
 20
156.7753238633087
 30
0.0
 70
    32
  0
VERTEX
  5
17ED4
  8
1
 62
     7
 10
199.76796628146539
 20
156.7783238633086
 30
0.0
 70
    32
  0
VERTEX
  5
17ED5
  8
1
 62
     7
 10
199.7709662814656
 20
156.7813238633085
 30
0.0
 70
    32
  0
VERTEX
  5
17ED6
  8
1
 62
     7
 10
199.77386628146601
 20
156.78432386330849
 30
0.0
 70
    32
  0
VERTEX
  5
17ED7
  8
1
 62
     7
 10
199.77686628146591
 20
156.78832386330859
 30
0.0
 70
    32
  0
VERTEX
  5
17ED8
  8
1
 62
     7
 10
199.7797662814661
 20
156.79132386330849
 30
0.0
 70
    32
  0
VERTEX
  5
17ED9
  8
1
 62
     7
 10
199.78266628146611
 20
156.79432386330839
 30
0.0
 70
    32
  0
VERTEX
  5
17EDA
  8
1
 62
     7
 10
199.7855662814658
 20
156.79732386330869
 30
0.0
 70
    32
  0
VERTEX
  5
17EDB
  8
1
 62
     7
 10
199.7884662814655
 20
156.80132386330851
 30
0.0
 70
    32
  0
VERTEX
  5
17EDC
  8
1
 62
     7
 10
199.79136628146551
 20
156.80432386330841
 30
0.0
 70
    32
  0
VERTEX
  5
17EDD
  8
1
 62
     7
 10
199.79416628146609
 20
156.80732386330911
 30
0.0
 70
    32
  0
VERTEX
  5
17EDE
  8
1
 62
     7
 10
199.79706628146559
 20
156.81032386330861
 30
0.0
 70
    32
  0
VERTEX
  5
17EDF
  8
1
 62
     7
 10
199.79986628146591
 20
156.8143238633088
 30
0.0
 70
    32
  0
VERTEX
  5
17EE0
  8
1
 62
     7
 10
199.80276628146581
 20
156.81732386330901
 30
0.0
 70
    32
  0
VERTEX
  5
17EE1
  8
1
 62
     7
 10
199.80556628146601
 20
156.8203238633086
 30
0.0
 70
    32
  0
VERTEX
  5
17EE2
  8
1
 62
     7
 10
199.80836628146579
 20
156.82432386330839
 30
0.0
 70
    32
  0
VERTEX
  5
17EE3
  8
1
 62
     7
 10
199.8111662814658
 20
156.82732386330869
 30
0.0
 70
    32
  0
VERTEX
  5
17EE4
  8
1
 62
     7
 10
199.8139662814657
 20
156.83032386330899
 30
0.0
 70
    32
  0
VERTEX
  5
17EE5
  8
1
 62
     7
 10
199.8167662814659
 20
156.83432386330909
 30
0.0
 70
    32
  0
VERTEX
  5
17EE6
  8
1
 62
     7
 10
199.81956628146591
 20
156.83732386330871
 30
0.0
 70
    32
  0
VERTEX
  5
17EE7
  8
1
 62
     7
 10
199.82236628146541
 20
156.84032386330901
 30
0.0
 70
    32
  0
VERTEX
  5
17EE8
  8
1
 62
     7
 10
199.8250662814655
 20
156.84432386330869
 30
0.0
 70
    32
  0
VERTEX
  5
17EE9
  8
1
 62
     7
 10
199.8278662814659
 20
156.8473238633087
 30
0.0
 70
    32
  0
VERTEX
  5
17EEA
  8
1
 62
     7
 10
199.83056628146591
 20
156.8503238633086
 30
0.0
 70
    32
  0
VERTEX
  5
17EEB
  8
1
 62
     7
 10
199.83336628146591
 20
156.85432386330871
 30
0.0
 70
    32
  0
VERTEX
  5
17EEC
  8
1
 62
     7
 10
199.83606628146589
 20
156.85732386330901
 30
0.0
 70
    32
  0
VERTEX
  5
17EED
  8
1
 62
     7
 10
199.83876628146589
 20
156.86132386330851
 30
0.0
 70
    32
  0
VERTEX
  5
17EEE
  8
1
 62
     7
 10
199.8414662814659
 20
156.8643238633087
 30
0.0
 70
    32
  0
VERTEX
  5
17EEF
  8
1
 62
     7
 10
199.8441662814657
 20
156.86732386330871
 30
0.0
 70
    32
  0
VERTEX
  5
17EF0
  8
1
 62
     7
 10
199.84686628146571
 20
156.87132386330879
 30
0.0
 70
    32
  0
VERTEX
  5
17EF1
  8
1
 62
     7
 10
199.8495662814656
 20
156.87432386330869
 30
0.0
 70
    32
  0
VERTEX
  5
17EF2
  8
1
 62
     7
 10
199.85216628146591
 20
156.87832386330851
 30
0.0
 70
    32
  0
VERTEX
  5
17EF3
  8
1
 62
     7
 10
199.85486628146589
 20
156.88132386330881
 30
0.0
 70
    32
  0
VERTEX
  5
17EF4
  8
1
 62
     7
 10
199.85756628146589
 20
156.8853238633086
 30
0.0
 70
    32
  0
VERTEX
  5
17EF5
  8
1
 62
     7
 10
199.8601662814655
 20
156.8883238633085
 30
0.0
 70
    32
  0
VERTEX
  5
17EF6
  8
1
 62
     7
 10
199.86276628146581
 20
156.8913238633084
 30
0.0
 70
    32
  0
VERTEX
  5
17EF7
  8
1
 62
     7
 10
199.86536628146601
 20
156.89532386330859
 30
0.0
 70
    32
  0
VERTEX
  5
17EF8
  8
1
 62
     7
 10
199.86806628146601
 20
156.89832386330849
 30
0.0
 70
    32
  0
VERTEX
  5
17EF9
  8
1
 62
     7
 10
199.87066628146579
 20
156.9023238633086
 30
0.0
 70
    32
  0
VERTEX
  5
17EFA
  8
1
 62
     7
 10
199.8732662814659
 20
156.9053238633085
 30
0.0
 70
    32
  0
VERTEX
  5
17EFB
  8
1
 62
     7
 10
199.8757662814659
 20
156.90932386330871
 30
0.0
 70
    32
  0
VERTEX
  5
17EFC
  8
1
 62
     7
 10
199.8783662814659
 20
156.91232386330859
 30
0.0
 70
    32
  0
VERTEX
  5
17EFD
  8
1
 62
     7
 10
199.88096628146559
 20
156.9163238633088
 30
0.0
 70
    32
  0
VERTEX
  5
17EFE
  8
1
 62
     7
 10
199.88346628146579
 20
156.9193238633087
 30
0.0
 70
    32
  0
VERTEX
  5
17EFF
  8
1
 62
     7
 10
199.88606628146579
 20
156.92332386330881
 30
0.0
 70
    32
  0
VERTEX
  5
17F00
  8
1
 62
     7
 10
199.88856628146559
 20
156.92632386330871
 30
0.0
 70
    32
  0
VERTEX
  5
17F01
  8
1
 62
     7
 10
199.8911662814655
 20
156.9303238633089
 30
0.0
 70
    32
  0
VERTEX
  5
17F02
  8
1
 62
     7
 10
199.89366628146561
 20
156.9333238633088
 30
0.0
 70
    32
  0
VERTEX
  5
17F03
  8
1
 62
     7
 10
199.89616628146561
 20
156.9373238633089
 30
0.0
 70
    32
  0
VERTEX
  5
17F04
  8
1
 62
     7
 10
199.89866628146581
 20
156.9413238633087
 30
0.0
 70
    32
  0
VERTEX
  5
17F05
  8
1
 62
     7
 10
199.90116628146589
 20
156.94432386330871
 30
0.0
 70
    32
  0
VERTEX
  5
17F06
  8
1
 62
     7
 10
199.90366628146569
 20
156.94832386330879
 30
0.0
 70
    32
  0
VERTEX
  5
17F07
  8
1
 62
     7
 10
199.9061662814658
 20
156.95132386330869
 30
0.0
 70
    32
  0
VERTEX
  5
17F08
  8
1
 62
     7
 10
199.90856628146611
 20
156.95532386330851
 30
0.0
 70
    32
  0
VERTEX
  5
17F09
  8
1
 62
     7
 10
199.91106628146571
 20
156.95832386330841
 30
0.0
 70
    32
  0
VERTEX
  5
17F0A
  8
1
 62
     7
 10
199.91346628146599
 20
156.9623238633086
 30
0.0
 70
    32
  0
VERTEX
  5
17F0B
  8
1
 62
     7
 10
199.91596628146559
 20
156.9663238633087
 30
0.0
 70
    32
  0
VERTEX
  5
17F0C
  8
1
 62
     7
 10
199.91836628146541
 20
156.9693238633086
 30
0.0
 70
    32
  0
VERTEX
  5
17F0D
  8
1
 62
     7
 10
199.920766281466
 20
156.97332386330879
 30
0.0
 70
    32
  0
VERTEX
  5
17F0E
  8
1
 62
     7
 10
199.9232662814658
 20
156.97632386330869
 30
0.0
 70
    32
  0
VERTEX
  5
17F0F
  8
1
 62
     7
 10
199.92566628146591
 20
156.9803238633088
 30
0.0
 70
    32
  0
VERTEX
  5
17F10
  8
1
 62
     7
 10
199.9280662814655
 20
156.98432386330899
 30
0.0
 70
    32
  0
VERTEX
  5
17F11
  8
1
 62
     7
 10
199.93046628146581
 20
156.9873238633086
 30
0.0
 70
    32
  0
VERTEX
  5
17F12
  8
1
 62
     7
 10
199.93286628146569
 20
156.99132386330871
 30
0.0
 70
    32
  0
VERTEX
  5
17F13
  8
1
 62
     7
 10
199.9351662814658
 20
156.9953238633085
 30
0.0
 70
    32
  0
VERTEX
  5
17F14
  8
1
 62
     7
 10
199.93756628146539
 20
156.99832386330871
 30
0.0
 70
    32
  0
VERTEX
  5
17F15
  8
1
 62
     7
 10
199.9399662814655
 20
157.0023238633085
 30
0.0
 70
    32
  0
VERTEX
  5
17F16
  8
1
 62
     7
 10
199.94226628146581
 20
157.00632386330869
 30
0.0
 70
    32
  0
VERTEX
  5
17F17
  8
1
 62
     7
 10
199.94466628146591
 20
157.00932386330859
 30
0.0
 70
    32
  0
VERTEX
  5
17F18
  8
1
 62
     7
 10
199.94696628146599
 20
157.0133238633087
 30
0.0
 70
    32
  0
VERTEX
  5
17F19
  8
1
 62
     7
 10
199.9492662814659
 20
157.01732386330889
 30
0.0
 70
    32
  0
VERTEX
  5
17F1A
  8
1
 62
     7
 10
199.95156628146549
 20
157.02032386330879
 30
0.0
 70
    32
  0
VERTEX
  5
17F1B
  8
1
 62
     7
 10
199.95386628146591
 20
157.02432386330889
 30
0.0
 70
    32
  0
VERTEX
  5
17F1C
  8
1
 62
     7
 10
199.95626628146621
 20
157.02832386330871
 30
0.0
 70
    32
  0
VERTEX
  5
17F1D
  8
1
 62
     7
 10
199.95846628146609
 20
157.03132386330901
 30
0.0
 70
    32
  0
VERTEX
  5
17F1E
  8
1
 62
     7
 10
199.96076628146599
 20
157.03532386330909
 30
0.0
 70
    32
  0
VERTEX
  5
17F1F
  8
1
 62
     7
 10
199.96306628146581
 20
157.0393238633086
 30
0.0
 70
    32
  0
VERTEX
  5
17F20
  8
1
 62
     7
 10
199.96536628146589
 20
157.0423238633085
 30
0.0
 70
    32
  0
VERTEX
  5
17F21
  8
1
 62
     7
 10
199.9676662814656
 20
157.0463238633086
 30
0.0
 70
    32
  0
VERTEX
  5
17F22
  8
1
 62
     7
 10
199.9698662814659
 20
157.05032386330879
 30
0.0
 70
    32
  0
VERTEX
  5
17F23
  8
1
 62
     7
 10
199.9721662814658
 20
157.05432386330889
 30
0.0
 70
    32
  0
VERTEX
  5
17F24
  8
1
 62
     7
 10
199.9743662814659
 20
157.0573238633088
 30
0.0
 70
    32
  0
VERTEX
  5
17F25
  8
1
 62
     7
 10
199.97656628146581
 20
157.06132386330901
 30
0.0
 70
    32
  0
VERTEX
  5
17F26
  8
1
 62
     7
 10
199.97886628146591
 20
157.06532386330841
 30
0.0
 70
    32
  0
VERTEX
  5
17F27
  8
1
 62
     7
 10
199.9810662814659
 20
157.06832386330899
 30
0.0
 70
    32
  0
VERTEX
  5
17F28
  8
1
 62
     7
 10
199.9832662814658
 20
157.0723238633085
 30
0.0
 70
    32
  0
VERTEX
  5
17F29
  8
1
 62
     7
 10
199.9854662814661
 20
157.0763238633086
 30
0.0
 70
    32
  0
VERTEX
  5
17F2A
  8
1
 62
     7
 10
199.98766628146601
 20
157.08032386330871
 30
0.0
 70
    32
  0
VERTEX
  5
17F2B
  8
1
 62
     7
 10
199.98986628146551
 20
157.08332386330869
 30
0.0
 70
    32
  0
VERTEX
  5
17F2C
  8
1
 62
     7
 10
199.99196628146561
 20
157.0873238633088
 30
0.0
 70
    32
  0
VERTEX
  5
17F2D
  8
1
 62
     7
 10
199.99416628146599
 20
157.0913238633089
 30
0.0
 70
    32
  0
VERTEX
  5
17F2E
  8
1
 62
     7
 10
199.9963662814659
 20
157.09532386330869
 30
0.0
 70
    32
  0
VERTEX
  5
17F2F
  8
1
 62
     7
 10
199.99846628146599
 20
157.09932386330851
 30
0.0
 70
    32
  0
VERTEX
  5
17F30
  8
1
 62
     7
 10
200.0006662814655
 20
157.10232386330881
 30
0.0
 70
    32
  0
VERTEX
  5
17F31
  8
1
 62
     7
 10
200.00276628146571
 20
157.1063238633086
 30
0.0
 70
    32
  0
VERTEX
  5
17F32
  8
1
 62
     7
 10
200.00496628146561
 20
157.11032386330871
 30
0.0
 70
    32
  0
VERTEX
  5
17F33
  8
1
 62
     7
 10
200.00706628146571
 20
157.1143238633089
 30
0.0
 70
    32
  0
VERTEX
  5
17F34
  8
1
 62
     7
 10
200.00916628146561
 20
157.1173238633088
 30
0.0
 70
    32
  0
VERTEX
  5
17F35
  8
1
 62
     7
 10
200.01126628146599
 20
157.12132386330859
 30
0.0
 70
    32
  0
VERTEX
  5
17F36
  8
1
 62
     7
 10
200.0133662814662
 20
157.12532386330869
 30
0.0
 70
    32
  0
VERTEX
  5
17F37
  8
1
 62
     7
 10
200.0154662814659
 20
157.12932386330851
 30
0.0
 70
    32
  0
VERTEX
  5
17F38
  8
1
 62
     7
 10
200.017566281466
 20
157.13332386330859
 30
0.0
 70
    32
  0
VERTEX
  5
17F39
  8
1
 62
     7
 10
200.01966628146619
 20
157.13732386330881
 30
0.0
 70
    32
  0
VERTEX
  5
17F3A
  8
1
 62
     7
 10
200.02176628146589
 20
157.14032386330871
 30
0.0
 70
    32
  0
VERTEX
  5
17F3B
  8
1
 62
     7
 10
200.02376628146581
 20
157.14432386330881
 30
0.0
 70
    32
  0
VERTEX
  5
17F3C
  8
1
 62
     7
 10
200.0258662814658
 20
157.1483238633086
 30
0.0
 70
    32
  0
VERTEX
  5
17F3D
  8
1
 62
     7
 10
200.02796628146589
 20
157.15232386330911
 30
0.0
 70
    32
  0
VERTEX
  5
17F3E
  8
1
 62
     7
 10
200.0299662814661
 20
157.1563238633085
 30
0.0
 70
    32
  0
VERTEX
  5
17F3F
  8
1
 62
     7
 10
200.0320662814658
 20
157.15932386330849
 30
0.0
 70
    32
  0
VERTEX
  5
17F40
  8
1
 62
     7
 10
200.0340662814657
 20
157.16332386330859
 30
0.0
 70
    32
  0
VERTEX
  5
17F41
  8
1
 62
     7
 10
200.03606628146591
 20
157.1673238633087
 30
0.0
 70
    32
  0
VERTEX
  5
17F42
  8
1
 62
     7
 10
200.03806628146569
 20
157.17132386330891
 30
0.0
 70
    32
  0
VERTEX
  5
17F43
  8
1
 62
     7
 10
200.04006628146561
 20
157.17532386330859
 30
0.0
 70
    32
  0
VERTEX
  5
17F44
  8
1
 62
     7
 10
200.04206628146559
 20
157.17932386330881
 30
0.0
 70
    32
  0
VERTEX
  5
17F45
  8
1
 62
     7
 10
200.044066281466
 20
157.1833238633086
 30
0.0
 70
    32
  0
VERTEX
  5
17F46
  8
1
 62
     7
 10
200.0460662814655
 20
157.1863238633085
 30
0.0
 70
    32
  0
VERTEX
  5
17F47
  8
1
 62
     7
 10
200.04806628146591
 20
157.19032386330861
 30
0.0
 70
    32
  0
VERTEX
  5
17F48
  8
1
 62
     7
 10
200.05006628146609
 20
157.1943238633088
 30
0.0
 70
    32
  0
VERTEX
  5
17F49
  8
1
 62
     7
 10
200.05206628146581
 20
157.1983238633089
 30
0.0
 70
    32
  0
VERTEX
  5
17F4A
  8
1
 62
     7
 10
200.05396628146579
 20
157.20232386330869
 30
0.0
 70
    32
  0
VERTEX
  5
17F4B
  8
1
 62
     7
 10
200.055966281466
 20
157.20632386330851
 30
0.0
 70
    32
  0
VERTEX
  5
17F4C
  8
1
 62
     7
 10
200.05786628146569
 20
157.21032386330859
 30
0.0
 70
    32
  0
VERTEX
  5
17F4D
  8
1
 62
     7
 10
200.0598662814659
 20
157.21432386330881
 30
0.0
 70
    32
  0
VERTEX
  5
17F4E
  8
1
 62
     7
 10
200.0617662814654
 20
157.21832386330891
 30
0.0
 70
    32
  0
VERTEX
  5
17F4F
  8
1
 62
     7
 10
200.0636662814658
 20
157.22132386330881
 30
0.0
 70
    32
  0
VERTEX
  5
17F50
  8
1
 62
     7
 10
200.06566628146601
 20
157.2253238633086
 30
0.0
 70
    32
  0
VERTEX
  5
17F51
  8
1
 62
     7
 10
200.06756628146579
 20
157.22932386330911
 30
0.0
 70
    32
  0
VERTEX
  5
17F52
  8
1
 62
     7
 10
200.06946628146551
 20
157.2333238633085
 30
0.0
 70
    32
  0
VERTEX
  5
17F53
  8
1
 62
     7
 10
200.0713662814662
 20
157.23732386330869
 30
0.0
 70
    32
  0
VERTEX
  5
17F54
  8
1
 62
     7
 10
200.07326628146589
 20
157.24132386330879
 30
0.0
 70
    32
  0
VERTEX
  5
17F55
  8
1
 62
     7
 10
200.0751662814661
 20
157.24532386330861
 30
0.0
 70
    32
  0
VERTEX
  5
17F56
  8
1
 62
     7
 10
200.0769662814661
 20
157.24932386330869
 30
0.0
 70
    32
  0
VERTEX
  5
17F57
  8
1
 62
     7
 10
200.07886628146559
 20
157.25332386330851
 30
0.0
 70
    32
  0
VERTEX
  5
17F58
  8
1
 62
     7
 10
200.0807662814656
 20
157.2573238633087
 30
0.0
 70
    32
  0
VERTEX
  5
17F59
  8
1
 62
     7
 10
200.08256628146589
 20
157.2613238633088
 30
0.0
 70
    32
  0
VERTEX
  5
17F5A
  8
1
 62
     7
 10
200.08446628146589
 20
157.2643238633087
 30
0.0
 70
    32
  0
VERTEX
  5
17F5B
  8
1
 62
     7
 10
200.0862662814661
 20
157.26832386330881
 30
0.0
 70
    32
  0
VERTEX
  5
17F5C
  8
1
 62
     7
 10
200.0881662814661
 20
157.2723238633086
 30
0.0
 70
    32
  0
VERTEX
  5
17F5D
  8
1
 62
     7
 10
200.08996628146599
 20
157.27632386330839
 30
0.0
 70
    32
  0
VERTEX
  5
17F5E
  8
1
 62
     7
 10
200.09176628146579
 20
157.28032386330861
 30
0.0
 70
    32
  0
VERTEX
  5
17F5F
  8
1
 62
     7
 10
200.0936662814658
 20
157.28432386330871
 30
0.0
 70
    32
  0
VERTEX
  5
17F60
  8
1
 62
     7
 10
200.0954662814658
 20
157.28832386330879
 30
0.0
 70
    32
  0
VERTEX
  5
17F61
  8
1
 62
     7
 10
200.09726628146629
 20
157.29232386330901
 30
0.0
 70
    32
  0
VERTEX
  5
17F62
  8
1
 62
     7
 10
200.09906628146581
 20
157.2963238633088
 30
0.0
 70
    32
  0
VERTEX
  5
17F63
  8
1
 62
     7
 10
200.10086628146581
 20
157.30032386330851
 30
0.0
 70
    32
  0
VERTEX
  5
17F64
  8
1
 62
     7
 10
200.10266628146579
 20
157.3043238633087
 30
0.0
 70
    32
  0
VERTEX
  5
17F65
  8
1
 62
     7
 10
200.10436628146559
 20
157.3083238633088
 30
0.0
 70
    32
  0
VERTEX
  5
17F66
  8
1
 62
     7
 10
200.1061662814661
 20
157.31232386330859
 30
0.0
 70
    32
  0
VERTEX
  5
17F67
  8
1
 62
     7
 10
200.10796628146579
 20
157.3163238633087
 30
0.0
 70
    32
  0
VERTEX
  5
17F68
  8
1
 62
     7
 10
200.10976628146611
 20
157.32032386330849
 30
0.0
 70
    32
  0
VERTEX
  5
17F69
  8
1
 62
     7
 10
200.11146628146591
 20
157.32432386330871
 30
0.0
 70
    32
  0
VERTEX
  5
17F6A
  8
1
 62
     7
 10
200.11326628146591
 20
157.32832386330881
 30
0.0
 70
    32
  0
VERTEX
  5
17F6B
  8
1
 62
     7
 10
200.11496628146571
 20
157.33232386330889
 30
0.0
 70
    32
  0
VERTEX
  5
17F6C
  8
1
 62
     7
 10
200.116666281466
 20
157.33632386330899
 30
0.0
 70
    32
  0
VERTEX
  5
17F6D
  8
1
 62
     7
 10
200.11846628146591
 20
157.3403238633085
 30
0.0
 70
    32
  0
VERTEX
  5
17F6E
  8
1
 62
     7
 10
200.1201662814662
 20
157.3443238633086
 30
0.0
 70
    32
  0
VERTEX
  5
17F6F
  8
1
 62
     7
 10
200.12186628146549
 20
157.34832386330879
 30
0.0
 70
    32
  0
VERTEX
  5
17F70
  8
1
 62
     7
 10
200.1235662814658
 20
157.3523238633089
 30
0.0
 70
    32
  0
VERTEX
  5
17F71
  8
1
 62
     7
 10
200.1252662814656
 20
157.35632386330869
 30
0.0
 70
    32
  0
VERTEX
  5
17F72
  8
1
 62
     7
 10
200.1269662814658
 20
157.36032386330851
 30
0.0
 70
    32
  0
VERTEX
  5
17F73
  8
1
 62
     7
 10
200.1286662814656
 20
157.36432386330861
 30
0.0
 70
    32
  0
VERTEX
  5
17F74
  8
1
 62
     7
 10
200.13036628146551
 20
157.36832386330869
 30
0.0
 70
    32
  0
VERTEX
  5
17F75
  8
1
 62
     7
 10
200.13206628146571
 20
157.37232386330891
 30
0.0
 70
    32
  0
VERTEX
  5
17F76
  8
1
 62
     7
 10
200.13376628146591
 20
157.3763238633087
 30
0.0
 70
    32
  0
VERTEX
  5
17F77
  8
1
 62
     7
 10
200.13546628146599
 20
157.38032386330849
 30
0.0
 70
    32
  0
VERTEX
  5
17F78
  8
1
 62
     7
 10
200.13706628146579
 20
157.38432386330859
 30
0.0
 70
    32
  0
VERTEX
  5
17F79
  8
1
 62
     7
 10
200.13876628146579
 20
157.3883238633087
 30
0.0
 70
    32
  0
VERTEX
  5
17F7A
  8
1
 62
     7
 10
200.1403662814659
 20
157.39232386330889
 30
0.0
 70
    32
  0
VERTEX
  5
17F7B
  8
1
 62
     7
 10
200.1420662814655
 20
157.39632386330871
 30
0.0
 70
    32
  0
VERTEX
  5
17F7C
  8
1
 62
     7
 10
200.14366628146601
 20
157.40032386330839
 30
0.0
 70
    32
  0
VERTEX
  5
17F7D
  8
1
 62
     7
 10
200.14536628146581
 20
157.4043238633086
 30
0.0
 70
    32
  0
VERTEX
  5
17F7E
  8
1
 62
     7
 10
200.14696628146561
 20
157.40832386330871
 30
0.0
 70
    32
  0
VERTEX
  5
17F7F
  8
1
 62
     7
 10
200.14856628146589
 20
157.4123238633089
 30
0.0
 70
    32
  0
VERTEX
  5
17F80
  8
1
 62
     7
 10
200.15016628146549
 20
157.416323863309
 30
0.0
 70
    32
  0
VERTEX
  5
17F81
  8
1
 62
     7
 10
200.15186628146569
 20
157.4203238633084
 30
0.0
 70
    32
  0
VERTEX
  5
17F82
  8
1
 62
     7
 10
200.1534662814658
 20
157.4243238633085
 30
0.0
 70
    32
  0
VERTEX
  5
17F83
  8
1
 62
     7
 10
200.15506628146539
 20
157.42832386330869
 30
0.0
 70
    32
  0
VERTEX
  5
17F84
  8
1
 62
     7
 10
200.1566662814659
 20
157.4323238633088
 30
0.0
 70
    32
  0
VERTEX
  5
17F85
  8
1
 62
     7
 10
200.15816628146581
 20
157.43632386330859
 30
0.0
 70
    32
  0
VERTEX
  5
17F86
  8
1
 62
     7
 10
200.15976628146601
 20
157.44032386330841
 30
0.0
 70
    32
  0
VERTEX
  5
17F87
  8
1
 62
     7
 10
200.16136628146589
 20
157.4443238633086
 30
0.0
 70
    32
  0
VERTEX
  5
17F88
  8
1
 62
     7
 10
200.16296628146591
 20
157.4483238633087
 30
0.0
 70
    32
  0
VERTEX
  5
17F89
  8
1
 62
     7
 10
200.16446628146579
 20
157.45232386330881
 30
0.0
 70
    32
  0
VERTEX
  5
17F8A
  8
1
 62
     7
 10
200.16606628146579
 20
157.45632386330891
 30
0.0
 70
    32
  0
VERTEX
  5
17F8B
  8
1
 62
     7
 10
200.16766628146539
 20
157.46132386330859
 30
0.0
 70
    32
  0
VERTEX
  5
17F8C
  8
1
 62
     7
 10
200.1691662814662
 20
157.4653238633087
 30
0.0
 70
    32
  0
VERTEX
  5
17F8D
  8
1
 62
     7
 10
200.170666281466
 20
157.46932386330889
 30
0.0
 70
    32
  0
VERTEX
  5
17F8E
  8
1
 62
     7
 10
200.17226628146591
 20
157.47332386330859
 30
0.0
 70
    32
  0
VERTEX
  5
17F8F
  8
1
 62
     7
 10
200.1737662814659
 20
157.4773238633091
 30
0.0
 70
    32
  0
VERTEX
  5
17F90
  8
1
 62
     7
 10
200.1752662814653
 20
157.4813238633086
 30
0.0
 70
    32
  0
VERTEX
  5
17F91
  8
1
 62
     7
 10
200.17686628146581
 20
157.48532386330871
 30
0.0
 70
    32
  0
VERTEX
  5
17F92
  8
1
 62
     7
 10
200.17836628146571
 20
157.48932386330881
 30
0.0
 70
    32
  0
VERTEX
  5
17F93
  8
1
 62
     7
 10
200.17986628146579
 20
157.493323863309
 30
0.0
 70
    32
  0
VERTEX
  5
17F94
  8
1
 62
     7
 10
200.1813662814659
 20
157.49732386330911
 30
0.0
 70
    32
  0
VERTEX
  5
17F95
  8
1
 62
     7
 10
200.18286628146609
 20
157.50132386330861
 30
0.0
 70
    32
  0
VERTEX
  5
17F96
  8
1
 62
     7
 10
200.1843662814656
 20
157.50532386330869
 30
0.0
 70
    32
  0
VERTEX
  5
17F97
  8
1
 62
     7
 10
200.18586628146591
 20
157.50932386330879
 30
0.0
 70
    32
  0
VERTEX
  5
17F98
  8
1
 62
     7
 10
200.18726628146601
 20
157.51332386330901
 30
0.0
 70
    32
  0
VERTEX
  5
17F99
  8
1
 62
     7
 10
200.1887662814658
 20
157.51832386330861
 30
0.0
 70
    32
  0
VERTEX
  5
17F9A
  8
1
 62
     7
 10
200.19026628146611
 20
157.52232386330871
 30
0.0
 70
    32
  0
VERTEX
  5
17F9B
  8
1
 62
     7
 10
200.1917662814657
 20
157.5263238633089
 30
0.0
 70
    32
  0
VERTEX
  5
17F9C
  8
1
 62
     7
 10
200.19316628146609
 20
157.53032386330869
 30
0.0
 70
    32
  0
VERTEX
  5
17F9D
  8
1
 62
     7
 10
200.1946662814654
 20
157.53432386330849
 30
0.0
 70
    32
  0
VERTEX
  5
17F9E
  8
1
 62
     7
 10
200.19606628146559
 20
157.53832386330859
 30
0.0
 70
    32
  0
VERTEX
  5
17F9F
  8
1
 62
     7
 10
200.19756628146581
 20
157.5423238633087
 30
0.0
 70
    32
  0
VERTEX
  5
17FA0
  8
1
 62
     7
 10
200.198966281466
 20
157.54632386330891
 30
0.0
 70
    32
  0
VERTEX
  5
17FA1
  8
1
 62
     7
 10
200.2003662814661
 20
157.55032386330859
 30
0.0
 70
    32
  0
VERTEX
  5
17FA2
  8
1
 62
     7
 10
200.20176628146621
 20
157.55432386330841
 30
0.0
 70
    32
  0
VERTEX
  5
17FA3
  8
1
 62
     7
 10
200.2032662814656
 20
157.5593238633088
 30
0.0
 70
    32
  0
VERTEX
  5
17FA4
  8
1
 62
     7
 10
200.2046662814659
 20
157.56332386330891
 30
0.0
 70
    32
  0
VERTEX
  5
17FA5
  8
1
 62
     7
 10
200.20606628146581
 20
157.56732386330901
 30
0.0
 70
    32
  0
VERTEX
  5
17FA6
  8
1
 62
     7
 10
200.20746628146591
 20
157.57132386330849
 30
0.0
 70
    32
  0
VERTEX
  5
17FA7
  8
1
 62
     7
 10
200.20886628146599
 20
157.5753238633086
 30
0.0
 70
    32
  0
VERTEX
  5
17FA8
  8
1
 62
     7
 10
200.21026628146609
 20
157.57932386330879
 30
0.0
 70
    32
  0
VERTEX
  5
17FA9
  8
1
 62
     7
 10
200.21166628146599
 20
157.58332386330849
 30
0.0
 70
    32
  0
VERTEX
  5
17FAA
  8
1
 62
     7
 10
200.21306628146539
 20
157.58732386330871
 30
0.0
 70
    32
  0
VERTEX
  5
17FAB
  8
1
 62
     7
 10
200.214366281466
 20
157.5913238633085
 30
0.0
 70
    32
  0
VERTEX
  5
17FAC
  8
1
 62
     7
 10
200.21576628146539
 20
157.59632386330881
 30
0.0
 70
    32
  0
VERTEX
  5
17FAD
  8
1
 62
     7
 10
200.21716628146569
 20
157.600323863309
 30
0.0
 70
    32
  0
VERTEX
  5
17FAE
  8
1
 62
     7
 10
200.21846628146579
 20
157.60432386330871
 30
0.0
 70
    32
  0
VERTEX
  5
17FAF
  8
1
 62
     7
 10
200.2198662814657
 20
157.6083238633085
 30
0.0
 70
    32
  0
VERTEX
  5
17FB0
  8
1
 62
     7
 10
200.22116628146591
 20
157.61232386330869
 30
0.0
 70
    32
  0
VERTEX
  5
17FB1
  8
1
 62
     7
 10
200.2225662814657
 20
157.61632386330879
 30
0.0
 70
    32
  0
VERTEX
  5
17FB2
  8
1
 62
     7
 10
200.2238662814658
 20
157.6203238633089
 30
0.0
 70
    32
  0
VERTEX
  5
17FB3
  8
1
 62
     7
 10
200.22516628146599
 20
157.62532386330861
 30
0.0
 70
    32
  0
VERTEX
  5
17FB4
  8
1
 62
     7
 10
200.22656628146589
 20
157.62932386330871
 30
0.0
 70
    32
  0
VERTEX
  5
17FB5
  8
1
 62
     7
 10
200.22786628146599
 20
157.6333238633089
 30
0.0
 70
    32
  0
VERTEX
  5
17FB6
  8
1
 62
     7
 10
200.22916628146609
 20
157.63732386330901
 30
0.0
 70
    32
  0
VERTEX
  5
17FB7
  8
1
 62
     7
 10
200.23046628146599
 20
157.6413238633088
 30
0.0
 70
    32
  0
VERTEX
  5
17FB8
  8
1
 62
     7
 10
200.2317662814657
 20
157.64532386330859
 30
0.0
 70
    32
  0
VERTEX
  5
17FB9
  8
1
 62
     7
 10
200.2330662814658
 20
157.64932386330869
 30
0.0
 70
    32
  0
VERTEX
  5
17FBA
  8
1
 62
     7
 10
200.2343662814659
 20
157.654323863309
 30
0.0
 70
    32
  0
VERTEX
  5
17FBB
  8
1
 62
     7
 10
200.2356662814654
 20
157.65832386330851
 30
0.0
 70
    32
  0
VERTEX
  5
17FBC
  8
1
 62
     7
 10
200.23696628146601
 20
157.66232386330859
 30
0.0
 70
    32
  0
VERTEX
  5
17FBD
  8
1
 62
     7
 10
200.23826628146591
 20
157.6663238633088
 30
0.0
 70
    32
  0
VERTEX
  5
17FBE
  8
1
 62
     7
 10
200.23956628146581
 20
157.67032386330891
 30
0.0
 70
    32
  0
VERTEX
  5
17FBF
  8
1
 62
     7
 10
200.24076628146551
 20
157.6743238633087
 30
0.0
 70
    32
  0
VERTEX
  5
17FC0
  8
1
 62
     7
 10
200.2420662814659
 20
157.67832386330849
 30
0.0
 70
    32
  0
VERTEX
  5
17FC1
  8
1
 62
     7
 10
200.24336628146619
 20
157.6833238633088
 30
0.0
 70
    32
  0
VERTEX
  5
17FC2
  8
1
 62
     7
 10
200.24456628146589
 20
157.6873238633089
 30
0.0
 70
    32
  0
VERTEX
  5
17FC3
  8
1
 62
     7
 10
200.24586628146579
 20
157.69132386330909
 30
0.0
 70
    32
  0
VERTEX
  5
17FC4
  8
1
 62
     7
 10
200.24706628146589
 20
157.69532386330889
 30
0.0
 70
    32
  0
VERTEX
  5
17FC5
  8
1
 62
     7
 10
200.2483662814661
 20
157.69932386330859
 30
0.0
 70
    32
  0
VERTEX
  5
17FC6
  8
1
 62
     7
 10
200.2495662814658
 20
157.70332386330881
 30
0.0
 70
    32
  0
VERTEX
  5
17FC7
  8
1
 62
     7
 10
200.2507662814657
 20
157.70832386330841
 30
0.0
 70
    32
  0
VERTEX
  5
17FC8
  8
1
 62
     7
 10
200.25206628146611
 20
157.7123238633086
 30
0.0
 70
    32
  0
VERTEX
  5
17FC9
  8
1
 62
     7
 10
200.25326628146581
 20
157.7163238633087
 30
0.0
 70
    32
  0
VERTEX
  5
17FCA
  8
1
 62
     7
 10
200.25446628146591
 20
157.72032386330889
 30
0.0
 70
    32
  0
VERTEX
  5
17FCB
  8
1
 62
     7
 10
200.25566628146561
 20
157.7243238633086
 30
0.0
 70
    32
  0
VERTEX
  5
17FCC
  8
1
 62
     7
 10
200.25686628146531
 20
157.72832386330879
 30
0.0
 70
    32
  0
VERTEX
  5
17FCD
  8
1
 62
     7
 10
200.25806628146589
 20
157.73332386330881
 30
0.0
 70
    32
  0
VERTEX
  5
17FCE
  8
1
 62
     7
 10
200.2592662814659
 20
157.73732386330889
 30
0.0
 70
    32
  0
VERTEX
  5
17FCF
  8
1
 62
     7
 10
200.26046628146551
 20
157.74132386330871
 30
0.0
 70
    32
  0
VERTEX
  5
17FD0
  8
1
 62
     7
 10
200.26166628146589
 20
157.7453238633085
 30
0.0
 70
    32
  0
VERTEX
  5
17FD1
  8
1
 62
     7
 10
200.2628662814661
 20
157.74932386330889
 30
0.0
 70
    32
  0
VERTEX
  5
17FD2
  8
1
 62
     7
 10
200.2640662814658
 20
157.75432386330891
 30
0.0
 70
    32
  0
VERTEX
  5
17FD3
  8
1
 62
     7
 10
200.26516628146621
 20
157.7583238633087
 30
0.0
 70
    32
  0
VERTEX
  5
17FD4
  8
1
 62
     7
 10
200.26636628146591
 20
157.7623238633085
 30
0.0
 70
    32
  0
VERTEX
  5
17FD5
  8
1
 62
     7
 10
200.267566281466
 20
157.76632386330871
 30
0.0
 70
    32
  0
VERTEX
  5
17FD6
  8
1
 62
     7
 10
200.26866628146601
 20
157.77032386330879
 30
0.0
 70
    32
  0
VERTEX
  5
17FD7
  8
1
 62
     7
 10
200.26986628146611
 20
157.77432386330889
 30
0.0
 70
    32
  0
VERTEX
  5
17FD8
  8
1
 62
     7
 10
200.27096628146609
 20
157.7793238633086
 30
0.0
 70
    32
  0
VERTEX
  5
17FD9
  8
1
 62
     7
 10
200.27216628146579
 20
157.78332386330871
 30
0.0
 70
    32
  0
VERTEX
  5
17FDA
  8
1
 62
     7
 10
200.27326628146599
 20
157.78732386330881
 30
0.0
 70
    32
  0
VERTEX
  5
17FDB
  8
1
 62
     7
 10
200.27446628146569
 20
157.791323863309
 30
0.0
 70
    32
  0
VERTEX
  5
17FDC
  8
1
 62
     7
 10
200.27556628146581
 20
157.79532386330879
 30
0.0
 70
    32
  0
VERTEX
  5
17FDD
  8
1
 62
     7
 10
200.27666628146559
 20
157.80032386330879
 30
0.0
 70
    32
  0
VERTEX
  5
17FDE
  8
1
 62
     7
 10
200.27776628146569
 20
157.80432386330889
 30
0.0
 70
    32
  0
VERTEX
  5
17FDF
  8
1
 62
     7
 10
200.2789662814659
 20
157.808323863309
 30
0.0
 70
    32
  0
VERTEX
  5
17FE0
  8
1
 62
     7
 10
200.28006628146579
 20
157.81232386330851
 30
0.0
 70
    32
  0
VERTEX
  5
17FE1
  8
1
 62
     7
 10
200.2811662814658
 20
157.81632386330861
 30
0.0
 70
    32
  0
VERTEX
  5
17FE2
  8
1
 62
     7
 10
200.2822662814657
 20
157.821323863309
 30
0.0
 70
    32
  0
VERTEX
  5
17FE3
  8
1
 62
     7
 10
200.2833662814657
 20
157.82532386330871
 30
0.0
 70
    32
  0
VERTEX
  5
17FE4
  8
1
 62
     7
 10
200.28446628146611
 20
157.8293238633085
 30
0.0
 70
    32
  0
VERTEX
  5
17FE5
  8
1
 62
     7
 10
200.28556628146609
 20
157.83332386330869
 30
0.0
 70
    32
  0
VERTEX
  5
17FE6
  8
1
 62
     7
 10
200.28656628146541
 20
157.83832386330869
 30
0.0
 70
    32
  0
VERTEX
  5
17FE7
  8
1
 62
     7
 10
200.2876662814657
 20
157.84232386330839
 30
0.0
 70
    32
  0
VERTEX
  5
17FE8
  8
1
 62
     7
 10
200.28876628146571
 20
157.84632386330861
 30
0.0
 70
    32
  0
VERTEX
  5
17FE9
  8
1
 62
     7
 10
200.28986628146609
 20
157.85032386330869
 30
0.0
 70
    32
  0
VERTEX
  5
17FEA
  8
1
 62
     7
 10
200.29086628146629
 20
157.85432386330891
 30
0.0
 70
    32
  0
VERTEX
  5
17FEB
  8
1
 62
     7
 10
200.29196628146539
 20
157.8593238633085
 30
0.0
 70
    32
  0
VERTEX
  5
17FEC
  8
1
 62
     7
 10
200.2929662814656
 20
157.86332386330861
 30
0.0
 70
    32
  0
VERTEX
  5
17FED
  8
1
 62
     7
 10
200.294066281466
 20
157.8673238633088
 30
0.0
 70
    32
  0
VERTEX
  5
17FEE
  8
1
 62
     7
 10
200.29506628146569
 20
157.8713238633089
 30
0.0
 70
    32
  0
VERTEX
  5
17FEF
  8
1
 62
     7
 10
200.2961662814661
 20
157.87532386330901
 30
0.0
 70
    32
  0
VERTEX
  5
17FF0
  8
1
 62
     7
 10
200.29716628146591
 20
157.88032386330869
 30
0.0
 70
    32
  0
VERTEX
  5
17FF1
  8
1
 62
     7
 10
200.2981662814656
 20
157.88432386330879
 30
0.0
 70
    32
  0
VERTEX
  5
17FF2
  8
1
 62
     7
 10
200.2992662814658
 20
157.88832386330861
 30
0.0
 70
    32
  0
VERTEX
  5
17FF3
  8
1
 62
     7
 10
200.30026628146601
 20
157.8923238633088
 30
0.0
 70
    32
  0
VERTEX
  5
17FF4
  8
1
 62
     7
 10
200.30126628146601
 20
157.89732386330871
 30
0.0
 70
    32
  0
VERTEX
  5
17FF5
  8
1
 62
     7
 10
200.30226628146571
 20
157.9013238633089
 30
0.0
 70
    32
  0
VERTEX
  5
17FF6
  8
1
 62
     7
 10
200.30326628146551
 20
157.90532386330869
 30
0.0
 70
    32
  0
VERTEX
  5
17FF7
  8
1
 62
     7
 10
200.30426628146569
 20
157.90932386330849
 30
0.0
 70
    32
  0
VERTEX
  5
17FF8
  8
1
 62
     7
 10
200.30526628146589
 20
157.91332386330859
 30
0.0
 70
    32
  0
VERTEX
  5
17FF9
  8
1
 62
     7
 10
200.30626628146561
 20
157.9183238633089
 30
0.0
 70
    32
  0
VERTEX
  5
17FFA
  8
1
 62
     7
 10
200.3072662814659
 20
157.92232386330909
 30
0.0
 70
    32
  0
VERTEX
  5
17FFB
  8
1
 62
     7
 10
200.30826628146599
 20
157.92632386330891
 30
0.0
 70
    32
  0
VERTEX
  5
17FFC
  8
1
 62
     7
 10
200.30916628146599
 20
157.93032386330859
 30
0.0
 70
    32
  0
VERTEX
  5
17FFD
  8
1
 62
     7
 10
200.3101662814658
 20
157.93532386330901
 30
0.0
 70
    32
  0
VERTEX
  5
17FFE
  8
1
 62
     7
 10
200.3111662814658
 20
157.93932386330911
 30
0.0
 70
    32
  0
VERTEX
  5
17FFF
  8
1
 62
     7
 10
200.312066281466
 20
157.94332386330859
 30
0.0
 70
    32
  0
VERTEX
  5
18000
  8
1
 62
     7
 10
200.31306628146569
 20
157.9473238633087
 30
0.0
 70
    32
  0
VERTEX
  5
18001
  8
1
 62
     7
 10
200.3140662814655
 20
157.95232386330869
 30
0.0
 70
    32
  0
VERTEX
  5
18002
  8
1
 62
     7
 10
200.3149662814655
 20
157.95632386330851
 30
0.0
 70
    32
  0
VERTEX
  5
18003
  8
1
 62
     7
 10
200.3159662814659
 20
157.96032386330859
 30
0.0
 70
    32
  0
VERTEX
  5
18004
  8
1
 62
     7
 10
200.3168662814661
 20
157.96432386330881
 30
0.0
 70
    32
  0
VERTEX
  5
18005
  8
1
 62
     7
 10
200.31776628146571
 20
157.9693238633084
 30
0.0
 70
    32
  0
VERTEX
  5
18006
  8
1
 62
     7
 10
200.31876628146571
 20
157.97332386330851
 30
0.0
 70
    32
  0
VERTEX
  5
18007
  8
1
 62
     7
 10
200.31966628146591
 20
157.9773238633087
 30
0.0
 70
    32
  0
VERTEX
  5
18008
  8
1
 62
     7
 10
200.32056628146589
 20
157.9813238633088
 30
0.0
 70
    32
  0
VERTEX
  5
18009
  8
1
 62
     7
 10
200.32146628146569
 20
157.98632386330851
 30
0.0
 70
    32
  0
VERTEX
  5
1800A
  8
1
 62
     7
 10
200.32236628146589
 20
157.99032386330859
 30
0.0
 70
    32
  0
VERTEX
  5
1800B
  8
1
 62
     7
 10
200.32326628146589
 20
157.99432386330869
 30
0.0
 70
    32
  0
VERTEX
  5
1800C
  8
1
 62
     7
 10
200.32416628146569
 20
157.9983238633088
 30
0.0
 70
    32
  0
VERTEX
  5
1800D
  8
1
 62
     7
 10
200.32506628146589
 20
158.00332386330891
 30
0.0
 70
    32
  0
VERTEX
  5
1800E
  8
1
 62
     7
 10
200.3259662814655
 20
158.00732386330861
 30
0.0
 70
    32
  0
VERTEX
  5
1800F
  8
1
 62
     7
 10
200.3268662814657
 20
158.0113238633088
 30
0.0
 70
    32
  0
VERTEX
  5
18010
  8
1
 62
     7
 10
200.3277662814659
 20
158.01532386330891
 30
0.0
 70
    32
  0
VERTEX
  5
18011
  8
1
 62
     7
 10
200.3286662814655
 20
158.02032386330859
 30
0.0
 70
    32
  0
VERTEX
  5
18012
  8
1
 62
     7
 10
200.3295662814657
 20
158.02432386330869
 30
0.0
 70
    32
  0
VERTEX
  5
18013
  8
1
 62
     7
 10
200.33036628146621
 20
158.0283238633088
 30
0.0
 70
    32
  0
VERTEX
  5
18014
  8
1
 62
     7
 10
200.33126628146621
 20
158.03232386330859
 30
0.0
 70
    32
  0
VERTEX
  5
18015
  8
1
 62
     7
 10
200.33216628146599
 20
158.03732386330859
 30
0.0
 70
    32
  0
VERTEX
  5
18016
  8
1
 62
     7
 10
200.3329662814655
 20
158.0413238633088
 30
0.0
 70
    32
  0
VERTEX
  5
18017
  8
1
 62
     7
 10
200.33386628146579
 20
158.04532386330891
 30
0.0
 70
    32
  0
VERTEX
  5
18018
  8
1
 62
     7
 10
200.33466628146579
 20
158.04932386330901
 30
0.0
 70
    32
  0
VERTEX
  5
18019
  8
1
 62
     7
 10
200.33556628146579
 20
158.0543238633087
 30
0.0
 70
    32
  0
VERTEX
  5
1801A
  8
1
 62
     7
 10
200.33636628146601
 20
158.0583238633088
 30
0.0
 70
    32
  0
VERTEX
  5
1801B
  8
1
 62
     7
 10
200.3372662814661
 20
158.0623238633089
 30
0.0
 70
    32
  0
VERTEX
  5
1801C
  8
1
 62
     7
 10
200.3380662814659
 20
158.0663238633087
 30
0.0
 70
    32
  0
VERTEX
  5
1801D
  8
1
 62
     7
 10
200.3388662814661
 20
158.07132386330869
 30
0.0
 70
    32
  0
VERTEX
  5
1801E
  8
1
 62
     7
 10
200.3396662814659
 20
158.07532386330891
 30
0.0
 70
    32
  0
VERTEX
  5
1801F
  8
1
 62
     7
 10
200.3405662814659
 20
158.07932386330859
 30
0.0
 70
    32
  0
VERTEX
  5
18020
  8
1
 62
     7
 10
200.34136628146589
 20
158.08432386330861
 30
0.0
 70
    32
  0
VERTEX
  5
18021
  8
1
 62
     7
 10
200.34216628146589
 20
158.0883238633088
 30
0.0
 70
    32
  0
VERTEX
  5
18022
  8
1
 62
     7
 10
200.342966281466
 20
158.09232386330859
 30
0.0
 70
    32
  0
VERTEX
  5
18023
  8
1
 62
     7
 10
200.34376628146549
 20
158.0963238633087
 30
0.0
 70
    32
  0
VERTEX
  5
18024
  8
1
 62
     7
 10
200.3445662814658
 20
158.10132386330869
 30
0.0
 70
    32
  0
VERTEX
  5
18025
  8
1
 62
     7
 10
200.3453662814656
 20
158.1053238633088
 30
0.0
 70
    32
  0
VERTEX
  5
18026
  8
1
 62
     7
 10
200.3461662814658
 20
158.1093238633085
 30
0.0
 70
    32
  0
VERTEX
  5
18027
  8
1
 62
     7
 10
200.34696628146611
 20
158.11332386330881
 30
0.0
 70
    32
  0
VERTEX
  5
18028
  8
1
 62
     7
 10
200.3477662814654
 20
158.11832386330869
 30
0.0
 70
    32
  0
VERTEX
  5
18029
  8
1
 62
     7
 10
200.3484662814657
 20
158.12232386330891
 30
0.0
 70
    32
  0
VERTEX
  5
1802A
  8
1
 62
     7
 10
200.3492662814657
 20
158.12632386330901
 30
0.0
 70
    32
  0
VERTEX
  5
1802B
  8
1
 62
     7
 10
200.3500662814655
 20
158.13132386330869
 30
0.0
 70
    32
  0
VERTEX
  5
1802C
  8
1
 62
     7
 10
200.35086628146581
 20
158.1353238633088
 30
0.0
 70
    32
  0
VERTEX
  5
1802D
  8
1
 62
     7
 10
200.35156628146589
 20
158.1393238633089
 30
0.0
 70
    32
  0
VERTEX
  5
1802E
  8
1
 62
     7
 10
200.35236628146569
 20
158.14332386330909
 30
0.0
 70
    32
  0
VERTEX
  5
1802F
  8
1
 62
     7
 10
200.3530662814662
 20
158.14832386330869
 30
0.0
 70
    32
  0
VERTEX
  5
18030
  8
1
 62
     7
 10
200.3538662814658
 20
158.15232386330891
 30
0.0
 70
    32
  0
VERTEX
  5
18031
  8
1
 62
     7
 10
200.35456628146551
 20
158.15632386330859
 30
0.0
 70
    32
  0
VERTEX
  5
18032
  8
1
 62
     7
 10
200.35536628146579
 20
158.1613238633087
 30
0.0
 70
    32
  0
VERTEX
  5
18033
  8
1
 62
     7
 10
200.3560662814659
 20
158.1653238633088
 30
0.0
 70
    32
  0
VERTEX
  5
18034
  8
1
 62
     7
 10
200.3567662814655
 20
158.16932386330859
 30
0.0
 70
    32
  0
VERTEX
  5
18035
  8
1
 62
     7
 10
200.35756628146601
 20
158.1733238633087
 30
0.0
 70
    32
  0
VERTEX
  5
18036
  8
1
 62
     7
 10
200.3582662814658
 20
158.17832386330869
 30
0.0
 70
    32
  0
VERTEX
  5
18037
  8
1
 62
     7
 10
200.3589662814654
 20
158.1823238633088
 30
0.0
 70
    32
  0
VERTEX
  5
18038
  8
1
 62
     7
 10
200.3596662814661
 20
158.18632386330859
 30
0.0
 70
    32
  0
VERTEX
  5
18039
  8
1
 62
     7
 10
200.3604662814657
 20
158.19132386330861
 30
0.0
 70
    32
  0
VERTEX
  5
1803A
  8
1
 62
     7
 10
200.36116628146621
 20
158.19532386330869
 30
0.0
 70
    32
  0
VERTEX
  5
1803B
  8
1
 62
     7
 10
200.36186628146601
 20
158.1993238633089
 30
0.0
 70
    32
  0
VERTEX
  5
1803C
  8
1
 62
     7
 10
200.3625662814656
 20
158.20332386330901
 30
0.0
 70
    32
  0
VERTEX
  5
1803D
  8
1
 62
     7
 10
200.36326628146591
 20
158.20832386330869
 30
0.0
 70
    32
  0
VERTEX
  5
1803E
  8
1
 62
     7
 10
200.36396628146591
 20
158.2123238633088
 30
0.0
 70
    32
  0
VERTEX
  5
1803F
  8
1
 62
     7
 10
200.36466628146579
 20
158.2163238633089
 30
0.0
 70
    32
  0
VERTEX
  5
18040
  8
1
 62
     7
 10
200.36526628146581
 20
158.22132386330861
 30
0.0
 70
    32
  0
VERTEX
  5
18041
  8
1
 62
     7
 10
200.36596628146589
 20
158.22532386330869
 30
0.0
 70
    32
  0
VERTEX
  5
18042
  8
1
 62
     7
 10
200.36666628146591
 20
158.22932386330891
 30
0.0
 70
    32
  0
VERTEX
  5
18043
  8
1
 62
     7
 10
200.36736628146579
 20
158.2333238633087
 30
0.0
 70
    32
  0
VERTEX
  5
18044
  8
1
 62
     7
 10
200.36806628146559
 20
158.23832386330861
 30
0.0
 70
    32
  0
VERTEX
  5
18045
  8
1
 62
     7
 10
200.36866628146589
 20
158.2423238633088
 30
0.0
 70
    32
  0
VERTEX
  5
18046
  8
1
 62
     7
 10
200.36936628146589
 20
158.24632386330859
 30
0.0
 70
    32
  0
VERTEX
  5
18047
  8
1
 62
     7
 10
200.36996628146599
 20
158.25132386330861
 30
0.0
 70
    32
  0
VERTEX
  5
18048
  8
1
 62
     7
 10
200.37066628146579
 20
158.25532386330869
 30
0.0
 70
    32
  0
VERTEX
  5
18049
  8
1
 62
     7
 10
200.3713662814659
 20
158.25932386330879
 30
0.0
 70
    32
  0
VERTEX
  5
1804A
  8
1
 62
     7
 10
200.3719662814662
 20
158.26332386330861
 30
0.0
 70
    32
  0
VERTEX
  5
1804B
  8
1
 62
     7
 10
200.37256628146559
 20
158.26832386330861
 30
0.0
 70
    32
  0
VERTEX
  5
1804C
  8
1
 62
     7
 10
200.3732662814659
 20
158.2723238633088
 30
0.0
 70
    32
  0
VERTEX
  5
1804D
  8
1
 62
     7
 10
200.37386628146569
 20
158.2763238633089
 30
0.0
 70
    32
  0
VERTEX
  5
1804E
  8
1
 62
     7
 10
200.374566281466
 20
158.2813238633085
 30
0.0
 70
    32
  0
VERTEX
  5
1804F
  8
1
 62
     7
 10
200.37516628146579
 20
158.28532386330869
 30
0.0
 70
    32
  0
VERTEX
  5
18050
  8
1
 62
     7
 10
200.3757662814657
 20
158.28932386330879
 30
0.0
 70
    32
  0
VERTEX
  5
18051
  8
1
 62
     7
 10
200.37636628146601
 20
158.29432386330851
 30
0.0
 70
    32
  0
VERTEX
  5
18052
  8
1
 62
     7
 10
200.3769662814658
 20
158.29832386330861
 30
0.0
 70
    32
  0
VERTEX
  5
18053
  8
1
 62
     7
 10
200.37766628146571
 20
158.30232386330869
 30
0.0
 70
    32
  0
VERTEX
  5
18054
  8
1
 62
     7
 10
200.3782662814657
 20
158.30732386330871
 30
0.0
 70
    32
  0
VERTEX
  5
18055
  8
1
 62
     7
 10
200.3788662814656
 20
158.3113238633085
 30
0.0
 70
    32
  0
VERTEX
  5
18056
  8
1
 62
     7
 10
200.37946628146551
 20
158.31532386330861
 30
0.0
 70
    32
  0
VERTEX
  5
18057
  8
1
 62
     7
 10
200.38006628146621
 20
158.3193238633088
 30
0.0
 70
    32
  0
VERTEX
  5
18058
  8
1
 62
     7
 10
200.38066628146561
 20
158.32432386330839
 30
0.0
 70
    32
  0
VERTEX
  5
18059
  8
1
 62
     7
 10
200.38126628146591
 20
158.32832386330861
 30
0.0
 70
    32
  0
VERTEX
  5
1805A
  8
1
 62
     7
 10
200.38186628146599
 20
158.33232386330869
 30
0.0
 70
    32
  0
VERTEX
  5
1805B
  8
1
 62
     7
 10
200.38236628146589
 20
158.3373238633086
 30
0.0
 70
    32
  0
VERTEX
  5
1805C
  8
1
 62
     7
 10
200.38296628146591
 20
158.3413238633085
 30
0.0
 70
    32
  0
VERTEX
  5
1805D
  8
1
 62
     7
 10
200.38356628146579
 20
158.34532386330861
 30
0.0
 70
    32
  0
VERTEX
  5
1805E
  8
1
 62
     7
 10
200.38416628146561
 20
158.3503238633086
 30
0.0
 70
    32
  0
VERTEX
  5
1805F
  8
1
 62
     7
 10
200.3846662814658
 20
158.35432386330871
 30
0.0
 70
    32
  0
VERTEX
  5
18060
  8
1
 62
     7
 10
200.38526628146579
 20
158.3583238633085
 30
0.0
 70
    32
  0
VERTEX
  5
18061
  8
1
 62
     7
 10
200.38586628146609
 20
158.36232386330869
 30
0.0
 70
    32
  0
VERTEX
  5
18062
  8
1
 62
     7
 10
200.3863662814658
 20
158.367323863309
 30
0.0
 70
    32
  0
VERTEX
  5
18063
  8
1
 62
     7
 10
200.38696628146559
 20
158.3713238633085
 30
0.0
 70
    32
  0
VERTEX
  5
18064
  8
1
 62
     7
 10
200.3874662814662
 20
158.37532386330861
 30
0.0
 70
    32
  0
VERTEX
  5
18065
  8
1
 62
     7
 10
200.388066281466
 20
158.3803238633086
 30
0.0
 70
    32
  0
VERTEX
  5
18066
  8
1
 62
     7
 10
200.3885662814661
 20
158.38432386330871
 30
0.0
 70
    32
  0
VERTEX
  5
18067
  8
1
 62
     7
 10
200.38906628146569
 20
158.3883238633085
 30
0.0
 70
    32
  0
VERTEX
  5
18068
  8
1
 62
     7
 10
200.3896662814654
 20
158.39332386330881
 30
0.0
 70
    32
  0
VERTEX
  5
18069
  8
1
 62
     7
 10
200.39016628146621
 20
158.397323863309
 30
0.0
 70
    32
  0
VERTEX
  5
1806A
  8
1
 62
     7
 10
200.3906662814658
 20
158.4013238633091
 30
0.0
 70
    32
  0
VERTEX
  5
1806B
  8
1
 62
     7
 10
200.3912662814661
 20
158.40632386330881
 30
0.0
 70
    32
  0
VERTEX
  5
1806C
  8
1
 62
     7
 10
200.39176628146581
 20
158.41032386330889
 30
0.0
 70
    32
  0
VERTEX
  5
1806D
  8
1
 62
     7
 10
200.39226628146591
 20
158.41432386330871
 30
0.0
 70
    32
  0
VERTEX
  5
1806E
  8
1
 62
     7
 10
200.3927662814655
 20
158.4193238633087
 30
0.0
 70
    32
  0
VERTEX
  5
1806F
  8
1
 62
     7
 10
200.3932662814658
 20
158.42332386330881
 30
0.0
 70
    32
  0
VERTEX
  5
18070
  8
1
 62
     7
 10
200.39376628146599
 20
158.4273238633086
 30
0.0
 70
    32
  0
VERTEX
  5
18071
  8
1
 62
     7
 10
200.39426628146609
 20
158.4323238633086
 30
0.0
 70
    32
  0
VERTEX
  5
18072
  8
1
 62
     7
 10
200.39476628146551
 20
158.4363238633087
 30
0.0
 70
    32
  0
VERTEX
  5
18073
  8
1
 62
     7
 10
200.39526628146601
 20
158.44032386330889
 30
0.0
 70
    32
  0
VERTEX
  5
18074
  8
1
 62
     7
 10
200.39576628146619
 20
158.44432386330899
 30
0.0
 70
    32
  0
VERTEX
  5
18075
  8
1
 62
     7
 10
200.39626628146581
 20
158.44932386330859
 30
0.0
 70
    32
  0
VERTEX
  5
18076
  8
1
 62
     7
 10
200.39666628146611
 20
158.45332386330881
 30
0.0
 70
    32
  0
VERTEX
  5
18077
  8
1
 62
     7
 10
200.39716628146579
 20
158.45732386330889
 30
0.0
 70
    32
  0
VERTEX
  5
18078
  8
1
 62
     7
 10
200.39766628146589
 20
158.4623238633086
 30
0.0
 70
    32
  0
VERTEX
  5
18079
  8
1
 62
     7
 10
200.39806628146599
 20
158.4663238633087
 30
0.0
 70
    32
  0
VERTEX
  5
1807A
  8
1
 62
     7
 10
200.39856628146589
 20
158.47032386330881
 30
0.0
 70
    32
  0
VERTEX
  5
1807B
  8
1
 62
     7
 10
200.39906628146599
 20
158.47532386330849
 30
0.0
 70
    32
  0
VERTEX
  5
1807C
  8
1
 62
     7
 10
200.39946628146541
 20
158.47932386330859
 30
0.0
 70
    32
  0
VERTEX
  5
1807D
  8
1
 62
     7
 10
200.39986628146579
 20
158.48332386330881
 30
0.0
 70
    32
  0
VERTEX
  5
1807E
  8
1
 62
     7
 10
200.40036628146589
 20
158.48832386330869
 30
0.0
 70
    32
  0
VERTEX
  5
1807F
  8
1
 62
     7
 10
200.40076628146579
 20
158.4923238633086
 30
0.0
 70
    32
  0
VERTEX
  5
18080
  8
1
 62
     7
 10
200.40126628146589
 20
158.4963238633087
 30
0.0
 70
    32
  0
VERTEX
  5
18081
  8
1
 62
     7
 10
200.40166628146579
 20
158.50132386330901
 30
0.0
 70
    32
  0
VERTEX
  5
18082
  8
1
 62
     7
 10
200.40206628146609
 20
158.50532386330849
 30
0.0
 70
    32
  0
VERTEX
  5
18083
  8
1
 62
     7
 10
200.40246628146579
 20
158.50932386330859
 30
0.0
 70
    32
  0
VERTEX
  5
18084
  8
1
 62
     7
 10
200.40296628146609
 20
158.5143238633089
 30
0.0
 70
    32
  0
VERTEX
  5
18085
  8
1
 62
     7
 10
200.40336628146611
 20
158.51832386330869
 30
0.0
 70
    32
  0
VERTEX
  5
18086
  8
1
 62
     7
 10
200.40376628146589
 20
158.52232386330849
 30
0.0
 70
    32
  0
VERTEX
  5
18087
  8
1
 62
     7
 10
200.4041662814659
 20
158.52732386330891
 30
0.0
 70
    32
  0
VERTEX
  5
18088
  8
1
 62
     7
 10
200.40456628146569
 20
158.53132386330859
 30
0.0
 70
    32
  0
VERTEX
  5
18089
  8
1
 62
     7
 10
200.40496628146519
 20
158.53532386330841
 30
0.0
 70
    32
  0
VERTEX
  5
1808A
  8
1
 62
     7
 10
200.40536628146549
 20
158.5403238633088
 30
0.0
 70
    32
  0
VERTEX
  5
1808B
  8
1
 62
     7
 10
200.40566628146621
 20
158.5443238633089
 30
0.0
 70
    32
  0
VERTEX
  5
1808C
  8
1
 62
     7
 10
200.406066281466
 20
158.5483238633087
 30
0.0
 70
    32
  0
VERTEX
  5
1808D
  8
1
 62
     7
 10
200.40646628146601
 20
158.55332386330869
 30
0.0
 70
    32
  0
VERTEX
  5
1808E
  8
1
 62
     7
 10
200.4068662814658
 20
158.5573238633088
 30
0.0
 70
    32
  0
VERTEX
  5
1808F
  8
1
 62
     7
 10
200.407166281466
 20
158.56132386330901
 30
0.0
 70
    32
  0
VERTEX
  5
18090
  8
1
 62
     7
 10
200.4075662814659
 20
158.56632386330861
 30
0.0
 70
    32
  0
VERTEX
  5
18091
  8
1
 62
     7
 10
200.40796628146629
 20
158.5703238633088
 30
0.0
 70
    32
  0
VERTEX
  5
18092
  8
1
 62
     7
 10
200.4082662814659
 20
158.5743238633089
 30
0.0
 70
    32
  0
VERTEX
  5
18093
  8
1
 62
     7
 10
200.40866628146591
 20
158.5793238633085
 30
0.0
 70
    32
  0
VERTEX
  5
18094
  8
1
 62
     7
 10
200.40896628146581
 20
158.58332386330869
 30
0.0
 70
    32
  0
VERTEX
  5
18095
  8
1
 62
     7
 10
200.40926628146639
 20
158.5873238633088
 30
0.0
 70
    32
  0
VERTEX
  5
18096
  8
1
 62
     7
 10
200.4096662814656
 20
158.59232386330851
 30
0.0
 70
    32
  0
VERTEX
  5
18097
  8
1
 62
     7
 10
200.4099662814657
 20
158.59632386330861
 30
0.0
 70
    32
  0
VERTEX
  5
18098
  8
1
 62
     7
 10
200.41026628146591
 20
158.60032386330869
 30
0.0
 70
    32
  0
VERTEX
  5
18099
  8
1
 62
     7
 10
200.410566281466
 20
158.605323863309
 30
0.0
 70
    32
  0
VERTEX
  5
1809A
  8
1
 62
     7
 10
200.41096628146599
 20
158.6093238633085
 30
0.0
 70
    32
  0
VERTEX
  5
1809B
  8
1
 62
     7
 10
200.41126628146571
 20
158.61332386330861
 30
0.0
 70
    32
  0
VERTEX
  5
1809C
  8
1
 62
     7
 10
200.41156628146581
 20
158.6183238633086
 30
0.0
 70
    32
  0
VERTEX
  5
1809D
  8
1
 62
     7
 10
200.41186628146551
 20
158.62232386330879
 30
0.0
 70
    32
  0
VERTEX
  5
1809E
  8
1
 62
     7
 10
200.4121662814656
 20
158.62632386330861
 30
0.0
 70
    32
  0
VERTEX
  5
1809F
  8
1
 62
     7
 10
200.41246628146581
 20
158.63132386330889
 30
0.0
 70
    32
  0
VERTEX
  5
180A0
  8
1
 62
     7
 10
200.41276628146571
 20
158.63532386330871
 30
0.0
 70
    32
  0
VERTEX
  5
180A1
  8
1
 62
     7
 10
200.4130662814656
 20
158.6393238633085
 30
0.0
 70
    32
  0
VERTEX
  5
180A2
  8
1
 62
     7
 10
200.41336628146581
 20
158.64432386330881
 30
0.0
 70
    32
  0
VERTEX
  5
180A3
  8
1
 62
     7
 10
200.41356628146531
 20
158.6483238633086
 30
0.0
 70
    32
  0
VERTEX
  5
180A4
  8
1
 62
     7
 10
200.41386628146591
 20
158.65232386330911
 30
0.0
 70
    32
  0
VERTEX
  5
180A5
  8
1
 62
     7
 10
200.41416628146609
 20
158.6573238633087
 30
0.0
 70
    32
  0
VERTEX
  5
180A6
  8
1
 62
     7
 10
200.41446628146551
 20
158.66132386330889
 30
0.0
 70
    32
  0
VERTEX
  5
180A7
  8
1
 62
     7
 10
200.4146662814664
 20
158.66532386330871
 30
0.0
 70
    32
  0
VERTEX
  5
180A8
  8
1
 62
     7
 10
200.41496628146589
 20
158.67032386330871
 30
0.0
 70
    32
  0
VERTEX
  5
180A9
  8
1
 62
     7
 10
200.4151662814663
 20
158.67432386330881
 30
0.0
 70
    32
  0
VERTEX
  5
180AA
  8
1
 62
     7
 10
200.415466281466
 20
158.67832386330889
 30
0.0
 70
    32
  0
VERTEX
  5
180AB
  8
1
 62
     7
 10
200.41566628146589
 20
158.6833238633086
 30
0.0
 70
    32
  0
VERTEX
  5
180AC
  8
1
 62
     7
 10
200.41596628146581
 20
158.68732386330871
 30
0.0
 70
    32
  0
VERTEX
  5
180AD
  8
1
 62
     7
 10
200.41616628146551
 20
158.69132386330881
 30
0.0
 70
    32
  0
VERTEX
  5
180AE
  8
1
 62
     7
 10
200.4164662814662
 20
158.69632386330849
 30
0.0
 70
    32
  0
VERTEX
  5
180AF
  8
1
 62
     7
 10
200.41666628146569
 20
158.7003238633086
 30
0.0
 70
    32
  0
VERTEX
  5
180B0
  8
1
 62
     7
 10
200.4168662814661
 20
158.70432386330879
 30
0.0
 70
    32
  0
VERTEX
  5
180B1
  8
1
 62
     7
 10
200.41706628146579
 20
158.7093238633087
 30
0.0
 70
    32
  0
VERTEX
  5
180B2
  8
1
 62
     7
 10
200.41736628146569
 20
158.7133238633086
 30
0.0
 70
    32
  0
VERTEX
  5
180B3
  8
1
 62
     7
 10
200.41756628146561
 20
158.71732386330871
 30
0.0
 70
    32
  0
VERTEX
  5
180B4
  8
1
 62
     7
 10
200.41776628146559
 20
158.72232386330899
 30
0.0
 70
    32
  0
VERTEX
  5
180B5
  8
1
 62
     7
 10
200.41796628146599
 20
158.72632386330849
 30
0.0
 70
    32
  0
VERTEX
  5
180B6
  8
1
 62
     7
 10
200.41816628146569
 20
158.7303238633086
 30
0.0
 70
    32
  0
VERTEX
  5
180B7
  8
1
 62
     7
 10
200.41836628146589
 20
158.73532386330859
 30
0.0
 70
    32
  0
VERTEX
  5
180B8
  8
1
 62
     7
 10
200.4185662814661
 20
158.73932386330841
 30
0.0
 70
    32
  0
VERTEX
  5
180B9
  8
1
 62
     7
 10
200.41876628146579
 20
158.74332386330849
 30
0.0
 70
    32
  0
VERTEX
  5
180BA
  8
1
 62
     7
 10
200.41896628146529
 20
158.74832386330891
 30
0.0
 70
    32
  0
VERTEX
  5
180BB
  8
1
 62
     7
 10
200.4191662814662
 20
158.75232386330899
 30
0.0
 70
    32
  0
VERTEX
  5
180BC
  8
1
 62
     7
 10
200.4193662814657
 20
158.75632386330881
 30
0.0
 70
    32
  0
VERTEX
  5
180BD
  8
1
 62
     7
 10
200.4195662814661
 20
158.7613238633088
 30
0.0
 70
    32
  0
VERTEX
  5
180BE
  8
1
 62
     7
 10
200.4197662814656
 20
158.76532386330891
 30
0.0
 70
    32
  0
VERTEX
  5
180BF
  8
1
 62
     7
 10
200.41986628146549
 20
158.7693238633087
 30
0.0
 70
    32
  0
VERTEX
  5
180C0
  8
1
 62
     7
 10
200.42006628146569
 20
158.77432386330869
 30
0.0
 70
    32
  0
VERTEX
  5
180C1
  8
1
 62
     7
 10
200.4202662814657
 20
158.7783238633088
 30
0.0
 70
    32
  0
VERTEX
  5
180C2
  8
1
 62
     7
 10
200.4203662814659
 20
158.78332386330851
 30
0.0
 70
    32
  0
VERTEX
  5
180C3
  8
1
 62
     7
 10
200.42056628146631
 20
158.78732386330859
 30
0.0
 70
    32
  0
VERTEX
  5
180C4
  8
1
 62
     7
 10
200.4207662814658
 20
158.7913238633088
 30
0.0
 70
    32
  0
VERTEX
  5
180C5
  8
1
 62
     7
 10
200.42086628146581
 20
158.79632386330869
 30
0.0
 70
    32
  0
VERTEX
  5
180C6
  8
1
 62
     7
 10
200.4210662814659
 20
158.8003238633089
 30
0.0
 70
    32
  0
VERTEX
  5
180C7
  8
1
 62
     7
 10
200.4211662814661
 20
158.8043238633087
 30
0.0
 70
    32
  0
VERTEX
  5
180C8
  8
1
 62
     7
 10
200.42136628146591
 20
158.80932386330869
 30
0.0
 70
    32
  0
VERTEX
  5
180C9
  8
1
 62
     7
 10
200.4214662814658
 20
158.81332386330851
 30
0.0
 70
    32
  0
VERTEX
  5
180CA
  8
1
 62
     7
 10
200.421566281466
 20
158.81732386330859
 30
0.0
 70
    32
  0
VERTEX
  5
180CB
  8
1
 62
     7
 10
200.42176628146601
 20
158.8223238633089
 30
0.0
 70
    32
  0
VERTEX
  5
180CC
  8
1
 62
     7
 10
200.42186628146621
 20
158.82632386330869
 30
0.0
 70
    32
  0
VERTEX
  5
180CD
  8
1
 62
     7
 10
200.4219662814659
 20
158.83032386330851
 30
0.0
 70
    32
  0
VERTEX
  5
180CE
  8
1
 62
     7
 10
200.4220662814657
 20
158.83532386330879
 30
0.0
 70
    32
  0
VERTEX
  5
180CF
  8
1
 62
     7
 10
200.42216628146591
 20
158.83932386330861
 30
0.0
 70
    32
  0
VERTEX
  5
180D0
  8
1
 62
     7
 10
200.42226628146611
 20
158.8433238633088
 30
0.0
 70
    32
  0
VERTEX
  5
180D1
  8
1
 62
     7
 10
200.4224662814656
 20
158.84832386330879
 30
0.0
 70
    32
  0
VERTEX
  5
180D2
  8
1
 62
     7
 10
200.42256628146549
 20
158.8523238633089
 30
0.0
 70
    32
  0
VERTEX
  5
180D3
  8
1
 62
     7
 10
200.4226662814655
 20
158.85632386330869
 30
0.0
 70
    32
  0
VERTEX
  5
180D4
  8
1
 62
     7
 10
200.42276628146621
 20
158.86132386330871
 30
0.0
 70
    32
  0
VERTEX
  5
180D5
  8
1
 62
     7
 10
200.42276628146621
 20
158.86532386330879
 30
0.0
 70
    32
  0
VERTEX
  5
180D6
  8
1
 62
     7
 10
200.4228662814659
 20
158.86932386330901
 30
0.0
 70
    32
  0
VERTEX
  5
180D7
  8
1
 62
     7
 10
200.4229662814657
 20
158.8743238633086
 30
0.0
 70
    32
  0
VERTEX
  5
180D8
  8
1
 62
     7
 10
200.42306628146591
 20
158.87832386330871
 30
0.0
 70
    32
  0
VERTEX
  5
180D9
  8
1
 62
     7
 10
200.42316628146611
 20
158.8823238633089
 30
0.0
 70
    32
  0
VERTEX
  5
180DA
  8
1
 62
     7
 10
200.42316628146611
 20
158.8873238633085
 30
0.0
 70
    32
  0
VERTEX
  5
180DB
  8
1
 62
     7
 10
200.4232662814658
 20
158.89132386330871
 30
0.0
 70
    32
  0
VERTEX
  5
180DC
  8
1
 62
     7
 10
200.423366281466
 20
158.89532386330879
 30
0.0
 70
    32
  0
VERTEX
  5
180DD
  8
1
 62
     7
 10
200.423366281466
 20
158.90032386330881
 30
0.0
 70
    32
  0
VERTEX
  5
180DE
  8
1
 62
     7
 10
200.42346628146581
 20
158.9043238633086
 30
0.0
 70
    32
  0
VERTEX
  5
180DF
  8
1
 62
     7
 10
200.4235662814657
 20
158.90932386330891
 30
0.0
 70
    32
  0
VERTEX
  5
180E0
  8
1
 62
     7
 10
200.4235662814657
 20
158.91332386330899
 30
0.0
 70
    32
  0
VERTEX
  5
180E1
  8
1
 62
     7
 10
200.42366628146621
 20
158.9173238633085
 30
0.0
 70
    32
  0
VERTEX
  5
180E2
  8
1
 62
     7
 10
200.42366628146621
 20
158.9223238633088
 30
0.0
 70
    32
  0
VERTEX
  5
180E3
  8
1
 62
     7
 10
200.4237662814659
 20
158.9263238633086
 30
0.0
 70
    32
  0
VERTEX
  5
180E4
  8
1
 62
     7
 10
200.4237662814659
 20
158.93032386330879
 30
0.0
 70
    32
  0
VERTEX
  5
180E5
  8
1
 62
     7
 10
200.4238662814661
 20
158.9353238633087
 30
0.0
 70
    32
  0
VERTEX
  5
180E6
  8
1
 62
     7
 10
200.4238662814661
 20
158.93932386330891
 30
0.0
 70
    32
  0
VERTEX
  5
180E7
  8
1
 62
     7
 10
200.42396628146611
 20
158.94332386330871
 30
0.0
 70
    32
  0
VERTEX
  5
180E8
  8
1
 62
     7
 10
200.42396628146611
 20
158.9483238633087
 30
0.0
 70
    32
  0
VERTEX
  5
180E9
  8
1
 62
     7
 10
200.42396628146611
 20
158.95232386330881
 30
0.0
 70
    32
  0
VERTEX
  5
180EA
  8
1
 62
     7
 10
200.4240662814658
 20
158.956323863309
 30
0.0
 70
    32
  0
VERTEX
  5
180EB
  8
1
 62
     7
 10
200.4240662814658
 20
158.96132386330859
 30
0.0
 70
    32
  0
VERTEX
  5
180EC
  8
1
 62
     7
 10
200.4241662814658
 20
158.9653238633087
 30
0.0
 70
    32
  0
VERTEX
  5
180ED
  8
1
 62
     7
 10
200.4241662814658
 20
158.96932386330889
 30
0.0
 70
    32
  0
VERTEX
  5
180EE
  8
1
 62
     7
 10
200.4241662814658
 20
158.97432386330851
 30
0.0
 70
    32
  0
VERTEX
  5
180EF
  8
1
 62
     7
 10
200.42426628146609
 20
158.9783238633087
 30
0.0
 70
    32
  0
SEQEND
  5
180F0
  8
1
 62
     7
  0
LINE
  5
180F1
  8
1
  6
CONTINUOUS
 62
     7
 10
210.69408108450821
 20
158.9783709283825
 30
0.0
 11
210.69408108450821
 21
168.01337092838281
 31
0.0
  0
ARC
  5
180F2
  8
1
  6
CONTINUOUS
 62
     7
 10
212.294081084509
 20
156.97837092838259
 30
0.0
 40
0.5
 50
270.0
 51
0.0
  0
ARC
  5
180F3
  8
1
  6
CONTINUOUS
 62
     7
 10
208.19408108450821
 20
158.9783709283825
 30
0.0
 40
2.4999999999999991
 50
270.0
 51
0.0
  0
LINE
  5
180F4
  8
1
  6
CONTINUOUS
 62
     7
 10
212.294081084509
 20
156.47837092838279
 30
0.0
 11
208.19408108450821
 21
156.47837092838279
 31
0.0
  0
LINE
  5
180F5
  8
1
  6
CONTINUOUS
 62
     7
 10
211.79408108451091
 20
190.4783709283825
 30
0.0
 11
202.89408108450959
 21
190.4783709283825
 31
0.0
  0
LINE
  5
180F6
  8
1
  6
CONTINUOUS
 62
     7
 10
171.2940810845086
 20
183.7615844881546
 30
0.0
 11
182.294081084509
 21
183.7615844881546
 31
0.0
  0
LINE
  5
180F7
  8
1
  6
CONTINUOUS
 62
     7
 10
201.2940810845104
 20
190.4783709283825
 30
0.0
 11
195.69408108451159
 21
190.4783709283825
 31
0.0
  0
ARC
  5
180F8
  8
1
  6
CONTINUOUS
 62
     7
 10
202.2940810845102
 20
189.47837092838279
 30
0.0
 40
0.9999999999998864
 50
90.0
 51
180.0
  0
LINE
  5
180F9
  8
1
  6
CONTINUOUS
 62
     7
 10
201.2940810845104
 20
190.4783709283825
 30
0.0
 11
202.2940810845102
 21
190.4783709283825
 31
0.0
  0
LINE
  5
180FA
  8
1
  6
CONTINUOUS
 62
     7
 10
202.89408108450959
 20
190.4783709283825
 30
0.0
 11
202.2940810845102
 21
190.4783709283825
 31
0.0
  0
LINE
  5
180FB
  8
AM_0
 10
210.29407345511359
 20
190.4910709283873
 30
0.0
 11
210.29407345511359
 21
192.99107092838739
 31
0.0
  0
ARC
  5
180FC
  8
1
  6
CONTINUOUS
 62
     7
 10
211.79408108451091
 20
189.47837092838279
 30
0.0
 40
0.9999999999999998
 50
0.0
 51
90.0
  0
LINE
  5
180FD
  8
AM_0
 10
206.8123361734346
 20
192.97837092839359
 30
0.0
 11
207.08787644323431
 21
203.50082930633221
 31
0.0
  0
LINE
  5
180FE
  8
AM_0
 10
146.81233617343511
 20
192.97837092838091
 30
0.0
 11
146.51028326689899
 21
204.513306055181
 31
0.0
  0
LINE
  5
18103
  8
AM_0
 10
798.848498237174
 20
262.47836592838661
 30
0.0
 11
798.84849823717377
 21
211.47836592838669
 31
0.0
  0
LINE
  5
18105
  8
AM_0
 10
793.84849823717411
 20
272.47836592838672
 30
0.0
 11
793.84849823717366
 21
322.47836592838649
 31
0.0
  0
TEXT
  5
18259
  8
AM_0
 10
80.536471426698881
 20
553.77713450176634
 30
0.0
 40
10.0
  1
VC04-007BR~VC04-060BR
1001
ACAD
1000
MTEXTBEGIN
1070
    73
1070
     1
1070
    44
1040
1.0
1070
    74
1070
     0
1000
MTEXTEND
  0
VIEWPORT
  5
89
 67
     1
  8
0
 10
210.0
 20
148.5
 30
0.0
 40
420.0
 41
297.0
 68
     1
 69
     1
1001
ACAD
1000
MVIEW
1002
{
1070
    16
1010
0.0
1020
0.0
1030
0.0
1010
0.0
1020
0.0
1030
1.0
1040
0.0
1040
297.0
1040
221.70154043645701
1040
148.5
1040
50.0
1040
0.0
1040
0.0
1070
     0
1070
   100
1070
     1
1070
     1
1070
     0
1070
     0
1070
     0
1070
     0
1040
0.0
1040
0.0
1040
0.0
1040
10.0
1040
10.0
1040
10.0
1040
10.0
1070
     0
1002
{
1002
}
1002
}
1001
GENIUS_GENOREF_13
1005
1B94
1001
GENIUS_GENSCREG_15
1000
PF
1040
1.0
1000
DF
1040
1.0
1000
MIN
1011
0.0
1021
0.0
1031
0.0
1021
0.0
1031
0.0
1000
MAX
1011
420.0
1021
0.0
1031
0.0
1021
297.0
1031
0.0
1000
FLAGS
1070
     4
  0
ENDSEC
  0
EOF
