  0
SECTION
  2
HEADER
  9
$ACADVER
  1
AC1009
  9
$INSBASE
 10
0.0
 20
0.0
 30
0.0
  9
$EXTMIN
 10
111.1284734910919
 20
151.148072757232
 30
-0.0000000349181948
  9
$EXTMAX
 10
696.59436215610958
 20
554.0007031953437
 30
0.0000000814935747
  9
$LIMMIN
 10
0.0
 20
0.0
  9
$LIMMAX
 10
853.5
 20
555.00000000000011
  9
$ORTHOMODE
 70
     0
  9
$REGENMODE
 70
     1
  9
$FILLMODE
 70
     1
  9
$QTEXTMODE
 70
     0
  9
$MIRRTEXT
 70
     1
  9
$DRAGMODE
 70
     2
  9
$LTSCALE
 40
3.0
  9
$OSMODE
 70
   551
  9
$ATTMODE
 70
     1
  9
$TEXTSIZE
 40
2.5
  9
$TRACEWID
 40
1.0
  9
$TEXTSTYLE
  7
STANDARD
  9
$CLAYER
  8
AM_0
  9
$CELTYPE
  6
BYLAYER
  9
$CECOLOR
 62
   256
  9
$DIMSCALE
 40
1.0
  9
$DIMASZ
 40
2.5
  9
$DIMEXO
 40
1.0
  9
$DIMDLI
 40
7.0
  9
$DIMRND
 40
0.0
  9
$DIMDLE
 40
0.0
  9
$DIMEXE
 40
1.0
  9
$DIMTP
 40
0.1
  9
$DIMTM
 40
0.1000000001
  9
$DIMTXT
 40
2.5
  9
$DIMCEN
 40
0.0
  9
$DIMTSZ
 40
0.0
  9
$DIMTOL
 70
     0
  9
$DIMLIM
 70
     0
  9
$DIMTIH
 70
     0
  9
$DIMTOH
 70
     0
  9
$DIMSE1
 70
     0
  9
$DIMSE2
 70
     0
  9
$DIMTAD
 70
     3
  9
$DIMZIN
 70
     8
  9
$DIMBLK
  1

  9
$DIMASO
 70
     1
  9
$DIMSHO
 70
     1
  9
$DIMPOST
  1

  9
$DIMAPOST
  1
"
  9
$DIMALT
 70
     0
  9
$DIMALTD
 70
     2
  9
$DIMALTF
 40
0.0393701
  9
$DIMLFAC
 40
1.0
  9
$DIMTOFL
 70
     1
  9
$DIMTVP
 40
0.0
  9
$DIMTIX
 70
     0
  9
$DIMSOXD
 70
     0
  9
$DIMSAH
 70
     0
  9
$DIMBLK1
  1

  9
$DIMBLK2
  1

  9
$DIMSTYLE
  2
AM_JIS
  9
$DIMCLRD
 70
   256
  9
$DIMCLRE
 70
   256
  9
$DIMCLRT
 70
     4
  9
$DIMTFAC
 40
0.71
  9
$DIMGAP
 40
1.0
  9
$LUNITS
 70
     2
  9
$LUPREC
 70
     2
  9
$SKETCHINC
 40
1.0
  9
$FILLETRAD
 40
7.5
  9
$AUNITS
 70
     0
  9
$AUPREC
 70
     3
  9
$MENU
  1
.
  9
$ELEVATION
 40
0.0
  9
$PELEVATION
 40
0.0
  9
$THICKNESS
 40
0.0
  9
$LIMCHECK
 70
     0
  9
$BLIPMODE
 70
     0
  9
$CHAMFERA
 40
0.5
  9
$CHAMFERB
 40
0.5
  9
$SKPOLY
 70
     0
  9
$TDCREATE
 40
2453455.36471191
  9
$TDUPDATE
 40
2458543.5648557059
  9
$TDINDWG
 40
0.2130803356
  9
$TDUSRTIMER
 40
0.2130803241
  9
$USRTIMER
 70
     1
  9
$ANGBASE
 50
0.0
  9
$ANGDIR
 70
     0
  9
$PDMODE
 70
     0
  9
$PDSIZE
 40
0.0
  9
$PLINEWID
 40
0.0
  9
$COORDS
 70
     1
  9
$SPLFRAME
 70
     0
  9
$SPLINETYPE
 70
     6
  9
$SPLINESEGS
 70
     8
  9
$ATTDIA
 70
     1
  9
$ATTREQ
 70
     1
  9
$HANDLING
 70
     1
  9
$HANDSEED
  5
AF3A
  9
$SURFTAB1
 70
     6
  9
$SURFTAB2
 70
     6
  9
$SURFTYPE
 70
     6
  9
$SURFU
 70
     6
  9
$SURFV
 70
     6
  9
$UCSNAME
  2

  9
$UCSORG
 10
0.0
 20
0.0
 30
0.0
  9
$UCSXDIR
 10
1.0
 20
0.0
 30
0.0
  9
$UCSYDIR
 10
0.0
 20
1.0
 30
0.0
  9
$PUCSNAME
  2

  9
$PUCSORG
 10
0.0
 20
0.0
 30
0.0
  9
$PUCSXDIR
 10
1.0
 20
0.0
 30
0.0
  9
$PUCSYDIR
 10
0.0
 20
1.0
 30
0.0
  9
$USERI1
 70
     0
  9
$USERI2
 70
     0
  9
$USERI3
 70
     0
  9
$USERI4
 70
     0
  9
$USERI5
 70
     0
  9
$USERR1
 40
0.0
  9
$USERR2
 40
0.0
  9
$USERR3
 40
0.0
  9
$USERR4
 40
0.0
  9
$USERR5
 40
0.0
  9
$WORLDVIEW
 70
     1
  9
$SHADEDGE
 70
     3
  9
$SHADEDIF
 70
    70
  9
$TILEMODE
 70
     1
  9
$MAXACTVP
 70
    48
  9
$PLIMCHECK
 70
     0
  9
$PEXTMIN
 10
1.0000000000000000E+020
 20
1.0000000000000000E+020
 30
1.0000000000000000E+020
  9
$PEXTMAX
 10
-1.0000000000000000E+020
 20
-1.0000000000000000E+020
 30
-1.0000000000000000E+020
  9
$PLIMMIN
 10
0.0
 20
0.0
  9
$PLIMMAX
 10
420.0
 20
297.0
  9
$UNITMODE
 70
     0
  9
$VISRETAIN
 70
     1
  9
$PLINEGEN
 70
     0
  9
$PSLTSCALE
 70
     1
  0
ENDSEC
  0
SECTION
  2
TABLES
  0
TABLE
  2
VPORT
 70
     1
  0
VPORT
  2
*ACTIVE
 70
     0
 10
0.0
 20
0.0
 11
1.0
 21
1.0
 12
403.86141782360068
 22
352.57438797628788
 13
0.0
 23
0.0
 14
7.5
 24
7.5
 15
30.0
 25
30.0
 16
0.0
 26
0.0
 36
1.0
 17
0.0
 27
0.0
 37
0.0
 40
405.61820913677138
 41
1.7571592210767459
 42
50.0
 43
0.0
 44
0.0
 50
0.0
 51
0.0
 71
    16
 72
   100
 73
     1
 74
     1
 75
     0
 76
     0
 77
     0
 78
     0
  0
ENDTAB
  0
TABLE
  2
LTYPE
 70
    22
  0
LTYPE
  2
CONTINUOUS
 70
     0
  3
Solid line
 72
    65
 73
     0
 40
0.0
  0
LTYPE
  2
HIDDEN
 70
     0
  3
Hidden __ __ __ __ __ __ __ __ __ __ __ __ __ _
 72
    65
 73
     2
 40
9.5249999999999968
 49
6.3499999999999979
 49
-3.174999999999998
  0
LTYPE
  2
PHANTOM2
 70
     0
  3
Phantom (.5x) ___ _ _ ___ _ _ ___ _ _ ___ _ _
 72
    65
 73
     6
 40
31.75
 49
15.875
 49
-3.174999999999998
 49
3.174999999999998
 49
-3.174999999999998
 49
3.174999999999998
 49
-3.174999999999998
  0
LTYPE
  2
CENTER
 70
     0
  3
Center ____ _ ____ _ ____ _ ____ _ ____ _ ____
 72
    65
 73
     4
 40
50.799999999999997
 49
31.75
 49
-6.3499999999999979
 49
6.3499999999999979
 49
-6.3499999999999979
  0
LTYPE
  2
ACANSTGBM
 70
     0
  3
__ . . __ . .
 72
    65
 73
     6
 40
9.0
 49
4.0
 49
-1.0
 49
1.0
 49
-1.0
 49
1.0
 49
-1.0
  0
LTYPE
  2
ACANSTGLM
 70
     0
  3
_ _ _ _ _
 72
    65
 73
     2
 40
3.0
 49
2.0
 49
-1.0
  0
LTYPE
  2
GEN7
 70
     0
  3
____ . ____ . ____ . ____ . ____ . ____ . ____
 72
    65
 73
     4
 40
14.25
 49
9.75
 49
-1.5
 49
1.5
 49
-1.5
  0
LTYPE
  2
GEN3B
 70
     0
  3
 - - - - -
 72
    65
 73
     2
 40
1.0
 49
0.5
 49
-0.5
  0
LTYPE
  2
GEN7A
 70
     0
  3
__ . __ . __
 72
    65
 73
     4
 40
7.375
 49
4.75
 49
-0.875
 49
0.875
 49
-0.875
  0
LTYPE
  2
AM_ISO02W050
 70
     0
  3
__ __ __ __ __ __ __ __ __ __ __ __ __ __ __
 72
    65
 73
     2
 40
7.5
 49
6.0
 49
-1.5
  0
LTYPE
  2
AM_ISO08W050
 70
     0
  3
____ . ____ . ____ . ____ . ____ . ____ . ____
 72
    65
 73
     4
 40
18.0
 49
12.0
 49
-1.5
 49
3.0
 49
-1.5
  0
LTYPE
  2
AM_ISO09W050
 70
     0
  3
_____ . . _____ . . _____ . . ____ .. ____
 72
    65
 73
     6
 40
22.5
 49
12.0
 49
-1.5
 49
3.0
 49
-1.5
 49
3.0
 49
-1.5
  0
LTYPE
  2
AMCONSTR
 70
     0
  3
_______________________
 72
    65
 73
     2
 40
9999.0
 49
9999.0
 49
0.0
  0
LTYPE
  2
AM_ISO02W050X2
 70
     0
  3
 _ _ _ _ _ _ _ _ _ _ _ _
 72
    65
 73
     2
 40
3.75
 49
3.0
 49
-0.75
  0
LTYPE
  2
AM_ISO08W050X2
 70
     0
  3
__ . __ . __ . __ . __ . __
 72
    65
 73
     4
 40
9.0
 49
6.0
 49
-0.75
 49
1.5
 49
-0.75
  0
LTYPE
  2
AMZIGZAG
 70
     0
  3
/\/-/\/-/\/-/\/-/\/-/\/
 72
    65
 73
     2
 40
11.0001
 49
0.0001
 49
-11.0
  0
LTYPE
  2
ACJISTGB
 70
     0
  3
__ . . __ . .
 72
    65
 73
     6
 40
9.0
 49
4.0
 49
-1.0
 49
1.0
 49
-1.0
 49
1.0
 49
-1.0
  0
LTYPE
  2
ACJISTGL
 70
     0
  3
_ _ _ _ _
 72
    65
 73
     2
 40
3.0
 49
2.0
 49
-1.0
  0
LTYPE
  2
ACISOWELD
 70
     0
  3
_ _ _ _ _
 72
    65
 73
     2
 40
2.0
 49
2.0
 49
-1.0
  0
LTYPE
  2
ACISOTGB
 70
     0
  3
__ . . __ . .
 72
    65
 73
     6
 40
9.0
 49
4.0
 49
-1.0
 49
1.0
 49
-1.0
 49
1.0
 49
-1.0
  0
LTYPE
  2
ACISOTGL
 70
     0
  3
_ _ _ _ _
 72
    65
 73
     2
 40
3.0
 49
2.0
 49
-1.0
  0
ENDTAB
  0
TABLE
  2
LAYER
 70
     7
  0
LAYER
  2
0
 70
     0
 62
     7
  6
CONTINUOUS
  0
LAYER
  2
DEFPOINTS
 70
     0
 62
     7
  6
CONTINUOUS
  0
LAYER
  2
ｶｸﾚｾﾝ2
 70
     0
 62
     3
  6
GEN3B
  0
LAYER
  2
ﾁｭｳｼﾝｾﾝ
 70
     0
 62
     1
  6
GEN7
  0
LAYER
  2
ﾁｭｳｼﾝｾﾝ1
 70
     0
 62
     1
  6
GEN7A
  0
LAYER
  2
AM_0
 70
     0
 62
     7
  6
CONTINUOUS
  0
LAYER
  2
AM_0N
 70
     0
 62
     7
  6
CONTINUOUS
  0
ENDTAB
  0
TABLE
  2
STYLE
 70
     8
  0
STYLE
  2
STANDARD
 70
     0
 40
0.0
 41
0.8299999999999999
 50
0.0
 71
     0
 42
2.5
  3
txt.shx
  4
bigfont.shx
  0
STYLE
  2
ACANSTS
 70
     0
 40
1.0
 41
1.0
 50
0.0
 71
     0
 42
2.5
  3
romans.shx
  4
bigfont.shx
  0
STYLE
  2
ACANSGDT
 70
     0
 40
0.0
 41
1.0
 50
0.0
 71
     0
 42
2.5
  3
amgdtans.shx
  4

  0
STYLE
  2

 70
     1
 40
0.0
 41
1.0
 50
0.0
 71
     0
 42
2.5
  3
ltypeshp.shx
  4

  0
STYLE
  2
ACJISTS
 70
     0
 40
1.0
 41
1.0
 50
0.0
 71
     0
 42
2.5
  3
isocp.shx
  4
bigfont.shx
  0
STYLE
  2
ACJISGDT
 70
     0
 40
0.0
 41
1.0
 50
0.0
 71
     0
 42
2.5
  3
amgdt.shx
  4

  0
STYLE
  2
ACISOTS
 70
     0
 40
1.0
 41
1.0
 50
0.0
 71
     0
 42
2.5
  3
isocp.shx
  4
extfont.shx
  0
STYLE
  2
ACISOGDT
 70
     0
 40
0.0
 41
1.0
 50
0.0
 71
     0
 42
2.5
  3
amgdt.shx
  4

  0
ENDTAB
  0
TABLE
  2
VIEW
 70
    12
  0
VIEW
  2
GEN1
 70
     0
 40
95.824742268041234
 10
71.5
 20
137.08762886597941
 41
143.0
 11
0.0
 21
0.0
 31
1.0
 12
0.0
 22
0.0
 32
0.0
 42
50.0
 43
0.0
 44
0.0
 50
0.0
 71
     0
  0
VIEW
  2
GEN2
 70
     0
 40
95.824742268041234
 10
214.5
 20
137.08762886597941
 41
143.0
 11
0.0
 21
0.0
 31
1.0
 12
0.0
 22
0.0
 32
0.0
 42
50.0
 43
0.0
 44
0.0
 50
0.0
 71
     0
  0
VIEW
  2
GEN3
 70
     0
 40
95.824742268041234
 10
71.5
 20
47.912371134020603
 41
143.0
 11
0.0
 21
0.0
 31
1.0
 12
0.0
 22
0.0
 32
0.0
 42
50.0
 43
0.0
 44
0.0
 50
0.0
 71
     0
  0
VIEW
  2
GEN4
 70
     0
 40
95.824742268041234
 10
214.5
 20
47.912371134020603
 41
143.0
 11
0.0
 21
0.0
 31
1.0
 12
0.0
 22
0.0
 32
0.0
 42
50.0
 43
0.0
 44
0.0
 50
0.0
 71
     0
  0
VIEW
  2
GEN5
 70
     0
 40
95.824742268041234
 10
143.0
 20
92.500000000000057
 41
143.0
 11
0.0
 21
0.0
 31
1.0
 12
0.0
 22
0.0
 32
0.0
 42
50.0
 43
0.0
 44
0.0
 50
0.0
 71
     0
  0
VIEW
  2
GEN6
 70
     0
 40
191.64756804123709
 10
143.0
 20
92.5
 41
285.99714
 11
0.0
 21
0.0
 31
1.0
 12
0.0
 22
0.0
 32
0.0
 42
50.0
 43
0.0
 44
0.0
 50
0.0
 71
     0
  0
VIEW
  2
AM_VIEW1
 70
     0
 40
277.50000000000011
 10
219.35382685069021
 20
416.25000000000011
 41
438.70765370138031
 11
0.0
 21
0.0
 31
1.0
 12
0.0
 22
0.0
 32
0.0
 42
50.0
 43
0.0
 44
0.0
 50
0.0
 71
    16
  0
VIEW
  2
AM_VIEW2
 70
     0
 40
277.50000000000011
 10
634.14617314930967
 20
416.25000000000011
 41
438.70765370138031
 11
0.0
 21
0.0
 31
1.0
 12
0.0
 22
0.0
 32
0.0
 42
50.0
 43
0.0
 44
0.0
 50
0.0
 71
    16
  0
VIEW
  2
AM_VIEW3
 70
     0
 40
277.50000000000011
 10
219.35382685069021
 20
138.75
 41
438.70765370138031
 11
0.0
 21
0.0
 31
1.0
 12
0.0
 22
0.0
 32
0.0
 42
50.0
 43
0.0
 44
0.0
 50
0.0
 71
    16
  0
VIEW
  2
AM_VIEW4
 70
     0
 40
277.50000000000011
 10
634.14617314930967
 20
138.75
 41
438.70765370138031
 11
0.0
 21
0.0
 31
1.0
 12
0.0
 22
0.0
 32
0.0
 42
50.0
 43
0.0
 44
0.0
 50
0.0
 71
    16
  0
VIEW
  2
AM_VIEW5
 70
     0
 40
277.50000000000011
 10
426.75
 20
277.50000000000011
 41
438.70765370138031
 11
0.0
 21
0.0
 31
1.0
 12
0.0
 22
0.0
 32
0.0
 42
50.0
 43
0.0
 44
0.0
 50
0.0
 71
    16
  0
VIEW
  2
AM_VIEW6
 70
     0
 40
554.99445000000014
 10
426.75
 20
277.5
 41
877.40653324968639
 11
0.0
 21
0.0
 31
1.0
 12
0.0
 22
0.0
 32
0.0
 42
50.0
 43
0.0
 44
0.0
 50
0.0
 71
    16
  0
ENDTAB
  0
TABLE
  2
UCS
 70
     0
  0
ENDTAB
  0
TABLE
  2
APPID
 70
    96
  0
APPID
  2
ACAD
 70
     0
  0
APPID
  2
MCAD_NO_VIS
 70
     0
  0
APPID
  2
ACAD_TEMP_GRAPHIC
 70
     0
  0
APPID
  2
AD_DRAW
 70
     0
  0
APPID
  2
DESIGNERASSEMBLIES
 70
     0
  0
APPID
  2
ASURF_PCURVE_APPNAME
 70
     0
  0
APPID
  2
GENIUS_GE3SECT_13
 70
     0
  0
APPID
  2
GENIUS_GENCFG_13
 70
     0
  0
APPID
  2
GENIUS_GE3CFG0_13
 70
     0
  0
APPID
  2
GENIUS_GENCFG0_13
 70
     0
  0
APPID
  2
GENIUS_GENCFG1_13
 70
     0
  0
APPID
  2
GENIUS_GENCFG2_13
 70
     0
  0
APPID
  2
GENIUS_GENCFG3_13
 70
     0
  0
APPID
  2
GENIUS_GENCFG4_13
 70
     0
  0
APPID
  2
GENIUS_GEVCFG0_13
 70
     0
  0
APPID
  2
GENIUS_GENOENT_13
 70
     0
  0
APPID
  2
GENIUS_GENREC_14
 70
     0
  0
APPID
  2
GENIUS_GENODEF_13
 70
     0
  0
APPID
  2
GENIUS_GENOBJ-N-REC_13
 70
     0
  0
APPID
  2
GENIUS_GENHINW_13
 70
     0
  0
APPID
  2
GENIUS_FIRSTVISTXT_14
 70
     0
  0
APPID
  2
GENIUS_GENOBJ-N-LEADER_13
 70
     0
  0
APPID
  2
GENIUS_GENOREF_13
 70
     0
  0
APPID
  2
GENIUS_GENOLIS_13
 70
     0
  0
APPID
  2
GEV_VCCNULL_SWITCH_OFF
 70
     0
  0
APPID
  2
GENIUS_GENDTOL_13
 70
     0
  0
APPID
  2
GENIUS_GEFCFG0_13
 70
     0
  0
APPID
  2
GENIUS_GENOBJ-N-TIT_13
 70
     0
  0
APPID
  2
GENIUS_GENTITLE_13
 70
     0
  0
APPID
  2
GENIUS_GENZVEED_13
 70
     0
  0
APPID
  2
GENIUS_GENOBJ-N-SDF_13
 70
     0
  0
APPID
  2
GENIUS_GENSCREG_13
 70
     0
  0
APPID
  2
GENIUS_DUMCFG0_13
 70
     0
  0
APPID
  2
GEVID936201362
 70
     0
  0
APPID
  2
GEVDC
 70
     0
  0
APPID
  2
GEVCON
 70
     0
  0
APPID
  2
VCC
 70
     0
  0
APPID
  2
GEVPT
 70
     0
  0
APPID
  2
GEVIT
 70
     0
  0
APPID
  2
GENBH
 70
     0
  0
APPID
  2
GEVMK
 70
     0
  0
APPID
  2
GENIUS_GENBH_13
 70
     0
  0
APPID
  2
GENIUS_GENOBJ-NBEHI-BHF_13
 70
     0
  0
APPID
  2
GENIUS_GENOBJ-NBEHI-BHB_13
 70
     0
  0
APPID
  2
GENIUS_GENOBJ-F-DESC_13
 70
     0
  0
APPID
  2
GENIUS_GEFDESC_14
 70
     0
  0
APPID
  2
GENIUS_GENOBJ-F-PART_13
 70
     0
  0
APPID
  2
GENIUS_GEFSTDP_13
 70
     0
  0
APPID
  2
GENIUS_GEFPARTINS_13
 70
     0
  0
APPID
  2
GENIUS_GENTRA_14
 70
     0
  0
APPID
  2
GENIUS_GENINF13_13
 70
     0
  0
APPID
  2
GENIUS_GENOBJ-N-INFOPT_13
 70
     0
  0
APPID
  2
GENIUS_GENOBJ-N-RSSYM_13
 70
     0
  0
APPID
  2
GENIUS_GENSYMENT_13
 70
     0
  0
APPID
  2
GENIUS_GENSCSYM_13
 70
     0
  0
APPID
  2
GENIUS_GEFINFNAM_13
 70
     0
  0
APPID
  2
GENIUS_GENSCREG_15
 70
     0
  0
APPID
  2
GENIUS_GENOBJ-N-CEN_13
 70
     0
  0
APPID
  2
GENIUS_GENOBJ-N-CRS_13
 70
     0
  0
APPID
  2
GENIUS_GENOBJ-N-CRC_13
 70
     0
  0
APPID
  2
GENIUS_GENCRC_14
 70
     0
  0
APPID
  2
GEVID942827039
 70
     0
  0
APPID
  2
GEVID942827040
 70
     0
  0
APPID
  2
GEVID942827041
 70
     0
  0
APPID
  2
GENIUS_GENOBJ-F-SCPASSM_13
 70
     0
  0
APPID
  2
GENIUS_GENDIMSH_14
 70
     0
  0
APPID
  2
GENIUS_GENFIL_13
 70
     0
  0
APPID
  2
GENIUS_GENOBJ-N-CHA_13
 70
     0
  0
APPID
  2
GENIUS_GENOBJ-N-FIL_13
 70
     0
  0
APPID
  2
GEVID942827042
 70
     0
  0
APPID
  2
GEVID946020473
 70
     0
  0
APPID
  2
GEVID946020474
 70
     0
  0
APPID
  2
GEVID946020475
 70
     0
  0
APPID
  2
GENIUS_GENOBJ-N-HTC_13
 70
     0
  0
APPID
  2
GENIUS_GENHATCH_13
 70
     0
  0
APPID
  2
GEVID948854295
 70
     0
  0
APPID
  2
GEVID939402019
 70
     0
  0
APPID
  2
GEVID952919491
 70
     0
  0
APPID
  2
GEVID952919492
 70
     0
  0
APPID
  2
GENIUS_GEFWELD_13
 70
     0
  0
APPID
  2
GENIUS_GENOBJ-F-WELS_13
 70
     0
  0
APPID
  2
GEVID952919493
 70
     0
  0
APPID
  2
GENIUS_GENOBJ-N-RSBK_13
 70
     0
  0
APPID
  2
GENIUS_GENOBJ-N-LIB_13
 70
     0
  0
APPID
  2
GENIUS_GENSCALE_13
 70
     0
  0
APPID
  2
GEVID986376691
 70
     0
  0
APPID
  2
ACATTRIBSERVICES
 70
     0
  0
APPID
  2
ACADM_DIM_EDIT
 70
     0
  0
APPID
  2
AMDT_DM_ADJ
 70
     0
  0
APPID
  2
ACAD_PSEXT
 70
     0
  0
APPID
  2
ACAD_MLEADERVER
 70
     0
  0
APPID
  2
ACAD_DSTYLE_DIMBREAK
 70
     0
  0
APPID
  2
ACAD_DSTYLE_DIMJAG
 70
     0
  0
APPID
  2
ACAD_NAV_VCDISPLAY
 70
     0
  0
APPID
  2
ACADANNOPO
 70
     0
  0
APPID
  2
ACAD_EXEMPT_FROM_CAD_STANDARDS
 70
     0
  0
ENDTAB
  0
TABLE
  2
DIMSTYLE
 70
    17
  0
DIMSTYLE
  2
STANDARD
 70
     0
  3

  4

  5

  6

  7

 40
1.0
 41
0.18
 42
0.0625
 43
0.38
 44
0.18
 45
0.0
 46
0.0
 47
0.0
 48
0.0
140
0.18
141
0.09
142
0.0
143
25.399999999999999
144
1.0
145
0.0
146
1.0
147
0.09
 71
     0
 72
     0
 73
     1
 74
     1
 75
     0
 76
     0
 77
     0
 78
     0
170
     0
171
     2
172
     0
173
     0
174
     0
175
     0
176
     0
177
     0
178
     0
  0
DIMSTYLE
  2
AM_JIS
 70
     0
  3

  4
"
  5

  6

  7

 40
1.0
 41
2.5
 42
1.0
 43
7.0
 44
1.0
 45
0.0
 46
0.0
 47
0.1
 48
0.1000000001
140
2.5
141
0.0
142
0.0
143
0.0393701
144
1.0
145
0.0
146
0.71
147
1.0
 71
     0
 72
     0
 73
     0
 74
     0
 75
     0
 76
     0
 77
     3
 78
     8
170
     0
171
     2
172
     1
173
     0
174
     0
175
     0
176
   256
177
   256
178
     4
  0
DIMSTYLE
  2
AM_JIS$3
 70
     0
  3

  4
"
  5

  6

  7

 40
1.0
 41
2.5
 42
1.0
 43
7.0
 44
1.0
 45
0.0
 46
0.0
 47
0.1
 48
0.1000000001
140
2.5
141
0.0
142
0.0
143
0.0393701
144
1.0
145
0.0
146
0.71
147
1.0
 71
     0
 72
     0
 73
     0
 74
     1
 75
     0
 76
     0
 77
     3
 78
     8
170
     0
171
     2
172
     0
173
     0
174
     0
175
     0
176
   256
177
   256
178
     4
  0
DIMSTYLE
  2
AM_JIS$4
 70
     0
  3

  4
"
  5

  6

  7

 40
1.0
 41
2.5
 42
1.0
 43
7.0
 44
1.0
 45
0.0
 46
0.0
 47
0.1
 48
0.1000000001
140
2.5
141
0.0
142
0.0
143
0.0393701
144
1.0
145
0.0
146
0.71
147
1.0
 71
     0
 72
     0
 73
     0
 74
     0
 75
     0
 76
     0
 77
     3
 78
     8
170
     0
171
     2
172
     0
173
     0
174
     0
175
     0
176
   256
177
   256
178
     4
  0
DIMSTYLE
  2
AM_JIS$6
 70
     0
  3

  4
"
  5

  6

  7

 40
1.0
 41
2.5
 42
1.0
 43
7.0
 44
1.0
 45
0.0
 46
0.0
 47
0.1
 48
0.1000000001
140
2.5
141
0.0
142
0.0
143
0.0393701
144
1.0
145
0.0
146
0.71
147
1.0
 71
     0
 72
     0
 73
     0
 74
     0
 75
     0
 76
     0
 77
     0
 78
     8
170
     0
171
     2
172
     1
173
     0
174
     0
175
     0
176
   256
177
   256
178
     4
  0
DIMSTYLE
  2
AM_JIS$7
 70
     0
  3

  4
"
  5

  6

  7

 40
1.0
 41
2.5
 42
1.0
 43
7.0
 44
1.0
 45
0.0
 46
0.0
 47
0.1
 48
0.1000000001
140
2.5
141
0.0
142
0.0
143
0.0393701
144
1.0
145
0.0
146
0.71
147
1.0
 71
     0
 72
     0
 73
     0
 74
     0
 75
     0
 76
     0
 77
     3
 78
     8
170
     0
171
     2
172
     1
173
     0
174
     0
175
     0
176
   256
177
   256
178
     4
  0
DIMSTYLE
  2
AM_JIS$SF
 70
     0
  3

  4
"
  5
OPEN30
  6
OPEN30
  7
OPEN30
 40
1.0
 41
2.5
 42
1.0
 43
10.0
 44
1.0
 45
0.0
 46
0.0
 47
0.1
 48
0.1
140
3.5
141
0.0
142
0.0
143
0.0393701
144
1.0
145
0.0
146
0.71
147
1.5
 71
     0
 72
     0
 73
     0
 74
     0
 75
     1
 76
     1
 77
     3
 78
     8
170
     0
171
     2
172
     1
173
     0
174
     0
175
     0
176
   256
177
   256
178
     4
  0
DIMSTYLE
  2
AM_JIS$SH
 70
     0
  3

  4
"
  5

  6
NONE
  7

 40
1.0
 41
2.5
 42
1.0
 43
10.0
 44
1.0
 45
0.0
 46
0.0
 47
0.1
 48
0.1
140
3.5
141
0.0
142
0.0
143
0.0393701
144
1.0
145
0.0
146
0.71
147
1.5
 71
     0
 72
     0
 73
     0
 74
     0
 75
     1
 76
     0
 77
     3
 78
     8
170
     0
171
     2
172
     1
173
     1
174
     0
175
     0
176
   256
177
   256
178
     4
  0
DIMSTYLE
  2
AM_ISO
 70
     0
  3

  4
"
  5

  6

  7

 40
1.0
 41
2.5
 42
1.0
 43
8.0
 44
0.6
 45
0.0
 46
0.0
 47
0.1
 48
0.1
140
2.5
141
0.0
142
0.0
143
0.0393701
144
1.0
145
0.0
146
0.71
147
0.8
 71
     0
 72
     0
 73
     0
 74
     0
 75
     0
 76
     0
 77
     1
 78
     8
170
     0
171
     2
172
     1
173
     0
174
     0
175
     0
176
   256
177
   256
178
     4
  0
DIMSTYLE
  2
AM_ISO$3
 70
     0
  3

  4
"
  5

  6

  7

 40
1.0
 41
2.5
 42
1.0
 43
8.0
 44
0.6
 45
0.0
 46
0.0
 47
0.1
 48
0.1
140
2.5
141
0.0
142
0.0
143
0.0393701
144
1.0
145
0.0
146
0.71
147
0.8
 71
     0
 72
     0
 73
     0
 74
     1
 75
     0
 76
     0
 77
     1
 78
     8
170
     0
171
     2
172
     0
173
     0
174
     0
175
     0
176
   256
177
   256
178
     4
  0
DIMSTYLE
  2
AM_ISO$4
 70
     0
  3

  4
"
  5

  6

  7

 40
1.0
 41
2.5
 42
1.0
 43
8.0
 44
0.6
 45
0.0
 46
0.0
 47
0.1
 48
0.1
140
2.5
141
0.0
142
0.0
143
0.0393701
144
1.0
145
0.0
146
0.71
147
0.8
 71
     0
 72
     0
 73
     0
 74
     1
 75
     0
 76
     0
 77
     1
 78
     8
170
     0
171
     2
172
     0
173
     0
174
     0
175
     0
176
   256
177
   256
178
     4
  0
DIMSTYLE
  2
AM_ISO$6
 70
     0
  3

  4
"
  5

  6

  7

 40
1.0
 41
2.5
 42
1.0
 43
8.0
 44
0.6
 45
0.0
 46
0.0
 47
0.1
 48
0.1
140
2.5
141
0.0
142
0.0
143
0.0393701
144
1.0
145
0.0
146
0.71
147
0.8
 71
     0
 72
     0
 73
     0
 74
     0
 75
     0
 76
     0
 77
     0
 78
     8
170
     0
171
     2
172
     1
173
     0
174
     0
175
     0
176
   256
177
   256
178
     4
  0
DIMSTYLE
  2
AM_ISO$7
 70
     0
  3

  4
"
  5

  6

  7

 40
1.0
 41
2.5
 42
1.0
 43
8.0
 44
0.6
 45
0.0
 46
0.0
 47
0.1
 48
0.1
140
2.5
141
0.0
142
0.0
143
0.0393701
144
1.0
145
0.0
146
0.71
147
0.8
 71
     0
 72
     0
 73
     0
 74
     0
 75
     0
 76
     0
 77
     1
 78
     8
170
     0
171
     2
172
     1
173
     0
174
     0
175
     0
176
   256
177
   256
178
     4
  0
DIMSTYLE
  2
AM_ISO$SF
 70
     0
  3

  4
"
  5

  6

  7

 40
1.0
 41
2.5
 42
1.0
 43
10.0
 44
1.0
 45
0.0
 46
0.0
 47
0.1
 48
0.1
140
3.5
141
0.0
142
0.0
143
0.0393701
144
1.0
145
0.0
146
0.71
147
1.5
 71
     0
 72
     0
 73
     0
 74
     0
 75
     1
 76
     1
 77
     1
 78
     8
170
     0
171
     2
172
     1
173
     0
174
     0
175
     0
176
   256
177
   256
178
     2
  0
DIMSTYLE
  2
AM_ISO$SH
 70
     0
  3

  4
"
  5

  6
GENAXEH
  7

 40
1.0
 41
2.5
 42
1.0
 43
10.0
 44
1.0
 45
0.0
 46
0.0
 47
0.1
 48
0.1
140
3.5
141
0.0
142
0.0
143
0.0393701
144
2.0
145
0.0
146
0.71
147
1.5
 71
     0
 72
     0
 73
     0
 74
     0
 75
     1
 76
     1
 77
     1
 78
     8
170
     0
171
     2
172
     1
173
     1
174
     0
175
     0
176
   256
177
   256
178
     2
  0
DIMSTYLE
  2
AM_ISO$0
 70
     0
  3

  4
"
  5

  6

  7

 40
1.0
 41
2.5
 42
1.0
 43
8.0
 44
0.6
 45
0.0
 46
0.0
 47
0.1
 48
0.1
140
2.5
141
0.0
142
0.0
143
0.0393701
144
1.0
145
0.0
146
0.71
147
0.8
 71
     0
 72
     0
 73
     0
 74
     0
 75
     0
 76
     0
 77
     1
 78
     8
170
     0
171
     2
172
     1
173
     0
174
     0
175
     0
176
   256
177
   256
178
     4
  0
DIMSTYLE
  2
AM_JIS$0
 70
     0
  3

  4
"
  5

  6

  7

 40
1.0
 41
2.5
 42
1.0
 43
7.0
 44
1.0
 45
0.0
 46
0.0
 47
0.1
 48
0.1000000001
140
2.5
141
0.0
142
0.0
143
0.0393701
144
1.0
145
0.0
146
0.71
147
1.0
 71
     0
 72
     0
 73
     0
 74
     0
 75
     0
 76
     0
 77
     3
 78
     8
170
     0
171
     2
172
     1
173
     0
174
     0
175
     0
176
   256
177
   256
178
     4
  0
ENDTAB
  0
ENDSEC
  0
SECTION
  2
BLOCKS
  0
BLOCK
  8
0
  2
$MODEL_SPACE
 70
     0
 10
0.0
 20
0.0
 30
0.0
  3
$MODEL_SPACE
  1

  0
ENDBLK
  5
1A
  8
0
  0
BLOCK
 67
     1
  8
0
  2
$PAPER_SPACE
 70
     0
 10
0.0
 20
0.0
 30
0.0
  3
$PAPER_SPACE
  1

  0
ENDBLK
  5
17
 67
     1
  8
0
  0
BLOCK
  8
0
  2
_OPEN30
 70
     0
 10
0.0
 20
0.0
 30
0.0
  3
_OPEN30
  1

  0
LINE
  5
21C5
  8
0
 62
     0
 10
-1.0
 20
0.26794919
 30
0.0
 11
0.0
 21
0.0
 31
0.0
  0
LINE
  5
21C6
  8
0
 62
     0
 10
0.0
 20
0.0
 30
0.0
 11
-1.0
 21
-0.26794919
 31
0.0
  0
LINE
  5
21C7
  8
0
 62
     0
 10
0.0
 20
0.0
 30
0.0
 11
-1.0
 21
0.0
 31
0.0
  0
ENDBLK
  5
21C9
  8
0
  0
BLOCK
  8
0
  2
GENAXEH
 70
     0
 10
0.0
 20
0.0
 30
0.0
  3
GENAXEH
  1

  0
LINE
  5
21D0
  8
0
 10
-1.0
 20
0.0
 30
0.0
 11
1.0
 21
0.0
 31
0.0
  0
ENDBLK
  5
21D2
  8
0
  0
BLOCK
  8
0
  2
_NONE
 70
     0
 10
0.0
 20
0.0
 30
0.0
  3
_NONE
  1

  0
ENDBLK
  5
8193
  8
0
  0
ENDSEC
  0
SECTION
  2
ENTITIES
  0
POINT
  5
1B94
  8
0
 10
0.0
 20
0.0
 30
0.0
1001
GENIUS_GENODEF_13
1002
{
1000
HIER
1070
     1
1002
}
1002
{
1000
MANEDIT
1070
     0
1002
}
1002
{
1000
NOSEL
1070
     0
1002
}
1002
{
1000
BEHIND
1070
     0
1002
}
1002
{
1000
REACTOR
1002
}
1001
GENIUS_GENOBJ-N-SDF_13
1002
{
1000
OWNER
1000
GEN
1002
}
1001
GENIUS_GENOENT_13
1002
{
1000
MYREF
1005
1B94
1002
}
1002
{
1000
GRP
1005
0
1002
}
1001
GENIUS_GENOLIS_13
1002
{
1000
ENT
1005
89
1002
}
  0
LINE
  5
8B4C
  8
AM_0
 10
287.18501253070542
 20
219.63116624729801
 30
0.0
 11
404.18501595797238
 21
219.63116624729801
 31
0.0
  0
LINE
  5
8B4D
  8
AM_0
 10
287.18501253070542
 20
321.63116928713492
 30
0.0
 11
404.18501595797238
 21
321.6311692871347
 31
0.0
  0
LINE
  5
8B4E
  8
AM_0
 10
303.18501253070542
 20
225.63116642611189
 30
0.0
 11
386.1850159579725
 21
225.63116642611189
 31
0.0
  0
LINE
  5
8B4F
  8
AM_0
 10
303.18501253070542
 20
315.6311691083211
 30
0.0
 11
386.1850159579725
 21
315.6311691083211
 31
0.0
  0
LINE
  5
8B50
  8
ﾁｭｳｼﾝｾﾝ
 10
418.18501628579799
 20
270.63116776721631
 30
0.0
 11
111.1850122028799
 21
270.63116776721631
 31
0.0
  0
ARC
  5
8BF2
  8
AM_0
 10
303.18501253070542
 20
310.63116910832099
 30
0.0
 40
5.0
 50
90.0
 51
180.0000005336085
1001
GENIUS_GENODEF_13
1002
{
1000
HIER
1070
     0
1002
}
1002
{
1000
MANEDIT
1070
     0
1002
}
1002
{
1000
NOSEL
1070
     0
1002
}
1002
{
1000
BEHIND
1070
     0
1002
}
1002
{
1000
OTHER
1070
     0
1002
}
1002
{
1000
REACTOR
1002
}
1001
GENIUS_GENOBJ-N-FIL_13
1002
{
1000
OWNER
1000
GEN
1002
}
  0
CIRCLE
  5
8BF3
  8
AM_0
 10
287.18501253070542
 20
310.63116895930921
 30
0.0
 40
4.5000001341104507
  0
ARC
  5
8BF4
  8
AM_0
 10
287.18501253070542
 20
310.63116895930921
 30
0.0
 40
11.00000032782555
 50
90.000002504475205
 51
180.00000500895689
  0
LINE
  5
8BF5
  8
ﾁｭｳｼﾝｾﾝ1
 10
287.18501253070542
 20
303.13116873579179
 30
0.0
 11
287.18501253070542
 21
318.1311691828268
 31
0.0
  0
LINE
  5
8BFA
  8
AM_0
 10
263.18501220287988
 20
219.9908860899701
 30
0.0
 11
263.18501220287988
 21
321.27145707385688
 31
0.0
  0
ARC
  5
8BFB
  8
AM_0
 10
495.18499694409059
 20
270.63116776721631
 30
0.0
 40
236.0
 50
169.43603828764111
 51
180.00000500895041
  0
LINE
  5
8BFC
  8
AM_0
 10
251.6789086872549
 20
326.63116776721631
 30
0.0
 11
251.6789086872549
 21
214.63116776721631
 31
0.0
  0
ARC
  5
8CF9
  8
AM_0
 10
495.18499694409059
 20
270.63116776721631
 30
0.0
 40
236.0
 50
180.00000500895041
 51
190.56397173027449
  0
LINE
  5
8CFA
  8
AM_0
 10
282.18501238169381
 20
294.63116895930921
 30
0.0
 11
282.18501238169381
 21
246.63116657512339
 31
0.0
  0
LINE
  5
8CFB
  8
AM_0
 10
276.18501220287988
 20
310.63116895930921
 30
0.0
 11
276.18501220287988
 21
230.6311665751235
 31
0.0
  0
LINE
  5
8CFC
  8
AM_0
 10
264.37879878026217
 20
221.63116776721631
 30
0.0
 11
280.86045688254319
 21
221.63116776721631
 31
0.0
  0
LINE
  5
8CFD
  8
AM_0
 10
263.68501220287988
 20
227.36455857532181
 30
0.0
 11
276.18501220287999
 21
227.36455857532181
 31
0.0
  0
ARC
  5
8CFE
  8
AM_0
 10
261.23613726605788
 20
216.63116776721631
 30
0.0
 40
2.0
 50
270.0
 51
357.99953469735499
1001
GENIUS_GENOBJ-N-FIL_13
1002
{
1000
OWNER
1000
GEN
1002
}
1001
GENIUS_GENODEF_13
1002
{
1000
HIER
1070
     0
1002
}
1002
{
1000
MANEDIT
1070
     0
1002
}
1002
{
1000
NOSEL
1070
     0
1002
}
1002
{
1000
BEHIND
1070
     0
1002
}
1002
{
1000
OTHER
1070
     0
1002
}
1002
{
1000
REACTOR
1002
}
  0
LINE
  5
8D04
  8
AM_0
 10
251.6789086872549
 20
214.63116776721631
 30
0.0
 11
261.23613726605788
 21
214.63116776721631
 31
0.0
  0
LINE
  5
8D05
  8
AM_0
 10
251.6789086872549
 20
224.63116776721631
 30
0.0
 11
263.18501220287988
 21
224.63116776721631
 31
0.0
  0
LINE
  5
8D06
  8
AM_0
 10
251.6789086872549
 20
238.69122776721639
 30
0.0
 11
261.35965904824849
 21
238.6912277672163
 31
0.0
  0
LINE
  5
8D17
  8
AM_0
 10
263.23491835318822
 20
216.5613525415815
 30
0.0
 11
263.379622798583
 21
220.7041810728804
 31
0.0
  0
ARC
  5
8D18
  8
AM_0
 10
264.38006608448779
 20
220.62781491161761
 30
0.0
 40
1.003353655944897
 50
90.072368503728555
 51
175.63494469419581
  0
ARC
  5
8D19
  8
AM_0
 10
303.18501253070542
 20
230.63116642611161
 30
0.0
 40
5.0
 50
179.99999946639139
 51
270.0
1001
GENIUS_GENODEF_13
1002
{
1000
HIER
1070
     0
1002
}
1002
{
1000
MANEDIT
1070
     0
1002
}
1002
{
1000
NOSEL
1070
     0
1002
}
1002
{
1000
BEHIND
1070
     0
1002
}
1002
{
1000
OTHER
1070
     0
1002
}
1002
{
1000
REACTOR
1002
}
1001
GENIUS_GENOBJ-N-FIL_13
1002
{
1000
OWNER
1000
GEN
1002
}
  0
ARC
  5
8D1A
  8
AM_0
 10
287.18501253070542
 20
230.63116657512339
 30
0.0
 40
11.0
 50
359.99999946639139
 51
90.000000533608556
  0
CIRCLE
  5
8D1B
  8
AM_0
 10
287.18501253070542
 20
230.6311665751235
 30
0.0
 40
4.5000001341104507
  0
LINE
  5
8D1C
  8
ﾁｭｳｼﾝｾﾝ1
 10
287.18501253070542
 20
238.13116679864089
 30
0.0
 11
287.18501253070542
 21
223.131166351606
 31
0.0
  0
ARC
  5
8D1D
  8
AM_0
 10
287.18501253070542
 20
230.6311665751235
 30
0.0
 40
11.000000327825591
 50
180.00000500895689
 51
270.000000683243
  0
LINE
  5
8D1E
  8
ﾁｭｳｼﾝｾﾝ1
 10
279.685012307188
 20
230.6311665751235
 30
0.0
 11
294.68501275422278
 21
230.6311665751235
 31
0.0
  0
ARC
  5
8D1F
  8
AM_0
 10
287.18501238169381
 20
246.63116657512339
 30
0.0
 40
5.0
 50
180.0
 51
270.0000005336085
1001
GENIUS_GENOBJ-N-FIL_13
1002
{
1000
OWNER
1000
GEN
1002
}
1001
GENIUS_GENODEF_13
1002
{
1000
HIER
1070
     0
1002
}
1002
{
1000
MANEDIT
1070
     0
1002
}
1002
{
1000
NOSEL
1070
     0
1002
}
1002
{
1000
BEHIND
1070
     0
1002
}
1002
{
1000
OTHER
1070
     0
1002
}
1002
{
1000
REACTOR
1002
}
  0
LINE
  5
8D20
  8
AM_0
 10
251.6789086872549
 20
302.57111776721632
 30
0.0
 11
261.28492482321769
 21
302.57111776721632
 31
0.0
  0
ARC
  5
8D28
  8
AM_0
 10
287.18501253070542
 20
310.63116895930921
 30
0.0
 40
11.0
 50
269.99999946639139
 51
0.0000005336085289
  0
ARC
  5
8D29
  8
AM_0
 10
287.18501238169381
 20
294.63116895930921
 30
0.0
 40
5.0
 50
89.999999466391486
 51
180.0
1001
GENIUS_GENOBJ-N-FIL_13
1002
{
1000
OWNER
1000
GEN
1002
}
1001
GENIUS_GENODEF_13
1002
{
1000
HIER
1070
     0
1002
}
1002
{
1000
MANEDIT
1070
     0
1002
}
1002
{
1000
NOSEL
1070
     0
1002
}
1002
{
1000
BEHIND
1070
     0
1002
}
1002
{
1000
OTHER
1070
     0
1002
}
1002
{
1000
REACTOR
1002
}
  0
LINE
  5
8D2A
  8
ﾁｭｳｼﾝｾﾝ1
 10
279.685012307188
 20
310.63116895930921
 30
0.0
 11
294.68501275422278
 21
310.63116895930921
 31
0.0
  0
LINE
  5
8D37
  8
AM_0
 10
264.37879878026217
 20
319.63116776721631
 30
0.0
 11
280.86045688254319
 21
319.63116776721631
 31
0.0
  0
LINE
  5
8D38
  8
AM_0
 10
263.68501220287988
 20
313.89778458850537
 30
0.0
 11
276.18501220287988
 21
313.89778458850537
 31
0.0
  0
LINE
  5
8D3A
  8
AM_0
 10
251.6789086872549
 20
316.63116776721631
 30
0.0
 11
263.18501220287988
 21
316.63116776721631
 31
0.0
  0
ARC
  5
8D48
  8
AM_0
 10
261.23613779903059
 20
324.63116776721631
 30
0.0
 40
2.0
 50
2.0004653026450021
 51
90.0
1001
GENIUS_GENODEF_13
1002
{
1000
HIER
1070
     0
1002
}
1002
{
1000
MANEDIT
1070
     0
1002
}
1002
{
1000
NOSEL
1070
     0
1002
}
1002
{
1000
BEHIND
1070
     0
1002
}
1002
{
1000
OTHER
1070
     0
1002
}
1002
{
1000
REACTOR
1002
}
1001
GENIUS_GENOBJ-N-FIL_13
1002
{
1000
OWNER
1000
GEN
1002
}
  0
LINE
  5
8D49
  8
AM_0
 10
251.6789086872549
 20
326.63116776721631
 30
0.0
 11
261.23613779903059
 21
326.63116776721631
 31
0.0
  0
ARC
  5
8D4A
  8
AM_0
 10
264.37879882397363
 20
320.63116776721631
 30
0.0
 40
1.0000000000000091
 50
187.1807504503941
 51
269.99999749551819
  0
LINE
  5
8D4B
  8
AM_0
 10
263.23491888616081
 20
324.7009829928511
 30
0.0
 11
263.379622798583
 21
320.55816972034131
 31
0.0
  0
LINE
  5
8D4E
  8
ﾁｭｳｼﾝｾﾝ
 10
588.88738450361075
 20
152.3170426118258
 30
0.0
 11
588.88738450361075
 21
337.13116776721631
 31
0.0
  0
LINE
  5
8D55
  8
ﾁｭｳｼﾝｾﾝ
 10
655.38738450361075
 20
270.63116776721631
 30
0.0
 11
522.38738450361075
 21
270.63116776721631
 31
0.0
  0
ARC
  5
8D56
  8
AM_0
 10
588.88738450361075
 20
270.63116776721631
 30
0.0
 40
56.5
 50
144.98137173791559
 51
215.01862826208421
  0
LINE
  5
8D57
  8
AM_0
 10
533.57751313078086
 20
234.60706794450741
 30
0.0
 11
542.88738450361075
 21
234.281960072299
 31
0.0
  0
LINE
  5
8D58
  8
AM_0
 10
533.55342922644024
 20
236.6776336336132
 30
0.0
 11
542.88738450361075
 21
237.0035825342936
 31
0.0
  0
LINE
  5
8D59
  8
AM_0
 10
533.55342922644024
 20
304.58470190081971
 30
0.0
 11
542.88738450361075
 21
304.25875300013939
 31
0.0
  0
LINE
  5
8D5A
  8
AM_0
 10
533.57751313078086
 20
306.65526758992542
 30
0.0
 11
542.88738450361075
 21
306.98037546213391
 31
0.0
  0
ARC
  5
8D5B
  8
AM_0
 10
404.18501595797238
 20
310.63116895930921
 30
0.0
 40
11.000000327825539
 50
0.0
 51
90.0
  0
LINE
  5
8D5C
  8
ﾁｭｳｼﾝｾﾝ1
 10
402.1850159579725
 20
303.13116873579179
 30
0.0
 11
402.1850159579725
 21
318.1311691828268
 31
0.0
  0
ARC
  5
8D5D
  8
AM_0
 10
386.1850159579725
 20
310.63116910832099
 30
0.0
 40
5.0
 50
359.99999946639139
 51
90.0
1001
GENIUS_GENODEF_13
1002
{
1000
HIER
1070
     0
1002
}
1002
{
1000
MANEDIT
1070
     0
1002
}
1002
{
1000
NOSEL
1070
     0
1002
}
1002
{
1000
BEHIND
1070
     0
1002
}
1002
{
1000
OTHER
1070
     0
1002
}
1002
{
1000
REACTOR
1002
}
1001
GENIUS_GENOBJ-N-FIL_13
1002
{
1000
OWNER
1000
GEN
1002
}
  0
CIRCLE
  5
8D5E
  8
AM_0
 10
402.1850159579725
 20
310.63116895930921
 30
0.0
 40
4.5000001341104507
  0
LINE
  5
8D5F
  8
ﾁｭｳｼﾝｾﾝ
 10
362.1850147658796
 20
326.63116928713492
 30
0.0
 11
362.1850147658796
 21
214.63116624729801
 31
0.0
  0
LINE
  5
8D60
  8
AM_0
 10
407.18501610698411
 20
294.63116895930921
 30
0.0
 11
407.18501610698411
 21
246.34152470934421
 31
0.0
  0
ARC
  5
8D63
  8
AM_0
 10
402.1850159579725
 20
230.63116657512339
 30
0.0
 40
11.0
 50
89.999999466391486
 51
180.0000005336085
  0
ARC
  5
8D64
  8
AM_0
 10
386.1850159579725
 20
230.63116642611161
 30
0.0
 40
5.0
 50
270.0
 51
0.0000005336085289
1001
GENIUS_GENODEF_13
1002
{
1000
HIER
1070
     0
1002
}
1002
{
1000
MANEDIT
1070
     0
1002
}
1002
{
1000
NOSEL
1070
     0
1002
}
1002
{
1000
BEHIND
1070
     0
1002
}
1002
{
1000
OTHER
1070
     0
1002
}
1002
{
1000
REACTOR
1002
}
1001
GENIUS_GENOBJ-N-FIL_13
1002
{
1000
OWNER
1000
GEN
1002
}
  0
LINE
  5
8D65
  8
ﾁｭｳｼﾝｾﾝ1
 10
402.1850159579725
 20
238.13116679864089
 30
0.0
 11
402.1850159579725
 21
223.131166351606
 31
0.0
  0
CIRCLE
  5
8D66
  8
AM_0
 10
402.1850159579725
 20
230.6311665751235
 30
0.0
 40
4.5000001341104507
  0
ARC
  5
8D67
  8
AM_0
 10
404.18501595797238
 20
230.6311665751235
 30
0.0
 40
11.00000032782555
 50
270.0
 51
0.0
  0
LINE
  5
8D68
  8
ﾁｭｳｼﾝｾﾝ1
 10
394.68501573445542
 20
230.6311665751235
 30
0.0
 11
409.6850161814898
 21
230.6311665751235
 31
0.0
  0
ARC
  5
8D69
  8
AM_0
 10
402.18501610698399
 20
246.63116657512339
 30
0.0
 40
5.0
 50
269.99999946639139
 51
0.0
1001
GENIUS_GENOBJ-N-FIL_13
1002
{
1000
OWNER
1000
GEN
1002
}
1001
GENIUS_GENODEF_13
1002
{
1000
HIER
1070
     0
1002
}
1002
{
1000
MANEDIT
1070
     0
1002
}
1002
{
1000
NOSEL
1070
     0
1002
}
1002
{
1000
BEHIND
1070
     0
1002
}
1002
{
1000
OTHER
1070
     0
1002
}
1002
{
1000
REACTOR
1002
}
  0
ARC
  5
8D6A
  8
AM_0
 10
362.1850147658796
 20
270.63116776721631
 30
0.0
 40
10.00000029802324
 50
107.45760402299859
 51
72.542383683110586
  0
LINE
  5
8D6C
  8
AM_0
 10
359.18501467647269
 20
283.43118645923369
 30
0.0
 11
365.18501485528628
 21
283.43118645923369
 31
0.0
  0
LINE
  5
8D6D
  8
AM_0
 10
359.18501467647269
 20
280.17056624487208
 30
0.0
 11
359.18501467647269
 21
283.43118645923369
 31
0.0
  0
LINE
  5
8D6E
  8
AM_0
 10
365.18501485528628
 20
280.17056624487208
 30
0.0
 11
365.18501485528628
 21
283.43118645923369
 31
0.0
  0
ARC
  5
8D6F
  8
AM_0
 10
402.1850159579725
 20
310.63116895930921
 30
0.0
 40
11.0
 50
179.99999946639139
 51
270.0000005336085
  0
ARC
  5
8D70
  8
AM_0
 10
402.18501610698399
 20
294.63116895930921
 30
0.0
 40
5.0
 50
0.0
 51
90.000000533608556
1001
GENIUS_GENOBJ-N-FIL_13
1002
{
1000
OWNER
1000
GEN
1002
}
1001
GENIUS_GENODEF_13
1002
{
1000
HIER
1070
     0
1002
}
1002
{
1000
MANEDIT
1070
     0
1002
}
1002
{
1000
NOSEL
1070
     0
1002
}
1002
{
1000
BEHIND
1070
     0
1002
}
1002
{
1000
OTHER
1070
     0
1002
}
1002
{
1000
REACTOR
1002
}
  0
LINE
  5
8D71
  8
ﾁｭｳｼﾝｾﾝ1
 10
394.68501573445542
 20
310.63116895930921
 30
0.0
 11
409.6850161814898
 21
310.63116895930921
 31
0.0
  0
LINE
  5
8D72
  8
AM_0
 10
534.88738450361075
 20
236.72421637835919
 30
0.0
 11
534.88738450361075
 21
244.45963690605149
 31
0.0
  0
ARC
  5
8D73
  8
AM_0
 10
533.58832872314315
 20
235.6782428065942
 30
0.0
 40
1.0
 50
92.000000000003624
 51
198.52714231446819
1001
GENIUS_GENODEF_13
1002
{
1000
HIER
1070
     0
1002
}
1002
{
1000
MANEDIT
1070
     0
1002
}
1002
{
1000
NOSEL
1070
     0
1002
}
1002
{
1000
BEHIND
1070
     0
1002
}
1002
{
1000
REACTOR
1002
}
1001
GENIUS_GENOBJ-N-FIL_13
1002
{
1000
OWNER
1000
GEN
1002
}
  0
ARC
  5
8D74
  8
AM_0
 10
533.6124126274832
 20
235.6064587715266
 30
0.0
 40
1.0
 50
198.56658080190289
 51
267.99999999999642
1001
GENIUS_GENODEF_13
1002
{
1000
HIER
1070
     0
1002
}
1002
{
1000
MANEDIT
1070
     0
1002
}
1002
{
1000
NOSEL
1070
     0
1002
}
1002
{
1000
BEHIND
1070
     0
1002
}
1002
{
1000
REACTOR
1002
}
1001
GENIUS_GENOBJ-N-FIL_13
1002
{
1000
OWNER
1000
GEN
1002
}
  0
ARC
  5
8D75
  8
AM_0
 10
637.88738450361086
 20
270.63116776721631
 30
0.0
 40
111.0
 50
198.52714231446819
 51
198.56658080189669
  0
LINE
  5
8D76
  8
AM_0
 10
530.72108007174916
 20
246.67335369026071
 30
0.0
 11
537.60643044549067
 21
246.91379542353209
 31
0.0
  0
LINE
  5
8D77
  8
AM_0
 10
530.73741480607202
 20
244.6045570412571
 30
0.0
 11
538.88768990617757
 21
244.31994316319199
 31
0.0
  0
ARC
  5
8D78
  8
AM_0
 10
637.88738450361086
 20
270.63116776721631
 30
0.0
 40
111.0
 50
193.11367014329761
 51
193.151118260647
  0
ARC
  5
8D79
  8
AM_0
 10
530.75597956845183
 20
245.67396286324151
 30
0.0
 40
1.0
 50
92.000000000003624
 51
193.11367014329761
1001
GENIUS_GENODEF_13
1002
{
1000
HIER
1070
     0
1002
}
1002
{
1000
MANEDIT
1070
     0
1002
}
1002
{
1000
NOSEL
1070
     0
1002
}
1002
{
1000
BEHIND
1070
     0
1002
}
1002
{
1000
REACTOR
1002
}
1001
GENIUS_GENOBJ-N-FIL_13
1002
{
1000
OWNER
1000
GEN
1002
}
  0
ARC
  5
8D7A
  8
AM_0
 10
530.7723143027747
 20
245.60394786827621
 30
0.0
 40
1.0
 50
193.151118260647
 51
268.0000000000029
1001
GENIUS_GENODEF_13
1002
{
1000
HIER
1070
     0
1002
}
1002
{
1000
MANEDIT
1070
     0
1002
}
1002
{
1000
NOSEL
1070
     0
1002
}
1002
{
1000
BEHIND
1070
     0
1002
}
1002
{
1000
REACTOR
1002
}
1001
GENIUS_GENOBJ-N-FIL_13
1002
{
1000
OWNER
1000
GEN
1002
}
  0
ARC
  5
8D7B
  8
AM_0
 10
528.9095426649676
 20
255.67021899410381
 30
0.0
 40
1.0
 50
91.999999999997158
 51
187.81694783169559
1001
GENIUS_GENODEF_13
1002
{
1000
HIER
1070
     0
1002
}
1002
{
1000
MANEDIT
1070
     0
1002
}
1002
{
1000
NOSEL
1070
     0
1002
}
1002
{
1000
BEHIND
1070
     0
1002
}
1002
{
1000
REACTOR
1002
}
1001
GENIUS_GENOBJ-N-FIL_13
1002
{
1000
OWNER
1000
GEN
1002
}
  0
LINE
  5
8D7C
  8
AM_0
 10
528.88412532063865
 20
254.6019204111501
 30
0.0
 11
534.77008965758762
 21
254.3963780073029
 31
0.0
  0
ARC
  5
8D7D
  8
AM_0
 10
528.91902481734121
 20
255.6013112381693
 30
0.0
 40
1.0
 50
187.85317808880569
 51
268.0000000000029
1001
GENIUS_GENODEF_13
1002
{
1000
HIER
1070
     0
1002
}
1002
{
1000
MANEDIT
1070
     0
1002
}
1002
{
1000
NOSEL
1070
     0
1002
}
1002
{
1000
BEHIND
1070
     0
1002
}
1002
{
1000
REACTOR
1002
}
1001
GENIUS_GENOBJ-N-FIL_13
1002
{
1000
OWNER
1000
GEN
1002
}
  0
ARC
  5
8D7E
  8
AM_0
 10
637.88738450361086
 20
270.63116776721631
 30
0.0
 40
111.0
 50
187.81694783169559
 51
187.853178088813
  0
LINE
  5
8D7F
  8
AM_0
 10
528.87464316826515
 20
256.669609821123
 30
0.0
 11
534.09340233419096
 21
256.85185290698911
 31
0.0
  0
ARC
  5
8D80
  8
AM_0
 10
527.9994606957365
 20
265.66687514945312
 30
0.0
 40
1.0
 50
92.000000000003624
 51
182.58663322877331
1001
GENIUS_GENODEF_13
1002
{
1000
HIER
1070
     0
1002
}
1002
{
1000
MANEDIT
1070
     0
1002
}
1002
{
1000
NOSEL
1070
     0
1002
}
1002
{
1000
BEHIND
1070
     0
1002
}
1002
{
1000
REACTOR
1002
}
1001
GENIUS_GENOBJ-N-FIL_13
1002
{
1000
OWNER
1000
GEN
1002
}
  0
ARC
  5
8D81
  8
AM_0
 10
528.00257087419675
 20
275.66383441909579
 30
0.0
 40
1.0
 50
91.999999999997158
 51
177.37771591204699
1001
GENIUS_GENODEF_13
1002
{
1000
HIER
1070
     0
1002
}
1002
{
1000
MANEDIT
1070
     0
1002
}
1002
{
1000
NOSEL
1070
     0
1002
}
1002
{
1000
BEHIND
1070
     0
1002
}
1002
{
1000
REACTOR
1002
}
1001
GENIUS_GENOBJ-N-FIL_13
1002
{
1000
OWNER
1000
GEN
1002
}
  0
ARC
  5
8D82
  8
AM_0
 10
527.9994606957365
 20
275.5954603849799
 30
0.0
 40
1.0
 50
177.41336677122669
 51
267.99999999999642
1001
GENIUS_GENODEF_13
1002
{
1000
HIER
1070
     0
1002
}
1002
{
1000
MANEDIT
1070
     0
1002
}
1002
{
1000
NOSEL
1070
     0
1002
}
1002
{
1000
BEHIND
1070
     0
1002
}
1002
{
1000
REACTOR
1002
}
1001
GENIUS_GENOBJ-N-FIL_13
1002
{
1000
OWNER
1000
GEN
1002
}
  0
ARC
  5
8D83
  8
AM_0
 10
528.00257087419675
 20
265.59850111533677
 30
0.0
 40
1.0
 50
182.62228408795301
 51
268.0000000000029
1001
GENIUS_GENODEF_13
1002
{
1000
HIER
1070
     0
1002
}
1002
{
1000
MANEDIT
1070
     0
1002
}
1002
{
1000
NOSEL
1070
     0
1002
}
1002
{
1000
BEHIND
1070
     0
1002
}
1002
{
1000
REACTOR
1002
}
1001
GENIUS_GENOBJ-N-FIL_13
1002
{
1000
OWNER
1000
GEN
1002
}
  0
ARC
  5
8D84
  8
AM_0
 10
637.88738450361086
 20
270.63116776721631
 30
0.0
 40
111.0
 50
182.58663322877331
 51
182.62228408795301
  0
ARC
  5
8D85
  8
AM_0
 10
637.88738450361086
 20
270.63116776721631
 30
0.0
 40
111.0
 50
177.37771591204699
 51
177.41336677122669
  0
LINE
  5
8D86
  8
AM_0
 10
527.9645611990336
 20
266.66626597647218
 30
0.0
 11
532.51571982680764
 21
266.8251959378328
 31
0.0
  0
LINE
  5
8D87
  8
AM_0
 10
527.96767137749396
 20
264.59911028831789
 30
0.0
 11
532.72840478249975
 21
264.43286181447002
 31
0.0
  0
LINE
  5
8D88
  8
AM_0
 10
527.96767137749396
 20
276.66322524611502
 30
0.0
 11
532.72840478249975
 21
276.82947371996278
 31
0.0
  0
LINE
  5
8D89
  8
AM_0
 10
527.9645611990336
 20
274.59606955796079
 30
0.0
 11
532.51571982680764
 21
274.43713959659982
 31
0.0
  0
ARC
  5
8D8A
  8
AM_0
 10
530.7723143027747
 20
295.65838766615661
 30
0.0
 40
1.0
 50
91.999999999997158
 51
166.84888173935289
1001
GENIUS_GENODEF_13
1002
{
1000
HIER
1070
     0
1002
}
1002
{
1000
MANEDIT
1070
     0
1002
}
1002
{
1000
NOSEL
1070
     0
1002
}
1002
{
1000
BEHIND
1070
     0
1002
}
1002
{
1000
REACTOR
1002
}
1001
GENIUS_GENOBJ-N-FIL_13
1002
{
1000
OWNER
1000
GEN
1002
}
  0
ARC
  5
8D8B
  8
AM_0
 10
528.9095426649676
 20
285.59211654032902
 30
0.0
 40
1.0
 50
172.18305216830419
 51
268.0000000000029
1001
GENIUS_GENODEF_13
1002
{
1000
HIER
1070
     0
1002
}
1002
{
1000
MANEDIT
1070
     0
1002
}
1002
{
1000
NOSEL
1070
     0
1002
}
1002
{
1000
BEHIND
1070
     0
1002
}
1002
{
1000
REACTOR
1002
}
1001
GENIUS_GENOBJ-N-FIL_13
1002
{
1000
OWNER
1000
GEN
1002
}
  0
LINE
  5
8D8C
  8
AM_0
 10
528.87464316826515
 20
284.59272571331019
 30
0.0
 11
534.09340233419096
 21
284.41048262744363
 31
0.0
  0
LINE
  5
8D8D
  8
AM_0
 10
528.88412532063865
 20
286.66041512328252
 30
0.0
 11
534.77008965758762
 21
286.86595752712992
 31
0.0
  0
ARC
  5
8D8E
  8
AM_0
 10
528.91902481734121
 20
285.66102429626358
 30
0.0
 40
1.0
 50
91.999999999997158
 51
172.14682191119419
1001
GENIUS_GENODEF_13
1002
{
1000
HIER
1070
     0
1002
}
1002
{
1000
MANEDIT
1070
     0
1002
}
1002
{
1000
NOSEL
1070
     0
1002
}
1002
{
1000
BEHIND
1070
     0
1002
}
1002
{
1000
REACTOR
1002
}
1001
GENIUS_GENOBJ-N-FIL_13
1002
{
1000
OWNER
1000
GEN
1002
}
  0
ARC
  5
8D8F
  8
AM_0
 10
637.88738450361086
 20
270.63116776721631
 30
0.0
 40
111.0
 50
172.14682191118689
 51
172.18305216830419
  0
LINE
  5
8D90
  8
AM_0
 10
530.72108007174916
 20
294.58898184417222
 30
0.0
 11
537.60643044549067
 21
294.34854011090079
 31
0.0
  0
ARC
  5
8D91
  8
AM_0
 10
637.88738450361086
 20
270.63116776721631
 30
0.0
 40
111.0
 50
166.84888173935289
 51
166.88632985669301
  0
ARC
  5
8D92
  8
AM_0
 10
530.75597956845183
 20
295.58837267119128
 30
0.0
 40
1.0
 50
166.88632985670239
 51
267.99999999999642
1001
GENIUS_GENODEF_13
1002
{
1000
HIER
1070
     0
1002
}
1002
{
1000
MANEDIT
1070
     0
1002
}
1002
{
1000
NOSEL
1070
     0
1002
}
1002
{
1000
BEHIND
1070
     0
1002
}
1002
{
1000
REACTOR
1002
}
1001
GENIUS_GENOBJ-N-FIL_13
1002
{
1000
OWNER
1000
GEN
1002
}
  0
LINE
  5
8D93
  8
AM_0
 10
534.88738450361075
 20
304.53811915607338
 30
0.0
 11
534.88738450361075
 21
296.80269862838111
 31
0.0
  0
LINE
  5
8D94
  8
AM_0
 10
530.73741480607202
 20
296.65777849317578
 30
0.0
 11
538.88768990617757
 21
296.94239237124089
 31
0.0
  0
ARC
  5
8D95
  8
AM_0
 10
533.58832872314315
 20
305.58409272783888
 30
0.0
 40
1.0
 50
161.47285768553169
 51
267.99999999999642
1001
GENIUS_GENODEF_13
1002
{
1000
HIER
1070
     0
1002
}
1002
{
1000
MANEDIT
1070
     0
1002
}
1002
{
1000
NOSEL
1070
     0
1002
}
1002
{
1000
BEHIND
1070
     0
1002
}
1002
{
1000
REACTOR
1002
}
1001
GENIUS_GENOBJ-N-FIL_13
1002
{
1000
OWNER
1000
GEN
1002
}
  0
ARC
  5
8D96
  8
AM_0
 10
637.88738450361086
 20
270.63116776721631
 30
0.0
 40
111.0
 50
161.43341919810169
 51
161.47285768553169
  0
ARC
  5
8D97
  8
AM_0
 10
533.6124126274832
 20
305.65587676290619
 30
0.0
 40
1.0
 50
92.000000000003624
 51
161.43341919809711
1001
GENIUS_GENODEF_13
1002
{
1000
HIER
1070
     0
1002
}
1002
{
1000
MANEDIT
1070
     0
1002
}
1002
{
1000
NOSEL
1070
     0
1002
}
1002
{
1000
BEHIND
1070
     0
1002
}
1002
{
1000
REACTOR
1002
}
1001
GENIUS_GENOBJ-N-FIL_13
1002
{
1000
OWNER
1000
GEN
1002
}
  0
ARC
  5
8D98
  8
AM_0
 10
629.88738450361086
 20
311.63116776721631
 30
0.0
 40
5.0
 50
0.0
 51
90.0
1001
GENIUS_GENODEF_13
1002
{
1000
HIER
1070
     0
1002
}
1002
{
1000
MANEDIT
1070
     0
1002
}
1002
{
1000
NOSEL
1070
     0
1002
}
1002
{
1000
BEHIND
1070
     0
1002
}
1002
{
1000
REACTOR
1002
}
1001
GENIUS_GENOBJ-N-FIL_13
1002
{
1000
OWNER
1000
GEN
1002
}
  0
LINE
  5
8D99
  8
AM_0
 10
613.88738524866892
 20
321.63116928713492
 30
0.0
 11
613.88738524866892
 21
219.63116624729801
 31
0.0
  0
LINE
  5
8D9A
  8
AM_0
 10
626.88738563609911
 20
321.40425343630523
 30
0.0
 11
626.88738563609911
 21
219.85808209812731
 31
0.0
  0
ARC
  5
8D9B
  8
AM_0
 10
547.88738450361075
 20
311.63116776721631
 30
0.0
 40
5.0
 50
90.0
 51
180.0
1001
GENIUS_GENOBJ-N-CEN_13
1002
{
1000
OWNER
1000
GEN
1002
}
1001
GENIUS_GENODEF_13
1002
{
1000
HIER
1070
     0
1002
}
1002
{
1000
MANEDIT
1070
     0
1002
}
1002
{
1000
NOSEL
1070
     0
1002
}
1002
{
1000
BEHIND
1070
     0
1002
}
1002
{
1000
REACTOR
1002
}
1001
GENIUS_GENOBJ-N-FIL_13
1002
{
1000
OWNER
1000
GEN
1002
}
  0
LINE
  5
8D9C
  8
AM_0
 10
550.88738337112261
 20
320.53150016388429
 30
0.0
 11
550.88738337112261
 21
220.7308353705485
 31
0.0
  0
LINE
  5
8D9D
  8
AM_0
 10
644.22133978078125
 20
304.58470190081971
 30
0.0
 11
634.88738450361075
 21
304.25875300013939
 31
0.0
  0
LINE
  5
8D9E
  8
AM_0
 10
644.19725587644109
 20
306.65526758992542
 30
0.0
 11
634.88738450361075
 21
306.98037546213391
 31
0.0
  0
LINE
  5
8D9F
  8
AM_0
 10
644.19725587644075
 20
234.60706794450741
 30
0.0
 11
634.88738450361075
 21
234.281960072299
 31
0.0
  0
LINE
  5
8DA0
  8
AM_0
 10
644.22133978078125
 20
236.6776336336132
 30
0.0
 11
634.88738450361075
 21
237.0035825342936
 31
0.0
  0
ARC
  5
8DA1
  8
AM_0
 10
588.88738450361075
 20
270.63116776721631
 30
0.0
 40
56.5
 50
324.98137173791582
 51
35.018628262084228
  0
LINE
  5
8DA2
  8
AM_0
 10
630.88738575530817
 20
298.13116858678018
 30
0.0
 11
630.88738575530817
 21
243.13116694765259
 31
0.0
  0
LINE
  5
8DA3
  8
AM_0
 10
546.88738325191332
 20
298.13116858678018
 30
0.0
 11
546.88738325191332
 21
243.13116694765259
 31
0.0
  0
LINE
  5
8DA4
  8
AM_0
 10
613.88738524867017
 20
219.6311662472979
 30
0.0
 11
550.88738337112227
 21
220.7308353705485
 31
0.0
  0
LINE
  5
8DA5
  8
ｶｸﾚｾﾝ2
 10
550.88738337112261
 20
226.1311665751235
 30
0.0
 11
626.887385636099
 21
226.13116657512359
 31
0.0
  0
LINE
  5
8DA6
  8
ｶｸﾚｾﾝ2
 10
550.88738337112261
 20
235.1311665751235
 30
0.0
 11
626.887385636099
 21
235.1311665751235
 31
0.0
  0
LINE
  5
8DA7
  8
ﾁｭｳｼﾝｾﾝ
 10
547.88738337112284
 20
230.6311665751235
 30
0.0
 11
629.88738563609922
 21
230.6311665751235
 31
0.0
  0
ARC
  5
8DAC
  8
AM_0
 10
588.88738450361075
 20
270.63116776721631
 30
0.0
 40
56.5
 50
242.4821246347974
 51
295.51787536519993
  0
ARC
  5
8DAE
  8
AM_0
 10
556.92483355963293
 20
214.67180364522551
 30
0.0
 40
1.9655366667591301
 50
3.1584702260749462
 51
179.35044678892791
  0
LINE
  5
8DAF
  8
AM_0
 10
552.85368245139875
 20
213.59626827051369
 30
0.0
 11
552.60558519840299
 21
220.70084404609349
 31
0.0
  0
LINE
  5
8DB0
  8
AM_0
 10
554.92108655582285
 20
213.596268270514
 30
0.0
 11
555.16762213381105
 21
220.6561235250374
 31
0.0
  0
ARC
  5
8DB5
  8
AM_0
 10
553.92169572880391
 20
213.63116776721631
 30
0.0
 40
1.0
 50
269.99999999999352
 51
357.99999999999642
1001
GENIUS_GENODEF_13
1002
{
1000
HIER
1070
     0
1002
}
1002
{
1000
MANEDIT
1070
     0
1002
}
1002
{
1000
NOSEL
1070
     0
1002
}
1002
{
1000
BEHIND
1070
     0
1002
}
1002
{
1000
REACTOR
1002
}
1001
GENIUS_GENOBJ-N-FIL_13
1002
{
1000
OWNER
1000
GEN
1002
}
  0
LINE
  5
8DB6
  8
AM_0
 10
553.92169572880391
 20
212.63116776721631
 30
0.0
 11
553.8530732784177
 21
212.63116776721631
 31
0.0
  0
ARC
  5
8DB7
  8
AM_0
 10
553.8530732784177
 20
213.63116776721631
 30
0.0
 40
1.0
 50
181.99999999999719
 51
270.0
1001
GENIUS_GENODEF_13
1002
{
1000
HIER
1070
     0
1002
}
1002
{
1000
MANEDIT
1070
     0
1002
}
1002
{
1000
NOSEL
1070
     0
1002
}
1002
{
1000
BEHIND
1070
     0
1002
}
1002
{
1000
REACTOR
1002
}
1001
GENIUS_GENOBJ-N-FIL_13
1002
{
1000
OWNER
1000
GEN
1002
}
  0
LINE
  5
8DB8
  8
AM_0
 10
542.88738450361075
 20
237.34828928593129
 30
0.0
 11
542.88738450361075
 21
229.63116776721631
 31
0.0
1001
GENIUS_GENODEF_13
1002
{
1000
HIER
1070
     0
1002
}
1002
{
1000
MANEDIT
1070
     0
1002
}
1002
{
1000
NOSEL
1070
     0
1002
}
1002
{
1000
BEHIND
1070
     0
1002
}
1002
{
1000
REACTOR
1002
}
1001
GENIUS_GENOBJ-N-CEN_13
1002
{
1000
OWNER
1000
GEN
1002
}
  0
ARC
  5
8DB9
  8
AM_0
 10
547.88738450361075
 20
229.63116776721631
 30
0.0
 40
5.0
 50
180.0
 51
270.0
1001
GENIUS_GENOBJ-N-CEN_13
1002
{
1000
OWNER
1000
GEN
1002
}
1001
GENIUS_GENODEF_13
1002
{
1000
HIER
1070
     0
1002
}
1002
{
1000
MANEDIT
1070
     0
1002
}
1002
{
1000
NOSEL
1070
     0
1002
}
1002
{
1000
BEHIND
1070
     0
1002
}
1002
{
1000
REACTOR
1002
}
1001
GENIUS_GENOBJ-N-FIL_13
1002
{
1000
OWNER
1000
GEN
1002
}
  0
LINE
  5
8DBA
  8
AM_0
 10
547.88738450361075
 20
224.63116776721631
 30
0.0
 11
550.88738450361075
 21
224.63116776721631
 31
0.0
  0
ARC
  5
8DBB
  8
AM_0
 10
541.38738450361075
 20
237.34828928593129
 30
0.0
 40
1.5
 50
0.0
 51
35.018628262086253
1001
GENIUS_GENODEF_13
1002
{
1000
HIER
1070
     0
1002
}
1002
{
1000
MANEDIT
1070
     0
1002
}
1002
{
1000
NOSEL
1070
     0
1002
}
1002
{
1000
BEHIND
1070
     0
1002
}
1002
{
1000
REACTOR
1002
}
1001
GENIUS_GENOBJ-N-FIL_13
1002
{
1000
OWNER
1000
GEN
1002
}
  0
LINE
  5
8DBC
  8
AM_0
 10
546.88738325191332
 20
243.13116694765239
 30
0.0
 11
550.88738337112261
 21
243.13116694765239
 31
0.0
  0
ARC
  5
8DBE
  8
AM_0
 10
620.84993544758856
 20
214.67180364522551
 30
0.0
 40
1.9655366667591301
 50
0.6495532110655594
 51
176.841529773925
  0
LINE
  5
8DBF
  8
AM_0
 10
622.85368245139875
 20
213.596268270514
 30
0.0
 11
622.63760552336316
 21
219.78390191032889
 31
0.0
  0
LINE
  5
8DC0
  8
AM_0
 10
624.92108655582274
 20
213.59626827051369
 30
0.0
 11
625.1386880044256
 21
219.82755846742671
 31
0.0
  0
ARC
  5
8DC5
  8
AM_0
 10
623.9216957288038
 20
213.63116776721631
 30
0.0
 40
1.0
 50
269.99999999999352
 51
357.99999999999642
1001
GENIUS_GENODEF_13
1002
{
1000
HIER
1070
     0
1002
}
1002
{
1000
MANEDIT
1070
     0
1002
}
1002
{
1000
NOSEL
1070
     0
1002
}
1002
{
1000
BEHIND
1070
     0
1002
}
1002
{
1000
REACTOR
1002
}
1001
GENIUS_GENOBJ-N-FIL_13
1002
{
1000
OWNER
1000
GEN
1002
}
  0
ARC
  5
8DC6
  8
AM_0
 10
623.8530732784177
 20
213.63116776721631
 30
0.0
 40
1.0
 50
181.99999999999719
 51
270.0
1001
GENIUS_GENODEF_13
1002
{
1000
HIER
1070
     0
1002
}
1002
{
1000
MANEDIT
1070
     0
1002
}
1002
{
1000
NOSEL
1070
     0
1002
}
1002
{
1000
BEHIND
1070
     0
1002
}
1002
{
1000
REACTOR
1002
}
1001
GENIUS_GENOBJ-N-FIL_13
1002
{
1000
OWNER
1000
GEN
1002
}
  0
LINE
  5
8DC7
  8
AM_0
 10
623.8530732784177
 20
212.63116776721631
 30
0.0
 11
623.9216957288038
 21
212.63116776721631
 31
0.0
  0
LINE
  5
8DC8
  8
AM_0
 10
634.88738450361075
 20
237.34828928593129
 30
0.0
 11
634.88738450361075
 21
229.63116776721631
 31
0.0
1001
GENIUS_GENODEF_13
1002
{
1000
HIER
1070
     0
1002
}
1002
{
1000
MANEDIT
1070
     0
1002
}
1002
{
1000
NOSEL
1070
     0
1002
}
1002
{
1000
BEHIND
1070
     0
1002
}
1002
{
1000
REACTOR
1002
}
1001
GENIUS_GENOBJ-N-CEN_13
1002
{
1000
OWNER
1000
GEN
1002
}
  0
LINE
  5
8DC9
  8
AM_0
 10
613.88738524866858
 20
219.6311662472979
 30
0.0
 11
626.887385636099
 21
219.85808209812731
 31
0.0
  0
ARC
  5
8DCA
  8
AM_0
 10
629.88738450361086
 20
229.63116776721631
 30
0.0
 40
5.0
 50
270.0
 51
0.0
1001
GENIUS_GENODEF_13
1002
{
1000
HIER
1070
     0
1002
}
1002
{
1000
MANEDIT
1070
     0
1002
}
1002
{
1000
NOSEL
1070
     0
1002
}
1002
{
1000
BEHIND
1070
     0
1002
}
1002
{
1000
REACTOR
1002
}
1001
GENIUS_GENOBJ-N-FIL_13
1002
{
1000
OWNER
1000
GEN
1002
}
  0
LINE
  5
8DCB
  8
AM_0
 10
626.88738450361075
 20
224.63116776721631
 30
0.0
 11
629.88738450361086
 21
224.63116776721631
 31
0.0
  0
ARC
  5
8DCC
  8
AM_0
 10
636.38738450361075
 20
237.34828928593129
 30
0.0
 40
1.5
 50
144.98137173791559
 51
180.0
1001
GENIUS_GENODEF_13
1002
{
1000
HIER
1070
     0
1002
}
1002
{
1000
MANEDIT
1070
     0
1002
}
1002
{
1000
NOSEL
1070
     0
1002
}
1002
{
1000
BEHIND
1070
     0
1002
}
1002
{
1000
REACTOR
1002
}
1001
GENIUS_GENOBJ-N-FIL_13
1002
{
1000
OWNER
1000
GEN
1002
}
  0
LINE
  5
8DCD
  8
AM_0
 10
630.88738575530817
 20
243.13116694765259
 30
0.0
 11
626.88738563609911
 21
243.13116694765259
 31
0.0
  0
LINE
  5
8DCE
  8
ｶｸﾚｾﾝ2
 10
550.88738337112261
 20
306.13116895930932
 30
0.0
 11
626.887385636099
 21
306.13116895930921
 31
0.0
  0
LINE
  5
8DCF
  8
ﾁｭｳｼﾝｾﾝ
 10
547.88738337112284
 20
310.63116895930932
 30
0.0
 11
629.88738563609922
 21
310.63116895930921
 31
0.0
  0
LINE
  5
8DD1
  8
AM_0
 10
546.88738325191332
 20
255.63116732018159
 30
0.0
 11
545.88738450361097
 21
255.63116732018159
 31
0.0
  0
LINE
  5
8DD2
  8
AM_0
 10
546.88738325191332
 20
285.6311682142512
 30
0.0
 11
545.88738450361097
 21
285.6311682142512
 31
0.0
  0
ARC
  5
8DD3
  8
AM_0
 10
541.38738450361075
 20
303.91404624850179
 30
0.0
 40
1.5
 50
324.98137173791582
 51
0.0
1001
GENIUS_GENODEF_13
1002
{
1000
HIER
1070
     0
1002
}
1002
{
1000
MANEDIT
1070
     0
1002
}
1002
{
1000
NOSEL
1070
     0
1002
}
1002
{
1000
BEHIND
1070
     0
1002
}
1002
{
1000
REACTOR
1002
}
1001
GENIUS_GENOBJ-N-FIL_13
1002
{
1000
OWNER
1000
GEN
1002
}
  0
LINE
  5
8DD4
  8
AM_0
 10
546.88738325191332
 20
298.13116858678018
 30
0.0
 11
550.88738337112261
 21
298.13116858678018
 31
0.0
  0
LINE
  5
8DD5
  8
AM_0
 10
542.88738450361075
 20
311.63116776721631
 30
0.0
 11
542.88738450361075
 21
303.91404624850179
 31
0.0
1001
GENIUS_GENODEF_13
1002
{
1000
HIER
1070
     0
1002
}
1002
{
1000
MANEDIT
1070
     0
1002
}
1002
{
1000
NOSEL
1070
     0
1002
}
1002
{
1000
BEHIND
1070
     0
1002
}
1002
{
1000
REACTOR
1002
}
1001
GENIUS_GENOBJ-N-CEN_13
1002
{
1000
OWNER
1000
GEN
1002
}
  0
LINE
  5
8DD7
  8
AM_0
 10
631.88738450361075
 20
255.63116732018159
 30
0.0
 11
630.88738575530817
 21
255.63116732018159
 31
0.0
  0
LINE
  5
8DD8
  8
AM_0
 10
631.88738450361075
 20
285.6311682142512
 30
0.0
 11
630.88738575530817
 21
285.6311682142512
 31
0.0
  0
ARC
  5
8DD9
  8
AM_0
 10
636.38738450361075
 20
303.91404624850179
 30
0.0
 40
1.5
 50
179.99999999999349
 51
215.01862826208421
1001
GENIUS_GENODEF_13
1002
{
1000
HIER
1070
     0
1002
}
1002
{
1000
MANEDIT
1070
     0
1002
}
1002
{
1000
NOSEL
1070
     0
1002
}
1002
{
1000
BEHIND
1070
     0
1002
}
1002
{
1000
REACTOR
1002
}
1001
GENIUS_GENOBJ-N-FIL_13
1002
{
1000
OWNER
1000
GEN
1002
}
  0
LINE
  5
8DDA
  8
AM_0
 10
630.88738575530817
 20
298.13116858678018
 30
0.0
 11
626.88738563609911
 21
298.13116858678018
 31
0.0
  0
LINE
  5
8DDB
  8
AM_0
 10
634.88738450361075
 20
311.63116776721631
 30
0.0
 11
634.88738450361075
 21
303.91404624850179
 31
0.0
1001
GENIUS_GENODEF_13
1002
{
1000
HIER
1070
     0
1002
}
1002
{
1000
MANEDIT
1070
     0
1002
}
1002
{
1000
NOSEL
1070
     0
1002
}
1002
{
1000
BEHIND
1070
     0
1002
}
1002
{
1000
REACTOR
1002
}
1001
GENIUS_GENOBJ-N-CEN_13
1002
{
1000
OWNER
1000
GEN
1002
}
  0
ARC
  5
8DDC
  8
AM_0
 10
647.01878943876989
 20
245.67396286324151
 30
0.0
 40
1.0
 50
346.88632985670228
 51
87.999999999996362
1001
GENIUS_GENODEF_13
1002
{
1000
HIER
1070
     0
1002
}
1002
{
1000
MANEDIT
1070
     0
1002
}
1002
{
1000
NOSEL
1070
     0
1002
}
1002
{
1000
BEHIND
1070
     0
1002
}
1002
{
1000
REACTOR
1002
}
1001
GENIUS_GENOBJ-N-FIL_13
1002
{
1000
OWNER
1000
GEN
1002
}
  0
LINE
  5
8DDD
  8
AM_0
 10
642.88738450361075
 20
236.72421637835919
 30
0.0
 11
642.88738450361075
 21
244.45963690605149
 31
0.0
  0
ARC
  5
8DDE
  8
AM_0
 10
539.88738450361075
 20
270.63116776721631
 30
0.0
 40
111.0
 50
341.43341919810172
 51
341.47285768553172
  0
ARC
  5
8DDF
  8
AM_0
 10
644.18644028407834
 20
235.6782428065942
 30
0.0
 40
1.0
 50
341.47285768553172
 51
87.999999999996362
1001
GENIUS_GENODEF_13
1002
{
1000
HIER
1070
     0
1002
}
1002
{
1000
MANEDIT
1070
     0
1002
}
1002
{
1000
NOSEL
1070
     0
1002
}
1002
{
1000
BEHIND
1070
     0
1002
}
1002
{
1000
REACTOR
1002
}
1001
GENIUS_GENOBJ-N-FIL_13
1002
{
1000
OWNER
1000
GEN
1002
}
  0
ARC
  5
8DE0
  8
AM_0
 10
644.16235637973841
 20
235.6064587715266
 30
0.0
 40
1.0
 50
272.00000000000369
 51
341.433419198097
1001
GENIUS_GENODEF_13
1002
{
1000
HIER
1070
     0
1002
}
1002
{
1000
MANEDIT
1070
     0
1002
}
1002
{
1000
NOSEL
1070
     0
1002
}
1002
{
1000
BEHIND
1070
     0
1002
}
1002
{
1000
REACTOR
1002
}
1001
GENIUS_GENOBJ-N-FIL_13
1002
{
1000
OWNER
1000
GEN
1002
}
  0
LINE
  5
8DE1
  8
AM_0
 10
647.05368893547245
 20
246.67335369026071
 30
0.0
 11
640.16833856173105
 21
246.91379542353209
 31
0.0
  0
LINE
  5
8DE2
  8
AM_0
 10
647.0373542011497
 20
244.6045570412571
 30
0.0
 11
638.88707910104381
 21
244.31994316319199
 31
0.0
  0
ARC
  5
8DE3
  8
AM_0
 10
539.88738450361075
 20
270.63116776721631
 30
0.0
 40
111.0
 50
346.84888173935292
 51
346.88632985669301
  0
ARC
  5
8DE4
  8
AM_0
 10
647.00245470444713
 20
245.60394786827621
 30
0.0
 40
1.0
 50
271.9999999999971
 51
346.84888173935292
1001
GENIUS_GENODEF_13
1002
{
1000
HIER
1070
     0
1002
}
1002
{
1000
MANEDIT
1070
     0
1002
}
1002
{
1000
NOSEL
1070
     0
1002
}
1002
{
1000
BEHIND
1070
     0
1002
}
1002
{
1000
REACTOR
1002
}
1001
GENIUS_GENOBJ-N-FIL_13
1002
{
1000
OWNER
1000
GEN
1002
}
  0
LINE
  5
8DE5
  8
AM_0
 10
648.90012583895646
 20
256.669609821123
 30
0.0
 11
643.68136667303077
 21
256.85185290698911
 31
0.0
  0
LINE
  5
8DE6
  8
AM_0
 10
648.89064368658296
 20
254.6019204111501
 30
0.0
 11
643.0046793496341
 21
254.3963780073029
 31
0.0
  0
ARC
  5
8DE7
  8
AM_0
 10
648.86522634225378
 20
255.67021899410381
 30
0.0
 40
1.0
 50
352.1830521683043
 51
88.000000000002856
1001
GENIUS_GENODEF_13
1002
{
1000
HIER
1070
     0
1002
}
1002
{
1000
MANEDIT
1070
     0
1002
}
1002
{
1000
NOSEL
1070
     0
1002
}
1002
{
1000
BEHIND
1070
     0
1002
}
1002
{
1000
REACTOR
1002
}
1001
GENIUS_GENOBJ-N-FIL_13
1002
{
1000
OWNER
1000
GEN
1002
}
  0
ARC
  5
8DE8
  8
AM_0
 10
648.85574418988051
 20
255.6013112381693
 30
0.0
 40
1.0
 50
271.9999999999971
 51
352.14682191119408
1001
GENIUS_GENODEF_13
1002
{
1000
HIER
1070
     0
1002
}
1002
{
1000
MANEDIT
1070
     0
1002
}
1002
{
1000
NOSEL
1070
     0
1002
}
1002
{
1000
BEHIND
1070
     0
1002
}
1002
{
1000
REACTOR
1002
}
1001
GENIUS_GENOBJ-N-FIL_13
1002
{
1000
OWNER
1000
GEN
1002
}
  0
ARC
  5
8DE9
  8
AM_0
 10
539.88738450361075
 20
270.63116776721631
 30
0.0
 40
111.0
 50
352.14682191118692
 51
352.1830521683043
  0
LINE
  5
8DEA
  8
AM_0
 10
649.8102078081879
 20
266.66626597647218
 30
0.0
 11
645.25904918041408
 21
266.8251959378328
 31
0.0
  0
LINE
  5
8DEB
  8
AM_0
 10
649.80709762972742
 20
276.66322524611502
 30
0.0
 11
645.04636422472174
 21
276.82947371996278
 31
0.0
  0
LINE
  5
8DEC
  8
AM_0
 10
649.8102078081879
 20
274.59606955796079
 30
0.0
 11
645.25904918041408
 21
274.43713959659982
 31
0.0
  0
LINE
  5
8DED
  8
AM_0
 10
649.80709762972742
 20
264.59911028831789
 30
0.0
 11
645.04636422472174
 21
264.43286181447002
 31
0.0
  0
ARC
  5
8DEE
  8
AM_0
 10
649.77530831148522
 20
265.66687514945312
 30
0.0
 40
1.0
 50
357.41336677122672
 51
87.999999999996362
1001
GENIUS_GENODEF_13
1002
{
1000
HIER
1070
     0
1002
}
1002
{
1000
MANEDIT
1070
     0
1002
}
1002
{
1000
NOSEL
1070
     0
1002
}
1002
{
1000
BEHIND
1070
     0
1002
}
1002
{
1000
REACTOR
1002
}
1001
GENIUS_GENOBJ-N-FIL_13
1002
{
1000
OWNER
1000
GEN
1002
}
  0
ARC
  5
8DEF
  8
AM_0
 10
649.77219813302497
 20
265.59850111533677
 30
0.0
 40
1.0
 50
271.9999999999971
 51
357.37771591204699
1001
GENIUS_GENODEF_13
1002
{
1000
HIER
1070
     0
1002
}
1002
{
1000
MANEDIT
1070
     0
1002
}
1002
{
1000
NOSEL
1070
     0
1002
}
1002
{
1000
BEHIND
1070
     0
1002
}
1002
{
1000
REACTOR
1002
}
1001
GENIUS_GENOBJ-N-FIL_13
1002
{
1000
OWNER
1000
GEN
1002
}
  0
ARC
  5
8DF0
  8
AM_0
 10
539.88738450361075
 20
270.63116776721631
 30
0.0
 40
111.0
 50
357.37771591204699
 51
357.41336677122672
  0
ARC
  5
8DF1
  8
AM_0
 10
539.88738450361075
 20
270.63116776721631
 30
0.0
 40
111.0
 50
2.5866332287732892
 51
2.6222840879530001
  0
ARC
  5
8DF2
  8
AM_0
 10
649.77219813302497
 20
275.66383441909579
 30
0.0
 40
1.0
 50
2.6222840879530001
 51
88.000000000002856
1001
GENIUS_GENODEF_13
1002
{
1000
HIER
1070
     0
1002
}
1002
{
1000
MANEDIT
1070
     0
1002
}
1002
{
1000
NOSEL
1070
     0
1002
}
1002
{
1000
BEHIND
1070
     0
1002
}
1002
{
1000
REACTOR
1002
}
1001
GENIUS_GENOBJ-N-FIL_13
1002
{
1000
OWNER
1000
GEN
1002
}
  0
ARC
  5
8DF3
  8
AM_0
 10
649.77530831148522
 20
275.5954603849799
 30
0.0
 40
1.0
 50
272.00000000000369
 51
2.5866332287732892
1001
GENIUS_GENODEF_13
1002
{
1000
HIER
1070
     0
1002
}
1002
{
1000
MANEDIT
1070
     0
1002
}
1002
{
1000
NOSEL
1070
     0
1002
}
1002
{
1000
BEHIND
1070
     0
1002
}
1002
{
1000
REACTOR
1002
}
1001
GENIUS_GENOBJ-N-FIL_13
1002
{
1000
OWNER
1000
GEN
1002
}
  0
ARC
  5
8DF4
  8
AM_0
 10
647.00245470444713
 20
295.65838766615661
 30
0.0
 40
1.0
 50
13.151118260647079
 51
88.000000000002856
1001
GENIUS_GENODEF_13
1002
{
1000
HIER
1070
     0
1002
}
1002
{
1000
MANEDIT
1070
     0
1002
}
1002
{
1000
NOSEL
1070
     0
1002
}
1002
{
1000
BEHIND
1070
     0
1002
}
1002
{
1000
REACTOR
1002
}
1001
GENIUS_GENOBJ-N-FIL_13
1002
{
1000
OWNER
1000
GEN
1002
}
  0
ARC
  5
8DF5
  8
AM_0
 10
647.01878943876989
 20
295.58837267119128
 30
0.0
 40
1.0
 50
272.00000000000369
 51
13.113670143297609
1001
GENIUS_GENODEF_13
1002
{
1000
HIER
1070
     0
1002
}
1002
{
1000
MANEDIT
1070
     0
1002
}
1002
{
1000
NOSEL
1070
     0
1002
}
1002
{
1000
BEHIND
1070
     0
1002
}
1002
{
1000
REACTOR
1002
}
1001
GENIUS_GENOBJ-N-FIL_13
1002
{
1000
OWNER
1000
GEN
1002
}
  0
LINE
  5
8DF6
  8
AM_0
 10
648.90012583895646
 20
284.59272571331019
 30
0.0
 11
643.68136667303077
 21
284.41048262744363
 31
0.0
  0
LINE
  5
8DF7
  8
AM_0
 10
648.89064368658296
 20
286.66041512328252
 30
0.0
 11
643.0046793496341
 21
286.86595752712992
 31
0.0
  0
LINE
  5
8DF8
  8
AM_0
 10
647.05368893547256
 20
294.58898184417222
 30
0.0
 11
640.16833856173105
 21
294.34854011090079
 31
0.0
  0
ARC
  5
8DF9
  8
AM_0
 10
539.88738450361075
 20
270.63116776721631
 30
0.0
 40
111.0
 50
13.11367014330702
 51
13.151118260647079
  0
ARC
  5
8DFA
  8
AM_0
 10
648.86522634225378
 20
285.59211654032902
 30
0.0
 40
1.0
 50
271.9999999999971
 51
7.8169478316957592
1001
GENIUS_GENODEF_13
1002
{
1000
HIER
1070
     0
1002
}
1002
{
1000
MANEDIT
1070
     0
1002
}
1002
{
1000
NOSEL
1070
     0
1002
}
1002
{
1000
BEHIND
1070
     0
1002
}
1002
{
1000
REACTOR
1002
}
1001
GENIUS_GENOBJ-N-FIL_13
1002
{
1000
OWNER
1000
GEN
1002
}
  0
ARC
  5
8DFB
  8
AM_0
 10
539.88738450361075
 20
270.63116776721631
 30
0.0
 40
111.0
 50
7.8169478316957592
 51
7.8531780888131131
  0
ARC
  5
8DFC
  8
AM_0
 10
648.85574418988051
 20
285.66102429626358
 30
0.0
 40
1.0
 50
7.8531780888057723
 51
88.000000000002856
1001
GENIUS_GENODEF_13
1002
{
1000
HIER
1070
     0
1002
}
1002
{
1000
MANEDIT
1070
     0
1002
}
1002
{
1000
NOSEL
1070
     0
1002
}
1002
{
1000
BEHIND
1070
     0
1002
}
1002
{
1000
REACTOR
1002
}
1001
GENIUS_GENOBJ-N-FIL_13
1002
{
1000
OWNER
1000
GEN
1002
}
  0
LINE
  5
8DFD
  8
AM_0
 10
642.88738450361075
 20
304.53811915607338
 30
0.0
 11
642.88738450361075
 21
296.80269862838111
 31
0.0
  0
LINE
  5
8DFE
  8
AM_0
 10
647.0373542011497
 20
296.65777849317578
 30
0.0
 11
638.88707910104381
 21
296.94239237124089
 31
0.0
  0
ARC
  5
8DFF
  8
AM_0
 10
539.88738450361075
 20
270.63116776721631
 30
0.0
 40
111.0
 50
18.52714231446825
 51
18.566580801896752
  0
ARC
  5
8E00
  8
AM_0
 10
644.18644028407834
 20
305.58409272783888
 30
0.0
 40
1.0
 50
271.9999999999971
 51
18.52714231446825
1001
GENIUS_GENODEF_13
1002
{
1000
HIER
1070
     0
1002
}
1002
{
1000
MANEDIT
1070
     0
1002
}
1002
{
1000
NOSEL
1070
     0
1002
}
1002
{
1000
BEHIND
1070
     0
1002
}
1002
{
1000
REACTOR
1002
}
1001
GENIUS_GENOBJ-N-FIL_13
1002
{
1000
OWNER
1000
GEN
1002
}
  0
ARC
  5
8E01
  8
AM_0
 10
644.16235637973841
 20
305.65587676290619
 30
0.0
 40
1.0
 50
18.56658080190293
 51
87.999999999996362
1001
GENIUS_GENODEF_13
1002
{
1000
HIER
1070
     0
1002
}
1002
{
1000
MANEDIT
1070
     0
1002
}
1002
{
1000
NOSEL
1070
     0
1002
}
1002
{
1000
BEHIND
1070
     0
1002
}
1002
{
1000
REACTOR
1002
}
1001
GENIUS_GENOBJ-N-FIL_13
1002
{
1000
OWNER
1000
GEN
1002
}
  0
LINE
  5
8E02
  8
ｶｸﾚｾﾝ2
 10
550.88738337112261
 20
315.13116895930921
 30
0.0
 11
626.887385636099
 21
315.13116895930921
 31
0.0
  0
LINE
  5
8E03
  8
AM_0
 10
613.88738524867017
 20
321.6311692871347
 30
0.0
 11
550.88738337112261
 21
320.53150016388429
 31
0.0
  0
ARC
  5
8E04
  8
AM_0
 10
588.88738450361075
 20
270.63116776721631
 30
0.0
 40
56.5
 50
64.482124634800144
 51
117.5178753652025
  0
ARC
  5
8E05
  8
AM_0
 10
563.93017959963595
 20
328.76257270237511
 30
0.0
 40
1.0
 50
2.000000000003725
 51
103.11367014329871
1001
GENIUS_GENODEF_13
1002
{
1000
HIER
1070
     0
1002
}
1002
{
1000
MANEDIT
1070
     0
1002
}
1002
{
1000
NOSEL
1070
     0
1002
}
1002
{
1000
BEHIND
1070
     0
1002
}
1002
{
1000
REACTOR
1002
}
1001
GENIUS_GENOBJ-N-FIL_13
1002
{
1000
OWNER
1000
GEN
1002
}
  0
LINE
  5
8E06
  8
AM_0
 10
562.86077377765162
 20
328.7811374647552
 30
0.0
 11
562.57981715142705
 21
320.73559235468838
 31
0.0
  0
LINE
  5
8E07
  8
AM_0
 10
547.88738450361075
 20
316.63116776721631
 30
0.0
 11
550.88738450361075
 21
316.63116776721631
 31
0.0
  0
LINE
  5
8E08
  8
AM_0
 10
554.93385037000746
 20
325.96512304438647
 30
0.0
 11
555.12101607544435
 21
320.6053984976204
 31
0.0
  0
LINE
  5
8E09
  8
AM_0
 10
552.86328468090176
 20
325.94103914004631
 30
0.0
 11
552.67546933486335
 21
320.56271132047863
 31
0.0
  0
ARC
  5
8E0A
  8
AM_0
 10
553.93445954298852
 20
325.93022354768368
 30
0.0
 40
1.0
 50
1.9999999999972149
 51
108.52714231446819
1001
GENIUS_GENODEF_13
1002
{
1000
HIER
1070
     0
1002
}
1002
{
1000
MANEDIT
1070
     0
1002
}
1002
{
1000
NOSEL
1070
     0
1002
}
1002
{
1000
BEHIND
1070
     0
1002
}
1002
{
1000
REACTOR
1002
}
1001
GENIUS_GENOBJ-N-FIL_13
1002
{
1000
OWNER
1000
GEN
1002
}
  0
ARC
  5
8E0B
  8
AM_0
 10
553.86267550792115
 20
325.90613964334381
 30
0.0
 40
1.0
 50
108.5665808019031
 51
177.99999999999619
1001
GENIUS_GENODEF_13
1002
{
1000
HIER
1070
     0
1002
}
1002
{
1000
MANEDIT
1070
     0
1002
}
1002
{
1000
NOSEL
1070
     0
1002
}
1002
{
1000
BEHIND
1070
     0
1002
}
1002
{
1000
REACTOR
1002
}
1001
GENIUS_GENOBJ-N-FIL_13
1002
{
1000
OWNER
1000
GEN
1002
}
  0
ARC
  5
8E0C
  8
AM_0
 10
588.88738450361075
 20
221.63116776721631
 30
0.0
 40
111.0
 50
108.52714231446819
 51
108.56658080189619
  0
ARC
  5
8E0D
  8
AM_0
 10
588.88738450361075
 20
221.63116776721631
 30
0.0
 40
111.0
 50
103.11367014329871
 51
103.1511182606551
  0
ARC
  5
8E0E
  8
AM_0
 10
563.86016460467044
 20
328.7462379680527
 30
0.0
 40
1.0
 50
103.1511182606551
 51
178.00000000000259
1001
GENIUS_GENODEF_13
1002
{
1000
HIER
1070
     0
1002
}
1002
{
1000
MANEDIT
1070
     0
1002
}
1002
{
1000
NOSEL
1070
     0
1002
}
1002
{
1000
BEHIND
1070
     0
1002
}
1002
{
1000
REACTOR
1002
}
1001
GENIUS_GENOBJ-N-FIL_13
1002
{
1000
OWNER
1000
GEN
1002
}
  0
LINE
  5
8E0F
  8
AM_0
 10
574.9258265575171
 20
330.64390910256202
 30
0.0
 11
575.10806964338349
 21
325.42514993663622
 31
0.0
  0
LINE
  5
8E10
  8
AM_0
 10
582.85532702471232
 20
331.55088089333282
 30
0.0
 11
582.68907855086422
 21
326.79014748832719
 31
0.0
  0
LINE
  5
8E11
  8
AM_0
 10
584.92248271286655
 20
331.55399107179318
 30
0.0
 11
585.08141267422741
 21
327.0028324440193
 31
0.0
  0
LINE
  5
8E12
  8
AM_0
 10
572.85813714754465
 20
330.63442695018853
 30
0.0
 11
572.65259474369725
 21
324.74846261323933
 31
0.0
  0
LINE
  5
8E13
  8
AM_0
 10
564.929570426655
 20
328.79747219907779
 30
0.0
 11
565.17001215992627
 21
321.9121218253365
 31
0.0
  0
ARC
  5
8E14
  8
AM_0
 10
588.88738450361075
 20
221.63116776721631
 30
0.0
 40
111.0
 50
97.816947831694506
 51
97.853178088806132
  0
ARC
  5
8E15
  8
AM_0
 10
573.8575279745636
 20
330.5995274534859
 30
0.0
 40
1.0
 50
97.853178088806132
 51
178.00000000000259
1001
GENIUS_GENODEF_13
1002
{
1000
HIER
1070
     0
1002
}
1002
{
1000
MANEDIT
1070
     0
1002
}
1002
{
1000
NOSEL
1070
     0
1002
}
1002
{
1000
BEHIND
1070
     0
1002
}
1002
{
1000
REACTOR
1002
}
1001
GENIUS_GENOBJ-N-FIL_13
1002
{
1000
OWNER
1000
GEN
1002
}
  0
ARC
  5
8E16
  8
AM_0
 10
573.92643573049816
 20
330.60900960585923
 30
0.0
 40
1.0
 50
1.9999999999972149
 51
97.816947831694506
1001
GENIUS_GENODEF_13
1002
{
1000
HIER
1070
     0
1002
}
1002
{
1000
MANEDIT
1070
     0
1002
}
1002
{
1000
NOSEL
1070
     0
1002
}
1002
{
1000
BEHIND
1070
     0
1002
}
1002
{
1000
REACTOR
1002
}
1001
GENIUS_GENOBJ-N-FIL_13
1002
{
1000
OWNER
1000
GEN
1002
}
  0
ARC
  5
8E17
  8
AM_0
 10
588.88738450361075
 20
221.63116776721631
 30
0.0
 40
111.0
 50
92.586633228773294
 51
92.622284087952863
  0
ARC
  5
8E18
  8
AM_0
 10
583.92309188584738
 20
331.51909157509073
 30
0.0
 40
1.0
 50
2.000000000003725
 51
92.586633228773294
1001
GENIUS_GENODEF_13
1002
{
1000
HIER
1070
     0
1002
}
1002
{
1000
MANEDIT
1070
     0
1002
}
1002
{
1000
NOSEL
1070
     0
1002
}
1002
{
1000
BEHIND
1070
     0
1002
}
1002
{
1000
REACTOR
1002
}
1001
GENIUS_GENOBJ-N-FIL_13
1002
{
1000
OWNER
1000
GEN
1002
}
  0
ARC
  5
8E19
  8
AM_0
 10
583.85471785173127
 20
331.5159813966302
 30
0.0
 40
1.0
 50
92.622284087952863
 51
178.00000000000259
1001
GENIUS_GENODEF_13
1002
{
1000
HIER
1070
     0
1002
}
1002
{
1000
MANEDIT
1070
     0
1002
}
1002
{
1000
NOSEL
1070
     0
1002
}
1002
{
1000
BEHIND
1070
     0
1002
}
1002
{
1000
REACTOR
1002
}
1001
GENIUS_GENOBJ-N-FIL_13
1002
{
1000
OWNER
1000
GEN
1002
}
  0
LINE
  5
8E1A
  8
AM_0
 10
604.91663185967695
 20
330.63442695018853
 30
0.0
 11
605.12217426352424
 21
324.74846261323933
 31
0.0
  0
LINE
  5
8E1B
  8
AM_0
 10
602.8489424497044
 20
330.64390910256202
 30
0.0
 11
602.66669936383801
 21
325.42514993663622
 31
0.0
  0
LINE
  5
8E1C
  8
AM_0
 10
592.85228629435505
 20
331.55399107179318
 30
0.0
 11
592.69335633299409
 21
327.0028324440193
 31
0.0
  0
LINE
  5
8E1D
  8
AM_0
 10
594.91944198250928
 20
331.55088089333282
 30
0.0
 11
595.08569045635738
 21
326.79014748832719
 31
0.0
  0
ARC
  5
8E1E
  8
AM_0
 10
593.92005115549023
 20
331.5159813966302
 30
0.0
 40
1.0
 50
1.9999999999972149
 51
87.377715912047094
1001
GENIUS_GENODEF_13
1002
{
1000
HIER
1070
     0
1002
}
1002
{
1000
MANEDIT
1070
     0
1002
}
1002
{
1000
NOSEL
1070
     0
1002
}
1002
{
1000
BEHIND
1070
     0
1002
}
1002
{
1000
REACTOR
1002
}
1001
GENIUS_GENOBJ-N-FIL_13
1002
{
1000
OWNER
1000
GEN
1002
}
  0
ARC
  5
8E1F
  8
AM_0
 10
588.88738450361075
 20
221.63116776721631
 30
0.0
 40
111.0
 50
87.377715912047094
 51
87.413366771226677
  0
ARC
  5
8E20
  8
AM_0
 10
593.85167712137434
 20
331.51909157509073
 30
0.0
 40
1.0
 50
87.413366771226677
 51
177.99999999999619
1001
GENIUS_GENODEF_13
1002
{
1000
HIER
1070
     0
1002
}
1002
{
1000
MANEDIT
1070
     0
1002
}
1002
{
1000
NOSEL
1070
     0
1002
}
1002
{
1000
BEHIND
1070
     0
1002
}
1002
{
1000
REACTOR
1002
}
1001
GENIUS_GENOBJ-N-FIL_13
1002
{
1000
OWNER
1000
GEN
1002
}
  0
ARC
  5
8E21
  8
AM_0
 10
588.88738450361075
 20
221.63116776721631
 30
0.0
 40
111.0
 50
82.146821911193925
 51
82.183052168305494
  0
ARC
  5
8E22
  8
AM_0
 10
603.91724103265813
 20
330.5995274534859
 30
0.0
 40
1.0
 50
1.9999999999972149
 51
82.146821911193925
1001
GENIUS_GENODEF_13
1002
{
1000
HIER
1070
     0
1002
}
1002
{
1000
MANEDIT
1070
     0
1002
}
1002
{
1000
NOSEL
1070
     0
1002
}
1002
{
1000
BEHIND
1070
     0
1002
}
1002
{
1000
REACTOR
1002
}
1001
GENIUS_GENOBJ-N-FIL_13
1002
{
1000
OWNER
1000
GEN
1002
}
  0
ARC
  5
8E23
  8
AM_0
 10
603.84833327672345
 20
330.60900960585923
 30
0.0
 40
1.0
 50
82.183052168305494
 51
178.00000000000259
1001
GENIUS_GENODEF_13
1002
{
1000
HIER
1070
     0
1002
}
1002
{
1000
MANEDIT
1070
     0
1002
}
1002
{
1000
NOSEL
1070
     0
1002
}
1002
{
1000
BEHIND
1070
     0
1002
}
1002
{
1000
REACTOR
1002
}
1001
GENIUS_GENOBJ-N-FIL_13
1002
{
1000
OWNER
1000
GEN
1002
}
  0
LINE
  5
8E24
  8
AM_0
 10
614.91399522956988
 20
328.7811374647552
 30
0.0
 11
615.16445605140132
 21
321.60887793335507
 31
0.0
  0
LINE
  5
8E25
  8
AM_0
 10
612.84519858056683
 20
328.79747219907779
 30
0.0
 11
612.60475684729522
 21
321.9121218253365
 31
0.0
  0
LINE
  5
8E26
  8
AM_0
 10
613.88738524866892
 20
321.6311692871347
 30
0.0
 11
626.88738563609911
 21
321.40425343630523
 31
0.0
  0
ARC
  5
8E27
  8
AM_0
 10
623.8403094642332
 20
325.93022354768368
 30
0.0
 40
1.0
 50
71.472857685531736
 51
178.00000000000259
1001
GENIUS_GENODEF_13
1002
{
1000
HIER
1070
     0
1002
}
1002
{
1000
MANEDIT
1070
     0
1002
}
1002
{
1000
NOSEL
1070
     0
1002
}
1002
{
1000
BEHIND
1070
     0
1002
}
1002
{
1000
REACTOR
1002
}
1001
GENIUS_GENOBJ-N-FIL_13
1002
{
1000
OWNER
1000
GEN
1002
}
  0
LINE
  5
8E28
  8
AM_0
 10
622.84091863721392
 20
325.96512304438647
 30
0.0
 11
622.68421158173032
 21
321.47762011232891
 31
0.0
  0
LINE
  5
8E29
  8
AM_0
 10
626.88738450361075
 20
316.63116776721631
 30
0.0
 11
629.88738450361086
 21
316.63116776721631
 31
0.0
  0
LINE
  5
8E2A
  8
AM_0
 10
624.91148432632008
 20
325.94103914004631
 30
0.0
 11
625.0688038679649
 21
321.43599689914532
 31
0.0
  0
ARC
  5
8E2B
  8
AM_0
 10
623.91209349930045
 20
325.90613964334381
 30
0.0
 40
1.0
 50
2.000000000003725
 51
71.433419198096814
1001
GENIUS_GENODEF_13
1002
{
1000
HIER
1070
     0
1002
}
1002
{
1000
MANEDIT
1070
     0
1002
}
1002
{
1000
NOSEL
1070
     0
1002
}
1002
{
1000
BEHIND
1070
     0
1002
}
1002
{
1000
REACTOR
1002
}
1001
GENIUS_GENOBJ-N-FIL_13
1002
{
1000
OWNER
1000
GEN
1002
}
  0
ARC
  5
8E2C
  8
AM_0
 10
588.88738450361075
 20
221.63116776721631
 30
0.0
 40
111.0
 50
71.433419198103763
 51
71.472857685531736
  0
ARC
  5
8E2D
  8
AM_0
 10
613.84458940758554
 20
328.76257270237511
 30
0.0
 40
1.0
 50
76.886329856701238
 51
177.99999999999619
1001
GENIUS_GENODEF_13
1002
{
1000
HIER
1070
     0
1002
}
1002
{
1000
MANEDIT
1070
     0
1002
}
1002
{
1000
NOSEL
1070
     0
1002
}
1002
{
1000
BEHIND
1070
     0
1002
}
1002
{
1000
REACTOR
1002
}
1001
GENIUS_GENOBJ-N-FIL_13
1002
{
1000
OWNER
1000
GEN
1002
}
  0
ARC
  5
8E2E
  8
AM_0
 10
588.88738450361075
 20
221.63116776721631
 30
0.0
 40
111.0
 50
76.848881739344861
 51
76.886329856701238
  0
ARC
  5
8E2F
  8
AM_0
 10
613.91460440255105
 20
328.7462379680527
 30
0.0
 40
1.0
 50
1.9999999999972149
 51
76.848881739344861
1001
GENIUS_GENODEF_13
1002
{
1000
HIER
1070
     0
1002
}
1002
{
1000
MANEDIT
1070
     0
1002
}
1002
{
1000
NOSEL
1070
     0
1002
}
1002
{
1000
BEHIND
1070
     0
1002
}
1002
{
1000
REACTOR
1002
}
1001
GENIUS_GENOBJ-N-FIL_13
1002
{
1000
OWNER
1000
GEN
1002
}
  0
LINE
  5
9541
  8
AM_0
 10
222.70509853629531
 20
204.6311677672164
 30
0.0
 11
222.9596478103181
 21
214.3511377672163
 31
0.0
  0
LINE
  5
9542
  8
AM_0
 10
162.65266654105471
 20
204.6311677672164
 30
0.0
 11
162.39818449991591
 21
214.3511377672163
 31
0.0
  0
LINE
  5
9543
  8
AM_0
 10
159.1789086872547
 20
202.6311677672164
 30
0.0
 11
226.17890868725479
 21
202.6311677672164
 31
0.0
  0
LINE
  5
9544
  8
AM_0
 10
159.1789086872547
 20
201.6311677672164
 30
0.0
 11
159.1789086872547
 21
202.6311677672164
 31
0.0
  0
LINE
  5
9545
  8
AM_0
 10
226.17890868725479
 20
201.6311677672164
 30
0.0
 11
226.17890868725479
 21
202.6311677672164
 31
0.0
  0
LINE
  5
9546
  8
AM_0
 10
144.6789086872547
 20
163.6311677672162
 30
0.0
 11
145.93849382351709
 21
199.7009667606213
 31
0.0
  0
LINE
  5
9547
  8
AM_0
 10
147.93727547755529
 20
201.6311677672164
 30
0.0
 11
237.42054189695429
 21
201.6311677672164
 31
0.0
  0
ARC
  5
9548
  8
AM_0
 10
147.93727547755529
 20
199.63116776721631
 30
0.0
 40
2.0
 50
90.0
 51
178.00000000000281
1001
GENIUS_GENODEF_13
1002
{
1000
HIER
1070
     0
1002
}
1002
{
1000
MANEDIT
1070
     0
1002
}
1002
{
1000
NOSEL
1070
     0
1002
}
1002
{
1000
BEHIND
1070
     0
1002
}
1002
{
1000
OTHER
1070
     0
1002
}
1002
{
1000
REACTOR
1002
}
1001
GENIUS_GENOBJ-N-FIL_13
1002
{
1000
OWNER
1000
GEN
1002
}
  0
LINE
  5
9549
  8
AM_0
 10
239.41932355099249
 20
199.7009667606213
 30
0.0
 11
240.6789086872549
 21
163.63116776721631
 31
0.0
  0
ARC
  5
954A
  8
AM_0
 10
237.4205418969544
 20
199.63116776721631
 30
0.0
 40
2.0
 50
1.9999999999971581
 51
90.0
1001
GENIUS_GENOBJ-N-FIL_13
1002
{
1000
OWNER
1000
GEN
1002
}
1001
GENIUS_GENODEF_13
1002
{
1000
HIER
1070
     0
1002
}
1002
{
1000
MANEDIT
1070
     0
1002
}
1002
{
1000
NOSEL
1070
     0
1002
}
1002
{
1000
BEHIND
1070
     0
1002
}
1002
{
1000
OTHER
1070
     0
1002
}
1002
{
1000
REACTOR
1002
}
  0
LINE
  5
954B
  8
AM_0
 10
240.6789086872549
 20
163.63116776721631
 30
0.0
 11
144.67890868725451
 21
163.6311677672162
 31
0.0
  0
LINE
  5
954C
  8
AM_0
 10
144.78367099572989
 20
166.63116776721611
 30
0.0
 11
143.6789086872547
 21
166.63116776721611
 31
0.0
  0
LINE
  5
954D
  8
AM_0
 10
145.90113561946589
 20
198.63116776721611
 30
0.0
 11
143.67890868725459
 21
198.63116776721611
 31
0.0
  0
LINE
  5
954E
  8
ﾁｭｳｼﾝｾﾝ1
 10
149.67890868725539
 20
153.36646026721621
 30
0.0
 11
149.67890868725539
 21
166.3664602672163
 31
0.0
  0
LINE
  5
954F
  8
ﾁｭｳｼﾝｾﾝ
 10
192.67890868725459
 20
208.9231984404453
 30
0.0
 11
192.67890868725459
 21
151.180645126407
 31
0.0
  0
LINE
  5
9550
  8
AM_0
 10
141.1789086872547
 20
169.13116776721611
 30
0.0
 11
143.67890868725459
 21
169.13116776721591
 31
0.0
  0
LINE
  5
9551
  8
AM_0
 10
143.67890868725459
 20
196.13116776721591
 30
0.0
 11
141.1789086872547
 21
196.13116776721611
 31
0.0
  0
LINE
  5
9552
  8
AM_0
 10
130.28023759090871
 20
193.13116776721611
 30
0.0
 11
130.28023759090871
 21
172.13116776721611
 31
0.0
  0
LINE
  5
9553
  8
AM_0
 10
115.2802375909087
 20
174.59954271320089
 30
0.0
 11
115.2802375909087
 21
190.66279282123199
 31
0.0
  0
LINE
  5
9554
  8
AM_0
 10
128.28023759090871
 20
194.63116776721611
 30
0.0
 11
128.28023759090871
 21
170.63116776721611
 31
0.0
  0
LINE
  5
9555
  8
AM_0
 10
118.7802375909087
 20
182.63116776721611
 30
0.0
 11
119.2802375909088
 21
183.13116776721611
 31
0.0
  0
LINE
  5
9556
  8
AM_0
 10
125.7802375909087
 20
170.9311677672161
 30
0.0
 11
125.7802375909087
 21
194.3311677672159
 31
0.0
  0
LINE
  5
9557
  8
AM_0
 10
135.6789086872547
 20
171.13116776721611
 30
0.0
 11
135.6789086872547
 21
194.13116776721611
 31
0.0
  0
LINE
  5
9558
  8
AM_0
 10
129.78023759090871
 20
183.33116776721801
 30
0.0
 11
129.78023759090871
 21
181.9311677672149
 31
0.0
  0
LINE
  5
9559
  8
AM_0
 10
131.87987331747971
 20
191.73116776721599
 30
0.0
 11
131.1298733174807
 21
173.531167767216
 31
0.0
  0
LINE
  5
955A
  8
AM_0
 10
130.9289086872547
 20
191.73116776721599
 30
0.0
 11
130.28023759090871
 21
175.9900824959
 31
0.0
  0
LINE
  5
955B
  8
AM_0
 10
131.67760127782671
 20
192.44682647958001
 30
0.0
 11
130.93034123441871
 21
172.81879600604901
 31
0.0
  0
LINE
  5
955C
  8
AM_0
 10
131.1284407703167
 20
192.44353952838401
 30
0.0
 11
130.3798733174807
 21
172.781167767216
 31
0.0
  0
LINE
  5
955D
  8
AM_0
 10
128.28023759090871
 20
170.63116776721611
 30
0.0
 11
126.08023759090869
 21
170.63116776721611
 31
0.0
  0
ARC
  5
955E
  8
AM_0
 10
140.17890868725479
 20
170.13116776721611
 30
0.0
 40
0.5
 50
0.0
 51
90.000000000013031
  0
ARC
  5
955F
  8
AM_0
 10
141.17890868725479
 20
169.63116776721611
 30
0.0
 40
0.5
 50
180.0
 51
270.0
  0
LINE
  5
9560
  8
AM_0
 10
140.6789086872547
 20
170.13116776721611
 30
0.0
 11
140.6789086872547
 21
169.63116776721611
 31
0.0
  0
LINE
  5
9561
  8
AM_0
 10
131.6789086872547
 20
173.531167767216
 30
0.0
 11
135.1789086872547
 21
173.531167767216
 31
0.0
  0
LINE
  5
9562
  8
AM_0
 10
140.6789086872547
 20
171.7750964458092
 30
0.0
 11
140.6789086872547
 21
181.48723908862399
 31
0.0
  0
LINE
  5
9563
  8
AM_0
 10
136.1789086872547
 20
170.63116776721611
 30
0.0
 11
140.17890868725459
 21
170.63116776721611
 31
0.0
  0
LINE
  5
9564
  8
AM_0
 10
140.1789086872547
 20
171.2750964458092
 30
0.0
 11
135.6789086872547
 21
171.2750964458092
 31
0.0
  0
ARC
  5
9565
  8
AM_0
 10
140.17890868725479
 20
171.7750964458092
 30
0.0
 40
0.5
 50
270.0
 51
0.0
  0
ARC
  5
9566
  8
AM_0
 10
135.1789086872547
 20
173.0311677672162
 30
0.0
 40
0.5
 50
0.0
 51
90.0
  0
ARC
  5
9567
  8
AM_0
 10
136.1789086872547
 20
171.13116776721611
 30
0.0
 40
0.5
 50
180.0
 51
270.0
  0
LINE
  5
9568
  8
AM_0
 10
140.1789086872547
 20
181.98723908862399
 30
0.0
 11
135.6789086872547
 21
181.98723908862399
 31
0.0
  0
ARC
  5
9569
  8
AM_0
 10
140.1789086872547
 20
181.48723908862419
 30
0.0
 40
0.5
 50
0.0
 51
90.0
  0
LINE
  5
956A
  8
AM_0
 10
129.78023759090871
 20
176.4859970149239
 30
0.0
 11
129.78023759090871
 21
177.65824020135679
 31
0.0
  0
LINE
  5
956B
  8
AM_0
 10
131.2066057459057
 20
173.531167767216
 30
0.0
 11
131.6789086872547
 21
173.531167767216
 31
0.0
  0
LINE
  5
956C
  8
AM_0
 10
131.11001325136641
 20
173.45705000047931
 30
0.0
 11
131.1298733174807
 21
173.531167767216
 31
0.0
  0
ARC
  5
956D
  8
AM_0
 10
131.2066057459057
 20
173.4311677672161
 30
0.0
 40
0.1000000000000346
 50
90.0
 51
164.99980499355539
  0
ARC
  5
956E
  8
AM_0
 10
129.4802375909087
 20
173.34433478670809
 30
0.0
 40
0.3000000000000043
 50
0.0
 51
90.0
  0
LINE
  5
956F
  8
AM_0
 10
128.28023759090871
 20
171.23116776721599
 30
0.0
 11
129.50019329406589
 21
171.31249814742711
 31
0.0
  0
LINE
  5
9570
  8
AM_0
 10
128.28023759090871
 20
172.38741980305599
 30
0.0
 11
129.4802375909087
 21
172.38741980305599
 31
0.0
  0
LINE
  5
9571
  8
AM_0
 10
129.78023759090871
 20
171.63116776721611
 30
0.0
 11
128.28023759090871
 21
171.63116776721611
 31
0.0
  0
ARC
  5
9572
  8
AM_0
 10
129.7802375909088
 20
172.13116776721611
 30
0.0
 40
0.5
 50
270.0
 51
0.0
  0
LINE
  5
9573
  8
AM_0
 10
129.78023759090871
 20
171.611833694784
 30
0.0
 11
129.78023759090871
 21
171.63116776721611
 31
0.0
  0
LINE
  5
9574
  8
AM_0
 10
129.78023759090871
 20
171.33116776721619
 30
0.0
 11
129.78023759090871
 21
171.611833694784
 31
0.0
  0
LINE
  5
9575
  8
AM_0
 10
129.50019329406589
 20
171.31249814742711
 30
0.0
 11
129.78023759090871
 21
171.33116776721619
 31
0.0
  0
ARC
  5
9576
  8
AM_0
 10
129.4802375909087
 20
171.611833694784
 30
0.0
 40
0.3000000000000007
 50
273.81407483428148
 51
0.0
  0
LINE
  5
9577
  8
AM_0
 10
130.85217625882959
 20
172.781167767216
 30
0.0
 11
130.92890868725561
 21
172.781167767216
 31
0.0
  0
LINE
  5
9578
  8
AM_0
 10
130.92890868725561
 20
172.781167767216
 30
0.0
 11
130.94876875336871
 21
172.85528553395241
 31
0.0
  0
LINE
  5
9579
  8
AM_0
 10
130.36001325136661
 20
172.85528553395241
 30
0.0
 11
130.3798733174807
 21
172.781167767216
 31
0.0
  0
LINE
  5
957A
  8
AM_0
 10
130.3798733174807
 20
172.781167767216
 30
0.0
 11
130.45660574590559
 21
172.781167767216
 31
0.0
  0
LINE
  5
957B
  8
AM_0
 10
130.94876875336871
 20
172.85528553395241
 30
0.0
 11
131.11001325136641
 21
173.45705000047931
 31
0.0
  0
LINE
  5
957C
  8
AM_0
 10
130.45660574590559
 20
172.781167767216
 30
0.0
 11
130.85217625882959
 21
172.781167767216
 31
0.0
  0
LINE
  5
957D
  8
AM_0
 10
130.28023759090959
 20
173.153008298777
 30
0.0
 11
130.36001325136661
 21
172.85528553395241
 31
0.0
  0
ARC
  5
957E
  8
AM_0
 10
130.8521762588297
 20
172.88116776721611
 30
0.0
 40
0.0999999999999866
 50
270.0
 51
344.99980499343371
  0
ARC
  5
957F
  8
AM_0
 10
130.4566057459057
 20
172.88116776721611
 30
0.0
 40
0.1000000000000014
 50
195.00019500656629
 51
270.0
  0
LINE
  5
9580
  8
AM_0
 10
129.78023759090871
 20
172.687419803056
 30
0.0
 11
129.78023759090871
 21
173.34433478670809
 31
0.0
  0
ARC
  5
9581
  8
AM_0
 10
129.4802375909087
 20
172.6874198030562
 30
0.0
 40
0.3000000000000007
 50
270.0
 51
0.0
  0
LINE
  5
9582
  8
AM_0
 10
128.28023759090871
 20
176.185997014924
 30
0.0
 11
129.4802375909087
 21
176.185997014924
 31
0.0
  0
LINE
  5
9583
  8
AM_0
 10
129.4802375909087
 20
173.64433478670799
 30
0.0
 11
128.28023759090871
 21
173.64433478670799
 31
0.0
  0
LINE
  5
9584
  8
AM_0
 10
131.1298733174807
 20
173.531167767216
 30
0.0
 11
131.2066057459057
 21
173.531167767216
 31
0.0
  0
ARC
  5
9585
  8
AM_0
 10
129.4802375909087
 20
176.48599701492421
 30
0.0
 40
0.3000000000000007
 50
270.0
 51
0.0
  0
LINE
  5
9586
  8
AM_0
 10
129.4802375909087
 20
177.95824020135711
 30
0.0
 11
128.28023759090871
 21
177.95824020135711
 31
0.0
  0
ARC
  5
9587
  8
AM_0
 10
129.4802375909087
 20
177.6582402013571
 30
0.0
 40
0.3000000000000043
 50
0.0
 51
90.0
  0
LINE
  5
9588
  8
AM_0
 10
129.4802375909087
 20
181.631167767215
 30
0.0
 11
128.28023759090871
 21
181.631167767215
 31
0.0
  0
ARC
  5
9589
  8
AM_0
 10
129.4802375909087
 20
181.93116776721519
 30
0.0
 40
0.3000000000000007
 50
270.0
 51
0.0
  0
LINE
  5
958A
  8
AM_0
 10
119.2802375909088
 20
172.49788793856899
 30
0.0
 11
125.7802375909087
 21
172.49788793856899
 31
0.0
  0
LINE
  5
958B
  8
AM_0
 10
119.2802375909088
 20
171.99788793856899
 30
0.0
 11
125.7802375909087
 21
171.99788793856899
 31
0.0
  0
LINE
  5
958C
  8
AM_0
 10
125.7802375909087
 20
182.13116776721611
 30
0.0
 11
119.2802375909088
 21
182.13116776721611
 31
0.0
  0
LINE
  5
958D
  8
AM_0
 10
118.7802375909087
 20
181.63116776721611
 30
0.0
 11
125.7802375909087
 21
181.63116776721611
 31
0.0
  0
LINE
  5
958E
  8
AM_0
 10
125.4802375909087
 20
171.63116776721611
 30
0.0
 11
118.6422875260907
 21
171.63116776721611
 31
0.0
  0
LINE
  5
958F
  8
AM_0
 10
125.7802375909087
 20
181.28447969867489
 30
0.0
 11
119.2802375909088
 21
181.28447969867489
 31
0.0
  0
LINE
  5
9590
  8
AM_0
 10
125.7802375909087
 20
172.97785583575711
 30
0.0
 11
119.2802375909088
 21
172.97785583575711
 31
0.0
  0
ARC
  5
9591
  8
AM_0
 10
126.08023759090879
 20
170.9311677672161
 30
0.0
 40
0.2999999999999971
 50
180.0
 51
270.0
  0
ARC
  5
9592
  8
AM_0
 10
125.4802375909087
 20
171.33116776721619
 30
0.0
 40
0.2999999999999971
 50
0.0
 51
90.0
  0
ARC
  5
9593
  8
AM_0
 10
127.4052375909088
 20
177.13116776721611
 30
0.0
 40
9.124999999999984
 50
152.92493329271849
 51
207.07506670728151
  0
LINE
  5
9594
  8
AM_0
 10
118.00210312642621
 20
171.8629464876185
 30
0.0
 11
115.64005319124421
 21
173.83132143360359
 31
0.0
  0
LINE
  5
9595
  8
AM_0
 10
118.7802375909087
 20
172.20960035072409
 30
0.0
 11
119.2802375909088
 21
171.63116776721611
 31
0.0
  0
ARC
  5
9596
  8
AM_0
 10
118.6422875260907
 20
172.63116776721611
 30
0.0
 40
1.0
 50
230.19442890774391
 51
270.0
  0
LINE
  5
9597
  8
AM_0
 10
119.2802375909088
 20
171.99788793856899
 30
0.0
 11
118.7802375909087
 21
172.20960035072409
 31
0.0
  0
LINE
  5
9598
  8
AM_0
 10
118.7802375909087
 20
172.67187562369509
 30
0.0
 11
119.2802375909088
 21
171.99788793856899
 31
0.0
  0
LINE
  5
9599
  8
AM_0
 10
119.2802375909088
 20
172.49788793856899
 30
0.0
 11
118.7802375909087
 21
172.67187562369509
 31
0.0
  0
LINE
  5
959A
  8
AM_0
 10
118.7802375909087
 20
173.20960035072409
 30
0.0
 11
119.2802375909088
 21
172.49788793856899
 31
0.0
  0
LINE
  5
959B
  8
AM_0
 10
119.2802375909088
 20
172.97785583575711
 30
0.0
 11
118.7802375909087
 21
173.20960035072409
 31
0.0
  0
ARC
  5
959C
  8
AM_0
 10
116.2802375909088
 20
174.59954271320109
 30
0.0
 40
1.0000000000000291
 50
180.0
 51
230.1944289077336
  0
LINE
  5
959D
  8
AM_0
 10
119.2802375909088
 20
182.13116776721611
 30
0.0
 11
118.7802375909087
 21
182.63116776721611
 31
0.0
  0
LINE
  5
959E
  8
AM_0
 10
118.7802375909087
 20
181.63116776721611
 30
0.0
 11
119.2802375909088
 21
182.13116776721611
 31
0.0
  0
LINE
  5
959F
  8
AM_0
 10
119.2802375909088
 20
181.28447969867489
 30
0.0
 11
118.7802375909087
 21
181.63116776721611
 31
0.0
  0
LINE
  5
95A0
  8
AM_0
 10
126.08023759090869
 20
194.63116776721611
 30
0.0
 11
128.28023759090871
 21
194.63116776721611
 31
0.0
  0
ARC
  5
95A1
  8
AM_0
 10
140.1789086872547
 20
195.13116776721611
 30
0.0
 40
0.5
 50
269.99999999998698
 51
0.0
  0
LINE
  5
95A2
  8
AM_0
 10
135.1789086872547
 20
191.73116776721599
 30
0.0
 11
131.9566057459057
 21
191.73116776721599
 31
0.0
  0
LINE
  5
95A3
  8
AM_0
 10
140.6789086872547
 20
183.7750964458092
 30
0.0
 11
140.6789086872547
 21
193.48723908862419
 31
0.0
  0
LINE
  5
95A4
  8
AM_0
 10
135.6789086872547
 20
183.27509644580911
 30
0.0
 11
140.1789086872547
 21
183.27509644580911
 31
0.0
  0
ARC
  5
95A5
  8
AM_0
 10
140.1789086872547
 20
183.7750964458092
 30
0.0
 40
0.5
 50
270.0
 51
0.0
  0
LINE
  5
95A6
  8
AM_0
 10
135.6789086872547
 20
193.98723908862419
 30
0.0
 11
140.1789086872547
 21
193.98723908862419
 31
0.0
  0
LINE
  5
95A7
  8
AM_0
 10
140.17890868725459
 20
194.63116776721611
 30
0.0
 11
136.1789086872547
 21
194.63116776721611
 31
0.0
  0
ARC
  5
95A8
  8
AM_0
 10
140.1789086872547
 20
193.48723908862419
 30
0.0
 40
0.5
 50
0.0
 51
90.0
  0
ARC
  5
95A9
  8
AM_0
 10
135.1789086872547
 20
192.23116776721599
 30
0.0
 40
0.5
 50
270.0
 51
0.0
  0
ARC
  5
95AA
  8
AM_0
 10
136.1789086872547
 20
194.13116776721611
 30
0.0
 40
0.5
 50
90.0
 51
180.0
  0
ARC
  5
95AB
  8
AM_0
 10
129.4802375909087
 20
188.7763385195081
 30
0.0
 40
0.3000000000000114
 50
0.0
 51
90.0
  0
LINE
  5
95AC
  8
AM_0
 10
128.28023759090871
 20
183.6311677672179
 30
0.0
 11
129.4802375909087
 21
183.6311677672179
 31
0.0
  0
ARC
  5
95AD
  8
AM_0
 10
129.4802375909087
 20
183.33116776721809
 30
0.0
 40
0.2999999999999971
 50
0.0
 51
90.0
  0
LINE
  5
95AE
  8
AM_0
 10
128.28023759090871
 20
187.30409533307491
 30
0.0
 11
129.4802375909087
 21
187.30409533307491
 31
0.0
  0
ARC
  5
95AF
  8
AM_0
 10
129.4802375909087
 20
187.60409533307509
 30
0.0
 40
0.3000000000000007
 50
270.0
 51
0.0
  0
LINE
  5
95B0
  8
AM_0
 10
129.78023759090871
 20
187.60409533307509
 30
0.0
 11
129.78023759090871
 21
188.7763385195081
 31
0.0
  0
LINE
  5
95B1
  8
AM_0
 10
131.2066057459057
 20
192.48116776721599
 30
0.0
 11
131.6021762588297
 21
192.48116776721599
 31
0.0
  0
LINE
  5
95B2
  8
AM_0
 10
131.2066057459057
 20
192.48116776721599
 30
0.0
 11
131.6021762588297
 21
192.48116776721599
 31
0.0
  0
LINE
  5
95B3
  8
AM_0
 10
131.69876875336871
 20
192.40705000047959
 30
0.0
 11
131.86001325136661
 21
191.80528553395251
 31
0.0
  0
LINE
  5
95B4
  8
AM_0
 10
131.69876875336871
 20
192.40705000047959
 30
0.0
 11
131.86001325136661
 21
191.80528553395251
 31
0.0
  0
ARC
  5
95B5
  8
AM_0
 10
131.9566057459057
 20
191.83116776721619
 30
0.0
 40
0.0999999999999943
 50
195.00019500651879
 51
270.0
  0
ARC
  5
95B6
  8
AM_0
 10
131.6021762588297
 20
192.38116776721611
 30
0.0
 40
0.0999999999999943
 50
15.000195006505431
 51
90.0
  0
LINE
  5
95B7
  8
AM_0
 10
130.27939100236759
 20
192.10616776721619
 30
0.0
 11
130.36001325136661
 21
191.80528553395251
 31
0.0
  0
LINE
  5
95B8
  8
AM_0
 10
130.93161933946061
 20
191.7704323003141
 30
0.0
 11
131.1100132513665
 21
192.40705000047959
 31
0.0
  0
LINE
  5
95B9
  8
AM_0
 10
130.94876875336871
 20
191.80528553395251
 30
0.0
 11
131.1100132513665
 21
192.40705000047959
 31
0.0
  0
LINE
  5
95BA
  8
AM_0
 10
129.78023759090871
 20
191.9180007477251
 30
0.0
 11
129.78023759090871
 21
192.574915731376
 31
0.0
  0
LINE
  5
95BB
  8
AM_0
 10
130.28023759090871
 20
192.10300829877801
 30
0.0
 11
130.36001325136661
 21
191.80528553395251
 31
0.0
  0
LINE
  5
95BC
  8
AM_0
 10
128.28023759090871
 20
191.61800074772509
 30
0.0
 11
129.4802375909087
 21
191.61800074772509
 31
0.0
  0
LINE
  5
95BD
  8
AM_0
 10
129.4802375909087
 20
189.076338519508
 30
0.0
 11
128.28023759090871
 21
189.07633851950891
 31
0.0
  0
LINE
  5
95BE
  8
AM_0
 10
130.88480852434469
 20
191.73116776721599
 30
0.0
 11
130.93161933946061
 21
191.7704323003141
 31
0.0
  0
LINE
  5
95BF
  8
AM_0
 10
130.45660574590559
 20
191.73116776721599
 30
0.0
 11
130.88480852434469
 21
191.73116776721599
 31
0.0
  0
LINE
  5
95C0
  8
AM_0
 10
130.45660574590559
 20
191.73116776721599
 30
0.0
 11
130.85217625882959
 21
191.73116776721599
 31
0.0
  0
ARC
  5
95C1
  8
AM_0
 10
130.4566057459057
 20
191.83116776721619
 30
0.0
 40
0.0999999999999943
 50
195.00019500651879
 51
270.0
  0
ARC
  5
95C2
  8
AM_0
 10
130.8521762588297
 20
191.83116776721619
 30
0.0
 40
0.0999999999999608
 50
270.0
 51
344.99980499348112
  0
ARC
  5
95C3
  8
AM_0
 10
129.4802375909087
 20
191.9180007477251
 30
0.0
 40
0.3000000000000007
 50
270.0
 51
0.0
  0
LINE
  5
95C4
  8
AM_0
 10
128.28023759090871
 20
193.63116776721611
 30
0.0
 11
129.78023759090871
 21
193.63116776721611
 31
0.0
  0
LINE
  5
95C5
  8
AM_0
 10
129.4802375909087
 20
192.87491573137601
 30
0.0
 11
128.28023759090871
 21
192.87491573137601
 31
0.0
  0
LINE
  5
95C6
  8
AM_0
 10
129.50019329406589
 20
193.949837387006
 30
0.0
 11
128.28023759090871
 21
194.031167767216
 31
0.0
  0
ARC
  5
95C7
  8
AM_0
 10
129.7802375909088
 20
193.13116776721611
 30
0.0
 40
0.5
 50
0.0
 51
90.0
  0
ARC
  5
95C8
  8
AM_0
 10
131.2066057459057
 20
192.38116776721611
 30
0.0
 40
0.0999999999999606
 50
90.0
 51
164.99980499349451
  0
ARC
  5
95C9
  8
AM_0
 10
129.4802375909087
 20
192.574915731376
 30
0.0
 40
0.2999999999999971
 50
0.0
 51
90.0
  0
LINE
  5
95CA
  8
AM_0
 10
129.78023759090871
 20
193.63116776721611
 30
0.0
 11
129.78023759090871
 21
193.650501839649
 31
0.0
  0
ARC
  5
95CB
  8
AM_0
 10
129.4802375909087
 20
193.650501839649
 30
0.0
 40
0.3000000000000043
 50
0.0
 51
86.18592516571853
  0
ARC
  5
95CC
  8
AM_0
 10
141.1789086872547
 20
195.63116776721611
 30
0.0
 40
0.5
 50
90.0
 51
180.0
  0
LINE
  5
95CD
  8
AM_0
 10
140.6789086872547
 20
195.63116776721611
 30
0.0
 11
140.6789086872547
 21
195.13116776721611
 31
0.0
  0
LINE
  5
95CE
  8
AM_0
 10
119.2802375909088
 20
192.28447969867489
 30
0.0
 11
125.7802375909087
 21
192.28447969867489
 31
0.0
  0
LINE
  5
95CF
  8
AM_0
 10
119.2802375909088
 20
183.97785583575711
 30
0.0
 11
125.7802375909087
 21
183.97785583575711
 31
0.0
  0
LINE
  5
95D0
  8
AM_0
 10
118.6422875260907
 20
193.63116776721611
 30
0.0
 11
125.4802375909087
 21
193.63116776721611
 31
0.0
  0
LINE
  5
95D1
  8
AM_0
 10
125.7802375909087
 20
183.63116776721611
 30
0.0
 11
118.7802375909087
 21
183.63116776721611
 31
0.0
  0
LINE
  5
95D2
  8
AM_0
 10
119.2802375909088
 20
183.13116776721611
 30
0.0
 11
125.7802375909087
 21
183.13116776721611
 31
0.0
  0
LINE
  5
95D3
  8
AM_0
 10
125.7802375909087
 20
193.26444759586391
 30
0.0
 11
119.2802375909088
 21
193.26444759586391
 31
0.0
  0
LINE
  5
95D4
  8
AM_0
 10
125.7802375909087
 20
192.76444759586391
 30
0.0
 11
119.2802375909088
 21
192.76444759586391
 31
0.0
  0
ARC
  5
95D5
  8
AM_0
 10
125.4802375909087
 20
193.9311677672161
 30
0.0
 40
0.3000000000000043
 50
270.0
 51
0.0
  0
ARC
  5
95D6
  8
AM_0
 10
126.08023759090879
 20
194.33116776721619
 30
0.0
 40
0.2999999999999971
 50
90.0
 51
180.0
  0
ARC
  5
95D7
  8
AM_0
 10
127.4052375909088
 20
188.13116776721611
 30
0.0
 40
9.124999999999984
 50
152.92493329271849
 51
207.07506670728151
  0
LINE
  5
95D8
  8
AM_0
 10
118.7802375909087
 20
183.63116776721611
 30
0.0
 11
119.2802375909088
 21
183.97785583575711
 31
0.0
  0
LINE
  5
95D9
  8
AM_0
 10
119.2802375909088
 20
183.13116776721611
 30
0.0
 11
118.7802375909087
 21
183.63116776721611
 31
0.0
  0
LINE
  5
95DA
  8
AM_0
 10
115.64005319124421
 20
191.43101410082929
 30
0.0
 11
118.00210312642621
 21
193.3993890468135
 31
0.0
  0
LINE
  5
95DB
  8
AM_0
 10
119.2802375909088
 20
193.63116776721611
 30
0.0
 11
118.7802375909087
 21
193.0527351837091
 31
0.0
  0
ARC
  5
95DC
  8
AM_0
 10
118.6422875260907
 20
192.63116776721611
 30
0.0
 40
1.00000000000004
 50
90.0
 51
129.805571092256
  0
LINE
  5
95DD
  8
AM_0
 10
118.7802375909087
 20
192.0527351837091
 30
0.0
 11
119.2802375909088
 21
192.28447969867489
 31
0.0
  0
LINE
  5
95DE
  8
AM_0
 10
119.2802375909088
 20
192.76444759586391
 30
0.0
 11
118.7802375909087
 21
192.0527351837091
 31
0.0
  0
LINE
  5
95DF
  8
AM_0
 10
118.7802375909087
 20
192.59045991073711
 30
0.0
 11
119.2802375909088
 21
192.76444759586391
 31
0.0
  0
LINE
  5
95E0
  8
AM_0
 10
119.2802375909088
 20
193.26444759586391
 30
0.0
 11
118.7802375909087
 21
192.59045991073711
 31
0.0
  0
LINE
  5
95E1
  8
AM_0
 10
118.7802375909087
 20
193.0527351837091
 30
0.0
 11
119.2802375909088
 21
193.26444759586391
 31
0.0
  0
ARC
  5
95E2
  8
AM_0
 10
116.2802375909088
 20
190.66279282123199
 30
0.0
 40
1.0
 50
129.8055710922664
 51
180.0
  0
LINE
  5
95E3
  8
AM_0
 10
240.67890868725479
 20
159.63116776721631
 30
0.0
 11
219.86440378772241
 21
159.63116776721631
 31
0.0
  0
LINE
  5
95E4
  8
AM_0
 10
165.49341358678711
 20
159.63116776721631
 30
0.0
 11
144.67890868725539
 21
159.63116776721631
 31
0.0
  0
LINE
  5
95E5
  8
AM_0
 10
234.5431270180938
 20
155.63116776721631
 30
0.0
 11
150.81469035641561
 21
155.63116776721631
 31
0.0
  0
LINE
  5
95E6
  8
AM_0
 10
153.58626365956181
 20
157.5722302550885
 30
0.0
 11
153.6789086872553
 21
158.63116776721631
 31
0.0
  0
LINE
  5
95E7
  8
AM_0
 10
145.77155371494879
 20
157.5722302550885
 30
0.0
 11
145.67890868725539
 21
158.63116776721631
 31
0.0
  0
ARC
  5
95E8
  8
AM_0
 10
149.67890868725539
 20
162.03116776721629
 30
0.0
 40
6.5
 50
241.82726586813479
 51
298.17273413186518
  0
ARC
  5
95E9
  8
AM_0
 10
147.36546523189571
 20
157.7116794434848
 30
0.0
 40
1.6000000000000001
 50
184.99999999999969
 51
241.82726586813479
  0
LINE
  5
95EA
  8
AM_0
 10
151.97890868725531
 20
155.95169410578799
 30
0.0
 11
149.6789086872553
 21
158.24125378458351
 31
0.0
  0
LINE
  5
95EB
  8
AM_0
 10
149.9904086872553
 20
157.93116776721629
 30
0.0
 11
149.36740868725531
 21
157.93116776721629
 31
0.0
  0
LINE
  5
95EC
  8
AM_0
 10
147.3789086872554
 20
155.95169410578799
 30
0.0
 11
149.6789086872553
 21
158.24125378458351
 31
0.0
  0
LINE
  5
95ED
  8
AM_0
 10
149.9904086872553
 20
155.53863607688169
 30
0.0
 11
149.9904086872553
 21
157.93116776721629
 31
0.0
  0
LINE
  5
95EE
  8
AM_0
 10
149.36740868725531
 20
155.53863607688169
 30
0.0
 11
149.36740868725531
 21
157.93116776721629
 31
0.0
  0
ARC
  5
95EF
  8
AM_0
 10
151.992352142615
 20
157.7116794434848
 30
0.0
 40
1.6000000000000001
 50
298.17273413186518
 51
355.00000000000028
  0
LINE
  5
95F0
  8
AM_0
 10
240.6789086872549
 20
159.63116776721631
 30
0.0
 11
240.6789086872549
 21
163.63116776721631
 31
0.0
  0
LINE
  5
95F1
  8
AM_0
 10
144.67890868725451
 20
163.6311677672162
 30
0.0
 11
144.6789086872555
 21
159.63116776721631
 31
0.0
  0
LINE
  5
95F2
  8
AM_0N
 10
153.4789086872554
 20
159.63116776721631
 30
0.0
 11
153.4789086872554
 21
158.63116776721631
 31
0.0
  0
LINE
  5
95F3
  8
AM_0N
 10
149.87890868725529
 20
158.63116776721631
 30
0.0
 11
150.24287892152151
 21
159.63116776721631
 31
0.0
  0
LINE
  5
95F4
  8
AM_0N
 10
149.4789086872554
 20
158.63116776721631
 30
0.0
 11
149.8428789215215
 21
159.63116776721631
 31
0.0
  0
LINE
  5
95F5
  8
AM_0N
 10
145.6789086872553
 20
158.63116776721631
 30
0.0
 11
153.6789086872553
 21
158.63116776721631
 31
0.0
  0
LINE
  5
95F6
  8
AM_0N
 10
145.87890868725529
 20
158.63116776721631
 30
0.0
 11
145.87890868725529
 21
159.63116776721631
 31
0.0
  0
LINE
  5
95F7
  8
AM_0
 10
165.493413586787
 20
155.63116776721631
 30
0.0
 11
165.493413586787
 21
159.63116776721631
 31
0.0
  0
LINE
  5
95F8
  8
AM_0
 10
163.8365593372946
 20
159.63116776721631
 30
0.0
 11
165.493413586787
 21
155.63116776721631
 31
0.0
  0
LINE
  5
95F9
  8
AM_0
 10
219.86440378772241
 20
155.63116776721631
 30
0.0
 11
219.86440378772241
 21
159.63116776721631
 31
0.0
  0
LINE
  5
95FA
  8
AM_0
 10
221.52125803721489
 20
159.63116776721631
 30
0.0
 11
219.86440378772241
 21
155.63116776721631
 31
0.0
  0
LINE
  5
95FB
  8
AM_0
 10
159.1789086872547
 20
204.6311677672164
 30
0.0
 11
226.17890868725479
 21
204.6311677672164
 31
0.0
  0
LINE
  5
95FC
  8
AM_0
 10
159.1789086872547
 20
204.6311677672164
 30
0.0
 11
159.1789086872547
 21
202.6311677672164
 31
0.0
  0
LINE
  5
95FD
  8
AM_0
 10
226.17890868725479
 20
204.6311677672164
 30
0.0
 11
226.17890868725479
 21
202.6311677672164
 31
0.0
  0
LINE
  5
95FE
  8
ﾁｭｳｼﾝｾﾝ1
 10
235.67890868725411
 20
153.36646026721621
 30
0.0
 11
235.67890868725411
 21
166.3664602672163
 31
0.0
  0
LINE
  5
95FF
  8
AM_0
 10
231.77155371494769
 20
157.5722302550885
 30
0.0
 11
231.67890868725419
 21
158.63116776721631
 31
0.0
  0
LINE
  5
9600
  8
AM_0
 10
239.5862636595607
 20
157.5722302550885
 30
0.0
 11
239.67890868725411
 21
158.63116776721631
 31
0.0
  0
ARC
  5
9601
  8
AM_0
 10
235.67890868725439
 20
162.03116776721609
 30
0.0
 40
6.5
 50
241.82726586813479
 51
298.17273413186518
  0
ARC
  5
9602
  8
AM_0
 10
237.99235214261401
 20
157.71167944348471
 30
0.0
 40
1.6000000000000001
 50
298.17273413186518
 51
355.00000000000028
  0
LINE
  5
9603
  8
AM_0
 10
233.37890868725421
 20
155.95169410578799
 30
0.0
 11
235.67890868725419
 21
158.24125378458351
 31
0.0
  0
LINE
  5
9604
  8
AM_0
 10
235.3674086872542
 20
157.93116776721629
 30
0.0
 11
235.99040868725419
 21
157.93116776721629
 31
0.0
  0
LINE
  5
9605
  8
AM_0
 10
237.97890868725409
 20
155.95169410578799
 30
0.0
 11
235.67890868725419
 21
158.24125378458351
 31
0.0
  0
LINE
  5
9606
  8
AM_0
 10
235.3674086872542
 20
155.53863607688169
 30
0.0
 11
235.3674086872542
 21
157.93116776721629
 31
0.0
  0
LINE
  5
9607
  8
AM_0
 10
235.99040868725419
 20
155.53863607688169
 30
0.0
 11
235.99040868725419
 21
157.93116776721629
 31
0.0
  0
ARC
  5
9608
  8
AM_0
 10
233.36546523189469
 20
157.71167944348471
 30
0.0
 40
1.6000000000000001
 50
184.99999999999969
 51
241.82726586813479
  0
LINE
  5
9609
  8
AM_0N
 10
231.8789086872541
 20
159.63116776721631
 30
0.0
 11
231.8789086872541
 21
158.63116776721631
 31
0.0
  0
LINE
  5
960A
  8
AM_0N
 10
235.47890868725409
 20
158.63116776721631
 30
0.0
 11
235.11493845298801
 21
159.63116776721631
 31
0.0
  0
LINE
  5
960B
  8
AM_0N
 10
235.8789086872541
 20
158.63116776721631
 30
0.0
 11
235.51493845298799
 21
159.63116776721631
 31
0.0
  0
LINE
  5
960C
  8
AM_0N
 10
239.67890868725419
 20
158.63116776721631
 30
0.0
 11
231.67890868725419
 21
158.63116776721631
 31
0.0
  0
LINE
  5
960D
  8
AM_0N
 10
239.47890868725409
 20
158.63116776721631
 30
0.0
 11
239.47890868725409
 21
159.63116776721631
 31
0.0
  0
LINE
  5
960E
  8
AM_0
 10
143.6789086872547
 20
166.63116776721611
 30
0.0
 11
143.67890868725459
 21
198.63116776721611
 31
0.0
  0
LINE
  5
960F
  8
AM_0
 10
241.8846586872549
 20
315.56005776721639
 30
0.0
 11
237.738938687255
 21
331.04116776721622
 31
0.0
  0
LINE
  5
9610
  8
AM_0
 10
241.884628687255
 20
314.65005776721642
 30
0.0
 11
237.73890868725491
 21
330.13116776721631
 31
0.0
  0
LINE
  5
9611
  8
AM_0
 10
241.884628687255
 20
312.80007776721641
 30
0.0
 11
237.73890868725491
 21
328.28121776721628
 31
0.0
  0
LINE
  5
9612
  8
AM_0
 10
243.6789086872549
 20
326.63116776721631
 30
0.0
 11
243.6789086872549
 21
214.63116776721611
 31
0.0
  0
LINE
  5
9613
  8
AM_0
 10
121.678908687255
 20
318.65118776721619
 30
0.0
 11
121.678908687255
 21
275.63116776721631
 31
0.0
  0
LINE
  5
9614
  8
AM_0
 10
123.94892868725481
 20
320.38116776721631
 30
0.0
 11
126.1789086872549
 21
320.38116776721631
 31
0.0
  0
LINE
  5
9615
  8
AM_0
 10
123.8789186872547
 20
306.32110776721629
 30
0.0
 11
125.9788986872549
 21
306.32110776721629
 31
0.0
  0
LINE
  5
9616
  8
AM_0
 10
123.44892868725481
 20
320.2511277672163
 30
0.0
 11
122.17896868725489
 21
319.51113776721633
 31
0.0
  0
LINE
  5
9617
  8
AM_0
 10
123.43885868725501
 20
318.13122776721627
 30
0.0
 11
122.1588886872549
 21
317.3612077672164
 31
0.0
  0
LINE
  5
9618
  8
AM_0
 10
123.428848687255
 20
313.59118776721618
 30
0.0
 11
122.12885868725481
 21
312.74120776721628
 31
0.0
  0
LINE
  5
9619
  8
AM_0
 10
123.48890868725491
 20
306.2411777672163
 30
0.0
 11
122.288958687255
 21
305.73116776721639
 31
0.0
  0
LINE
  5
961A
  8
AM_0
 10
123.9589386872549
 20
318.27117776721639
 30
0.0
 11
126.678908687255
 21
318.27117776721639
 31
0.0
  0
LINE
  5
961B
  8
AM_0
 10
123.9789586872549
 20
313.76116776721619
 30
0.0
 11
126.678908687255
 21
313.76116776721619
 31
0.0
  0
LINE
  5
961C
  8
AM_0
 10
123.8289386872549
 20
304.37115776721629
 30
0.0
 11
125.678908687255
 21
304.37115776721629
 31
0.0
  0
LINE
  5
961D
  8
AM_0
 10
123.94892868725481
 20
312.62115776721629
 30
0.0
 11
125.678908687255
 21
312.62115776721629
 31
0.0
  0
LINE
  5
961E
  8
AM_0
 10
123.9289086872549
 20
317.13116776721631
 30
0.0
 11
125.678908687255
 21
317.13116776721631
 31
0.0
  0
LINE
  5
961F
  8
AM_0
 10
123.91889868725499
 20
319.2311377672163
 30
0.0
 11
126.1789086872549
 21
319.2311377672163
 31
0.0
  0
LINE
  5
9620
  8
AM_0
 10
123.4488686872551
 20
312.48119776721637
 30
0.0
 11
122.16889868725509
 21
311.73119776721632
 31
0.0
  0
LINE
  5
9621
  8
AM_0
 10
123.5388986872551
 20
304.33120776721631
 30
0.0
 11
122.388928687255
 21
303.98119776721637
 31
0.0
  0
LINE
  5
9622
  8
AM_0
 10
123.4688886872549
 20
319.13116776721631
 30
0.0
 11
122.2288986872551
 21
318.50115776721611
 31
0.0
  0
LINE
  5
9623
  8
AM_0
 10
123.4589386872549
 20
317.02120776721631
 30
0.0
 11
122.2089386872549
 21
316.35119776721621
 31
0.0
  0
LINE
  5
9624
  8
AM_0
 10
125.678908687255
 20
296.63116776721631
 30
0.0
 11
122.678908687255
 21
296.63116776721631
 31
0.0
  0
LINE
  5
9625
  8
AM_0
 10
125.678908687255
 20
294.63116776721631
 30
0.0
 11
122.678908687255
 21
294.63116776721631
 31
0.0
  0
LINE
  5
9626
  8
AM_0
 10
125.678908687255
 20
286.63116776721631
 30
0.0
 11
122.678908687255
 21
286.63116776721631
 31
0.0
  0
LINE
  5
9627
  8
AM_0
 10
125.678908687255
 20
284.63116776721631
 30
0.0
 11
122.678908687255
 21
284.63116776721631
 31
0.0
  0
LINE
  5
9628
  8
AM_0
 10
125.678908687255
 20
276.63116776721631
 30
0.0
 11
122.678908687255
 21
276.63116776721631
 31
0.0
  0
LINE
  5
9629
  8
AM_0
 10
125.678908687255
 20
274.63116776721631
 30
0.0
 11
122.678908687255
 21
274.63116776721631
 31
0.0
  0
LINE
  5
962A
  8
AM_0
 10
123.678908687255
 20
286.24114776721621
 30
0.0
 11
123.678908687255
 21
285.03118776721618
 31
0.0
  0
LINE
  5
962B
  8
AM_0
 10
123.678908687255
 20
276.24114776721632
 30
0.0
 11
123.678908687255
 21
275.0811177672162
 31
0.0
  0
LINE
  5
962C
  8
AM_0
 10
123.678908687255
 20
296.26116776721619
 30
0.0
 11
123.678908687255
 21
294.89117776721628
 31
0.0
  0
LINE
  5
962D
  8
AM_0
 10
123.678908687255
 20
306.02117776721627
 30
0.0
 11
123.678908687255
 21
304.96111776721619
 31
0.0
  0
LINE
  5
962E
  8
AM_0
 10
123.678908687255
 20
313.46111776721631
 30
0.0
 11
123.678908687255
 21
312.99114776721632
 31
0.0
  0
LINE
  5
962F
  8
AM_0
 10
123.678908687255
 20
318.0311877672163
 30
0.0
 11
123.678908687255
 21
317.4811377672163
 31
0.0
  0
LINE
  5
9630
  8
AM_0
 10
123.678908687255
 20
320.13116776721631
 30
0.0
 11
123.678908687255
 21
319.60113776721619
 31
0.0
  0
LINE
  5
9631
  8
AM_0
 10
120.178908687255
 20
290.63116776721631
 30
0.0
 11
120.178908687255
 21
270.63116776721631
 31
0.0
  0
LINE
  5
9632
  8
AM_0
 10
120.178908687255
 20
290.63113776721639
 30
0.0
 11
121.678908687255
 21
290.76113776721633
 31
0.0
  0
LINE
  5
9633
  8
AM_0
 10
120.178908687255
 20
285.78118776721618
 30
0.0
 11
121.678908687255
 21
285.78118776721618
 31
0.0
  0
LINE
  5
9634
  8
AM_0
 10
120.178908687255
 20
287.91119776721621
 30
0.0
 11
121.678908687255
 21
287.91119776721621
 31
0.0
  0
LINE
  5
9635
  8
AM_0
 10
237.01893868725489
 20
306.63116776721631
 30
0.0
 11
138.03889868725491
 21
306.63116776721631
 31
0.0
  0
LINE
  5
9636
  8
AM_0
 10
237.01893868725489
 20
304.63116776721631
 30
0.0
 11
138.03889868725491
 21
304.63116776721631
 31
0.0
  0
LINE
  5
9637
  8
AM_0
 10
204.6789086872551
 20
296.63116776721631
 30
0.0
 11
138.03889868725491
 21
296.63116776721631
 31
0.0
  0
LINE
  5
9638
  8
AM_0
 10
237.0117386872551
 20
294.63116776721631
 30
0.0
 11
138.03889868725491
 21
294.63116776721631
 31
0.0
  0
LINE
  5
9639
  8
AM_0
 10
172.11762868725489
 20
286.63116776721631
 30
0.0
 11
138.03889868725491
 21
286.63116776721631
 31
0.0
  0
LINE
  5
963A
  8
AM_0
 10
172.11762868725489
 20
284.63116776721631
 30
0.0
 11
138.03889868725491
 21
284.63116776721631
 31
0.0
  0
LINE
  5
963B
  8
AM_0
 10
172.11762868725489
 20
276.63116776721631
 30
0.0
 11
138.03889868725491
 21
276.63116776721631
 31
0.0
  0
LINE
  5
963C
  8
AM_0
 10
172.11762868725489
 20
274.63116776721631
 30
0.0
 11
138.03889868725491
 21
274.63116776721631
 31
0.0
  0
LINE
  5
963D
  8
AM_0
 10
137.35889868725511
 20
307.35113776721619
 30
0.0
 11
240.4989186872549
 21
307.35113776721619
 31
0.0
  0
LINE
  5
963E
  8
AM_0
 10
137.35889868725511
 20
304.0011577672164
 30
0.0
 11
204.69892868725501
 21
304.0011577672164
 31
0.0
  0
LINE
  5
963F
  8
AM_0
 10
137.13892868725489
 20
297.12115776721618
 30
0.0
 11
204.6789086872551
 21
297.12115776721618
 31
0.0
  0
LINE
  5
9640
  8
AM_0
 10
137.13892868725489
 20
294.1912177672163
 30
0.0
 11
240.71314868725489
 21
294.1912177672163
 31
0.0
  0
LINE
  5
9641
  8
AM_0
 10
137.00892868725489
 20
286.97112776721627
 30
0.0
 11
173.337598687255
 21
286.97112776721627
 31
0.0
  0
LINE
  5
9642
  8
AM_0
 10
137.00892868725489
 20
284.31121776721619
 30
0.0
 11
173.337598687255
 21
284.31121776721619
 31
0.0
  0
LINE
  5
9643
  8
AM_0
 10
136.94892868725481
 20
276.90118776721619
 30
0.0
 11
173.39759868725491
 21
276.90118776721619
 31
0.0
  0
LINE
  5
9644
  8
AM_0
 10
136.94892868725481
 20
274.3711577672164
 30
0.0
 11
173.39759868725491
 21
274.3711577672164
 31
0.0
  0
LINE
  5
9645
  8
AM_0
 10
136.94892868725481
 20
266.90118776721619
 30
0.0
 11
173.39759868725491
 21
266.90118776721619
 31
0.0
  0
LINE
  5
9646
  8
AM_0
 10
172.11762868725489
 20
266.63116776721631
 30
0.0
 11
138.03889868725491
 21
266.63116776721631
 31
0.0
  0
LINE
  5
9647
  8
AM_0
 10
172.11762868725489
 20
264.63116776721631
 30
0.0
 11
138.03889868725491
 21
264.63116776721631
 31
0.0
  0
LINE
  5
9648
  8
AM_0
 10
136.94892868725481
 20
264.36114776721638
 30
0.0
 11
173.39759868725491
 21
264.36114776721638
 31
0.0
  0
LINE
  5
9649
  8
AM_0
 10
137.00892868725489
 20
256.9511077672164
 30
0.0
 11
173.337598687255
 21
256.9511077672164
 31
0.0
  0
LINE
  5
964A
  8
AM_0
 10
172.11762868725489
 20
256.63116776721631
 30
0.0
 11
138.03889868725491
 21
256.63116776721631
 31
0.0
  0
LINE
  5
964B
  8
AM_0
 10
172.11762868725489
 20
254.63116776721631
 30
0.0
 11
138.03889868725491
 21
254.63116776721631
 31
0.0
  0
LINE
  5
964C
  8
AM_0
 10
137.00892868725489
 20
254.29119776721629
 30
0.0
 11
173.35017868725481
 21
254.29119776721629
 31
0.0
  0
LINE
  5
964D
  8
AM_0
 10
237.0117386872551
 20
246.63116776721631
 30
0.0
 11
138.03889868725491
 21
246.63116776721631
 31
0.0
  0
LINE
  5
964E
  8
AM_0
 10
137.13892868725489
 20
247.07110776721629
 30
0.0
 11
240.71314868725489
 21
247.07110776721629
 31
0.0
  0
LINE
  5
964F
  8
AM_0
 10
204.6789086872551
 20
244.63116776721631
 30
0.0
 11
138.03889868725491
 21
244.63116776721631
 31
0.0
  0
LINE
  5
9650
  8
AM_0
 10
137.13892868725489
 20
244.14117776721631
 30
0.0
 11
204.6789086872551
 21
244.14117776721631
 31
0.0
  0
LINE
  5
9651
  8
AM_0
 10
237.01893868725489
 20
236.6311677672162
 30
0.0
 11
192.6789086872549
 21
236.6311677672162
 31
0.0
  0
LINE
  5
9652
  8
AM_0
 10
237.01893868725489
 20
234.6311677672162
 30
0.0
 11
192.6789086872549
 21
234.6311677672162
 31
0.0
  0
LINE
  5
9653
  8
AM_0
 10
137.35889868725511
 20
233.91119776721609
 30
0.0
 11
192.6789086872549
 21
233.91119776721609
 31
0.0
  0
LINE
  5
9654
  8
AM_0
 10
240.4989186872549
 20
237.26116776721619
 30
0.0
 11
222.65894868725491
 21
237.26116776721619
 31
0.0
  0
LINE
  5
9655
  8
AM_0
 10
123.8789186872547
 20
234.94121776721619
 30
0.0
 11
125.9788986872549
 21
234.94121776721619
 31
0.0
  0
LINE
  5
9656
  8
AM_0
 10
123.4889686872547
 20
235.0212077672162
 30
0.0
 11
122.288958687255
 21
235.54122776721621
 31
0.0
  0
LINE
  5
9657
  8
AM_0
 10
123.8289386872549
 20
236.89117776721611
 30
0.0
 11
125.678908687255
 21
236.89117776721611
 31
0.0
  0
LINE
  5
9658
  8
AM_0
 10
123.5388986872551
 20
236.93114776721609
 30
0.0
 11
122.388928687255
 21
237.29116776721631
 31
0.0
  0
LINE
  5
9659
  8
AM_0
 10
125.678908687255
 20
244.63116776721631
 30
0.0
 11
122.678908687255
 21
244.63116776721631
 31
0.0
  0
LINE
  5
965A
  8
AM_0
 10
125.678908687255
 20
246.63116776721631
 30
0.0
 11
122.678908687255
 21
246.63116776721631
 31
0.0
  0
LINE
  5
965B
  8
AM_0
 10
125.678908687255
 20
254.63116776721631
 30
0.0
 11
122.678908687255
 21
254.63116776721631
 31
0.0
  0
LINE
  5
965C
  8
AM_0
 10
125.678908687255
 20
256.63116776721631
 30
0.0
 11
122.678908687255
 21
256.63116776721631
 31
0.0
  0
LINE
  5
965D
  8
AM_0
 10
125.678908687255
 20
264.63116776721631
 30
0.0
 11
122.678908687255
 21
264.63116776721631
 31
0.0
  0
LINE
  5
965E
  8
AM_0
 10
125.678908687255
 20
266.63116776721631
 30
0.0
 11
122.678908687255
 21
266.63116776721631
 31
0.0
  0
LINE
  5
965F
  8
AM_0
 10
123.678908687255
 20
255.02117776721639
 30
0.0
 11
123.678908687255
 21
256.24114776721632
 31
0.0
  0
LINE
  5
9660
  8
AM_0
 10
123.678908687255
 20
265.02117776721639
 30
0.0
 11
123.678908687255
 21
266.18120776721639
 31
0.0
  0
LINE
  5
9661
  8
AM_0
 10
123.678908687255
 20
245.00115776721631
 30
0.0
 11
123.678908687255
 21
246.37115776721629
 31
0.0
  0
LINE
  5
9662
  8
AM_0
 10
123.678908687255
 20
235.24114776721609
 30
0.0
 11
123.678908687255
 21
236.30120776721631
 31
0.0
  0
LINE
  5
9663
  8
AM_0
 10
120.178908687255
 20
250.63116776721631
 30
0.0
 11
120.178908687255
 21
270.63116776721631
 31
0.0
  0
LINE
  5
9664
  8
AM_0
 10
120.178908687255
 20
250.63113776721639
 30
0.0
 11
121.678908687255
 21
250.5011277672163
 31
0.0
  0
LINE
  5
9665
  8
AM_0
 10
120.178908687255
 20
255.4811377672163
 30
0.0
 11
121.678908687255
 21
255.4811377672163
 31
0.0
  0
LINE
  5
9666
  8
AM_0
 10
120.178908687255
 20
253.35113776721619
 30
0.0
 11
121.678908687255
 21
253.35113776721619
 31
0.0
  0
LINE
  5
9667
  8
AM_0
 10
137.35889868725511
 20
237.26116776721619
 30
0.0
 11
204.69892868725501
 21
237.26116776721619
 31
0.0
  0
LINE
  5
9668
  8
AM_0
 10
192.6789086872549
 20
236.6311677672162
 30
0.0
 11
138.03889868725491
 21
236.6311677672162
 31
0.0
  0
LINE
  5
9669
  8
AM_0
 10
192.6789086872549
 20
234.6311677672162
 30
0.0
 11
138.03889868725491
 21
234.6311677672162
 31
0.0
  0
LINE
  5
966A
  8
AM_0
 10
192.6789086872549
 20
233.91119776721609
 30
0.0
 11
240.4989186872549
 21
233.91119776721609
 31
0.0
  0
LINE
  5
966B
  8
AM_0
 10
127.678908687255
 20
323.63116776721631
 30
0.0
 11
127.678908687255
 21
217.63116776721631
 31
0.0
  0
LINE
  5
966C
  8
AM_0
 10
135.6789086872549
 20
323.63116776721631
 30
0.0
 11
135.6789086872549
 21
217.63116776721631
 31
0.0
  0
LINE
  5
966D
  8
AM_0
 10
122.16889868725509
 20
229.53115776721609
 30
0.0
 11
122.14887868725491
 21
229.54113776721621
 31
0.0
  0
LINE
  5
966E
  8
AM_0
 10
126.678908687255
 20
320.63116776721631
 30
0.0
 11
126.678908687255
 21
220.63116776721611
 31
0.0
  0
LINE
  5
966F
  8
AM_0
 10
126.678908687255
 20
320.63116776721631
 30
0.0
 11
127.678908687255
 21
320.63116776721631
 31
0.0
  0
LINE
  5
9670
  8
AM_0
 10
127.678908687255
 20
323.63116776721631
 30
0.0
 11
135.6789086872549
 21
323.63116776721631
 31
0.0
  0
LINE
  5
9671
  8
AM_0
 10
128.3789186872547
 20
313.82110776721629
 30
0.0
 11
134.60889868725511
 21
313.82110776721629
 31
0.0
  0
LINE
  5
9672
  8
AM_0
 10
243.6789086872549
 20
316.63116776721631
 30
0.0
 11
251.6789086872549
 21
316.63116776721631
 31
0.0
  0
LINE
  5
9673
  8
AM_0
 10
243.6789086872549
 20
302.57110776721629
 30
0.0
 11
251.6789086872549
 21
302.57110776721629
 31
0.0
  0
LINE
  5
9674
  8
AM_0
 10
243.6789086872549
 20
326.63116776721631
 30
0.0
 11
251.6789086872549
 21
326.63116776721631
 31
0.0
  0
LINE
  5
9675
  8
AM_0
 10
138.88892868725489
 20
326.91119776721638
 30
0.0
 11
235.8089186872549
 21
326.91119776721638
 31
0.0
  0
LINE
  5
9676
  8
AM_0
 10
135.6789086872549
 20
318.7312277672163
 30
0.0
 11
136.91889868725491
 21
325.29122776721618
 31
0.0
  0
LINE
  5
9677
  8
AM_0
 10
141.0389586872549
 20
307.28118776721618
 30
0.0
 11
135.67896868725489
 21
318.73116776721622
 31
0.0
  0
LINE
  5
9678
  8
AM_0
 10
141.03889868725491
 20
233.98113776721621
 30
0.0
 11
135.67896868725489
 21
222.54122776721621
 31
0.0
  0
LINE
  5
9679
  8
AM_0
 10
138.9289086872549
 20
329.76116776721619
 30
0.0
 11
235.8089186872549
 21
329.76116776721619
 31
0.0
  0
LINE
  5
967A
  8
AM_0
 10
138.94892868725481
 20
331.61114776721638
 30
0.0
 11
235.8089186872549
 21
331.61114776721638
 31
0.0
  0
LINE
  5
967B
  8
AM_0
 10
138.96894868725491
 20
332.52117776721639
 30
0.0
 11
235.80897868725501
 21
332.52117776721639
 31
0.0
  0
LINE
  5
967C
  8
AM_0
 10
135.67896868725489
 20
320.07119776721629
 30
0.0
 11
136.95893868725491
 21
328.08114776721629
 31
0.0
  0
LINE
  5
967D
  8
AM_0
 10
135.67896868725489
 20
321.42113776721612
 30
0.0
 11
136.96894868725499
 21
329.9112277672163
 31
0.0
  0
LINE
  5
967E
  8
AM_0
 10
135.6789086872549
 20
321.42116776721628
 30
0.0
 11
136.98890868725491
 21
330.80120776721628
 31
0.0
  0
LINE
  5
967F
  8
AM_0
 10
241.878978687255
 20
309.97112776721639
 30
0.0
 11
237.7389686872549
 21
325.43114776721632
 31
0.0
  0
LINE
  5
9680
  8
AM_0
 10
238.21894868725499
 20
323.63116776721631
 30
0.0
 11
243.6789086872549
 21
323.63116776721631
 31
0.0
  0
LINE
  5
9681
  8
AM_0
 10
121.678908687255
 20
222.61114776721629
 30
0.0
 11
121.678908687255
 21
265.63116776721631
 31
0.0
  0
LINE
  5
9682
  8
AM_0
 10
123.94892868725481
 20
220.88116776721611
 30
0.0
 11
126.1789086872549
 21
220.88116776721611
 31
0.0
  0
LINE
  5
9683
  8
AM_0
 10
123.44892868725481
 20
221.02117776721619
 30
0.0
 11
122.17896868725489
 21
221.75115776721631
 31
0.0
  0
LINE
  5
9684
  8
AM_0
 10
123.4389786872548
 20
223.13116776721611
 30
0.0
 11
122.15894868725501
 21
223.9011877672163
 31
0.0
  0
LINE
  5
9685
  8
AM_0
 10
123.428848687255
 20
227.67113776721629
 30
0.0
 11
122.12885868725481
 21
228.52114776721629
 31
0.0
  0
LINE
  5
9686
  8
AM_0
 10
123.9589386872549
 20
222.99114776721609
 30
0.0
 11
126.678908687255
 21
222.99114776721609
 31
0.0
  0
LINE
  5
9687
  8
AM_0
 10
123.9789586872549
 20
227.51116776721631
 30
0.0
 11
126.678908687255
 21
227.51116776721631
 31
0.0
  0
LINE
  5
9688
  8
AM_0
 10
123.94892868725481
 20
228.6511877672163
 30
0.0
 11
125.678908687255
 21
228.6511877672163
 31
0.0
  0
LINE
  5
9689
  8
AM_0
 10
123.9289086872549
 20
224.13116776721611
 30
0.0
 11
125.678908687255
 21
224.13116776721611
 31
0.0
  0
LINE
  5
968A
  8
AM_0
 10
123.91889868725499
 20
222.0311877672163
 30
0.0
 11
126.1789086872549
 21
222.0311877672163
 31
0.0
  0
LINE
  5
968B
  8
AM_0
 10
123.44892868725481
 20
228.7812177672163
 30
0.0
 11
122.168958687255
 21
229.53118776721621
 31
0.0
  0
LINE
  5
968C
  8
AM_0
 10
123.4688886872549
 20
222.14114776721621
 30
0.0
 11
122.2288986872551
 21
222.77114776721621
 31
0.0
  0
LINE
  5
968D
  8
AM_0
 10
123.4589386872549
 20
224.25115776721631
 30
0.0
 11
122.2089386872549
 21
224.91115776721631
 31
0.0
  0
LINE
  5
968E
  8
AM_0
 10
123.678908687255
 20
227.80120776721631
 30
0.0
 11
123.678908687255
 21
228.2711777672163
 31
0.0
  0
LINE
  5
968F
  8
AM_0
 10
123.678908687255
 20
223.2311377672163
 30
0.0
 11
123.678908687255
 21
223.78118776721621
 31
0.0
  0
LINE
  5
9690
  8
AM_0
 10
123.678908687255
 20
221.13116776721611
 30
0.0
 11
123.678908687255
 21
221.66119776721629
 31
0.0
  0
LINE
  5
9691
  8
AM_0
 10
126.678908687255
 20
220.63116776721611
 30
0.0
 11
127.678908687255
 21
220.63116776721611
 31
0.0
  0
LINE
  5
9692
  8
AM_0
 10
127.678908687255
 20
217.63116776721631
 30
0.0
 11
135.6789086872549
 21
217.63116776721631
 31
0.0
  0
LINE
  5
9693
  8
AM_0
 10
128.3789186872547
 20
227.4412177672163
 30
0.0
 11
134.60889868725511
 21
227.4412177672163
 31
0.0
  0
LINE
  5
9694
  8
AM_0
 10
243.6789086872549
 20
224.63116776721611
 30
0.0
 11
251.6789086872549
 21
224.63116776721611
 31
0.0
  0
LINE
  5
9695
  8
AM_0
 10
243.6789086872549
 20
214.63116776721611
 30
0.0
 11
251.6789086872549
 21
214.63116776721611
 31
0.0
  0
LINE
  5
9696
  8
AM_0
 10
138.88892868725489
 20
214.3511377672163
 30
0.0
 11
235.8089186872549
 21
214.3511377672163
 31
0.0
  0
LINE
  5
9697
  8
AM_0
 10
135.6789086872549
 20
222.5411377672163
 30
0.0
 11
136.9189586872549
 21
215.98113776721621
 31
0.0
  0
LINE
  5
9698
  8
AM_0
 10
138.5851586872549
 20
211.50115776721631
 30
0.0
 11
161.0770386872548
 21
211.50115776721631
 31
0.0
  0
LINE
  5
9699
  8
AM_0
 10
135.6789086872549
 20
221.19112776721619
 30
0.0
 11
136.95893868725491
 21
213.1912177672163
 31
0.0
  0
LINE
  5
969A
  8
AM_0
 10
135.6789086872549
 20
219.8512277672163
 30
0.0
 11
136.68818868725489
 21
213.20104776721621
 31
0.0
  0
LINE
  5
969B
  8
AM_0
 10
135.67896868725489
 20
219.85119776721629
 30
0.0
 11
136.6043886872549
 21
213.22460776721621
 31
0.0
  0
LINE
  5
969C
  8
AM_0
 10
241.884628687255
 20
231.3123177672162
 30
0.0
 11
237.73890868725491
 21
215.8311777672163
 31
0.0
  0
LINE
  5
969D
  8
AM_0
 10
238.22095868725489
 20
217.63116776721631
 30
0.0
 11
243.6789086872549
 21
217.63116776721631
 31
0.0
  0
LINE
  5
969E
  8
AM_0
 10
243.6789086872549
 20
238.69121776721619
 30
0.0
 11
251.6789086872549
 21
238.69121776721619
 31
0.0
  0
LINE
  5
969F
  8
AM_0
 10
242.6789086872549
 20
217.63116776721631
 30
0.0
 11
236.9531686872549
 21
208.81426776721631
 31
0.0
  0
LINE
  5
96A0
  8
AM_0
 10
224.19251868725499
 20
208.13116776721611
 30
0.0
 11
235.695148687255
 21
208.13116776721611
 31
0.0
  0
LINE
  5
96A1
  8
AM_0
 10
221.65894868725491
 20
298.13116776721631
 30
0.0
 11
221.65894868725491
 21
302.99114776721621
 31
0.0
  0
LINE
  5
96A2
  8
AM_0
 10
205.69892868725489
 20
298.13116776721631
 30
0.0
 11
205.69892868725489
 21
302.99114776721621
 31
0.0
  0
LINE
  5
96A3
  8
AM_0
 10
221.17890868725499
 20
298.13116776721631
 30
0.0
 11
221.17890868725499
 21
303.13116776721631
 31
0.0
  0
LINE
  5
96A4
  8
AM_0
 10
206.1789086872549
 20
298.13116776721631
 30
0.0
 11
206.1789086872549
 21
303.13116776721631
 31
0.0
  0
LINE
  5
96A5
  8
AM_0
 10
177.6789086872549
 20
283.63116776721631
 30
0.0
 11
240.6789086872549
 21
283.63116776721631
 31
0.0
  0
LINE
  5
96A6
  8
AM_0
 10
177.6789086872549
 20
250.13116776721631
 30
0.0
 11
240.6789086872549
 21
250.13116776721631
 31
0.0
  0
LINE
  5
96A7
  8
AM_0
 10
177.6789086872549
 20
291.13116776721631
 30
0.0
 11
240.6789086872549
 21
291.13116776721631
 31
0.0
  0
LINE
  5
96A8
  8
AM_0
 10
240.6789086872549
 20
291.13116776721631
 30
0.0
 11
240.6789086872549
 21
250.13116776721631
 31
0.0
  0
LINE
  5
96A9
  8
AM_0
 10
177.6789086872549
 20
291.13116776721631
 30
0.0
 11
177.6789086872549
 21
250.13116776721631
 31
0.0
  0
LINE
  5
96AA
  8
AM_0
 10
222.6789086872549
 20
297.12115776721618
 30
0.0
 11
240.72462868725489
 21
297.12115776721618
 31
0.0
  0
LINE
  5
96AB
  8
AM_0
 10
222.6789086872549
 20
244.15118776721619
 30
0.0
 11
240.71314868725489
 21
244.15118776721619
 31
0.0
  0
LINE
  5
96AC
  8
AM_0
 10
221.65894868725491
 20
243.1311677672162
 30
0.0
 11
221.65894868725491
 21
238.2711777672163
 31
0.0
  0
LINE
  5
96AD
  8
AM_0
 10
205.69892868725489
 20
243.1311677672162
 30
0.0
 11
205.69892868725489
 21
238.2711777672163
 31
0.0
  0
LINE
  5
96AE
  8
AM_0
 10
221.17890868725499
 20
243.1311677672162
 30
0.0
 11
221.17890868725499
 21
238.13116776721631
 31
0.0
  0
LINE
  5
96AF
  8
AM_0
 10
206.1789086872549
 20
243.1311677672162
 30
0.0
 11
206.1789086872549
 21
238.13116776721631
 31
0.0
  0
LINE
  5
96B0
  8
AM_0
 10
237.0117386872551
 20
244.63116776721631
 30
0.0
 11
222.6789086872549
 21
244.63116776721631
 31
0.0
  0
LINE
  5
96B1
  8
AM_0
 10
237.02607868725511
 20
296.63116776721631
 30
0.0
 11
222.6789086872549
 21
296.63116776721631
 31
0.0
  0
LINE
  5
96B2
  8
AM_0
 10
222.65894868725491
 20
303.99114776721632
 30
0.0
 11
240.4989186872549
 21
303.99114776721632
 31
0.0
  0
ARC
  5
96B3
  8
AM_0
 10
243.3321086872549
 20
315.96392776721632
 30
0.0
 40
1.502775999999999
 50
194.75642999999931
 51
269.87757999999872
  0
ARC
  5
96B4
  8
AM_0
 10
243.3321086872549
 20
315.05389776721631
 30
0.0
 40
1.502775999999999
 50
194.75642999999931
 51
269.87757999999872
  0
ARC
  5
96B5
  8
AM_0
 10
243.3321086872549
 20
313.2039177672163
 30
0.0
 40
1.502775999999999
 50
194.75642999999931
 51
269.87757999999872
  0
ARC
  5
96B6
  8
AM_0
 10
235.8040886872551
 20
330.51641776721613
 30
0.0
 40
2.0047290000000002
 50
15.173495999996319
 51
89.861678000000197
  0
ARC
  5
96B7
  8
AM_0
 10
235.8040886872551
 20
329.60638776721612
 30
0.0
 40
2.0047290000000002
 50
15.173495999996319
 51
89.861678000000197
  0
ARC
  5
96B8
  8
AM_0
 10
235.8040886872551
 20
327.75640776721627
 30
0.0
 40
2.0047290000000002
 50
15.173495999996319
 51
89.861678000000197
  0
ARC
  5
96B9
  8
AM_0
 10
243.3321086872549
 20
230.90838776721631
 30
0.0
 40
1.502775999999999
 50
90.122413000001615
 51
165.24357000000069
  0
ARC
  5
96BA
  8
AM_0
 10
122.6721386872548
 20
318.64910776721632
 30
0.0
 40
0.99319202
 50
119.7733800000002
 51
179.87958999999799
  0
ARC
  5
96BB
  8
AM_0
 10
122.6745186872551
 20
317.61089776721627
 30
0.0
 40
0.995579
 50
116.5870900000007
 51
179.98263999999989
  0
ARC
  5
96BC
  8
AM_0
 10
123.9409386872549
 20
319.38531776721629
 30
0.0
 40
0.9959030199999999
 50
89.541266999999124
 51
119.6071699999994
  0
ARC
  5
96BD
  8
AM_0
 10
123.9036986872549
 20
318.2371177672162
 30
0.0
 40
0.99411702
 50
89.122643999998516
 51
115.93498000000019
  0
ARC
  5
96BE
  8
AM_0
 10
123.94776868725469
 20
317.27691776721628
 30
0.0
 40
0.99427301
 50
89.356066000000013
 51
120.7809100000017
  0
ARC
  5
96BF
  8
AM_0
 10
123.9140186872549
 20
316.13579776721627
 30
0.0
 40
0.99545902
 50
89.141290999999939
 51
117.2038199999995
  0
ARC
  5
96C0
  8
AM_0
 10
123.98554868725491
 20
312.76494776721631
 30
0.0
 40
0.99617702
 50
90.381317999999226
 51
123.97048999999861
  0
ARC
  5
96C1
  8
AM_0
 10
123.95832868725491
 20
311.62469776721639
 30
0.0
 40
0.99648702
 50
90.540720999998641
 51
120.7437699999992
  0
ARC
  5
96C2
  8
AM_0
 10
122.6729886872548
 20
310.8743277672163
 30
0.0
 40
0.99404597
 50
120.46820000000019
 51
180.18564000000029
  0
ARC
  5
96C3
  8
AM_0
 10
122.67371868725481
 20
311.90874776721631
 30
0.0
 40
0.9948369899999999
 50
123.2049600000024
 51
180.43785999999801
  0
ARC
  5
96C4
  8
AM_0
 10
122.6721386872548
 20
315.47259776721631
 30
0.0
 40
0.9932109699999999
 50
117.7993199999991
 51
180.08187000000001
  0
ARC
  5
96C5
  8
AM_0
 10
122.67335868725471
 20
316.51018776721622
 30
0.0
 40
0.9944329899999999
 50
121.1521299999998
 51
179.94050999999911
  0
ARC
  5
96C6
  8
AM_0
 10
123.87989868725531
 20
305.3257477672164
 30
0.0
 40
0.9954450099999999
 50
90.056904999999659
 51
113.1274500000013
  0
ARC
  5
96C7
  8
AM_0
 10
123.81806868725489
 20
303.37847776721628
 30
0.0
 40
0.9927430199999999
 50
89.374554999998765
 51
106.33207000000171
  0
ARC
  5
96C8
  8
AM_0
 10
122.6751886872551
 20
303.0269177672161
 30
0.0
 40
0.9962710099999999
 50
106.6979199999999
 51
180.33004999999989
  0
ARC
  5
96C9
  8
AM_0
 10
122.675308687255
 20
304.81267776721631
 30
0.0
 40
0.9963999999999998
 50
112.8173600000008
 51
180.0904199999996
  0
ARC
  5
96CA
  8
AM_0
 10
122.6740286872548
 20
295.63604776721633
 30
0.0
 40
0.99507803
 50
89.715887000001331
 51
180.28410999999991
  0
ARC
  5
96CB
  8
AM_0
 10
122.6791586872548
 20
295.63140776721627
 30
0.0
 40
1.000203
 50
180.01164999999551
 51
269.98835000000122
  0
ARC
  5
96CC
  8
AM_0
 10
122.6740286872548
 20
285.63604776721633
 30
0.0
 40
0.99508202
 50
89.716099000001435
 51
180.2839099999978
  0
ARC
  5
96CD
  8
AM_0
 10
122.6791586872548
 20
285.63140776721639
 30
0.0
 40
1.000199999999998
 50
180.01143000000161
 51
269.98856999999839
  0
ARC
  5
96CE
  8
AM_0
 10
122.6740286872548
 20
275.63604776721633
 30
0.0
 40
0.9950849999999999
 50
89.716311000000914
 51
180.28368999999969
  0
ARC
  5
96CF
  8
AM_0
 10
122.6791586872548
 20
275.63140776721639
 30
0.0
 40
1.000195999999997
 50
180.0112199999958
 51
269.98878000000087
  0
ARC
  5
96D0
  8
AM_0
 10
125.6790886872547
 20
273.63128776721618
 30
0.0
 40
0.9998249999999999
 50
359.98994999999871
 51
90.010050000001243
  0
ARC
  5
96D1
  8
AM_0
 10
125.673968687255
 20
277.63604776721633
 30
0.0
 40
1.0049469
 50
270.28135000000037
 51
359.71866000000068
  0
ARC
  5
96D2
  8
AM_0
 10
125.6790886872547
 20
283.63128776721618
 30
0.0
 40
0.9998210099999999
 50
359.98975000000149
 51
90.010254999999034
  0
ARC
  5
96D3
  8
AM_0
 10
125.673968687255
 20
287.63604776721633
 30
0.0
 40
1.004939
 50
270.2809100000008
 51
359.71909999999991
  0
ARC
  5
96D4
  8
AM_0
 10
125.6790886872547
 20
293.63128776721629
 30
0.0
 40
0.9998289899999999
 50
359.99019000000038
 51
90.009811000000937
  0
ARC
  5
96D5
  8
AM_0
 10
125.673968687255
 20
297.63604776721633
 30
0.0
 40
1.004942999999999
 50
270.28111000000013
 51
359.71888999999987
  0
ARC
  5
96D6
  8
AM_0
 10
125.68061868725501
 20
303.3728577672162
 30
0.0
 40
0.9982839799999999
 50
359.90142000000009
 51
90.098576000001358
  0
ARC
  5
96D7
  8
AM_0
 10
125.67658868725491
 20
311.61883776721629
 30
0.0
 40
1.002353
 50
0.1343268199984526
 51
89.865672999999376
  0
ARC
  5
96D8
  8
AM_0
 10
125.9743786872547
 20
307.02569776721629
 30
0.0
 40
0.704566
 50
270.37010000000009
 51
359.62990999999778
  0
ARC
  5
96D9
  8
AM_0
 10
125.6798886872547
 20
316.13213776721642
 30
0.0
 40
0.9990100299999999
 50
359.94319000000132
 51
90.056809000000058
  0
ARC
  5
96DA
  8
AM_0
 10
126.18061868725491
 20
318.7328477672163
 30
0.0
 40
0.4983060100000002
 50
359.80488999999778
 51
90.195107000000036
  0
ARC
  5
96DB
  8
AM_0
 10
126.1743286872551
 20
320.8857977672161
 30
0.0
 40
0.50463498
 50
270.52383000000037
 51
359.47616999999963
  0
ARC
  5
96DC
  8
AM_0
 10
138.22352868725491
 20
235.6311677672162
 30
0.0
 40
1.000013899999999
 50
89.691659999999231
 51
270.30834000000073
  0
ARC
  5
96DD
  8
AM_0
 10
240.4989186872549
 20
305.67620776721611
 30
0.0
 40
1.6750020000000001
 50
269.999989999999
 51
90.000003000000945
  0
ARC
  5
96DE
  8
AM_0
 10
237.01893868725489
 20
305.63116776721631
 30
0.0
 40
1.0
 50
269.999989999999
 51
90.000003000000945
  0
ARC
  5
96DF
  8
AM_0
 10
237.01893868725489
 20
235.6311677672162
 30
0.0
 40
1.0
 50
269.999989999999
 51
90.000003000000945
  0
ARC
  5
96E0
  8
AM_0
 10
240.4989186872549
 20
235.58611776721631
 30
0.0
 40
1.6750020000000001
 50
269.999989999999
 51
90.000003000000945
  0
ARC
  5
96E1
  8
AM_0
 10
125.6755486872549
 20
237.8944677672163
 30
0.0
 40
1.003352
 50
270.19111000000021
 51
359.80890000000107
  0
ARC
  5
96E2
  8
AM_0
 10
125.673968687255
 20
247.6360477672161
 30
0.0
 40
1.0049469
 50
270.28136999999919
 51
359.7186300000007
  0
ARC
  5
96E3
  8
AM_0
 10
125.6790886872547
 20
243.63128776721621
 30
0.0
 40
0.9998239899999999
 50
359.98991999999532
 51
90.010077000000464
  0
ARC
  5
96E4
  8
AM_0
 10
125.9794486872551
 20
234.2417577672162
 30
0.0
 40
0.6994530000000001
 50
359.95517000000092
 51
90.044829000000746
  0
ARC
  5
96E5
  8
AM_0
 10
123.88190868725491
 20
235.94634776721631
 30
0.0
 40
1.005233
 50
246.98639000000031
 51
269.82924999999938
  0
ARC
  5
96E6
  8
AM_0
 10
123.8194786872547
 20
237.8938577672163
 30
0.0
 40
1.002699
 50
253.75271999999791
 51
270.54064000000108
  0
ARC
  5
96E7
  8
AM_0
 10
122.675308687255
 20
238.24554776721621
 30
0.0
 40
0.99638802
 50
180.24990999999889
 51
253.29664000000031
  0
ARC
  5
96E8
  8
AM_0
 10
122.67542868725501
 20
236.4596577672163
 30
0.0
 40
0.9965090199999998
 50
179.9137499999965
 51
247.17845000000059
  0
ARC
  5
96E9
  8
AM_0
 10
122.6791586872548
 20
245.6314077672161
 30
0.0
 40
1.000195999999997
 50
180.01124999999939
 51
269.98875000000061
  0
ARC
  5
96EA
  8
AM_0
 10
122.6740286872548
 20
245.6360477672161
 30
0.0
 40
0.9950849999999999
 50
89.716282999999422
 51
180.28371999999919
  0
ARC
  5
96EB
  8
AM_0
 10
122.6791586872548
 20
255.6314077672163
 30
0.0
 40
1.000199999999998
 50
180.01145999999861
 51
269.98854000000142
  0
ARC
  5
96EC
  8
AM_0
 10
122.6740286872548
 20
255.6360477672163
 30
0.0
 40
0.9950810099999999
 50
89.716072000000082
 51
180.2839200000044
  0
ARC
  5
96ED
  8
AM_0
 10
122.6791586872548
 20
265.63140776721639
 30
0.0
 40
1.0002040000000001
 50
180.01165999999679
 51
269.98832000000073
  0
ARC
  5
96EE
  8
AM_0
 10
122.6740286872548
 20
265.63604776721621
 30
0.0
 40
0.9950770099999999
 50
89.715859999999495
 51
180.28414000000049
  0
ARC
  5
96EF
  8
AM_0
 10
125.673968687255
 20
267.63604776721633
 30
0.0
 40
1.004942999999999
 50
270.28113999999943
 51
359.71886999999822
  0
ARC
  5
96F0
  8
AM_0
 10
125.6790886872547
 20
263.63128776721618
 30
0.0
 40
0.9998279799999998
 50
359.9901599999971
 51
90.009838000000173
  0
ARC
  5
96F1
  8
AM_0
 10
125.673968687255
 20
257.63604776721633
 30
0.0
 40
1.004939
 50
270.2809399999997
 51
359.71907000000101
  0
ARC
  5
96F2
  8
AM_0
 10
125.6790886872547
 20
253.63128776721629
 30
0.0
 40
0.9998210099999999
 50
359.98971999999799
 51
90.010282000001538
  0
ARC
  5
96F3
  8
AM_0
 10
137.35151868725509
 20
305.67620776721611
 30
0.0
 40
1.6750160000000001
 50
89.746145000001235
 51
270.25387000000092
  0
ARC
  5
96F4
  8
AM_0
 10
138.22352868725491
 20
305.63116776721631
 30
0.0
 40
1.000013899999999
 50
89.691659999999231
 51
270.30834000000073
  0
ARC
  5
96F5
  8
AM_0
 10
138.22352868725491
 20
295.63116776721631
 30
0.0
 40
1.000013899999999
 50
89.691659999999231
 51
270.30834000000073
  0
ARC
  5
96F6
  8
AM_0
 10
138.22352868725491
 20
285.63116776721631
 30
0.0
 40
1.000013899999999
 50
89.691659999999231
 51
270.30834000000073
  0
ARC
  5
96F7
  8
AM_0
 10
138.22352868725491
 20
275.63116776721631
 30
0.0
 40
1.000013899999999
 50
89.691659999999231
 51
270.30834000000073
  0
ARC
  5
96F8
  8
AM_0
 10
138.22352868725491
 20
265.63116776721631
 30
0.0
 40
1.000013899999999
 50
89.691659999999231
 51
270.30834000000073
  0
ARC
  5
96F9
  8
AM_0
 10
138.22352868725491
 20
255.63116776721631
 30
0.0
 40
1.000013899999999
 50
89.691659999999231
 51
270.30834000000073
  0
ARC
  5
96FA
  8
AM_0
 10
138.22352868725491
 20
245.6311677672162
 30
0.0
 40
1.000013899999999
 50
89.691659999999231
 51
270.30834000000073
  0
ARC
  5
96FB
  8
AM_0
 10
137.13892868725489
 20
295.65618776721618
 30
0.0
 40
1.465004
 50
90.000003000000945
 51
270.0
  0
ARC
  5
96FC
  8
AM_0
 10
137.00892868725489
 20
285.64117776721628
 30
0.0
 40
1.3300049999999981
 50
90.000003000000945
 51
270.0
  0
ARC
  5
96FD
  8
AM_0
 10
136.94306868725479
 20
275.63616776721619
 30
0.0
 40
1.2650129999999991
 50
89.735578999998495
 51
270.2644099999992
  0
ARC
  5
96FE
  8
AM_0
 10
136.94306868725479
 20
265.63116776721631
 30
0.0
 40
1.2700129999999981
 50
89.736617000001601
 51
270.26336999999921
  0
ARC
  5
96FF
  8
AM_0
 10
137.00892868725489
 20
255.6211577672164
 30
0.0
 40
1.3300049999999981
 50
90.000003000000945
 51
270.0
  0
ARC
  5
9700
  8
AM_0
 10
137.13892868725489
 20
245.60613776721621
 30
0.0
 40
1.465004
 50
90.000003000000945
 51
270.0
  0
ARC
  5
9701
  8
AM_0
 10
137.35206868725481
 20
235.58611776721631
 30
0.0
 40
1.675014
 50
89.766499000000024
 51
270.2335099999994
  0
ARC
  5
9702
  8
AM_0
 10
125.675678687255
 20
229.6578977672163
 30
0.0
 40
1.0032760000000001
 50
334.19810000000479
 51
359.6181099999983
  0
ARC
  5
9703
  8
AM_0
 10
122.6773886872549
 20
230.3904377672163
 30
0.0
 40
0.9984580299999999
 50
179.95957999999851
 51
239.38657000000219
  0
ARC
  5
9704
  8
AM_0
 10
138.87763868725489
 20
324.91704776721627
 30
0.0
 40
1.994108999999999
 50
89.675547999999495
 51
169.18776999999869
  0
ARC
  5
9705
  8
AM_0
 10
138.92915868725481
 20
327.76592776721628
 30
0.0
 40
1.995282999999997
 50
90.00620400000011
 51
170.90835000000069
  0
ARC
  5
9706
  8
AM_0
 10
138.9434986872549
 20
329.61443776721632
 30
0.0
 40
1.9967330000000001
 50
89.843966999998912
 51
171.45388000000389
  0
ARC
  5
9707
  8
AM_0
 10
138.96540868725469
 20
330.52556776721622
 30
0.0
 40
1.995633
 50
89.899707999998995
 51
172.06112999999971
  0
ARC
  5
9708
  8
AM_0
 10
235.80903868725491
 20
324.91289776721629
 30
0.0
 40
1.9982919999999991
 50
15.032547999996
 51
90.002632000001341
  0
ARC
  5
9709
  8
AM_0
 10
243.3321086872549
 20
310.35393776721622
 30
0.0
 40
1.502775999999999
 50
194.75642999999931
 51
269.87757999999872
  0
ARC
  5
970A
  8
AM_0
 10
235.8040886872551
 20
216.35589776721619
 30
0.0
 40
2.0047290000000002
 50
270.13832000000099
 51
344.82650000000189
  0
ARC
  5
970B
  8
AM_0
 10
122.6765286872551
 20
222.61577776721629
 30
0.0
 40
0.9976310099999999
 50
180.2678099999986
 51
240.07924000000079
  0
ARC
  5
970C
  8
AM_0
 10
122.6746386872549
 20
223.66155776721629
 30
0.0
 40
0.9956849800000001
 50
180.02113
 51
243.4091400000006
  0
ARC
  5
970D
  8
AM_0
 10
123.9596086872547
 20
221.8822577672162
 30
0.0
 40
1.001123999999999
 50
239.32782000000279
 51
269.38767999999868
  0
ARC
  5
970E
  8
AM_0
 10
123.92475868725469
 20
223.03045776721621
 30
0.0
 40
0.9993420200000001
 50
242.86200000000241
 51
269.6654599999984
  0
ARC
  5
970F
  8
AM_0
 10
123.95032868725509
 20
223.99480776721629
 30
0.0
 40
1.003743999999998
 50
239.37113000000051
 51
270.49190000000061
  0
ARC
  5
9710
  8
AM_0
 10
123.9340986872549
 20
225.13177776721619
 30
0.0
 40
1.0006820000000001
 50
241.65062000000179
 51
269.70392999999888
  0
ARC
  5
9711
  8
AM_0
 10
123.971698687255
 20
228.51165776721629
 30
0.0
 40
1.000521999999999
 50
237.1461799999995
 51
270.41344000000038
  0
ARC
  5
9712
  8
AM_0
 10
123.9422786872549
 20
229.65215776721641
 30
0.0
 40
1.001044999999998
 50
240.47187000000091
 51
270.37970999999948
  0
ARC
  5
9713
  8
AM_0
 10
122.6773886872549
 20
230.3904377672163
 30
0.0
 40
0.9984580299999999
 50
179.95957999999851
 51
239.38657000000219
  0
ARC
  5
9714
  8
AM_0
 10
122.6779986872547
 20
229.35589776721631
 30
0.0
 40
0.9990889999999998
 50
179.6950899999965
 51
236.6620900000043
  0
ARC
  5
9715
  8
AM_0
 10
122.6766486872547
 20
225.79241776721619
 30
0.0
 40
0.9977070099999998
 50
180.074020000004
 51
242.04481000000081
  0
ARC
  5
9716
  8
AM_0
 10
122.6776886872549
 20
224.7546977672163
 30
0.0
 40
0.9987969999999998
 50
179.62728000000101
 51
238.70795000000021
  0
ARC
  5
9717
  8
AM_0
 10
125.6764686872547
 20
229.65362776721639
 30
0.0
 40
1.002470999999999
 50
270.14107000000013
 51
359.85892999999987
  0
ARC
  5
9718
  8
AM_0
 10
125.6748186872549
 20
225.13531776721641
 30
0.0
 40
1.004119999999999
 50
270.23460999999998
 51
359.76539000000002
  0
ARC
  5
9719
  8
AM_0
 10
126.1755486872549
 20
222.53460776721619
 30
0.0
 40
0.5033929900000002
 50
270.38491000000062
 51
359.61509999999811
  0
ARC
  5
971A
  8
AM_0
 10
126.1793986872549
 20
220.38164776721621
 30
0.0
 40
0.49952301
 50
359.9452300000014
 51
90.054773999999625
  0
ARC
  5
971B
  8
AM_0
 10
138.88380868725491
 20
216.35039776721621
 30
0.0
 40
1.9992490000000001
 50
190.643100000001
 51
270.14743000000129
  0
ARC
  5
971C
  8
AM_0
 10
138.93513868725501
 20
213.50152776721609
 30
0.0
 40
2.000420099999999
 50
188.9268200000015
 51
269.82270999999929
  0
ARC
  5
971D
  8
AM_0
 10
224.19251868725499
 20
206.63116776721611
 30
0.0
 40
1.5
 50
90.000003000000945
 51
178.4999999999973
  0
ARC
  5
971E
  8
AM_0
 10
235.695148687255
 20
209.63116776721611
 30
0.0
 40
1.5
 50
269.999989999999
 51
326.99999999999801
  0
ARC
  5
971F
  8
AM_0
 10
138.66553868725489
 20
213.50115776721631
 30
0.0
 40
2.0
 50
188.62961999999749
 51
269.999989999999
  0
ARC
  5
9720
  8
AM_0
 10
138.5851586872549
 20
213.50115776721631
 30
0.0
 40
2.0
 50
187.95044000000351
 51
269.999989999999
  0
ARC
  5
9721
  8
AM_0
 10
161.0770386872548
 20
210.00115776721631
 30
0.0
 40
1.5
 50
1.5000027000022329
 51
90.000003000000945
  0
ARC
  5
9722
  8
AM_0
 10
172.11762868725489
 20
285.63116776721631
 30
0.0
 40
1.000005699999998
 50
269.999989999999
 51
90.000003000000945
  0
ARC
  5
9723
  8
AM_0
 10
172.11762868725489
 20
275.63116776721631
 30
0.0
 40
1.000005699999998
 50
269.999989999999
 51
90.000003000000945
  0
ARC
  5
9724
  8
AM_0
 10
172.11762868725489
 20
265.63116776721631
 30
0.0
 40
1.000005699999998
 50
269.999989999999
 51
90.000003000000945
  0
ARC
  5
9725
  8
AM_0
 10
172.11762868725489
 20
255.63116776721631
 30
0.0
 40
1.000005699999998
 50
269.999989999999
 51
90.000003000000945
  0
ARC
  5
9726
  8
AM_0
 10
222.6789086872549
 20
238.13116776721631
 30
0.0
 40
1.5
 50
179.999989999999
 51
270.0
  0
ARC
  5
9727
  8
AM_0
 10
204.6789086872551
 20
238.13116776721631
 30
0.0
 40
1.5
 50
269.999989999999
 51
0.0000006832495047
  0
ARC
  5
9728
  8
AM_0
 10
204.69892868725501
 20
238.2711777672163
 30
0.0
 40
1.0
 50
269.999989999999
 51
0.0000006832495047
  0
ARC
  5
9729
  8
AM_0
 10
222.65894868725491
 20
238.2711777672163
 30
0.0
 40
1.0
 50
179.999989999999
 51
270.0
  0
CIRCLE
  5
972A
  8
AM_0
 10
211.1789086872549
 20
299.13116776721631
 30
0.0
 40
1.1000000000000001
  0
CIRCLE
  5
972B
  8
AM_0
 10
211.1789086872549
 20
299.13116776721631
 30
0.0
 40
1.149999999999999
  0
CIRCLE
  5
972C
  8
AM_0
 10
216.1789086872549
 20
299.13116776721631
 30
0.0
 40
1.0
  0
ARC
  5
972D
  8
AM_0
 10
204.6789086872551
 20
298.13116776721631
 30
0.0
 40
1.02
 50
269.999989999999
 51
0.0000006832429909
  0
ARC
  5
972E
  8
AM_0
 10
222.6789086872549
 20
298.13116776721631
 30
0.0
 40
1.02
 50
179.999989999999
 51
270.0
  0
ARC
  5
972F
  8
AM_0
 10
204.6789086872551
 20
298.13116776721631
 30
0.0
 40
1.5
 50
269.999989999999
 51
0.0000006832495047
  0
ARC
  5
9730
  8
AM_0
 10
222.6789086872549
 20
298.13116776721631
 30
0.0
 40
1.5
 50
179.999989999999
 51
270.0
  0
CIRCLE
  5
9731
  8
AM_0
 10
216.1789086872549
 20
242.13116776721631
 30
0.0
 40
1.0
  0
CIRCLE
  5
9732
  8
AM_0
 10
211.1789086872549
 20
242.13116776721631
 30
0.0
 40
1.149999999999999
  0
CIRCLE
  5
9733
  8
AM_0
 10
211.1789086872549
 20
242.13116776721631
 30
0.0
 40
1.1000000000000001
  0
ARC
  5
9734
  8
AM_0
 10
204.6789086872551
 20
243.1311677672162
 30
0.0
 40
1.02
 50
0.0
 51
90.000003000000945
  0
ARC
  5
9735
  8
AM_0
 10
222.6789086872549
 20
243.1311677672162
 30
0.0
 40
1.02
 50
90.000003000000945
 51
180.00001000000091
  0
ARC
  5
9736
  8
AM_0
 10
204.6789086872551
 20
243.1311677672162
 30
0.0
 40
1.5
 50
0.0
 51
90.000003000000945
  0
ARC
  5
9737
  8
AM_0
 10
222.6789086872549
 20
243.1311677672162
 30
0.0
 40
1.5
 50
90.000003000000945
 51
180.00001000000091
  0
ARC
  5
9738
  8
AM_0
 10
173.34388868725489
 20
255.6211577672164
 30
0.0
 40
1.3300148000000001
 50
269.7294199999987
 51
90.270567000000995
  0
ARC
  5
9739
  8
AM_0
 10
173.4058386872548
 20
265.63116776721631
 30
0.0
 40
1.2700266
 50
269.62932000000001
 51
90.370670000001425
  0
ARC
  5
973A
  8
AM_0
 10
173.4058386872548
 20
275.64117776721628
 30
0.0
 40
1.2700266
 50
269.62932000000001
 51
90.370670000001425
  0
ARC
  5
973B
  8
AM_0
 10
173.34388868725489
 20
285.64617776721639
 30
0.0
 40
1.3350147999999991
 50
269.7304299999999
 51
90.269556000001415
  0
ARC
  5
973C
  8
AM_0
 10
237.01887868725501
 20
295.63116776721631
 30
0.0
 40
1.000025599999997
 50
269.58947000000001
 51
90.410531000001029
  0
ARC
  5
973D
  8
AM_0
 10
240.71888868725489
 20
295.66119776721632
 30
0.0
 40
1.460011199999999
 50
269.77524999999991
 51
90.224750000000114
  0
ARC
  5
973E
  8
AM_0
 10
237.01887868725501
 20
245.6311677672162
 30
0.0
 40
1.000025599999997
 50
269.58947000000001
 51
90.410531000001029
  0
ARC
  5
973F
  8
AM_0
 10
240.71888868725489
 20
245.6011377672163
 30
0.0
 40
1.460011199999999
 50
269.77524999999991
 51
90.224750000000114
  0
ARC
  5
9740
  8
AM_0
 10
222.65894868725491
 20
302.99114776721621
 30
0.0
 40
1.0
 50
90.000003000000945
 51
180.00001000000091
  0
ARC
  5
9741
  8
AM_0
 10
222.6789086872549
 20
303.13116776721631
 30
0.0
 40
1.5
 50
90.000003000000945
 51
180.00001000000091
  0
ARC
  5
9742
  8
AM_0
 10
204.6789086872551
 20
303.13116776721631
 30
0.0
 40
1.5
 50
0.0
 51
90.000003000000945
  0
ARC
  5
9743
  8
AM_0
 10
204.69892868725501
 20
302.99114776721621
 30
0.0
 40
1.0
 50
0.0
 51
90.000003000000945
  0
POLYLINE
  5
9744
  8
AM_0
 66
     1
 10
0.0
 20
0.0
 30
0.0
  0
VERTEX
  5
9745
  8
AM_0
 10
138.03889868725491
 20
270.63116776721631
 30
0.0
 42
0.00039106593
  0
VERTEX
  5
9746
  8
AM_0
 10
138.0365386872549
 20
270.32002776721629
 30
0.0
 42
0.00040574899
  0
VERTEX
  5
9747
  8
AM_0
 10
138.03466868725479
 20
270.0089177672163
 30
0.0
 42
0.0003534546
  0
VERTEX
  5
9748
  8
AM_0
 10
138.03327868725489
 20
269.69781776721629
 30
0.0
 42
0.00034407327
  0
VERTEX
  5
9749
  8
AM_0
 10
138.03229868725489
 20
269.38667776721621
 30
0.0
 42
0.00045699408
  0
VERTEX
  5
974A
  8
AM_0
 10
138.03183868725489
 20
269.0755677672164
 30
0.0
 42
0.00035571853
  0
VERTEX
  5
974B
  8
AM_0
 10
138.0318786872549
 20
268.76446776721627
 30
0.0
 42
0.00038547362
  0
VERTEX
  5
974C
  8
AM_0
 10
138.0323686872548
 20
268.45332776721631
 30
0.0
 42
0.00035501498
  0
VERTEX
  5
974D
  8
AM_0
 10
138.03332868725491
 20
268.1422277672163
 30
0.0
 42
0.00040118614
  0
VERTEX
  5
974E
  8
AM_0
 10
138.03474868725479
 20
267.83098776721619
 30
0.0
 42
0.00038319871
  0
VERTEX
  5
974F
  8
AM_0
 10
138.03665868725491
 20
267.51985776721631
 30
0.0
 42
0.00040742136
  0
VERTEX
  5
9750
  8
AM_0
 10
138.03905868725511
 20
267.20862776721629
 30
0.0
 42
0.0003578071
  0
VERTEX
  5
9751
  8
AM_0
 10
138.04194868725489
 20
266.89751776721619
 30
0.0
  0
SEQEND
  5
9752
  8
AM_0
  0
POLYLINE
  5
9753
  8
AM_0
 66
     1
 10
0.0
 20
0.0
 30
0.0
  0
VERTEX
  5
9754
  8
AM_0
 10
138.08295868725489
 20
264.3607777672164
 30
0.0
 42
0.00076695232
  0
VERTEX
  5
9755
  8
AM_0
 10
138.09775868725481
 20
263.74301776721632
 30
0.0
 42
0.00073263044
  0
VERTEX
  5
9756
  8
AM_0
 10
138.11439868725509
 20
263.12541776721628
 30
0.0
 42
0.0007652599
  0
VERTEX
  5
9757
  8
AM_0
 10
138.1328886872549
 20
262.50774776721619
 30
0.0
 42
0.00075144485
  0
VERTEX
  5
9758
  8
AM_0
 10
138.15325868725509
 20
261.89014776721632
 30
0.0
 42
0.00078594403
  0
VERTEX
  5
9759
  8
AM_0
 10
138.1755086872549
 20
261.27271776721619
 30
0.0
 42
0.00073349202
  0
VERTEX
  5
975A
  8
AM_0
 10
138.19965868725481
 20
260.65533776721611
 30
0.0
 42
0.0007358075
  0
VERTEX
  5
975B
  8
AM_0
 10
138.22559868725489
 20
260.03793776721631
 30
0.0
 42
0.00078592699
  0
VERTEX
  5
975C
  8
AM_0
 10
138.25342868725491
 20
259.42054776721619
 30
0.0
 42
0.00074823144
  0
VERTEX
  5
975D
  8
AM_0
 10
138.28315868725491
 20
258.80315776721642
 30
0.0
 42
0.00074896603
  0
VERTEX
  5
975E
  8
AM_0
 10
138.3147186872549
 20
258.18602776721627
 30
0.0
 42
0.00076039765
  0
VERTEX
  5
975F
  8
AM_0
 10
138.3481386872551
 20
257.56899776721627
 30
0.0
 42
0.00075616128
  0
VERTEX
  5
9760
  8
AM_0
 10
138.38343868725491
 20
256.95196776721627
 30
0.0
  0
SEQEND
  5
9761
  8
AM_0
  0
POLYLINE
  5
9762
  8
AM_0
 66
     1
 10
0.0
 20
0.0
 30
0.0
  0
VERTEX
  5
9763
  8
AM_0
 10
138.55714868725491
 20
254.29058776721629
 30
0.0
 42
0.00073721992
  0
VERTEX
  5
9764
  8
AM_0
 10
138.60129868725491
 20
253.6881777672163
 30
0.0
 42
0.00074398496
  0
VERTEX
  5
9765
  8
AM_0
 10
138.6472286872548
 20
253.08590776721621
 30
0.0
 42
0.00073322625
  0
VERTEX
  5
9766
  8
AM_0
 10
138.6949586872548
 20
252.4835777672163
 30
0.0
 42
0.00073594289
  0
VERTEX
  5
9767
  8
AM_0
 10
138.7444386872549
 20
251.88158776721639
 30
0.0
 42
0.00074742568
  0
VERTEX
  5
9768
  8
AM_0
 10
138.79570868725489
 20
251.2797277672164
 30
0.0
 42
0.00073216749
  0
VERTEX
  5
9769
  8
AM_0
 10
138.84876868725499
 20
250.67791776721629
 30
0.0
 42
0.00074184065
  0
VERTEX
  5
976A
  8
AM_0
 10
138.9035886872548
 20
250.0763877672164
 30
0.0
 42
0.00072077528
  0
VERTEX
  5
976B
  8
AM_0
 10
138.96016868725511
 20
249.47515776721639
 30
0.0
 42
0.00074978179
  0
VERTEX
  5
976C
  8
AM_0
 10
139.01850868725481
 20
248.8739577672161
 30
0.0
 42
0.00074288888
  0
VERTEX
  5
976D
  8
AM_0
 10
139.0786586872548
 20
248.27293776721609
 30
0.0
 42
0.00072503679
  0
VERTEX
  5
976E
  8
AM_0
 10
139.14056868725481
 20
247.67219776721609
 30
0.0
 42
0.00074640584
  0
VERTEX
  5
976F
  8
AM_0
 10
139.20423868725479
 20
247.07159776721619
 30
0.0
  0
SEQEND
  5
9770
  8
AM_0
  0
POLYLINE
  5
9771
  8
AM_0
 66
     1
 10
0.0
 20
0.0
 30
0.0
  0
VERTEX
  5
9772
  8
AM_0
 10
139.53980868725489
 20
244.14812776721641
 30
0.0
 42
0.0006890001
  0
VERTEX
  5
9773
  8
AM_0
 10
139.61068868725479
 20
243.5733777672163
 30
0.0
 42
0.00070644651
  0
VERTEX
  5
9774
  8
AM_0
 10
139.6831886872549
 20
242.99869776721621
 30
0.0
 42
0.0006924559
  0
VERTEX
  5
9775
  8
AM_0
 10
139.757278687255
 20
242.42437776721621
 30
0.0
 42
0.00069587797
  0
VERTEX
  5
9776
  8
AM_0
 10
139.83295868725489
 20
241.8502377672163
 30
0.0
 42
0.00071687041
  0
VERTEX
  5
9777
  8
AM_0
 10
139.91026868725481
 20
241.27623776721609
 30
0.0
 42
0.00069759113
  0
VERTEX
  5
9778
  8
AM_0
 10
139.98920868725489
 20
240.70244776721631
 30
0.0
 42
0.00071003142
  0
VERTEX
  5
9779
  8
AM_0
 10
140.0697486872549
 20
240.1289777672161
 30
0.0
 42
0.00069954544
  0
VERTEX
  5
977A
  8
AM_0
 10
140.15188868725491
 20
239.55587776721629
 30
0.0
 42
0.0007188852
  0
VERTEX
  5
977B
  8
AM_0
 10
140.2356686872549
 20
238.98284776721621
 30
0.0
 42
0.00071266165
  0
VERTEX
  5
977C
  8
AM_0
 10
140.3210986872549
 20
238.41008776721611
 30
0.0
 42
0.00071614577
  0
VERTEX
  5
977D
  8
AM_0
 10
140.40812868725479
 20
237.8377377672162
 30
0.0
 42
0.00072290806
  0
VERTEX
  5
977E
  8
AM_0
 10
140.49683868725469
 20
237.2654377672163
 30
0.0
  0
SEQEND
  5
977F
  8
AM_0
  0
POLYLINE
  5
9780
  8
AM_0
 66
     1
 10
0.0
 20
0.0
 30
0.0
  0
VERTEX
  5
9781
  8
AM_0
 10
138.03889868725491
 20
270.63116776721631
 30
0.0
 42
-0.00039106653
  0
VERTEX
  5
9782
  8
AM_0
 10
138.0365386872549
 20
270.94229776721619
 30
0.0
 42
-0.00040574511
  0
VERTEX
  5
9783
  8
AM_0
 10
138.03466868725479
 20
271.2534077672164
 30
0.0
 42
-0.00035346331
  0
VERTEX
  5
9784
  8
AM_0
 10
138.03327868725489
 20
271.56451776721627
 30
0.0
 42
-0.00034406545
  0
VERTEX
  5
9785
  8
AM_0
 10
138.03229868725489
 20
271.8756577672163
 30
0.0
 42
-0.00045699059
  0
VERTEX
  5
9786
  8
AM_0
 10
138.03183868725489
 20
272.18675776721631
 30
0.0
 42
-0.00035573431
  0
VERTEX
  5
9787
  8
AM_0
 10
138.0318786872549
 20
272.49785776721632
 30
0.0
 42
-0.00038545888
  0
VERTEX
  5
9788
  8
AM_0
 10
138.0323686872548
 20
272.80899776721623
 30
0.0
 42
-0.00035501203
  0
VERTEX
  5
9789
  8
AM_0
 10
138.03332868725491
 20
273.12010776721633
 30
0.0
 42
-0.00040120778
  0
VERTEX
  5
978A
  8
AM_0
 10
138.03474868725479
 20
273.43133776721629
 30
0.0
 42
-0.00038317821
  0
VERTEX
  5
978B
  8
AM_0
 10
138.03665868725491
 20
273.7424677672164
 30
0.0
 42
-0.00040741862
  0
VERTEX
  5
978C
  8
AM_0
 10
138.03905868725511
 20
274.05369776721619
 30
0.0
 42
-0.00035783324
  0
VERTEX
  5
978D
  8
AM_0
 10
138.04194868725489
 20
274.3648077672164
 30
0.0
  0
SEQEND
  5
978E
  8
AM_0
  0
POLYLINE
  5
978F
  8
AM_0
 66
     1
 10
0.0
 20
0.0
 30
0.0
  0
VERTEX
  5
9790
  8
AM_0
 10
138.08295868725489
 20
276.90154776721619
 30
0.0
 42
-0.00076691987
  0
VERTEX
  5
9791
  8
AM_0
 10
138.09775868725481
 20
277.51930776721628
 30
0.0
 42
-0.00073262795
  0
VERTEX
  5
9792
  8
AM_0
 10
138.11439868725509
 20
278.13690776721631
 30
0.0
 42
-0.0007652954
  0
VERTEX
  5
9793
  8
AM_0
 10
138.1328886872549
 20
278.7545777672164
 30
0.0
 42
-0.00077334627
  0
VERTEX
  5
9794
  8
AM_0
 10
138.1532986872551
 20
279.37217776721627
 30
0.0
 42
-0.00073282897
  0
VERTEX
  5
9795
  8
AM_0
 10
138.17555868725469
 20
279.98959776721631
 30
0.0
 42
-0.0007571179
  0
VERTEX
  5
9796
  8
AM_0
 10
138.19965868725481
 20
280.60711776721632
 30
0.0
 42
-0.00073783152
  0
VERTEX
  5
9797
  8
AM_0
 10
138.22559868725489
 20
281.22450776721621
 30
0.0
 42
-0.0007835518
  0
VERTEX
  5
9798
  8
AM_0
 10
138.25342868725491
 20
281.8417777672164
 30
0.0
 42
-0.00074826133
  0
VERTEX
  5
9799
  8
AM_0
 10
138.28315868725491
 20
282.45916776721629
 30
0.0
 42
-0.00074893555
  0
VERTEX
  5
979A
  8
AM_0
 10
138.3147186872549
 20
283.07629776721632
 30
0.0
 42
-0.00076039841
  0
VERTEX
  5
979B
  8
AM_0
 10
138.3481386872551
 20
283.69332776721632
 30
0.0
 42
-0.00075618789
  0
VERTEX
  5
979C
  8
AM_0
 10
138.38343868725491
 20
284.31035776721632
 30
0.0
  0
SEQEND
  5
979D
  8
AM_0
  0
POLYLINE
  5
979E
  8
AM_0
 66
     1
 10
0.0
 20
0.0
 30
0.0
  0
VERTEX
  5
979F
  8
AM_0
 10
138.55714868725491
 20
286.97173776721638
 30
0.0
 42
-0.0007337051
  0
VERTEX
  5
97A0
  8
AM_0
 10
138.60128868725511
 20
287.57414776721617
 30
0.0
 42
-0.00075211323
  0
VERTEX
  5
97A1
  8
AM_0
 10
138.6472286872548
 20
288.17654776721628
 30
0.0
 42
-0.0007297491
  0
VERTEX
  5
97A2
  8
AM_0
 10
138.6949586872548
 20
288.7787477672162
 30
0.0
 42
-0.00073593041
  0
VERTEX
  5
97A3
  8
AM_0
 10
138.7444386872549
 20
289.38073776721632
 30
0.0
 42
-0.00074742739
  0
VERTEX
  5
97A4
  8
AM_0
 10
138.79570868725489
 20
289.9825977672163
 30
0.0
 42
-0.00073217363
  0
VERTEX
  5
97A5
  8
AM_0
 10
138.84876868725499
 20
290.58440776721631
 30
0.0
 42
-0.00073754168
  0
VERTEX
  5
97A6
  8
AM_0
 10
138.9035886872548
 20
291.18594776721619
 30
0.0
 42
-0.00073075073
  0
VERTEX
  5
97A7
  8
AM_0
 10
138.96016868725511
 20
291.78729776721627
 30
0.0
 42
-0.00074550816
  0
VERTEX
  5
97A8
  8
AM_0
 10
139.01850868725481
 20
292.38836776721632
 30
0.0
 42
-0.00074288416
  0
VERTEX
  5
97A9
  8
AM_0
 10
139.0786586872548
 20
292.98938776721639
 30
0.0
 42
-0.00072504001
  0
VERTEX
  5
97AA
  8
AM_0
 10
139.14056868725481
 20
293.59012776721619
 30
0.0
 42
-0.00074640667
  0
VERTEX
  5
97AB
  8
AM_0
 10
139.20423868725479
 20
294.19073776721621
 30
0.0
  0
SEQEND
  5
97AC
  8
AM_0
  0
POLYLINE
  5
97AD
  8
AM_0
 66
     1
 10
0.0
 20
0.0
 30
0.0
  0
VERTEX
  5
97AE
  8
AM_0
 10
139.53980868725489
 20
297.1141977672163
 30
0.0
 42
-0.00068898283
  0
VERTEX
  5
97AF
  8
AM_0
 10
139.61068868725479
 20
297.6889477672164
 30
0.0
 42
-0.00070644357
  0
VERTEX
  5
97B0
  8
AM_0
 10
139.6831886872549
 20
298.26363776721632
 30
0.0
 42
-0.00069248074
  0
VERTEX
  5
97B1
  8
AM_0
 10
139.757278687255
 20
298.83794776721629
 30
0.0
 42
-0.0006958566
  0
VERTEX
  5
97B2
  8
AM_0
 10
139.83295868725489
 20
299.41208776721629
 30
0.0
 42
-0.00071687219
  0
VERTEX
  5
97B3
  8
AM_0
 10
139.91026868725481
 20
299.9860877672163
 30
0.0
 42
-0.00069760022
  0
VERTEX
  5
97B4
  8
AM_0
 10
139.98920868725489
 20
300.55987776721628
 30
0.0
 42
-0.00071002302
  0
VERTEX
  5
97B5
  8
AM_0
 10
140.0697486872549
 20
301.13334776721632
 30
0.0
 42
-0.00069954889
  0
VERTEX
  5
97B6
  8
AM_0
 10
140.15188868725491
 20
301.70644776721639
 30
0.0
 42
-0.00071887947
  0
VERTEX
  5
97B7
  8
AM_0
 10
140.2356686872549
 20
302.27947776721641
 30
0.0
 42
-0.00071266929
  0
VERTEX
  5
97B8
  8
AM_0
 10
140.3210986872549
 20
302.85224776721611
 30
0.0
 42
-0.00071614429
  0
VERTEX
  5
97B9
  8
AM_0
 10
140.40812868725479
 20
303.42458776721611
 30
0.0
 42
-0.00072288978
  0
VERTEX
  5
97BA
  8
AM_0
 10
140.49683868725469
 20
303.99688776721632
 30
0.0
  0
SEQEND
  5
97BB
  8
AM_0
  0
LINE
  5
9821
  8
AM_0
 10
618.8873845036112
 20
204.6311677672164
 30
0.0
 11
558.88738450361086
 21
204.63116776721631
 31
0.0
  0
LINE
  5
9822
  8
AM_0
 10
558.88738450361086
 20
220.59119483135501
 30
0.0
 11
558.88738450361086
 21
202.63116776721631
 31
0.0
  0
LINE
  5
9823
  8
AM_0
 10
622.38738450361075
 20
202.63116776721631
 30
0.0
 11
555.38738450361075
 21
202.63116776721631
 31
0.0
  0
LINE
  5
9824
  8
AM_0
 10
622.38738450361086
 20
201.63116776721631
 30
0.0
 11
622.38738450361075
 21
202.63116776721631
 31
0.0
  0
LINE
  5
9825
  8
AM_0
 10
555.38738450361075
 20
201.63116776721631
 30
0.0
 11
555.38738450361075
 21
202.63116776721631
 31
0.0
  0
LINE
  5
9826
  8
AM_0
 10
634.88738450361075
 20
163.6311677672162
 30
0.0
 11
633.62779936734864
 21
199.70096676062121
 31
0.0
  0
LINE
  5
9827
  8
AM_0
 10
631.62901771331042
 20
201.63116776721631
 30
0.0
 11
546.14575129391142
 21
201.63116776721631
 31
0.0
  0
ARC
  5
9828
  8
AM_0
 10
631.62901771331042
 20
199.63116776721631
 30
0.0
 40
2.0
 50
1.999999999997115
 51
90.0
1001
GENIUS_GENODEF_13
1002
{
1000
HIER
1070
     0
1002
}
1002
{
1000
MANEDIT
1070
     0
1002
}
1002
{
1000
NOSEL
1070
     0
1002
}
1002
{
1000
BEHIND
1070
     0
1002
}
1002
{
1000
OTHER
1070
     0
1002
}
1002
{
1000
REACTOR
1002
}
1001
GENIUS_GENOBJ-N-FIL_13
1002
{
1000
OWNER
1000
GEN
1002
}
  0
LINE
  5
9829
  8
AM_0
 10
544.1469696398733
 20
199.70096676062121
 30
0.0
 11
542.88738450361075
 21
163.63116776721631
 31
0.0
  0
ARC
  5
982A
  8
AM_0
 10
546.14575129391142
 20
199.6311677672164
 30
0.0
 40
2.0
 50
90.0
 51
178.0000000000029
1001
GENIUS_GENOBJ-N-FIL_13
1002
{
1000
OWNER
1000
GEN
1002
}
1001
GENIUS_GENODEF_13
1002
{
1000
HIER
1070
     0
1002
}
1002
{
1000
MANEDIT
1070
     0
1002
}
1002
{
1000
NOSEL
1070
     0
1002
}
1002
{
1000
BEHIND
1070
     0
1002
}
1002
{
1000
OTHER
1070
     0
1002
}
1002
{
1000
REACTOR
1002
}
  0
LINE
  5
982B
  8
AM_0
 10
542.88738450361075
 20
163.63116776721631
 30
0.0
 11
634.8873845036112
 21
163.6311677672162
 31
0.0
  0
LINE
  5
982C
  8
ﾁｭｳｼﾝｾﾝ1
 10
629.88738450361006
 20
152.6311677672162
 30
0.0
 11
629.88738450361041
 21
168.45869077975291
 31
0.0
  0
LINE
  5
982D
  8
AM_0
 10
542.88738450361075
 20
159.63116776721631
 30
0.0
 11
563.70188940314335
 21
159.63116776721631
 31
0.0
  0
LINE
  5
982E
  8
AM_0
 10
614.07287960407859
 20
159.6311677672162
 30
0.0
 11
634.88738450361006
 21
159.6311677672162
 31
0.0
  0
LINE
  5
982F
  8
AM_0
 10
549.02316617277165
 20
155.63116776721631
 30
0.0
 11
628.75160283445041
 21
155.6311677672162
 31
0.0
  0
LINE
  5
9830
  8
AM_0
 10
625.9800295313039
 20
157.5722302550883
 30
0.0
 11
625.88738450361041
 21
158.6311677672162
 31
0.0
  0
LINE
  5
9831
  8
AM_0
 10
633.79473947591691
 20
157.5722302550883
 30
0.0
 11
633.88738450361041
 21
158.6311677672162
 31
0.0
  0
ARC
  5
9832
  8
AM_0
 10
629.88738450361041
 20
162.0311677672164
 30
0.0
 40
6.5
 50
241.82726586813479
 51
298.17273413186518
  0
ARC
  5
9833
  8
AM_0
 10
632.20082795897008
 20
157.7116794434848
 30
0.0
 40
1.6000000000000001
 50
298.17273413186518
 51
355.00000000000028
  0
LINE
  5
9834
  8
AM_0
 10
627.58738450361034
 20
155.95169410578791
 30
0.0
 11
629.88738450361041
 21
158.24125378458351
 31
0.0
  0
LINE
  5
9835
  8
AM_0
 10
629.57588450361038
 20
157.9311677672161
 30
0.0
 11
630.19888450361043
 21
157.9311677672161
 31
0.0
  0
LINE
  5
9836
  8
AM_0
 10
632.18738450361025
 20
155.95169410578791
 30
0.0
 11
629.88738450361041
 21
158.24125378458351
 31
0.0
  0
LINE
  5
9837
  8
AM_0
 10
629.57588450361038
 20
155.53863607688149
 30
0.0
 11
629.57588450361038
 21
157.9311677672161
 31
0.0
  0
LINE
  5
9838
  8
AM_0
 10
630.19888450361043
 20
155.53863607688149
 30
0.0
 11
630.19888450361043
 21
157.9311677672161
 31
0.0
  0
ARC
  5
9839
  8
AM_0
 10
627.57394104825073
 20
157.7116794434848
 30
0.0
 40
1.6000000000000001
 50
184.99999999999969
 51
241.82726586813479
  0
LINE
  5
983A
  8
AM_0
 10
542.88738450361075
 20
159.63116776721631
 30
0.0
 11
542.88738450361075
 21
163.63116776721631
 31
0.0
  0
LINE
  5
983B
  8
AM_0
 10
543.8873845036112
 20
158.63116776721611
 30
0.0
 11
542.88738450361075
 21
159.6311677672164
 31
0.0
  0
LINE
  5
983C
  8
AM_0
 10
634.8873845036112
 20
163.6311677672162
 30
0.0
 11
634.88738450361006
 21
159.6311677672162
 31
0.0
  0
LINE
  5
983D
  8
AM_0N
 10
626.08738450361022
 20
159.6311677672162
 30
0.0
 11
626.08738450361022
 21
158.6311677672162
 31
0.0
  0
LINE
  5
983E
  8
AM_0N
 10
629.68738450361025
 20
158.6311677672162
 30
0.0
 11
629.32341426934408
 21
159.6311677672162
 31
0.0
  0
LINE
  5
983F
  8
AM_0N
 10
630.08738450361022
 20
158.6311677672162
 30
0.0
 11
629.72341426934395
 21
159.6311677672162
 31
0.0
  0
LINE
  5
9840
  8
AM_0N
 10
633.88738450361041
 20
158.6311677672162
 30
0.0
 11
625.88738450361041
 21
158.6311677672162
 31
0.0
  0
LINE
  5
9841
  8
AM_0N
 10
633.68738450361025
 20
158.6311677672162
 30
0.0
 11
633.68738450361025
 21
159.6311677672162
 31
0.0
  0
LINE
  5
9842
  8
AM_0
 10
614.07287960407871
 20
155.6311677672162
 30
0.0
 11
614.07287960407871
 21
159.6311677672162
 31
0.0
  0
LINE
  5
9843
  8
AM_0
 10
615.72973385357113
 20
159.6311677672162
 30
0.0
 11
614.07287960407871
 21
155.6311677672162
 31
0.0
  0
LINE
  5
9844
  8
AM_0
 10
563.70188940314335
 20
155.63116776721631
 30
0.0
 11
563.70188940314335
 21
159.63116776721631
 31
0.0
  0
LINE
  5
9845
  8
AM_0
 10
562.04503515365082
 20
159.63116776721631
 30
0.0
 11
563.70188940314335
 21
155.63116776721631
 31
0.0
  0
LINE
  5
9846
  8
ﾁｭｳｼﾝｾﾝ1
 10
547.88738450361166
 20
152.63116776721631
 30
0.0
 11
547.88738450361166
 21
168.45869077975291
 31
0.0
  0
LINE
  5
9847
  8
AM_0
 10
551.79473947591794
 20
157.5722302550883
 30
0.0
 11
551.88738450361166
 21
158.6311677672162
 31
0.0
  0
LINE
  5
9848
  8
AM_0
 10
543.98002953130515
 20
157.5722302550883
 30
0.0
 11
543.88738450361166
 21
158.6311677672162
 31
0.0
  0
ARC
  5
9849
  8
AM_0
 10
547.88738450361154
 20
162.0311677672164
 30
0.0
 40
6.5
 50
241.82726586813479
 51
298.17273413186518
  0
ARC
  5
984A
  8
AM_0
 10
545.57394104825175
 20
157.7116794434848
 30
0.0
 40
1.6000000000000001
 50
184.99999999999969
 51
241.82726586813479
  0
LINE
  5
984B
  8
AM_0
 10
550.18738450361161
 20
155.95169410578791
 30
0.0
 11
547.88738450361166
 21
158.24125378458351
 31
0.0
  0
LINE
  5
984C
  8
AM_0
 10
548.19888450361157
 20
157.9311677672161
 30
0.0
 11
547.57588450361163
 21
157.9311677672161
 31
0.0
  0
LINE
  5
984D
  8
AM_0
 10
545.5873845036117
 20
155.95169410578791
 30
0.0
 11
547.88738450361166
 21
158.24125378458351
 31
0.0
  0
LINE
  5
984E
  8
AM_0
 10
548.19888450361157
 20
155.53863607688149
 30
0.0
 11
548.19888450361157
 21
157.9311677672161
 31
0.0
  0
LINE
  5
984F
  8
AM_0
 10
547.57588450361163
 20
155.53863607688149
 30
0.0
 11
547.57588450361163
 21
157.9311677672161
 31
0.0
  0
ARC
  5
9850
  8
AM_0
 10
550.20082795897122
 20
157.7116794434848
 30
0.0
 40
1.6000000000000001
 50
298.17273413186518
 51
355.00000000000028
  0
LINE
  5
9851
  8
AM_0N
 10
551.68738450361161
 20
159.6311677672162
 30
0.0
 11
551.68738450361161
 21
158.6311677672162
 31
0.0
  0
LINE
  5
9852
  8
AM_0N
 10
548.0873845036117
 20
158.6311677672162
 30
0.0
 11
548.45135473787775
 21
159.6311677672162
 31
0.0
  0
LINE
  5
9853
  8
AM_0N
 10
547.68738450361161
 20
158.6311677672162
 30
0.0
 11
548.05135473787777
 21
159.6311677672162
 31
0.0
  0
LINE
  5
9854
  8
AM_0N
 10
543.88738450361166
 20
158.6311677672162
 30
0.0
 11
551.88738450361166
 21
158.6311677672162
 31
0.0
  0
LINE
  5
9855
  8
AM_0N
 10
544.0873845036117
 20
158.6311677672162
 30
0.0
 11
544.0873845036117
 21
159.6311677672162
 31
0.0
  0
LINE
  5
9856
  8
AM_0
 10
618.88738450361075
 20
219.71844155893399
 30
0.0
 11
618.88738450361075
 21
202.63116776721631
 31
0.0
  0
LINE
  5
987E
  8
AM_0
 10
539.88738450361075
 20
245.1311677672162
 30
0.0
 11
539.88738450361075
 21
296.13116776721631
 31
0.0
  0
LINE
  5
987F
  8
AM_0
 10
539.38738450361075
 20
256.63116776721631
 30
0.0
 11
539.38738450361075
 21
284.63116776721631
 31
0.0
  0
LINE
  5
9883
  8
AM_0
 10
540.88738450361097
 20
244.1311677672162
 30
0.0
 11
545.88738450361143
 21
244.13116776721631
 31
0.0
  0
LINE
  5
9884
  8
AM_0
 10
545.88738450361097
 20
244.13116776721631
 30
0.0
 11
545.88738450361097
 21
297.13116776721631
 31
0.0
  0
LINE
  5
9886
  8
AM_0
 10
540.88738450361097
 20
297.13116776721643
 30
0.0
 11
545.88738450361097
 21
297.13116776721631
 31
0.0
  0
LINE
  5
9887
  8
AM_0
 10
637.88738450361086
 20
245.1311677672162
 30
0.0
 11
637.88738450361086
 21
296.13116776721631
 31
0.0
  0
LINE
  5
9889
  8
AM_0
 10
638.38738450361086
 20
256.63116776721643
 30
0.0
 11
638.38738450361075
 21
284.63116776721631
 31
0.0
  0
LINE
  5
988C
  8
AM_0
 10
636.88738450361097
 20
244.1311677672162
 30
0.0
 11
631.88738450361052
 21
244.13116776721631
 31
0.0
  0
LINE
  5
988E
  8
AM_0
 10
631.88738450361075
 20
244.1311677672164
 30
0.0
 11
631.88738450361075
 21
297.13116776721631
 31
0.0
  0
LINE
  5
988F
  8
AM_0
 10
636.88738450361097
 20
297.13116776721643
 30
0.0
 11
631.88738450361075
 21
297.13116776721631
 31
0.0
  0
LINE
  5
9893
  8
AM_0
 10
539.88738450361075
 20
296.13116776721631
 30
0.0
 11
540.88738450361097
 21
297.13116776721643
 31
0.0
1001
GENIUS_GENFIL_13
1070
     0
1040
1.0
1040
1.0
1040
20.0
1040
0.0
1002
{
1002
}
1001
GENIUS_GENOBJ-N-CHA_13
1002
{
1000
OWNER
1000
GEN
1002
}
1001
GENIUS_GENODEF_13
1002
{
1000
HIER
1070
     0
1002
}
1002
{
1000
MANEDIT
1070
     0
1002
}
1002
{
1000
NOSEL
1070
     0
1002
}
1002
{
1000
BEHIND
1070
     0
1002
}
1002
{
1000
OTHER
1070
     0
1002
}
1002
{
1000
REACTOR
1002
}
  0
LINE
  5
9896
  8
AM_0
 10
539.88738450361075
 20
245.1311677672162
 30
0.0
 11
540.88738450361097
 21
244.1311677672162
 31
0.0
1001
GENIUS_GENFIL_13
1070
     0
1040
1.0
1040
1.0
1040
20.0
1040
0.0
1002
{
1002
}
1001
GENIUS_GENOBJ-N-CHA_13
1002
{
1000
OWNER
1000
GEN
1002
}
1001
GENIUS_GENODEF_13
1002
{
1000
HIER
1070
     0
1002
}
1002
{
1000
MANEDIT
1070
     0
1002
}
1002
{
1000
NOSEL
1070
     0
1002
}
1002
{
1000
BEHIND
1070
     0
1002
}
1002
{
1000
OTHER
1070
     0
1002
}
1002
{
1000
REACTOR
1002
}
  0
LINE
  5
9898
  8
AM_0
 10
636.88738450361097
 20
297.13116776721643
 30
0.0
 11
637.88738450361086
 21
296.13116776721631
 31
0.0
1001
GENIUS_GENFIL_13
1070
     0
1040
1.0
1040
1.0
1040
20.0
1040
0.0
1002
{
1002
}
1001
GENIUS_GENODEF_13
1002
{
1000
HIER
1070
     0
1002
}
1002
{
1000
MANEDIT
1070
     0
1002
}
1002
{
1000
NOSEL
1070
     0
1002
}
1002
{
1000
BEHIND
1070
     0
1002
}
1002
{
1000
OTHER
1070
     0
1002
}
1002
{
1000
REACTOR
1002
}
1001
GENIUS_GENOBJ-N-CHA_13
1002
{
1000
OWNER
1000
GEN
1002
}
  0
LINE
  5
989A
  8
AM_0
 10
637.88738450361086
 20
245.1311677672162
 30
0.0
 11
636.88738450361097
 21
244.1311677672162
 31
0.0
1001
GENIUS_GENFIL_13
1070
     0
1040
1.0
1040
1.0
1040
20.0
1040
0.0
1002
{
1002
}
1001
GENIUS_GENODEF_13
1002
{
1000
HIER
1070
     0
1002
}
1002
{
1000
MANEDIT
1070
     0
1002
}
1002
{
1000
NOSEL
1070
     0
1002
}
1002
{
1000
BEHIND
1070
     0
1002
}
1002
{
1000
OTHER
1070
     0
1002
}
1002
{
1000
REACTOR
1002
}
1001
GENIUS_GENOBJ-N-CHA_13
1002
{
1000
OWNER
1000
GEN
1002
}
  0
CIRCLE
  5
98DE
  8
AM_0
 10
362.1850147658796
 20
270.63116776721631
 30
0.0
 40
14.500000447034839
  0
CIRCLE
  5
98E8
  8
AM_0
 10
362.1850147658796
 20
270.63116776721631
 30
0.0
 40
26.500000819563869
  0
LINE
  5
98EB
  8
AM_0
 10
637.88738450361086
 20
285.13116776721631
 30
0.0
 11
638.38738450361075
 21
284.63116776721631
 31
0.0
1001
GENIUS_GENFIL_13
1070
     0
1040
0.5
1040
0.5
1040
20.0
1040
0.0
1002
{
1002
}
1001
GENIUS_GENOBJ-N-CHA_13
1002
{
1000
OWNER
1000
GEN
1002
}
1001
GENIUS_GENODEF_13
1002
{
1000
HIER
1070
     0
1002
}
1002
{
1000
MANEDIT
1070
     0
1002
}
1002
{
1000
NOSEL
1070
     0
1002
}
1002
{
1000
BEHIND
1070
     0
1002
}
1002
{
1000
OTHER
1070
     0
1002
}
1002
{
1000
REACTOR
1002
}
  0
LINE
  5
98ED
  8
AM_0
 10
637.88738450361086
 20
256.13116776721643
 30
0.0
 11
638.38738450361086
 21
256.63116776721643
 31
0.0
1001
GENIUS_GENFIL_13
1070
     0
1040
0.5
1040
0.5
1040
20.0
1040
0.0
1002
{
1002
}
1001
GENIUS_GENOBJ-N-CHA_13
1002
{
1000
OWNER
1000
GEN
1002
}
1001
GENIUS_GENODEF_13
1002
{
1000
HIER
1070
     0
1002
}
1002
{
1000
MANEDIT
1070
     0
1002
}
1002
{
1000
NOSEL
1070
     0
1002
}
1002
{
1000
BEHIND
1070
     0
1002
}
1002
{
1000
OTHER
1070
     0
1002
}
1002
{
1000
REACTOR
1002
}
  0
LINE
  5
9904
  8
AM_0
 10
539.38738450361075
 20
284.63116776721631
 30
0.0
 11
539.88738450361075
 21
285.13116776721631
 31
0.0
1001
GENIUS_GENFIL_13
1070
     0
1040
0.5
1040
0.5
1040
20.0
1040
0.0
1002
{
1002
}
1001
GENIUS_GENODEF_13
1002
{
1000
HIER
1070
     0
1002
}
1002
{
1000
MANEDIT
1070
     0
1002
}
1002
{
1000
NOSEL
1070
     0
1002
}
1002
{
1000
BEHIND
1070
     0
1002
}
1002
{
1000
OTHER
1070
     0
1002
}
1002
{
1000
REACTOR
1002
}
1001
GENIUS_GENOBJ-N-CHA_13
1002
{
1000
OWNER
1000
GEN
1002
}
  0
LINE
  5
9906
  8
AM_0
 10
539.88738450361075
 20
256.13116776721631
 30
0.0
 11
539.38738450361075
 21
256.63116776721631
 31
0.0
1001
GENIUS_GENFIL_13
1070
     0
1040
0.5
1040
0.5
1040
20.0
1040
0.0
1002
{
1002
}
1001
GENIUS_GENOBJ-N-CHA_13
1002
{
1000
OWNER
1000
GEN
1002
}
1001
GENIUS_GENODEF_13
1002
{
1000
HIER
1070
     0
1002
}
1002
{
1000
MANEDIT
1070
     0
1002
}
1002
{
1000
NOSEL
1070
     0
1002
}
1002
{
1000
BEHIND
1070
     0
1002
}
1002
{
1000
OTHER
1070
     0
1002
}
1002
{
1000
REACTOR
1002
}
  0
CIRCLE
  5
9924
  8
AM_0
 10
362.1850147658796
 20
270.63116776721631
 30
0.0
 40
27.500000819563869
  0
CIRCLE
  5
A494
  8
AM_0
 10
143.17890868725479
 20
224.6311677672162
 30
0.0
 40
3.0
  0
LINE
  5
A92C
  8
AM_0
 10
414.95840481937569
 20
530.07315404638848
 30
0.0
 11
276.41192778595132
 21
530.07313848181627
 31
0.0
  0
LINE
  5
A92D
  8
AM_0
 10
415.18532067412758
 20
517.07315343424045
 30
0.0
 11
276.18501166737451
 21
517.07315343424045
 31
0.0
  0
LINE
  5
A92E
  8
AM_0
 10
414.08565208639351
 20
454.0731515566942
 30
0.0
 11
277.28468079061417
 21
454.0731515566942
 31
0.0
  0
LINE
  5
A92F
  8
ﾁｭｳｼﾝｾﾝ
 10
111.1850122028799
 20
492.07317003354763
 30
0.0
 11
418.18501628579799
 21
492.0731291844744
 31
0.0
1001
GENIUS_GENODEF_13
1002
{
1000
HIER
1070
     0
1002
}
1002
{
1000
MANEDIT
1070
     0
1002
}
1002
{
1000
NOSEL
1070
     0
1002
}
1002
{
1000
BEHIND
1070
     0
1002
}
1002
{
1000
REACTOR
1002
}
1001
GENIUS_GENOBJ-N-CEN_13
1002
{
1000
OWNER
1000
GEN
1002
}
  0
ARC
  5
A931
  8
AM_0
 10
125.678908687255
 20
479.0731726340494
 30
0.0
 40
1.0
 50
269.9999969999991
 51
0.0
  0
ARC
  5
A932
  8
AM_0
 10
122.678908687255
 20
477.0731726340494
 30
0.0
 40
1.0
 50
90.0
 51
180.000010000001
  0
LINE
  5
A933
  8
AM_0
 10
121.678908687255
 20
444.05681263404949
 30
0.0
 11
121.678908687255
 21
487.07318263404932
 31
0.0
  0
LINE
  5
A934
  8
AM_0
 10
126.678908687255
 20
442.07318263404932
 30
0.0
 11
126.678908687255
 21
543.19640163404938
 31
0.0
  0
LINE
  5
A935
  8
AM_0
 10
120.178908687255
 20
472.07318263404932
 30
0.0
 11
120.178908687255
 21
512.07316263404948
 31
0.0
  0
LINE
  5
A936
  8
AM_0
 10
127.678908687255
 20
439.07318263404932
 30
0.0
 11
127.678908687255
 21
545.07316363404948
 31
0.0
  0
LINE
  5
A937
  8
AM_0
 10
123.4466686872549
 20
541.68832963404952
 30
0.0
 11
122.17847868725489
 21
540.95535063404918
 31
0.0
  0
LINE
  5
A938
  8
AM_0
 10
126.678908687255
 20
542.07316363404937
 30
0.0
 11
127.678908687255
 21
542.07316363404937
 31
0.0
  0
LINE
  5
A939
  8
AM_0
 10
123.94709868725499
 20
541.82256063404952
 30
0.0
 11
126.178908687255
 21
541.82256063404952
 31
0.0
  0
ARC
  5
A93A
  8
AM_0
 10
126.178908687255
 20
542.32255363404943
 30
0.0
 40
0.5
 50
269.9999969999991
 51
0.0
  0
ARC
  5
A93B
  8
AM_0
 10
123.94709868725499
 20
540.82255363404943
 30
0.0
 40
1.0
 50
90.0
 51
120.0263999999994
  0
LINE
  5
A93D
  8
AM_0
 10
121.678908687255
 20
540.08958163404941
 30
0.0
 11
121.678908687255
 21
497.07316263404931
 31
0.0
  0
ARC
  5
A93E
  8
AM_0
 10
125.678908687255
 20
524.81634263404942
 30
0.0
 40
1.0
 50
0.0
 51
90.0
  0
ARC
  5
A93F
  8
AM_0
 10
123.8292386872549
 20
524.81634263404942
 30
0.0
 40
1.0
 50
90.0
 51
107.09763000000039
  0
ARC
  5
A940
  8
AM_0
 10
125.678908687255
 20
533.05810363404953
 30
0.0
 40
1.0
 50
0.0
 51
90.0
  0
LINE
  5
A941
  8
AM_0
 10
123.4448386872549
 20
533.92100263404927
 30
0.0
 11
122.1734786872549
 21
533.17632063404949
 31
0.0
  0
ARC
  5
A942
  8
AM_0
 10
122.678908687255
 20
533.34653963404935
 30
0.0
 40
1.0
 50
123.2547200000013
 51
180.000010000001
  0
LINE
  5
A943
  8
AM_0
 10
123.459248687255
 20
538.45837163404917
 30
0.0
 11
122.210648687255
 21
537.79650663404925
 31
0.0
  0
LINE
  5
A944
  8
AM_0
 10
123.4655286872549
 20
540.56790663404934
 30
0.0
 11
122.2262686872549
 21
539.93887863404939
 31
0.0
  0
LINE
  5
A945
  8
AM_0
 10
123.4291586872549
 20
535.03433763404951
 30
0.0
 11
122.1305086872549
 21
534.18277463404934
 31
0.0
  0
LINE
  5
A946
  8
AM_0
 10
123.4413586872549
 20
539.57226363404948
 30
0.0
 11
122.164448687255
 21
538.80602063404933
 31
0.0
  0
ARC
  5
A947
  8
AM_0
 10
122.678908687255
 20
537.94852963404946
 30
0.0
 40
1.0
 50
120.96660000000119
 51
180.000010000001
  0
ARC
  5
A948
  8
AM_0
 10
122.678908687255
 20
536.91295363404925
 30
0.0
 40
1.0
 50
117.926589999999
 51
180.000010000001
  0
ARC
  5
A949
  8
AM_0
 10
122.678908687255
 20
539.04723163404947
 30
0.0
 40
1.0
 50
116.91125000000009
 51
180.000010000001
  0
ARC
  5
A94A
  8
AM_0
 10
122.678908687255
 20
540.08958163404941
 30
0.0
 40
1.0
 50
120.0263900000018
 51
180.000010000001
  0
LINE
  5
A94B
  8
AM_0
 10
123.91816868725491
 20
540.67625163404932
 30
0.0
 11
126.178908687255
 21
540.67625163404932
 31
0.0
  0
LINE
  5
A94C
  8
AM_0
 10
123.9275686872549
 20
538.57481963404916
 30
0.0
 11
125.678908687255
 21
538.57481963404916
 31
0.0
  0
LINE
  5
A94D
  8
AM_0
 10
123.950208687255
 20
534.05808763404934
 30
0.0
 11
125.678908687255
 21
534.05808763404934
 31
0.0
  0
LINE
  5
A94E
  8
AM_0
 10
123.9775586872549
 20
535.19810263404952
 30
0.0
 11
126.678908687255
 21
535.19810263404952
 31
0.0
  0
LINE
  5
A94F
  8
AM_0
 10
123.9559486872549
 20
539.71483363404934
 30
0.0
 11
126.678908687255
 21
539.71483363404934
 31
0.0
  0
ARC
  5
A950
  8
AM_0
 10
126.178908687255
 20
540.17625963404953
 30
0.0
 40
0.5
 50
0.0
 51
90.0
  0
ARC
  5
A951
  8
AM_0
 10
125.678908687255
 20
537.57481163404941
 30
0.0
 40
1.0
 50
0.0
 51
90.0
  0
LINE
  5
A952
  8
AM_0
 10
123.678908687255
 20
539.4697246340495
 30
0.0
 11
123.678908687255
 21
538.92370363404916
 31
0.0
  0
LINE
  5
A953
  8
AM_0
 10
123.678908687255
 20
534.90362363404927
 30
0.0
 11
123.678908687255
 21
534.43150863404935
 31
0.0
  0
ARC
  5
A954
  8
AM_0
 10
123.950208687255
 20
533.05810363404953
 30
0.0
 40
1.0
 50
90.0
 51
120.3595000000014
  0
ARC
  5
A955
  8
AM_0
 10
123.9775586872549
 20
534.19811763404925
 30
0.0
 40
1.0
 50
90.0
 51
123.25473000000071
  0
ARC
  5
A956
  8
AM_0
 10
123.9275686872549
 20
537.57481163404941
 30
0.0
 40
1.0
 50
90.0
 51
117.9266000000007
  0
ARC
  5
A957
  8
AM_0
 10
123.9559486872549
 20
538.71482663404959
 30
0.0
 40
1.0
 50
90.0
 51
120.96660000000119
  0
ARC
  5
A958
  8
AM_0
 10
123.91816868725491
 20
539.67626763404951
 30
0.0
 40
1.0
 50
90.0
 51
116.9112599999988
  0
LINE
  5
A959
  8
AM_0
 10
123.678908687255
 20
541.56932563404916
 30
0.0
 11
123.678908687255
 21
541.04356163404918
 31
0.0
  0
LINE
  5
A95A
  8
AM_0
 10
123.49079868725489
 20
527.6820736340494
 30
0.0
 11
122.2860886872549
 21
527.16756163404932
 31
0.0
  0
ARC
  5
A95B
  8
AM_0
 10
122.678908687255
 20
526.24790763404917
 30
0.0
 40
1.0
 50
113.1270199999981
 51
180.000010000001
  0
LINE
  5
A95C
  8
AM_0
 10
122.1734786872549
 20
533.17628263404947
 30
0.0
 11
122.1499186872549
 21
533.16245763404947
 31
0.0
  0
ARC
  5
A95D
  8
AM_0
 10
122.678908687255
 20
532.31341363404954
 30
0.0
 40
1.0
 50
120.35951000000171
 51
180.000010000001
  0
ARC
  5
A95E
  8
AM_0
 10
122.678908687255
 20
532.31341363404954
 30
0.0
 40
1.0
 50
120.35951000000171
 51
180.000010000001
  0
LINE
  5
A95F
  8
AM_0
 10
123.8292386872549
 20
525.81632763404946
 30
0.0
 11
125.678908687255
 21
525.81632763404946
 31
0.0
  0
LINE
  5
A960
  8
AM_0
 10
123.883558687255
 20
527.76244163404931
 30
0.0
 11
125.978898687255
 21
527.76244163404931
 31
0.0
  0
ARC
  5
A961
  8
AM_0
 10
125.978898687255
 20
528.46238463404916
 30
0.0
 40
0.6999999900000002
 50
269.9999969999991
 51
0.0
  0
LINE
  5
A962
  8
AM_0
 10
123.678908687255
 20
527.46606263404942
 30
0.0
 11
123.678908687255
 21
526.40611063404936
 31
0.0
  0
ARC
  5
A963
  8
AM_0
 10
123.883558687255
 20
526.76243363404933
 30
0.0
 40
1.0
 50
90.0
 51
113.1270299999986
  0
ARC
  5
A964
  8
AM_0
 10
125.678908687255
 20
533.05810363404953
 30
0.0
 40
1.0
 50
0.0
 51
25.363240000000559
  0
ARC
  5
A965
  8
AM_0
 10
122.678908687255
 20
517.07318263404943
 30
0.0
 40
1.0
 50
90.0
 51
180.000010000001
  0
LINE
  5
A966
  8
AM_0
 10
125.678908687255
 20
518.07316263404925
 30
0.0
 11
122.678908687255
 21
518.07316263404925
 31
0.0
  0
LINE
  5
A967
  8
AM_0
 10
123.5352286872549
 20
525.77210763404935
 30
0.0
 11
122.3848386872549
 21
525.41825663404916
 31
0.0
  0
ARC
  5
A968
  8
AM_0
 10
122.678908687255
 20
524.46244563404957
 30
0.0
 40
1.0
 50
107.09763000000039
 51
180.000010000001
  0
ARC
  5
A969
  8
AM_0
 10
125.678908687255
 20
519.07317263404934
 30
0.0
 40
1.0
 50
269.9999969999991
 51
0.0
  0
LINE
  5
A96A
  8
AM_0
 10
125.678908687255
 20
516.07317263404934
 30
0.0
 11
122.678908687255
 21
516.07317263404934
 31
0.0
  0
LINE
  5
A96C
  8
AM_0
 10
120.17896868725489
 20
512.07316263404948
 30
0.0
 11
121.678908687255
 21
512.20439263404933
 31
0.0
  0
ARC
  5
A96D
  8
AM_0
 10
122.678908687255
 20
517.07318263404943
 30
0.0
 40
1.0
 50
179.99999000000221
 51
269.9999969999991
  0
LINE
  5
A96E
  8
AM_0
 10
123.678908687255
 20
517.69940263404919
 30
0.0
 11
123.678908687255
 21
516.33654263404958
 31
0.0
  0
ARC
  5
A96F
  8
AM_0
 10
125.678908687255
 20
515.07316263404925
 30
0.0
 40
1.0
 50
0.0
 51
90.0
  0
LINE
  5
A970
  8
AM_0
 10
120.178908687255
 20
507.2232026340493
 30
0.0
 11
121.6789086872549
 21
507.22320263404919
 31
0.0
  0
LINE
  5
A971
  8
AM_0
 10
125.678908687255
 20
506.07316263404931
 30
0.0
 11
122.678908687255
 21
506.07316263404931
 31
0.0
  0
LINE
  5
A972
  8
AM_0
 10
125.678908687255
 20
508.07318263404932
 30
0.0
 11
122.678908687255
 21
508.07318263404932
 31
0.0
  0
ARC
  5
A973
  8
AM_0
 10
122.678908687255
 20
507.07317263404929
 30
0.0
 40
1.0
 50
179.99999000000221
 51
269.9999969999991
  0
LINE
  5
A974
  8
AM_0
 10
120.178908687255
 20
509.35521263404939
 30
0.0
 11
121.678908687255
 21
509.35521263404939
 31
0.0
  0
ARC
  5
A975
  8
AM_0
 10
122.678908687255
 20
507.07317263404929
 30
0.0
 40
1.0
 50
90.0
 51
180.000010000001
  0
ARC
  5
A976
  8
AM_0
 10
125.678908687255
 20
505.07318263404932
 30
0.0
 40
1.0
 50
0.0
 51
90.0
  0
ARC
  5
A977
  8
AM_0
 10
125.678908687255
 20
509.07316263404942
 30
0.0
 40
1.0
 50
269.9999969999991
 51
0.0
  0
LINE
  5
A978
  8
AM_0
 10
123.678908687255
 20
507.68028263404949
 30
0.0
 11
123.678908687255
 21
506.46892263404948
 31
0.0
  0
LINE
  5
A979
  8
AM_0
 10
125.678908687255
 20
496.07318263404932
 30
0.0
 11
122.678908687255
 21
496.07318263404932
 31
0.0
  0
LINE
  5
A97A
  8
AM_0
 10
125.678908687255
 20
498.07317263404929
 30
0.0
 11
122.678908687255
 21
498.07317263404929
 31
0.0
  0
ARC
  5
A97B
  8
AM_0
 10
122.678908687255
 20
497.07316263404931
 30
0.0
 40
1.0
 50
179.99999000000221
 51
269.9999969999991
  0
ARC
  5
A97C
  8
AM_0
 10
122.678908687255
 20
497.07316263404931
 30
0.0
 40
1.0
 50
90.0
 51
180.000010000001
  0
ARC
  5
A97D
  8
AM_0
 10
125.678908687255
 20
499.07318263404937
 30
0.0
 40
1.0
 50
269.9999969999991
 51
0.0
  0
ARC
  5
A97E
  8
AM_0
 10
125.678908687255
 20
495.07317263404929
 30
0.0
 40
1.0
 50
0.0
 51
90.0
  0
LINE
  5
A97F
  8
AM_0
 10
123.678908687255
 20
497.68645263404932
 30
0.0
 11
123.678908687255
 21
496.52556263404938
 31
0.0
  0
ARC
  5
A980
  8
AM_0
 10
125.678908687255
 20
485.0731726340494
 30
0.0
 40
1.0
 50
0.0
 51
90.0
  0
ARC
  5
A981
  8
AM_0
 10
122.678908687255
 20
487.07318263404932
 30
0.0
 40
1.0
 50
179.99999000000221
 51
269.9999969999991
  0
LINE
  5
A982
  8
AM_0
 10
125.678908687255
 20
488.0731726340494
 30
0.0
 11
122.678908687255
 21
488.0731726340494
 31
0.0
  0
LINE
  5
A983
  8
AM_0
 10
125.678908687255
 20
486.07317263404929
 30
0.0
 11
122.678908687255
 21
486.07317263404929
 31
0.0
  0
ARC
  5
A984
  8
AM_0
 10
122.678908687255
 20
487.07318263404932
 30
0.0
 40
1.0
 50
90.0
 51
180.000010000001
  0
ARC
  5
A985
  8
AM_0
 10
125.678908687255
 20
489.07317263404951
 30
0.0
 40
1.0
 50
269.9999969999991
 51
0.0
  0
LINE
  5
A986
  8
AM_0
 10
123.678908687255
 20
486.45996263404948
 30
0.0
 11
123.678908687255
 21
487.6208526340493
 31
0.0
  0
ARC
  5
A987
  8
AM_0
 10
125.678908687255
 20
446.57154263404931
 30
0.0
 40
1.0
 50
269.9999969999991
 51
0.0
  0
LINE
  5
A988
  8
AM_0
 10
123.459248687255
 20
445.6880126340493
 30
0.0
 11
122.2105886872549
 21
446.34987263404929
 31
0.0
  0
ARC
  5
A989
  8
AM_0
 10
122.678908687255
 20
447.23346263404949
 30
0.0
 40
1.0
 50
179.99999000000221
 51
242.0733999999992
  0
LINE
  5
A98A
  8
AM_0
 10
120.178908687255
 20
476.92314263404938
 30
0.0
 11
121.678908687255
 21
476.92314263404938
 31
0.0
  0
LINE
  5
A98B
  8
AM_0
 10
125.678908687255
 20
478.07318263404937
 30
0.0
 11
122.678908687255
 21
478.07318263404937
 31
0.0
  0
LINE
  5
A98C
  8
AM_0
 10
125.678908687255
 20
476.0731726340494
 30
0.0
 11
122.678908687255
 21
476.0731726340494
 31
0.0
  0
LINE
  5
A98F
  8
AM_0
 10
120.178908687255
 20
472.07318263404932
 30
0.0
 11
121.678908687255
 21
471.94196263404939
 31
0.0
  0
LINE
  5
A990
  8
AM_0
 10
120.178908687255
 20
474.79120263404928
 30
0.0
 11
121.678908687255
 21
474.79120263404928
 31
0.0
  0
ARC
  5
A991
  8
AM_0
 10
122.678908687255
 20
477.0731726340494
 30
0.0
 40
1.0
 50
179.99999000000221
 51
269.9999969999991
  0
ARC
  5
A992
  8
AM_0
 10
125.678908687255
 20
475.07318263404932
 30
0.0
 40
1.0
 50
0.0
 51
90.0
  0
LINE
  5
A993
  8
AM_0
 10
123.678908687255
 20
476.46607263404928
 30
0.0
 11
123.678908687255
 21
477.67749263404932
 31
0.0
  0
LINE
  5
A994
  8
AM_0
 10
125.678908687255
 20
468.07317263404951
 30
0.0
 11
122.678908687255
 21
468.07317263404951
 31
0.0
  0
LINE
  5
A995
  8
AM_0
 10
125.678908687255
 20
466.07318263404932
 30
0.0
 11
122.678908687255
 21
466.07318263404932
 31
0.0
  0
ARC
  5
A996
  8
AM_0
 10
122.678908687255
 20
467.0731726340494
 30
0.0
 40
1.0
 50
90.0
 51
180.000010000001
  0
ARC
  5
A997
  8
AM_0
 10
122.678908687255
 20
467.0731726340494
 30
0.0
 40
1.0
 50
179.99999000000221
 51
269.9999969999991
  0
ARC
  5
A998
  8
AM_0
 10
125.678908687255
 20
469.07318263404937
 30
0.0
 40
1.0
 50
269.9999969999991
 51
0.0
  0
LINE
  5
A999
  8
AM_0
 10
123.678908687255
 20
466.44701263404937
 30
0.0
 11
123.678908687255
 21
467.80980263404928
 31
0.0
  0
ARC
  5
A99A
  8
AM_0
 10
125.678908687255
 20
465.07317263404929
 30
0.0
 40
1.0
 50
0.0
 51
90.0
  0
LINE
  5
A99B
  8
AM_0
 10
123.4907386872549
 20
456.46428263404931
 30
0.0
 11
122.28614868725499
 21
456.97875263404927
 31
0.0
  0
LINE
  5
A99C
  8
AM_0
 10
123.5352286872549
 20
458.37424263404932
 30
0.0
 11
122.38490868725501
 21
458.72808263404931
 31
0.0
  0
ARC
  5
A99D
  8
AM_0
 10
122.678908687255
 20
459.68390263404939
 30
0.0
 40
1.0
 50
179.99999000000221
 51
252.90236999999951
  0
ARC
  5
A99E
  8
AM_0
 10
122.678908687255
 20
457.8984426340495
 30
0.0
 40
1.0
 50
179.99999000000221
 51
246.87297000000149
  0
LINE
  5
A99F
  8
AM_0
 10
123.883558687255
 20
456.38397263404943
 30
0.0
 11
125.978898687255
 21
456.38397263404943
 31
0.0
  0
ARC
  5
A9A0
  8
AM_0
 10
125.978898687255
 20
455.68396263404952
 30
0.0
 40
0.6999999900000002
 50
0.0
 51
90.0
  0
ARC
  5
A9A1
  8
AM_0
 10
123.883558687255
 20
457.38396263404928
 30
0.0
 40
1.0
 50
246.87297000000149
 51
269.9999969999991
  0
LINE
  5
A9A2
  8
AM_0
 10
123.8292386872549
 20
458.33007263404932
 30
0.0
 11
125.678908687255
 21
458.33007263404932
 31
0.0
  0
ARC
  5
A9A3
  8
AM_0
 10
125.678908687255
 20
459.33007263404932
 30
0.0
 40
1.0
 50
269.9999969999991
 51
0.0
  0
ARC
  5
A9A4
  8
AM_0
 10
123.8292386872549
 20
459.33007263404932
 30
0.0
 40
1.0
 50
252.90236999999951
 51
269.9999969999991
  0
LINE
  5
A9A5
  8
AM_0
 10
123.678908687255
 20
456.68029263404952
 30
0.0
 11
123.678908687255
 21
457.74024263404931
 31
0.0
  0
LINE
  5
A9A6
  8
AM_0
 10
123.4447786872549
 20
450.22539263404929
 30
0.0
 11
122.1734786872549
 21
450.97006263404933
 31
0.0
  0
LINE
  5
A9A7
  8
AM_0
 10
123.4291586872549
 20
449.11202263404948
 30
0.0
 11
122.13056868725489
 21
449.96358263404932
 31
0.0
  0
ARC
  5
A9A8
  8
AM_0
 10
122.678908687255
 20
450.79985263404927
 30
0.0
 40
1.0
 50
179.99999000000221
 51
236.74526999999921
  0
ARC
  5
A9A9
  8
AM_0
 10
122.678908687255
 20
451.83293263404931
 30
0.0
 40
1.0
 50
179.99999000000221
 51
239.64049999999861
  0
LINE
  5
A9AA
  8
AM_0
 10
123.9775586872549
 20
448.94829263404932
 30
0.0
 11
126.678908687255
 21
448.94829263404932
 31
0.0
  0
LINE
  5
A9AB
  8
AM_0
 10
123.950208687255
 20
450.08826263404927
 30
0.0
 11
125.678908687255
 21
450.08826263404927
 31
0.0
  0
ARC
  5
A9AC
  8
AM_0
 10
125.678908687255
 20
451.08824263404938
 30
0.0
 40
1.0
 50
269.9999969999991
 51
0.0
  0
LINE
  5
A9AD
  8
AM_0
 10
123.678908687255
 20
449.24272263404941
 30
0.0
 11
123.678908687255
 21
449.71491263404931
 31
0.0
  0
ARC
  5
A9AE
  8
AM_0
 10
123.950208687255
 20
451.08824263404938
 30
0.0
 40
1.0
 50
239.64049999999861
 51
269.9999969999991
  0
ARC
  5
A9AF
  8
AM_0
 10
123.9775586872549
 20
449.94829263404949
 30
0.0
 40
1.0
 50
236.74526999999921
 51
269.9999969999991
  0
LINE
  5
A9B0
  8
AM_0
 10
123.46558868725489
 20
443.57836263404931
 30
0.0
 11
122.22633868725489
 21
444.2073826340494
 31
0.0
  0
LINE
  5
A9B1
  8
AM_0
 10
123.4413586872549
 20
444.57407263404951
 30
0.0
 11
122.16431868725491
 21
445.34037263404952
 31
0.0
  0
LINE
  5
A9B2
  8
AM_0
 10
123.446728687255
 20
442.45806263404933
 30
0.0
 11
122.178548687255
 21
443.19101263404929
 31
0.0
  0
ARC
  5
A9B3
  8
AM_0
 10
122.678908687255
 20
446.19786263404939
 30
0.0
 40
1.0
 50
179.99999000000221
 51
239.03339999999869
  0
ARC
  5
A9B4
  8
AM_0
 10
122.678908687255
 20
445.09911263404928
 30
0.0
 40
1.0
 50
179.99999000000221
 51
243.08874000000111
  0
ARC
  5
A9B5
  8
AM_0
 10
122.678908687255
 20
444.05681263404949
 30
0.0
 40
1.0
 50
179.99999000000221
 51
239.9736000000006
  0
LINE
  5
A9B6
  8
AM_0
 10
126.678908687255
 20
442.07318263404932
 30
0.0
 11
127.678908687255
 21
442.07318263404932
 31
0.0
  0
LINE
  5
A9B7
  8
AM_0
 10
123.91816868725491
 20
443.47010263404928
 30
0.0
 11
126.178908687255
 21
443.47010263404928
 31
0.0
  0
LINE
  5
A9B8
  8
AM_0
 10
123.9275686872549
 20
445.5715226340493
 30
0.0
 11
125.678908687255
 21
445.5715226340493
 31
0.0
  0
LINE
  5
A9B9
  8
AM_0
 10
123.9559486872549
 20
444.43158263404939
 30
0.0
 11
126.678908687255
 21
444.43158263404939
 31
0.0
  0
LINE
  5
A9BA
  8
AM_0
 10
123.94709868725499
 20
442.32378263404951
 30
0.0
 11
126.178908687255
 21
442.32378263404951
 31
0.0
  0
ARC
  5
A9BB
  8
AM_0
 10
126.178908687255
 20
441.82379263404931
 30
0.0
 40
0.5
 50
0.0
 51
90.0
  0
ARC
  5
A9BC
  8
AM_0
 10
126.178908687255
 20
443.97008263404939
 30
0.0
 40
0.5
 50
269.9999969999991
 51
0.0
  0
LINE
  5
A9BD
  8
AM_0
 10
123.678908687255
 20
442.57701263404931
 30
0.0
 11
123.678908687255
 21
443.10279263404948
 31
0.0
  0
LINE
  5
A9BE
  8
AM_0
 10
123.678908687255
 20
444.67662263404929
 30
0.0
 11
123.678908687255
 21
445.22270263404931
 31
0.0
  0
ARC
  5
A9BF
  8
AM_0
 10
123.9275686872549
 20
446.57154263404931
 30
0.0
 40
1.0
 50
242.0733999999992
 51
269.9999969999991
  0
ARC
  5
A9C0
  8
AM_0
 10
123.9559486872549
 20
445.4315726340493
 30
0.0
 40
1.0
 50
239.03339999999869
 51
269.9999969999991
  0
ARC
  5
A9C1
  8
AM_0
 10
123.91816868725491
 20
444.47008263404928
 30
0.0
 40
1.0
 50
243.08874000000111
 51
269.9999969999991
  0
ARC
  5
A9C2
  8
AM_0
 10
123.94709868725499
 20
443.32379263404948
 30
0.0
 40
1.0
 50
239.9736000000006
 51
269.9999969999991
  0
LINE
  5
A9C3
  8
AM_0
 10
276.18501166737462
 20
517.07315343424045
 30
0.0
 11
277.28468105837243
 21
454.07313621683988
 31
0.0
  0
LINE
  5
A9C4
  8
ﾁｭｳｼﾝｾﾝ
 10
287.18501253070548
 20
533.07315382167053
 30
0.0
 11
287.18501253070548
 21
451.07315155669397
 31
0.0
  0
LINE
  5
A9C5
  8
ｶｸﾚｾﾝ2
 10
291.68501253070548
 20
530.07315382167064
 30
0.0
 11
291.68501253070548
 21
454.0731515566942
 31
0.0
  0
LINE
  5
A9C6
  8
ｶｸﾚｾﾝ2
 10
282.68501253070548
 20
530.07315382167064
 30
0.0
 11
282.68501253070548
 21
454.0731515566942
 31
0.0
  0
LINE
  5
A9C7
  8
AM_0
 10
261.3164858627697
 20
436.54106415563888
 30
0.0
 11
261.31650112088408
 21
547.60524192811465
 31
0.0
  0
LINE
  5
A9C8
  8
AM_0
 10
251.67890868725499
 20
436.0731426340493
 30
0.0
 11
251.67890868725499
 21
548.07316363404925
 31
0.0
  0
LINE
  5
A9C9
  8
AM_0
 10
262.00054179573323
 20
546.42044666482889
 30
0.0
 11
267.23649468055032
 21
516.72585736133976
 31
0.0
1001
GENIUS_GENODEF_13
1002
{
1000
HIER
1070
     0
1002
}
1002
{
1000
MANEDIT
1070
     0
1002
}
1002
{
1000
NOSEL
1070
     0
1002
}
1002
{
1000
BEHIND
1070
     0
1002
}
1002
{
1000
REACTOR
1002
}
1001
GENIUS_GENOBJ-N-CEN_13
1002
{
1000
OWNER
1000
GEN
1002
}
  0
ARC
  5
A9CA
  8
AM_0
 10
260.030925791664
 20
546.07315313404956
 30
0.0
 40
2.0
 50
9.9999917840707582
 51
90.0
1001
GENIUS_GENOBJ-N-CEN_13
1002
{
1000
OWNER
1000
GEN
1002
}
1001
GENIUS_GENODEF_13
1002
{
1000
HIER
1070
     0
1002
}
1002
{
1000
MANEDIT
1070
     0
1002
}
1002
{
1000
NOSEL
1070
     0
1002
}
1002
{
1000
BEHIND
1070
     0
1002
}
1002
{
1000
OTHER
1070
     0
1002
}
1002
{
1000
REACTOR
1002
}
1001
GENIUS_GENOBJ-N-FIL_13
1002
{
1000
OWNER
1000
GEN
1002
}
  0
LINE
  5
A9CB
  8
AM_0
 10
251.67890868725499
 20
548.07315313404945
 30
0.0
 11
260.030925791664
 21
548.07315313404945
 31
0.0
  0
LINE
  5
A9CC
  8
AM_0
 10
275.20231440425869
 20
515.07315343424045
 30
0.0
 11
269.20611023637531
 21
515.07315343424045
 31
0.0
  0
LINE
  5
A9CD
  8
AM_0
 10
251.67890868725499
 20
538.07317863404933
 30
0.0
 11
261.31649981135621
 21
538.07315727507478
 31
0.0
  0
LINE
  5
A9CE
  8
AM_0
 10
251.67890868725499
 20
524.0106106340495
 30
0.0
 11
261.31649787976812
 21
524.01308206594035
 31
0.0
  0
ARC
  5
A9CF
  8
AM_0
 10
269.20611023637531
 20
517.07315343424045
 30
0.0
 40
2.0
 50
189.99999178407069
 51
270.0
1001
GENIUS_GENODEF_13
1002
{
1000
HIER
1070
     0
1002
}
1002
{
1000
MANEDIT
1070
     0
1002
}
1002
{
1000
NOSEL
1070
     0
1002
}
1002
{
1000
BEHIND
1070
     0
1002
}
1002
{
1000
OTHER
1070
     0
1002
}
1002
{
1000
REACTOR
1002
}
1001
GENIUS_GENOBJ-N-FIL_13
1002
{
1000
OWNER
1000
GEN
1002
}
  0
LINE
  5
A9D0
  8
AM_0
 10
276.18501193512191
 20
517.0731380943862
 30
0.0
 11
276.41192778595132
 21
530.07313848181627
 31
0.0
  0
ARC
  5
A9D1
  8
AM_0
 10
275.20231440425869
 20
516.07315343424057
 30
0.0
 40
1.0
 50
270.0
 51
0.9999999999887361
1001
GENIUS_GENODEF_13
1002
{
1000
HIER
1070
     0
1002
}
1002
{
1000
MANEDIT
1070
     0
1002
}
1002
{
1000
NOSEL
1070
     0
1002
}
1002
{
1000
BEHIND
1070
     0
1002
}
1002
{
1000
OTHER
1070
     0
1002
}
1002
{
1000
REACTOR
1002
}
1001
GENIUS_GENOBJ-N-FIL_13
1002
{
1000
OWNER
1000
GEN
1002
}
  0
LINE
  5
A9D2
  8
AM_0
 10
275.28437613452638
 20
456.07315155669397
 30
0.0
 11
266.1850147658796
 21
456.07315155669397
 31
0.0
  0
LINE
  5
A9D3
  8
AM_0
 10
262.0005262094673
 20
437.72585649628252
 30
0.0
 11
264.1850147658796
 21
450.11469634315893
 31
0.0
1001
GENIUS_GENODEF_13
1002
{
1000
HIER
1070
     0
1002
}
1002
{
1000
MANEDIT
1070
     0
1002
}
1002
{
1000
NOSEL
1070
     0
1002
}
1002
{
1000
BEHIND
1070
     0
1002
}
1002
{
1000
REACTOR
1002
}
1001
GENIUS_GENOBJ-N-CEN_13
1002
{
1000
OWNER
1000
GEN
1002
}
  0
LINE
  5
A9D4
  8
AM_0
 10
251.67890868725499
 20
460.1332031340495
 30
0.0
 11
261.3164891038827
 21
460.1332031340495
 31
0.0
  0
ARC
  5
A9D5
  8
AM_0
 10
266.1850147658796
 20
454.0731515566942
 30
0.0
 40
2.0
 50
90.0
 51
180.0
1001
GENIUS_GENODEF_13
1002
{
1000
HIER
1070
     0
1002
}
1002
{
1000
MANEDIT
1070
     0
1002
}
1002
{
1000
NOSEL
1070
     0
1002
}
1002
{
1000
BEHIND
1070
     0
1002
}
1002
{
1000
OTHER
1070
     0
1002
}
1002
{
1000
REACTOR
1002
}
1001
GENIUS_GENOBJ-N-FIL_13
1002
{
1000
OWNER
1000
GEN
1002
}
  0
LINE
  5
A9D6
  8
AM_0
 10
264.1850147658796
 20
454.0731515566942
 30
0.0
 11
264.1850147658796
 21
450.11469634315893
 31
0.0
  0
ARC
  5
A9D7
  8
AM_0
 10
260.03091075324357
 20
438.07315313404951
 30
0.0
 40
2.0
 50
270.0
 51
349.99999178406978
1001
GENIUS_GENOBJ-N-CEN_13
1002
{
1000
OWNER
1000
GEN
1002
}
1001
GENIUS_GENOBJ-N-FIL_13
1002
{
1000
OWNER
1000
GEN
1002
}
1001
GENIUS_GENODEF_13
1002
{
1000
HIER
1070
     0
1002
}
1002
{
1000
MANEDIT
1070
     0
1002
}
1002
{
1000
NOSEL
1070
     0
1002
}
1002
{
1000
BEHIND
1070
     0
1002
}
1002
{
1000
OTHER
1070
     0
1002
}
1002
{
1000
REACTOR
1002
}
  0
LINE
  5
A9D8
  8
AM_0
 10
251.67890868725499
 20
446.07315313404951
 30
0.0
 11
261.3164871722982
 21
446.07315313404951
 31
0.0
  0
LINE
  5
A9D9
  8
AM_0
 10
251.67890868725499
 20
436.07315313404951
 30
0.0
 11
260.03091075324357
 21
436.07315313404951
 31
0.0
  0
ARC
  5
A9DA
  8
AM_0
 10
275.28437613452638
 20
454.0731515566942
 30
0.0
 40
2.0
 50
0.9999999999985051
 51
90.0
1001
GENIUS_GENODEF_13
1002
{
1000
HIER
1070
     0
1002
}
1002
{
1000
MANEDIT
1070
     0
1002
}
1002
{
1000
NOSEL
1070
     0
1002
}
1002
{
1000
BEHIND
1070
     0
1002
}
1002
{
1000
OTHER
1070
     0
1002
}
1002
{
1000
REACTOR
1002
}
1001
GENIUS_GENOBJ-N-FIL_13
1002
{
1000
OWNER
1000
GEN
1002
}
  0
LINE
  5
A9DC
  8
ｶｸﾚｾﾝ2
 10
397.68501595797261
 20
530.07315382167064
 30
0.0
 11
397.68501595797261
 21
454.07315155669443
 31
0.0
  0
LINE
  5
A9DD
  8
ｶｸﾚｾﾝ2
 10
406.6850159579725
 20
530.07315382167064
 30
0.0
 11
406.6850159579725
 21
454.07315155669443
 31
0.0
  0
LINE
  5
A9DE
  8
ﾁｭｳｼﾝｾﾝ
 10
402.18501595797261
 20
533.07315382167053
 30
0.0
 11
402.18501595797261
 21
451.07315155669397
 31
0.0
  0
LINE
  5
A9DF
  8
ﾁｭｳｼﾝｾﾝ
 10
362.1850147658796
 20
547.0731385557018
 30
0.0
 11
362.1850147658796
 21
437.0731358734929
 31
0.0
  0
LINE
  5
A9ED
  8
AM_0
 10
128.36893868725491
 20
535.26818995765871
 30
0.0
 11
134.59891868725489
 21
535.26818995765871
 31
0.0
  0
LINE
  5
A9EE
  8
AM_0
 10
127.678938687255
 20
545.07817895765879
 30
0.0
 11
135.678938687255
 21
545.07817895765879
 31
0.0
  0
LINE
  5
A9EF
  8
AM_0
 10
127.678938687255
 20
545.07318995765877
 30
0.0
 11
135.678938687255
 21
545.07318995765877
 31
0.0
  0
LINE
  5
A9F0
  8
AM_0
 10
128.36893868725491
 20
448.88819595765881
 30
0.0
 11
134.59891868725489
 21
448.88819595765881
 31
0.0
  0
LINE
  5
A9F1
  8
AM_0
 10
127.678938687255
 20
439.0781759576588
 30
0.0
 11
135.678938687255
 21
439.0781759576588
 31
0.0
  0
LINE
  5
A9F2
  8
AM_0
 10
127.678938687255
 20
439.07318595765878
 30
0.0
 11
135.678938687255
 21
439.07318595765878
 31
0.0
  0
LINE
  5
A9F3
  8
AM_0
 10
141.00382590356699
 20
455.35320939532272
 30
0.0
 11
135.678938687255
 21
443.97818595765881
 31
0.0
  0
LINE
  5
A9F4
  8
AM_0
 10
241.8789486872549
 20
452.73816595765891
 30
0.0
 11
237.7289586872549
 21
437.27817595765879
 31
0.0
  0
LINE
  5
A9F5
  8
AM_0
 10
243.678938687255
 20
436.07318595765878
 30
0.0
 11
243.678938687255
 21
548.07318995765877
 31
0.0
  0
LINE
  5
A9F6
  8
AM_0
 10
135.678938687255
 20
439.0781759576588
 30
0.0
 11
135.678938687255
 21
541.51817395765875
 31
0.0
  0
LINE
  5
A9F7
  8
AM_0
 10
138.8789486872549
 20
435.78818595765881
 30
0.0
 11
235.79890868725491
 21
435.78818595765881
 31
0.0
  0
LINE
  5
A9F8
  8
AM_0
 10
138.9689186872549
 20
430.18817595765893
 30
0.0
 11
172.67893868725491
 21
430.18817595765893
 31
0.0
  0
LINE
  5
A9F9
  8
AM_0
 10
138.9489586872549
 20
431.09818595765881
 30
0.0
 11
172.67893868725491
 21
431.09818595765881
 31
0.0
  0
LINE
  5
A9FA
  8
AM_0
 10
138.928938687255
 20
432.94818595765878
 30
0.0
 11
172.67893868725491
 21
432.94818595765878
 31
0.0
  0
ARC
  5
A9FB
  8
AM_0
 10
138.92734868725489
 20
434.94132595765871
 30
0.0
 40
1.9931281000000001
 50
189.0388199999997
 51
270.04662699999949
  0
LINE
  5
A9FC
  8
AM_0
 10
135.678938687255
 20
441.28820595765859
 30
0.0
 11
136.98893868725489
 21
431.90819595765879
 31
0.0
  0
LINE
  5
A9FD
  8
AM_0
 10
135.6789986872549
 20
441.2881659576588
 30
0.0
 11
136.96897868725489
 21
432.79817595765883
 31
0.0
  0
ARC
  5
A9FE
  8
AM_0
 10
138.94163868725499
 20
433.09275595765882
 30
0.0
 40
1.994588
 50
188.49291000000221
 51
270.20924700000091
  0
ARC
  5
A9FF
  8
AM_0
 10
138.963608687255
 20
432.18166595765882
 30
0.0
 40
1.9934921000000001
 50
187.88526000000061
 51
270.15390899999858
  0
ARC
  5
AA00
  8
AM_0
 10
138.88181868725491
 20
437.78508595765891
 30
0.0
 40
1.9969039999999989
 50
190.58743999999859
 51
269.91652600000037
  0
LINE
  5
AA01
  8
AM_0
 10
135.678938687255
 20
442.6381759576588
 30
0.0
 11
136.9589086872549
 21
434.62818595765879
 31
0.0
  0
LINE
  5
AA02
  8
AM_0
 10
135.678938687255
 20
443.97817595765878
 30
0.0
 11
136.918928687255
 21
437.41817595765878
 31
0.0
  0
ARC
  5
AA03
  8
AM_0
 10
172.67850868725489
 20
434.9486059576588
 30
0.0
 40
2.000407899999999
 50
270.01164999999889
 51
359.98835099999928
  0
LINE
  5
AA04
  8
AM_0
 10
174.67893868725491
 20
432.18819595765882
 30
0.0
 11
174.67893868725491
 21
435.78818595765881
 31
0.0
  0
ARC
  5
AA05
  8
AM_0
 10
172.67734868725489
 20
433.09973595765882
 30
0.0
 40
2.0015439999999991
 50
270.04421600000092
 51
359.95578600099913
  0
ARC
  5
AA06
  8
AM_0
 10
172.6776586872549
 20
432.18947595765877
 30
0.0
 40
2.001287899999999
 50
270.03687399999882
 51
359.96312800100111
  0
LINE
  5
AA07
  8
AM_0
 10
243.678938687255
 20
436.07318595765878
 30
0.0
 11
251.67890868725499
 21
436.07318595765878
 31
0.0
  0
ARC
  5
AA08
  8
AM_0
 10
235.79612868725499
 20
437.78678595765882
 30
0.0
 40
1.9986041000000001
 50
270.08048399999888
 51
345.25728400000048
  0
LINE
  5
AA09
  8
AM_0
 10
238.21891868725501
 20
439.0781759576588
 30
0.0
 11
243.678938687255
 21
439.0781759576588
 31
0.0
  0
LINE
  5
AA0A
  8
AM_0
 10
237.0189297999957
 20
456.0731556922355
 30
0.0
 11
138.0388897999988
 21
456.0731801272716
 31
0.0
  0
LINE
  5
AA0B
  8
AM_0
 10
237.01893029373241
 20
458.0731556922355
 30
0.0
 11
138.03889029373551
 21
458.07318012727143
 31
0.0
  0
LINE
  5
AA0C
  8
AM_0
 10
237.01173276241559
 20
468.0731556940126
 30
0.0
 11
138.0388927624187
 21
468.07318012727109
 31
0.0
  0
LINE
  5
AA0D
  8
AM_0
 10
137.35888962226099
 20
455.35321029514199
 30
0.0
 11
240.4989096222578
 21
455.35318483313858
 31
0.0
  0
LINE
  5
AA0E
  8
AM_0
 10
137.1389228710259
 20
468.51312034944527
 30
0.0
 11
240.7131428710228
 21
468.51309478025178
 31
0.0
  0
LINE
  5
AA0F
  8
AM_0
 10
137.138922147719
 20
465.58319034944532
 30
0.0
 11
240.7245621477158
 21
465.58316477743261
 31
0.0
  0
LINE
  5
AA10
  8
AM_0
 10
237.026072268679
 20
466.07315569047267
 30
0.0
 11
138.03889226868199
 21
466.07318012727143
 31
0.0
  0
LINE
  5
AA11
  8
AM_0
 10
137.35889044926489
 20
458.70319029514189
 30
0.0
 11
240.49891044926181
 21
458.70316483313889
 31
0.0
  0
LINE
  5
AA12
  8
AM_0
 10
137.00892465343981
 20
475.73322038153782
 30
0.0
 11
241.0075026098371
 21
475.73319470758378
 31
0.0
  0
LINE
  5
AA13
  8
AM_0
 10
137.00892531008731
 20
478.39313038153779
 30
0.0
 11
240.85597776807759
 21
478.39310474499069
 31
0.0
  0
LINE
  5
AA14
  8
AM_0
 10
136.9489271393889
 20
485.80316039634971
 30
0.0
 11
241.06502639289269
 21
485.80313469338341
 31
0.0
  0
LINE
  5
AA15
  8
AM_0
 10
136.94892776397319
 20
488.33319039634972
 30
0.0
 11
240.90173973997949
 21
488.33316473369371
 31
0.0
  0
LINE
  5
AA16
  8
AM_0
 10
237.02227399319321
 20
488.07315569141099
 30
0.0
 11
138.038897699785
 21
488.07318012727058
 31
0.0
  0
LINE
  5
AA17
  8
AM_0
 10
237.02227349945659
 20
486.07315569141088
 30
0.0
 11
138.0388972060484
 21
486.07318012727058
 31
0.0
  0
LINE
  5
AA18
  8
AM_0
 10
237.02227152450649
 20
478.07315569141139
 30
0.0
 11
138.0388952311018
 21
478.0731801272708
 31
0.0
  0
LINE
  5
AA19
  8
AM_0
 10
237.0222710307946
 20
476.0731556914115
 30
0.0
 11
138.03889473736521
 21
476.07318012727097
 31
0.0
  0
LINE
  5
AA1A
  8
AM_0
 10
237.02227498068751
 20
508.07315404809879
 30
0.0
 11
138.03889868725511
 21
508.07315404809879
 31
0.0
  0
LINE
  5
AA1B
  8
AM_0
 10
237.0222749806627
 20
506.0731540480989
 30
0.0
 11
138.03889868725511
 21
506.0731540480989
 31
0.0
  0
LINE
  5
AA1C
  8
AM_0
 10
237.02227498066631
 20
498.0731540480989
 30
0.0
 11
138.03889868725511
 21
498.0731540480989
 31
0.0
  0
LINE
  5
AA1D
  8
AM_0
 10
237.02227498066631
 20
496.07315404809879
 30
0.0
 11
138.03889868725511
 21
496.07315404809879
 31
0.0
  0
LINE
  5
AA1E
  8
AM_0
 10
136.94892868725501
 20
495.81314404809899
 30
0.0
 11
240.90174066326441
 21
495.81314404809899
 31
0.0
  0
LINE
  5
AA1F
  8
AM_0
 10
136.94892868725501
 20
498.34317404809877
 30
0.0
 11
241.06502794076189
 21
498.34317404809877
 31
0.0
  0
LINE
  5
AA20
  8
AM_0
 10
137.00892868725501
 20
505.75320404809889
 30
0.0
 11
240.85598114524839
 21
505.75320404809889
 31
0.0
  0
LINE
  5
AA21
  8
AM_0
 10
137.00892868725501
 20
508.41311404809892
 30
0.0
 11
241.0075066436554
 21
508.41311404809892
 31
0.0
  0
LINE
  5
AA22
  8
AM_0
 10
137.35889868725499
 20
525.44314404809893
 30
0.0
 11
240.4989186872549
 21
525.4431440480987
 31
0.0
  0
LINE
  5
AA23
  8
AM_0
 10
237.02607868725511
 20
518.07315404809901
 30
0.0
 11
138.03889868725511
 21
518.07315404809901
 31
0.0
  0
LINE
  5
AA24
  8
AM_0
 10
137.138928687255
 20
518.56314404809893
 30
0.0
 11
240.72456868725499
 21
518.56314404809893
 31
0.0
  0
LINE
  5
AA25
  8
AM_0
 10
137.138928687255
 20
515.63321404809903
 30
0.0
 11
240.713148687255
 21
515.63321404809903
 31
0.0
  0
LINE
  5
AA26
  8
AM_0
 10
137.35889868725499
 20
528.79312404809912
 30
0.0
 11
240.4989186872549
 21
528.79312404809912
 31
0.0
  0
LINE
  5
AA27
  8
AM_0
 10
237.01173868725499
 20
516.0731540480989
 30
0.0
 11
138.03889868725511
 21
516.0731540480989
 31
0.0
  0
LINE
  5
AA28
  8
AM_0
 10
237.018938687255
 20
526.07315404809901
 30
0.0
 11
138.03889868725511
 21
526.07315404809901
 31
0.0
  0
LINE
  5
AA29
  8
AM_0
 10
237.018938687255
 20
528.07315404809901
 30
0.0
 11
138.03889868725511
 21
528.07315404809901
 31
0.0
  0
LINE
  5
AA2A
  8
AM_0
 10
161.178938687255
 20
453.84819595765879
 30
0.0
 11
243.678938687255
 21
453.84819595765879
 31
0.0
  0
LINE
  5
AA2B
  8
AM_0
 10
161.178938687255
 20
530.2981809576587
 30
0.0
 11
243.678938687255
 21
530.2981809576587
 31
0.0
  0
LINE
  5
AA2C
  8
AM_0
 10
138.8789486872549
 20
548.35819295765884
 30
0.0
 11
235.79890868725491
 21
548.35819295765884
 31
0.0
  0
LINE
  5
AA2D
  8
AM_0
 10
141.00848602653869
 20
528.79312404809912
 30
0.0
 11
135.67887868725501
 21
540.16816095765887
 31
0.0
  0
POLYLINE
  5
AA2E
  8
AM_0
 66
     1
 10
0.0
 20
0.0
 30
0.0
  0
VERTEX
  5
AA2F
  8
AM_0
 10
138.0388986872583
 20
492.07318012727052
 30
0.0
 42
0.00039106649
  0
VERTEX
  5
AA30
  8
AM_0
 10
138.03653861045009
 20
491.76205012785312
 30
0.0
 42
0.00035488198
  0
VERTEX
  5
AA31
  8
AM_0
 10
138.0346485336469
 20
491.4509401283197
 30
0.0
 42
0.00039706113
  0
VERTEX
  5
AA32
  8
AM_0
 10
138.0332184568436
 20
491.13983012867283
 30
0.0
 42
0.00038765718
  0
VERTEX
  5
AA33
  8
AM_0
 10
138.03228838003301
 20
490.82869012890228
 30
0.0
 42
0.00040613432
  0
VERTEX
  5
AA34
  8
AM_0
 10
138.03183830323229
 20
490.51759012901329
 30
0.0
 42
0.00035573434
  0
VERTEX
  5
AA35
  8
AM_0
 10
138.0318782264292
 20
490.20648012900358
 30
0.0
 42
0.00038545884
  0
VERTEX
  5
AA36
  8
AM_0
 10
138.03236814962091
 20
489.89535012888263
 30
0.0
 42
0.00035501205
  0
VERTEX
  5
AA37
  8
AM_0
 10
138.0333280728178
 20
489.5842401286456
 30
0.0
 42
0.00040120779
  0
VERTEX
  5
AA38
  8
AM_0
 10
138.0347479959849
 20
489.27301012829508
 30
0.0
 42
0.00038317817
  0
VERTEX
  5
AA39
  8
AM_0
 10
138.03665791917689
 20
488.96188012782358
 30
0.0
 42
0.00035656084
  0
VERTEX
  5
AA3A
  8
AM_0
 10
138.03903784234149
 20
488.65064012723599
 30
0.0
 42
0.00040143615
  0
VERTEX
  5
AA3B
  8
AM_0
 10
138.04188776554079
 20
488.3395401265326
 30
0.0
  0
SEQEND
  5
AA3C
  8
AM_0
  0
LINE
  5
AA3D
  8
AM_0
 10
161.17887868725501
 20
453.84818595765881
 30
0.0
 11
141.00144868725491
 21
455.34818595765893
 31
0.0
  0
ARC
  5
AA3E
  8
AM_0
 10
137.13892250937371
 20
467.04816034944542
 30
0.0
 40
1.465004
 50
89.999985855485264
 51
269.99998285548429
  0
ARC
  5
AA3F
  8
AM_0
 10
137.35151003574811
 20
457.0281402969639
 30
0.0
 40
1.6750160000000001
 50
89.746115855485471
 51
270.25384085548518
  0
ARC
  5
AA40
  8
AM_0
 10
138.22352004686709
 20
457.07318008169221
 30
0.0
 40
1.0000138999999999
 50
89.691645855484865
 51
270.30832585548637
  0
ARC
  5
AA41
  8
AM_0
 10
138.22352251555029
 20
467.07318008169199
 30
0.0
 40
1.0000138999999999
 50
89.691645855484865
 51
270.30832585548637
  0
POLYLINE
  5
AA42
  8
AM_0
 66
     1
 10
0.0
 20
0.0
 30
0.0
  0
VERTEX
  5
AA43
  8
AM_0
 10
139.53980214943709
 20
465.5901497567441
 30
0.0
 42
0.00068898288
  0
VERTEX
  5
AA44
  8
AM_0
 10
139.61068200754951
 20
465.01539973924622
 30
0.0
 42
0.00070644354
  0
VERTEX
  5
AA45
  8
AM_0
 10
139.6831818656768
 20
464.44070972134813
 30
0.0
 42
0.00069248071
  0
VERTEX
  5
AA46
  8
AM_0
 10
139.75727172389779
 20
463.86639970305771
 30
0.0
 42
0.00069585665
  0
VERTEX
  5
AA47
  8
AM_0
 10
139.83295158216089
 20
463.29225968437481
 30
0.0
 42
0.00068980191
  0
VERTEX
  5
AA48
  8
AM_0
 10
139.91025144045841
 20
462.7182596652919
 30
0.0
 42
0.00072080104
  0
VERTEX
  5
AA49
  8
AM_0
 10
139.98914129880791
 20
462.14446964581663
 30
0.0
 42
0.00071002307
  0
VERTEX
  5
AA4A
  8
AM_0
 10
140.06968115723629
 20
461.57099962593378
 30
0.0
 42
0.00072659056
  0
VERTEX
  5
AA4B
  8
AM_0
 10
140.1518410157561
 20
460.99789960565101
 30
0.0
 42
0.00069570481
  0
VERTEX
  5
AA4C
  8
AM_0
 10
140.2356608742931
 20
460.42486958495851
 30
0.0
 42
0.00071266935
  0
VERTEX
  5
AA4D
  8
AM_0
 10
140.32109073289439
 20
459.85209956386842
 30
0.0
 42
0.00071614426
  0
VERTEX
  5
AA4E
  8
AM_0
 10
140.40812059160169
 20
459.27975954238377
 30
0.0
 42
0.00072288975
  0
VERTEX
  5
AA4F
  8
AM_0
 10
140.4968304503189
 20
458.70745952048401
 30
0.0
  0
SEQEND
  5
AA50
  8
AM_0
  0
POLYLINE
  5
AA51
  8
AM_0
 66
     1
 10
0.0
 20
0.0
 30
0.0
  0
VERTEX
  5
AA52
  8
AM_0
 10
138.08295713930011
 20
485.8028001163936
 30
0.0
 42
0.00076691992
  0
VERTEX
  5
AA53
  8
AM_0
 10
138.09775698679209
 20
485.18503011274009
 30
0.0
 42
0.00073262792
  0
VERTEX
  5
AA54
  8
AM_0
 10
138.1143968343288
 20
484.56744010863213
 30
0.0
 42
0.00076529537
  0
VERTEX
  5
AA55
  8
AM_0
 10
138.1328866818456
 20
483.94977010406762
 30
0.0
 42
0.00075141097
  0
VERTEX
  5
AA56
  8
AM_0
 10
138.15325652937969
 20
483.33217009903888
 30
0.0
 42
0.00075841687
  0
VERTEX
  5
AA57
  8
AM_0
 10
138.17548637695589
 20
482.71474009355097
 30
0.0
 42
0.00075711788
  0
VERTEX
  5
AA58
  8
AM_0
 10
138.19959622451219
 20
482.09723008759897
 30
0.0
 42
0.00075976003
  0
VERTEX
  5
AA59
  8
AM_0
 10
138.22558607209811
 20
481.479840081183
 30
0.0
 42
0.00075797311
  0
VERTEX
  5
AA5A
  8
AM_0
 10
138.2534259197113
 20
480.86256007431012
 30
0.0
 42
0.0007482613
  0
VERTEX
  5
AA5B
  8
AM_0
 10
138.28315576729969
 20
480.2451800669707
 30
0.0
 42
0.00074893561
  0
VERTEX
  5
AA5C
  8
AM_0
 10
138.31471561494979
 20
479.62805005917949
 30
0.0
 42
0.00076039839
  0
VERTEX
  5
AA5D
  8
AM_0
 10
138.3481354626247
 20
479.01102005092929
 30
0.0
 42
0.00075618786
  0
VERTEX
  5
AA5E
  8
AM_0
 10
138.3834353102971
 20
478.39398004221488
 30
0.0
  0
SEQEND
  5
AA5F
  8
AM_0
  0
ARC
  5
AA60
  8
AM_0
 10
137.00892498176231
 20
477.06317038153799
 30
0.0
 40
1.3300049999999981
 50
89.999985855485264
 51
269.99998285548429
  0
ARC
  5
AA61
  8
AM_0
 10
138.22352498423351
 20
477.07318008169159
 30
0.0
 40
1.0000138999999999
 50
89.691645855484865
 51
270.30832585548637
  0
POLYLINE
  5
AA62
  8
AM_0
 66
     1
 10
0.0
 20
0.0
 30
0.0
  0
VERTEX
  5
AA63
  8
AM_0
 10
138.55714465328921
 20
475.73260999933137
 30
0.0
 42
0.0007337051
  0
VERTEX
  5
AA64
  8
AM_0
 10
138.60128450457071
 20
475.13018998843461
 30
0.0
 42
0.00075211323
  0
VERTEX
  5
AA65
  8
AM_0
 10
138.64722435585969
 20
474.52779997709359
 30
0.0
 42
0.0007297491
  0
VERTEX
  5
AA66
  8
AM_0
 10
138.69495420719559
 20
473.9255999653106
 30
0.0
 42
0.00073593041
  0
VERTEX
  5
AA67
  8
AM_0
 10
138.74443405858341
 20
473.32360995309563
 30
0.0
 42
0.00074742739
  0
VERTEX
  5
AA68
  8
AM_0
 10
138.79570391000081
 20
472.72173994043879
 30
0.0
 42
0.00073217363
  0
VERTEX
  5
AA69
  8
AM_0
 10
138.84876376143541
 20
472.11993992733977
 30
0.0
 42
0.00073754168
  0
VERTEX
  5
AA6A
  8
AM_0
 10
138.9035836129342
 20
471.51839991380672
 30
0.0
 42
0.00073075073
  0
VERTEX
  5
AA6B
  8
AM_0
 10
138.96016346447749
 20
470.91703989983881
 30
0.0
 42
0.00074550816
  0
VERTEX
  5
AA6C
  8
AM_0
 10
139.01850331609469
 20
470.31597988543649
 30
0.0
 42
0.00074288416
  0
VERTEX
  5
AA6D
  8
AM_0
 10
139.078653167722
 20
469.71495987058728
 30
0.0
 42
0.00072504001
  0
VERTEX
  5
AA6E
  8
AM_0
 10
139.14056301941591
 20
469.11420985530361
 30
0.0
 42
0.00074640667
  0
VERTEX
  5
AA6F
  8
AM_0
 10
139.2042328711467
 20
468.51360983958568
 30
0.0
  0
SEQEND
  5
AA70
  8
AM_0
  0
ARC
  5
AA71
  8
AM_0
 10
136.94306745168231
 20
487.06818039779643
 30
0.0
 40
1.2650129999999991
 50
89.735575855488491
 51
270.26440685548931
  0
ARC
  5
AA72
  8
AM_0
 10
138.2235274529167
 20
487.07318008169131
 30
0.0
 40
1.0000138999999999
 50
89.691645855484865
 51
270.30832585548637
  0
LINE
  5
AA73
  8
AM_0
 10
161.178938687255
 20
530.2981809576587
 30
0.0
 11
141.0060886872549
 21
528.79818095765881
 31
0.0
  0
POLYLINE
  5
AA74
  8
AM_0
 66
     1
 10
0.0
 20
0.0
 30
0.0
  0
VERTEX
  5
AA75
  8
AM_0
 10
138.55714868725499
 20
508.41372404809891
 30
0.0
 42
-0.0007337051
  0
VERTEX
  5
AA76
  8
AM_0
 10
138.60128868725499
 20
509.01614404809891
 30
0.0
 42
-0.00075211323
  0
VERTEX
  5
AA77
  8
AM_0
 10
138.64722868725499
 20
509.61853404809898
 30
0.0
 42
-0.0007297491
  0
VERTEX
  5
AA78
  8
AM_0
 10
138.694958687255
 20
510.22073404809902
 30
0.0
 42
-0.00073593041
  0
VERTEX
  5
AA79
  8
AM_0
 10
138.74443868725501
 20
510.82272404809891
 30
0.0
 42
-0.00074742739
  0
VERTEX
  5
AA7A
  8
AM_0
 10
138.795708687255
 20
511.42459404809881
 30
0.0
 42
-0.00073217363
  0
VERTEX
  5
AA7B
  8
AM_0
 10
138.84876868725499
 20
512.02639404809884
 30
0.0
 42
-0.00073754168
  0
VERTEX
  5
AA7C
  8
AM_0
 10
138.90358868725491
 20
512.62793404809895
 30
0.0
 42
-0.00073075073
  0
VERTEX
  5
AA7D
  8
AM_0
 10
138.96016868725499
 20
513.22929404809884
 30
0.0
 42
-0.00074550816
  0
VERTEX
  5
AA7E
  8
AM_0
 10
139.01850868725489
 20
513.83035404809903
 30
0.0
 42
-0.00074288416
  0
VERTEX
  5
AA7F
  8
AM_0
 10
139.07865868725489
 20
514.43137404809886
 30
0.0
 42
-0.00072504001
  0
VERTEX
  5
AA80
  8
AM_0
 10
139.14056868725501
 20
515.03212404809892
 30
0.0
 42
-0.00074640667
  0
VERTEX
  5
AA81
  8
AM_0
 10
139.2042386872549
 20
515.63272404809891
 30
0.0
  0
SEQEND
  5
AA82
  8
AM_0
  0
POLYLINE
  5
AA83
  8
AM_0
 66
     1
 10
0.0
 20
0.0
 30
0.0
  0
VERTEX
  5
AA84
  8
AM_0
 10
138.082958687255
 20
498.34353404809889
 30
0.0
 42
-0.00076691992
  0
VERTEX
  5
AA85
  8
AM_0
 10
138.0977586872549
 20
498.96130404809878
 30
0.0
 42
-0.00073262792
  0
VERTEX
  5
AA86
  8
AM_0
 10
138.114398687255
 20
499.57889404809902
 30
0.0
 42
-0.00076529537
  0
VERTEX
  5
AA87
  8
AM_0
 10
138.1328886872549
 20
500.19656404809882
 30
0.0
 42
-0.00075141097
  0
VERTEX
  5
AA88
  8
AM_0
 10
138.153258687255
 20
500.81416404809892
 30
0.0
 42
-0.00075841687
  0
VERTEX
  5
AA89
  8
AM_0
 10
138.17548868725501
 20
501.43159404809887
 30
0.0
 42
-0.00075711788
  0
VERTEX
  5
AA8A
  8
AM_0
 10
138.19959868725499
 20
502.04910404809891
 30
0.0
 42
-0.00075976003
  0
VERTEX
  5
AA8B
  8
AM_0
 10
138.22558868725491
 20
502.66649404809903
 30
0.0
 42
-0.00075797311
  0
VERTEX
  5
AA8C
  8
AM_0
 10
138.253428687255
 20
503.28377404809902
 30
0.0
 42
-0.0007482613
  0
VERTEX
  5
AA8D
  8
AM_0
 10
138.283158687255
 20
503.90115404809887
 30
0.0
 42
-0.00074893561
  0
VERTEX
  5
AA8E
  8
AM_0
 10
138.3147186872549
 20
504.51828404809891
 30
0.0
 42
-0.00076039839
  0
VERTEX
  5
AA8F
  8
AM_0
 10
138.34813868725499
 20
505.13531404809891
 30
0.0
 42
-0.00075618786
  0
VERTEX
  5
AA90
  8
AM_0
 10
138.38343868725499
 20
505.75235404809899
 30
0.0
  0
SEQEND
  5
AA91
  8
AM_0
  0
POLYLINE
  5
AA92
  8
AM_0
 66
     1
 10
0.0
 20
0.0
 30
0.0
  0
VERTEX
  5
AA93
  8
AM_0
 10
138.03889868725511
 20
492.07315404809879
 30
0.0
 42
-0.00039106649
  0
VERTEX
  5
AA94
  8
AM_0
 10
138.03653868725499
 20
492.384284048099
 30
0.0
 42
-0.00035488198
  0
VERTEX
  5
AA95
  8
AM_0
 10
138.03464868725499
 20
492.69539404809888
 30
0.0
 42
-0.00039706113
  0
VERTEX
  5
AA96
  8
AM_0
 10
138.03321868725499
 20
493.00650404809898
 30
0.0
 42
-0.00038765718
  0
VERTEX
  5
AA97
  8
AM_0
 10
138.03228868725489
 20
493.31764404809888
 30
0.0
 42
-0.00040613432
  0
VERTEX
  5
AA98
  8
AM_0
 10
138.03183868725489
 20
493.62874404809878
 30
0.0
 42
-0.00035573434
  0
VERTEX
  5
AA99
  8
AM_0
 10
138.0318786872551
 20
493.93985404809899
 30
0.0
 42
-0.00038545884
  0
VERTEX
  5
AA9A
  8
AM_0
 10
138.03236868725489
 20
494.25098404809893
 30
0.0
 42
-0.00035501205
  0
VERTEX
  5
AA9B
  8
AM_0
 10
138.03332868725499
 20
494.5620940480988
 30
0.0
 42
-0.00040120779
  0
VERTEX
  5
AA9C
  8
AM_0
 10
138.03474868725499
 20
494.87332404809882
 30
0.0
 42
-0.00038317817
  0
VERTEX
  5
AA9D
  8
AM_0
 10
138.036658687255
 20
495.18445404809898
 30
0.0
 42
-0.00035656084
  0
VERTEX
  5
AA9E
  8
AM_0
 10
138.0390386872549
 20
495.49569404809898
 30
0.0
 42
-0.00040143615
  0
VERTEX
  5
AA9F
  8
AM_0
 10
138.04188868725501
 20
495.80679404809871
 30
0.0
  0
SEQEND
  5
AAA0
  8
AM_0
  0
ARC
  5
AAA1
  8
AM_0
 10
138.223528687255
 20
497.0731540480989
 30
0.0
 40
1.0000138999999999
 50
89.691659999999231
 51
270.30834000000073
  0
ARC
  5
AAA2
  8
AM_0
 10
136.94306868725499
 20
497.0781540480989
 30
0.0
 40
1.2650129999999991
 50
89.735578999998495
 51
270.2644099999992
  0
ARC
  5
AAA3
  8
AM_0
 10
138.223528687255
 20
507.07315404809901
 30
0.0
 40
1.0000138999999999
 50
89.691659999999231
 51
270.30834000000073
  0
ARC
  5
AAA4
  8
AM_0
 10
137.00892868725501
 20
507.08316404809892
 30
0.0
 40
1.3300049999999981
 50
90.000003000000945
 51
270.0
  0
POLYLINE
  5
AAA5
  8
AM_0
 66
     1
 10
0.0
 20
0.0
 30
0.0
  0
VERTEX
  5
AAA6
  8
AM_0
 10
139.539808687255
 20
518.55618404809877
 30
0.0
 42
-0.00068898288
  0
VERTEX
  5
AAA7
  8
AM_0
 10
139.61068868725491
 20
519.13093404809877
 30
0.0
 42
-0.00070644354
  0
VERTEX
  5
AAA8
  8
AM_0
 10
139.68318868725501
 20
519.70562404809903
 30
0.0
 42
-0.00069248071
  0
VERTEX
  5
AAA9
  8
AM_0
 10
139.757278687255
 20
520.27993404809877
 30
0.0
 42
-0.00069585665
  0
VERTEX
  5
AAAA
  8
AM_0
 10
139.832958687255
 20
520.85407404809894
 30
0.0
 42
-0.00068980191
  0
VERTEX
  5
AAAB
  8
AM_0
 10
139.9102586872549
 20
521.42807404809878
 30
0.0
 42
-0.00072080104
  0
VERTEX
  5
AAAC
  8
AM_0
 10
139.98914868725501
 20
522.00186404809892
 30
0.0
 42
-0.00071002307
  0
VERTEX
  5
AAAD
  8
AM_0
 10
140.069688687255
 20
522.57533404809897
 30
0.0
 42
-0.00072659056
  0
VERTEX
  5
AAAE
  8
AM_0
 10
140.15184868725501
 20
523.14843404809903
 30
0.0
 42
-0.00069570481
  0
VERTEX
  5
AAAF
  8
AM_0
 10
140.23566868725499
 20
523.72146404809894
 30
0.0
 42
-0.00071266935
  0
VERTEX
  5
AAB0
  8
AM_0
 10
140.3210986872551
 20
524.29423404809893
 30
0.0
 42
-0.00071614426
  0
VERTEX
  5
AAB1
  8
AM_0
 10
140.40812868725499
 20
524.86657404809898
 30
0.0
 42
-0.00072288975
  0
VERTEX
  5
AAB2
  8
AM_0
 10
140.49683868725501
 20
525.43887404809891
 30
0.0
  0
SEQEND
  5
AAB3
  8
AM_0
  0
ARC
  5
AAB4
  8
AM_0
 10
137.138928687255
 20
517.09817404809894
 30
0.0
 40
1.465004
 50
90.000003000000945
 51
270.0
  0
ARC
  5
AAB5
  8
AM_0
 10
138.223528687255
 20
517.07315404809901
 30
0.0
 40
1.0000138999999999
 50
89.691659999999231
 51
270.30834000000073
  0
ARC
  5
AAB6
  8
AM_0
 10
138.223528687255
 20
527.07315404809901
 30
0.0
 40
1.0000138999999999
 50
89.691659999999231
 51
270.30834000000073
  0
ARC
  5
AAB7
  8
AM_0
 10
137.35151868725501
 20
527.11819404809899
 30
0.0
 40
1.6750160000000001
 50
89.746145000001235
 51
270.25387000000092
  0
LINE
  5
AAB9
  8
AM_0
 10
138.9689186872549
 20
553.96817895765878
 30
0.0
 11
172.67893868725491
 21
553.96817895765878
 31
0.0
  0
LINE
  5
AABA
  8
AM_0
 10
138.9489586872549
 20
553.0481879576588
 30
0.0
 11
172.67893868725491
 21
553.0481879576588
 31
0.0
  0
LINE
  5
AABB
  8
AM_0
 10
138.928938687255
 20
551.20818395765878
 30
0.0
 11
172.67893868725491
 21
551.20818395765878
 31
0.0
  0
ARC
  5
AABC
  8
AM_0
 10
138.88358868725501
 20
546.35918495765884
 30
0.0
 40
1.9990078999999989
 50
90.133450000000266
 51
169.36258999999981
  0
LINE
  5
AABD
  8
AM_0
 10
135.678938687255
 20
542.85816295765881
 30
0.0
 11
136.98893868725489
 21
552.23816795765879
 31
0.0
  0
LINE
  5
AABE
  8
AM_0
 10
135.6789986872549
 20
542.85818595765875
 30
0.0
 11
136.96897868725489
 21
551.35817795765888
 31
0.0
  0
LINE
  5
AABF
  8
AM_0
 10
135.678938687255
 20
541.51818995765871
 30
0.0
 11
136.9589086872549
 21
549.51818195765884
 31
0.0
  0
LINE
  5
AAC0
  8
AM_0
 10
135.678938687255
 20
540.16819895765877
 30
0.0
 11
136.918928687255
 21
546.72819595765884
 31
0.0
  0
ARC
  5
AAC1
  8
AM_0
 10
138.93491868725491
 20
549.20800895765876
 30
0.0
 40
2.0001840999999998
 50
90.171470000000795
 51
171.07900000000049
  0
ARC
  5
AAC2
  8
AM_0
 10
138.94248868725501
 20
551.05085095765878
 30
0.0
 40
1.9973480999999991
 50
89.815319999999133
 51
171.14853000000031
  0
ARC
  5
AAC3
  8
AM_0
 10
138.9710586872549
 20
551.96770595765884
 30
0.0
 40
2.0004758999999992
 50
90.060310000000726
 51
172.22953999999919
  0
LINE
  5
AAC4
  8
AM_0
 10
174.67893868725491
 20
551.96818595765876
 30
0.0
 11
174.67893868725491
 21
548.35819295765884
 31
0.0
  0
ARC
  5
AAC5
  8
AM_0
 10
172.67173868725499
 20
549.20100495765882
 30
0.0
 40
2.0071799999999991
 50
0.2046200000009718
 51
89.795379999999028
  0
ARC
  5
AAC6
  8
AM_0
 10
172.67564868725489
 20
551.04489995765869
 30
0.0
 40
2.003279899999999
 50
0.093790000000395
 51
89.906209999999604
  0
ARC
  5
AAC7
  8
AM_0
 10
172.67094868725491
 20
551.96017595765875
 30
0.0
 40
2.0080360999999991
 50
0.2287899999994382
 51
89.771210000000551
  0
LINE
  5
AAC8
  8
AM_0
 10
242.17893868725491
 20
530.29817295765884
 30
0.0
 11
237.72892868725501
 21
546.87817495765887
 31
0.0
  0
LINE
  5
AAC9
  8
AM_0
 10
243.678938687255
 20
446.07318595765878
 30
0.0
 11
251.67890868725499
 21
446.07318595765878
 31
0.0
  0
LINE
  5
AACA
  8
AM_0
 10
243.678938687255
 20
460.13317595765881
 30
0.0
 11
251.67890868725499
 21
460.13317595765881
 31
0.0
  0
ARC
  5
AACB
  8
AM_0
 10
237.01887251554729
 20
467.07315569225
 30
0.0
 40
1.0000255999999981
 50
269.58945485548588
 51
90.410515855486977
  0
ARC
  5
AACC
  8
AM_0
 10
237.01893004686411
 20
457.07315569223562
 30
0.0
 40
1.0
 50
269.99998285548429
 51
89.999995855486276
  0
ARC
  5
AACD
  8
AM_0
 10
240.4988898679853
 20
457.02813883314428
 30
0.0
 40
1.675026000120903
 50
270.0006727121953
 51
89.999295998819832
  0
ARC
  5
AACE
  8
AM_0
 10
243.332138687255
 20
452.35041595765881
 30
0.0
 40
1.5027759999999999
 50
90.122410000000286
 51
165.2435700000002
  0
ARC
  5
AACF
  8
AM_0
 10
240.7188825081337
 20
467.04312477883491
 30
0.0
 40
1.460011199999999
 50
269.7752358554871
 51
90.224735855487296
  0
ARC
  5
AAD0
  8
AM_0
 10
237.01889488423041
 20
477.07315569224488
 30
0.0
 40
1.000005699999998
 50
269.99998285548429
 51
89.999995855486276
  0
ARC
  5
AAD1
  8
AM_0
 10
237.01889735291371
 20
487.0731556922446
 30
0.0
 40
1.000005699999998
 50
269.99998285548429
 51
89.999995855486276
  0
ARC
  5
AAD2
  8
AM_0
 10
240.84388138052489
 20
477.05814474797683
 30
0.0
 40
1.3350147999999999
 50
269.73042985548369
 51
90.269555855485152
  0
ARC
  5
AAD3
  8
AM_0
 10
240.90583385044241
 20
487.0631447326831
 30
0.0
 40
1.2700266
 50
269.62931585548409
 51
90.370665855485683
  0
LINE
  5
AAD4
  8
AM_0
 10
243.678938687255
 20
524.01317695765886
 30
0.0
 11
251.67890868725499
 21
524.01317695765886
 31
0.0
  0
ARC
  5
AAD5
  8
AM_0
 10
237.01889858725499
 20
497.0731540480989
 30
0.0
 40
1.000005699999998
 50
269.999989999999
 51
90.000003000000945
  0
ARC
  5
AAD6
  8
AM_0
 10
237.01889858725499
 20
507.07315404809901
 30
0.0
 40
1.000005699999998
 50
269.999989999999
 51
90.000003000000945
  0
ARC
  5
AAD7
  8
AM_0
 10
240.90583508725501
 20
497.08316404809892
 30
0.0
 40
1.2700266
 50
269.62932000000001
 51
90.370670000001425
  0
ARC
  5
AAD8
  8
AM_0
 10
240.84388508725499
 20
507.08816404809892
 30
0.0
 40
1.3350147999999999
 50
269.7304299999999
 51
90.269556000001415
  0
ARC
  5
AAD9
  8
AM_0
 10
237.018938687255
 20
527.07315404809901
 30
0.0
 40
1.0
 50
269.999989999999
 51
90.000003000000945
  0
ARC
  5
AADA
  8
AM_0
 10
237.01887868725501
 20
517.07315404809901
 30
0.0
 40
1.0000255999999981
 50
269.58947000000001
 51
90.410531000001029
  0
ARC
  5
AADB
  8
AM_0
 10
240.718888687255
 20
517.1031840480988
 30
0.0
 40
1.460011199999999
 50
269.77524999999991
 51
90.224750000000114
  0
ARC
  5
AADC
  8
AM_0
 10
240.49889851948939
 20
527.11817004809825
 30
0.0
 40
1.675026000120903
 50
270.00068985666542
 51
89.999313143289925
  0
LINE
  5
AADD
  8
AM_0
 10
243.678938687255
 20
538.07318195765856
 30
0.0
 11
251.67890868725499
 21
538.07318195765856
 31
0.0
  0
LINE
  5
AADE
  8
AM_0
 10
243.678938687255
 20
548.07318995765877
 30
0.0
 11
251.67890868725499
 21
548.07318995765877
 31
0.0
  0
ARC
  5
AADF
  8
AM_0
 10
235.79606868725489
 20
546.3560499576588
 30
0.0
 40
2.0021281000000002
 50
15.11669999999812
 51
89.918480000000116
  0
LINE
  5
AAE0
  8
AM_0
 10
238.21891868725501
 20
545.07817895765879
 30
0.0
 11
243.678938687255
 21
545.07817895765879
 31
0.0
  0
LINE
  5
ACA8
  8
AM_0
 10
334.68501394631568
 20
534.07313846629484
 30
0.0
 11
389.68501558544352
 21
534.07313846629484
 31
0.0
  0
LINE
  5
ACA9
  8
AM_0
 10
334.68501394631568
 20
450.07313596289958
 30
0.0
 11
389.68501558544352
 21
450.07313596289958
 31
0.0
  0
LINE
  5
ACAA
  8
AM_0
 10
389.68501558544352
 20
450.07313596289958
 30
0.0
 11
389.68501558544352
 21
454.07313608210899
 31
0.0
  0
LINE
  5
ACAB
  8
AM_0
 10
389.68501558544352
 20
534.07313846629484
 30
0.0
 11
389.68501558544352
 21
530.07313834708555
 31
0.0
  0
LINE
  5
ACAC
  8
AM_0
 10
377.18501521291438
 20
450.07313596289958
 30
0.0
 11
377.18501521291432
 21
449.07313721459718
 31
0.0
  0
LINE
  5
ACAD
  8
AM_0
 10
347.18501431884482
 20
450.07313596289958
 30
0.0
 11
347.18501431884482
 21
449.07313721459718
 31
0.0
  0
LINE
  5
ACAE
  8
AM_0
 10
334.68501394631568
 20
450.07313596289958
 30
0.0
 11
334.68501394631568
 21
454.07313608210899
 31
0.0
  0
LINE
  5
ACAF
  8
AM_0
 10
377.18501521291438
 20
535.07313721459741
 30
0.0
 11
377.18501521291438
 21
534.07313846629484
 31
0.0
  0
LINE
  5
ACB0
  8
AM_0
 10
347.18501431884482
 20
535.07313721459741
 30
0.0
 11
347.18501431884482
 21
534.07313846629484
 31
0.0
  0
LINE
  5
ACB1
  8
AM_0
 10
334.68501394631568
 20
534.07313846629484
 30
0.0
 11
334.68501394631568
 21
530.07313834708555
 31
0.0
  0
LINE
  5
ACB2
  8
AM_0
 10
387.68501476587983
 20
443.07313721459741
 30
0.0
 11
336.68501476587949
 21
443.07313721459741
 31
0.0
  0
LINE
  5
ACB3
  8
AM_0
 10
376.1850147658796
 20
442.57313721459741
 30
0.0
 11
348.1850147658796
 21
442.57313721459741
 31
0.0
  0
LINE
  5
ACB4
  8
AM_0
 10
376.6850147658796
 20
443.07313721459741
 30
0.0
 11
376.1850147658796
 21
442.57313721459741
 31
0.0
1001
GENIUS_GENFIL_13
1070
     0
1040
0.5
1040
0.5
1040
20.0
1040
0.0
1002
{
1002
}
1001
GENIUS_GENOBJ-N-CHA_13
1002
{
1000
OWNER
1000
GEN
1002
}
1001
GENIUS_GENODEF_13
1002
{
1000
HIER
1070
     0
1002
}
1002
{
1000
MANEDIT
1070
     0
1002
}
1002
{
1000
NOSEL
1070
     0
1002
}
1002
{
1000
BEHIND
1070
     0
1002
}
1002
{
1000
OTHER
1070
     0
1002
}
1002
{
1000
REACTOR
1002
}
  0
LINE
  5
ACB5
  8
AM_0
 10
388.68501476587983
 20
444.07313721459741
 30
0.0
 11
388.6850147658796
 21
449.07313721459792
 31
0.0
  0
LINE
  5
ACB6
  8
AM_0
 10
387.68501476587983
 20
443.07313721459741
 30
0.0
 11
388.68501476587983
 21
444.07313721459741
 31
0.0
1001
GENIUS_GENFIL_13
1070
     0
1040
1.0
1040
1.0
1040
20.0
1040
0.0
1002
{
1002
}
1001
GENIUS_GENOBJ-N-CHA_13
1002
{
1000
OWNER
1000
GEN
1002
}
1001
GENIUS_GENODEF_13
1002
{
1000
HIER
1070
     0
1002
}
1002
{
1000
MANEDIT
1070
     0
1002
}
1002
{
1000
NOSEL
1070
     0
1002
}
1002
{
1000
BEHIND
1070
     0
1002
}
1002
{
1000
OTHER
1070
     0
1002
}
1002
{
1000
REACTOR
1002
}
  0
LINE
  5
ACB7
  8
AM_0
 10
388.6850147658796
 20
449.07313721459718
 30
0.0
 11
335.68501476587971
 21
449.07313721459718
 31
0.0
  0
LINE
  5
ACB8
  8
AM_0
 10
348.1850147658796
 20
442.57313721459741
 30
0.0
 11
347.6850147658796
 21
443.07313721459741
 31
0.0
1001
GENIUS_GENFIL_13
1070
     0
1040
0.5
1040
0.5
1040
20.0
1040
0.0
1002
{
1002
}
1001
GENIUS_GENODEF_13
1002
{
1000
HIER
1070
     0
1002
}
1002
{
1000
MANEDIT
1070
     0
1002
}
1002
{
1000
NOSEL
1070
     0
1002
}
1002
{
1000
BEHIND
1070
     0
1002
}
1002
{
1000
OTHER
1070
     0
1002
}
1002
{
1000
REACTOR
1002
}
1001
GENIUS_GENOBJ-N-CHA_13
1002
{
1000
OWNER
1000
GEN
1002
}
  0
LINE
  5
ACB9
  8
AM_0
 10
335.68501476587949
 20
444.07313721459741
 30
0.0
 11
335.68501476587971
 21
449.07313721459718
 31
0.0
  0
LINE
  5
ACBA
  8
AM_0
 10
336.68501476587949
 20
443.07313721459741
 30
0.0
 11
335.68501476587949
 21
444.07313721459741
 31
0.0
1001
GENIUS_GENFIL_13
1070
     0
1040
1.0
1040
1.0
1040
20.0
1040
0.0
1002
{
1002
}
1001
GENIUS_GENOBJ-N-CHA_13
1002
{
1000
OWNER
1000
GEN
1002
}
1001
GENIUS_GENODEF_13
1002
{
1000
HIER
1070
     0
1002
}
1002
{
1000
MANEDIT
1070
     0
1002
}
1002
{
1000
NOSEL
1070
     0
1002
}
1002
{
1000
BEHIND
1070
     0
1002
}
1002
{
1000
OTHER
1070
     0
1002
}
1002
{
1000
REACTOR
1002
}
  0
LINE
  5
ACBB
  8
AM_0
 10
387.68501476587983
 20
541.07313721459718
 30
0.0
 11
336.68501476587949
 21
541.07313721459718
 31
0.0
  0
LINE
  5
ACBC
  8
AM_0
 10
335.68501476587949
 20
540.0731372145973
 30
0.0
 11
336.68501476587949
 21
541.07313721459718
 31
0.0
1001
GENIUS_GENFIL_13
1070
     0
1040
1.0
1040
1.0
1040
20.0
1040
0.0
1002
{
1002
}
1001
GENIUS_GENODEF_13
1002
{
1000
HIER
1070
     0
1002
}
1002
{
1000
MANEDIT
1070
     0
1002
}
1002
{
1000
NOSEL
1070
     0
1002
}
1002
{
1000
BEHIND
1070
     0
1002
}
1002
{
1000
OTHER
1070
     0
1002
}
1002
{
1000
REACTOR
1002
}
1001
GENIUS_GENOBJ-N-CHA_13
1002
{
1000
OWNER
1000
GEN
1002
}
  0
LINE
  5
ACBD
  8
AM_0
 10
376.1850147658796
 20
541.57313721459752
 30
0.0
 11
348.1850147658796
 21
541.57313721459741
 31
0.0
  0
LINE
  5
ACBE
  8
AM_0
 10
376.6850147658796
 20
541.07313721459752
 30
0.0
 11
376.1850147658796
 21
541.57313721459752
 31
0.0
1001
GENIUS_GENFIL_13
1070
     0
1040
0.5
1040
0.5
1040
20.0
1040
0.0
1002
{
1002
}
1001
GENIUS_GENOBJ-N-CHA_13
1002
{
1000
OWNER
1000
GEN
1002
}
1001
GENIUS_GENODEF_13
1002
{
1000
HIER
1070
     0
1002
}
1002
{
1000
MANEDIT
1070
     0
1002
}
1002
{
1000
NOSEL
1070
     0
1002
}
1002
{
1000
BEHIND
1070
     0
1002
}
1002
{
1000
OTHER
1070
     0
1002
}
1002
{
1000
REACTOR
1002
}
  0
LINE
  5
ACBF
  8
AM_0
 10
347.6850147658796
 20
541.07313721459718
 30
0.0
 11
348.1850147658796
 21
541.57313721459741
 31
0.0
1001
GENIUS_GENFIL_13
1070
     0
1040
0.5
1040
0.5
1040
20.0
1040
0.0
1002
{
1002
}
1001
GENIUS_GENOBJ-N-CHA_13
1002
{
1000
OWNER
1000
GEN
1002
}
1001
GENIUS_GENODEF_13
1002
{
1000
HIER
1070
     0
1002
}
1002
{
1000
MANEDIT
1070
     0
1002
}
1002
{
1000
NOSEL
1070
     0
1002
}
1002
{
1000
BEHIND
1070
     0
1002
}
1002
{
1000
OTHER
1070
     0
1002
}
1002
{
1000
REACTOR
1002
}
  0
LINE
  5
ACC0
  8
AM_0
 10
388.68501476587983
 20
540.0731372145973
 30
0.0
 11
388.6850147658796
 21
535.07313721459684
 31
0.0
  0
LINE
  5
ACC1
  8
AM_0
 10
387.68501476587983
 20
541.07313721459718
 30
0.0
 11
388.68501476587983
 21
540.0731372145973
 31
0.0
1001
GENIUS_GENFIL_13
1070
     0
1040
1.0
1040
1.0
1040
20.0
1040
0.0
1002
{
1002
}
1001
GENIUS_GENODEF_13
1002
{
1000
HIER
1070
     0
1002
}
1002
{
1000
MANEDIT
1070
     0
1002
}
1002
{
1000
NOSEL
1070
     0
1002
}
1002
{
1000
BEHIND
1070
     0
1002
}
1002
{
1000
OTHER
1070
     0
1002
}
1002
{
1000
REACTOR
1002
}
1001
GENIUS_GENOBJ-N-CHA_13
1002
{
1000
OWNER
1000
GEN
1002
}
  0
LINE
  5
ACC2
  8
AM_0
 10
388.6850147658796
 20
535.07313721459741
 30
0.0
 11
335.68501476587971
 21
535.07313721459741
 31
0.0
  0
LINE
  5
ACC3
  8
AM_0
 10
335.68501476587949
 20
540.0731372145973
 30
0.0
 11
335.68501476587971
 21
535.07313721459741
 31
0.0
  0
LINE
  5
AD38
  8
AM_0
 10
115.2802375909088
 20
484.04154487607832
 30
0.0
 11
115.2802375909088
 21
500.10479498410928
 31
0.0
  0
LINE
  5
AD39
  8
AM_0
 10
118.7802375909088
 20
492.07316993009351
 30
0.0
 11
119.2802375909088
 21
492.57316993009351
 31
0.0
  0
LINE
  5
AD3A
  8
AM_0
 10
119.2802375909088
 20
481.93989010144639
 30
0.0
 11
120.178908687255
 21
481.93989010144639
 31
0.0
  0
LINE
  5
AD3B
  8
AM_0
 10
119.2802375909088
 20
481.43989010144622
 30
0.0
 11
120.178908687255
 21
481.43989010144622
 31
0.0
  0
LINE
  5
AD3C
  8
AM_0
 10
120.178908687255
 20
491.57316993009351
 30
0.0
 11
119.2802375909088
 21
491.57316993009351
 31
0.0
  0
LINE
  5
AD3D
  8
AM_0
 10
118.7802375909088
 20
491.07316993009351
 30
0.0
 11
120.178908687255
 21
491.07316993009329
 31
0.0
  0
LINE
  5
AD3E
  8
AM_0
 10
120.178908687255
 20
481.07316993009351
 30
0.0
 11
118.6422875260907
 21
481.07316993009351
 31
0.0
  0
LINE
  5
AD3F
  8
AM_0
 10
120.178908687255
 20
490.7264818615522
 30
0.0
 11
119.2802375909088
 21
490.7264818615522
 31
0.0
  0
LINE
  5
AD40
  8
AM_0
 10
120.178908687255
 20
482.41985799863448
 30
0.0
 11
119.2802375909088
 21
482.41985799863448
 31
0.0
  0
ARC
  5
AD41
  8
AM_0
 10
127.4052375909088
 20
486.57316993009351
 30
0.0
 40
9.124999999999984
 50
152.92493329271849
 51
207.07506670728151
  0
LINE
  5
AD42
  8
AM_0
 10
118.00210312642631
 20
481.30494865049587
 30
0.0
 11
115.64005319124421
 21
483.27332359648079
 31
0.0
  0
LINE
  5
AD43
  8
AM_0
 10
118.7802375909088
 20
481.65160251360152
 30
0.0
 11
119.2802375909088
 21
481.07316993009351
 31
0.0
  0
ARC
  5
AD44
  8
AM_0
 10
118.6422875260907
 20
482.07316993009329
 30
0.0
 40
1.0
 50
230.19442890774391
 51
270.0
  0
LINE
  5
AD45
  8
AM_0
 10
119.2802375909088
 20
481.43989010144622
 30
0.0
 11
118.7802375909088
 21
481.65160251360152
 31
0.0
  0
LINE
  5
AD46
  8
AM_0
 10
118.7802375909088
 20
482.11387778657252
 30
0.0
 11
119.2802375909088
 21
481.43989010144622
 31
0.0
  0
LINE
  5
AD47
  8
AM_0
 10
119.2802375909088
 20
481.93989010144639
 30
0.0
 11
118.7802375909088
 21
482.11387778657252
 31
0.0
  0
LINE
  5
AD48
  8
AM_0
 10
118.7802375909088
 20
482.65160251360129
 30
0.0
 11
119.2802375909088
 21
481.93989010144639
 31
0.0
  0
LINE
  5
AD49
  8
AM_0
 10
119.2802375909088
 20
482.41985799863448
 30
0.0
 11
118.7802375909088
 21
482.65160251360129
 31
0.0
  0
ARC
  5
AD4A
  8
AM_0
 10
116.2802375909088
 20
484.04154487607849
 30
0.0
 40
1.0000000000000291
 50
180.0
 51
230.1944289077336
  0
LINE
  5
AD4B
  8
AM_0
 10
119.2802375909088
 20
491.57316993009351
 30
0.0
 11
118.7802375909088
 21
492.07316993009351
 31
0.0
  0
LINE
  5
AD4C
  8
AM_0
 10
118.7802375909088
 20
491.07316993009351
 30
0.0
 11
119.2802375909088
 21
491.57316993009351
 31
0.0
  0
LINE
  5
AD4D
  8
AM_0
 10
119.2802375909088
 20
490.7264818615522
 30
0.0
 11
118.7802375909088
 21
491.07316993009351
 31
0.0
  0
LINE
  5
AD4E
  8
AM_0
 10
119.2802375909088
 20
501.72648186155209
 30
0.0
 11
120.178908687255
 21
501.72648186155209
 31
0.0
  0
LINE
  5
AD4F
  8
AM_0
 10
119.2802375909088
 20
493.4198579986342
 30
0.0
 11
120.178908687255
 21
493.41985799863443
 31
0.0
  0
LINE
  5
AD50
  8
AM_0
 10
118.6422875260907
 20
503.07316993009351
 30
0.0
 11
120.178908687255
 21
503.07316993009351
 31
0.0
  0
LINE
  5
AD51
  8
AM_0
 10
120.178908687255
 20
493.07316993009351
 30
0.0
 11
118.7802375909088
 21
493.07316993009351
 31
0.0
  0
LINE
  5
AD52
  8
AM_0
 10
119.2802375909088
 20
492.57316993009351
 30
0.0
 11
120.178908687255
 21
492.57316993009363
 31
0.0
  0
LINE
  5
AD53
  8
AM_0
 10
120.178908687255
 20
502.70644975874131
 30
0.0
 11
119.2802375909088
 21
502.70644975874131
 31
0.0
  0
LINE
  5
AD54
  8
AM_0
 10
120.178908687255
 20
502.20644975874131
 30
0.0
 11
119.2802375909088
 21
502.20644975874131
 31
0.0
  0
ARC
  5
AD55
  8
AM_0
 10
127.4052375909088
 20
497.57316993009351
 30
0.0
 40
9.124999999999984
 50
152.92493329271849
 51
207.07506670728151
  0
LINE
  5
AD56
  8
AM_0
 10
118.7802375909088
 20
493.07316993009351
 30
0.0
 11
119.2802375909088
 21
493.4198579986342
 31
0.0
  0
LINE
  5
AD57
  8
AM_0
 10
119.2802375909088
 20
492.57316993009351
 30
0.0
 11
118.7802375909088
 21
493.07316993009351
 31
0.0
  0
LINE
  5
AD58
  8
AM_0
 10
115.64005319124421
 20
500.87301626370669
 30
0.0
 11
118.00210312642631
 21
502.8413912096907
 31
0.0
  0
LINE
  5
AD59
  8
AM_0
 10
119.2802375909088
 20
503.07316993009351
 30
0.0
 11
118.7802375909088
 21
502.49473734658631
 31
0.0
  0
ARC
  5
AD5A
  8
AM_0
 10
118.6422875260907
 20
502.0731699300934
 30
0.0
 40
1.00000000000004
 50
90.0
 51
129.805571092256
  0
LINE
  5
AD5B
  8
AM_0
 10
118.7802375909088
 20
501.49473734658631
 30
0.0
 11
119.2802375909088
 21
501.72648186155209
 31
0.0
  0
LINE
  5
AD5C
  8
AM_0
 10
119.2802375909088
 20
502.20644975874131
 30
0.0
 11
118.7802375909088
 21
501.49473734658631
 31
0.0
  0
LINE
  5
AD5D
  8
AM_0
 10
118.7802375909088
 20
502.03246207361451
 30
0.0
 11
119.2802375909088
 21
502.20644975874131
 31
0.0
  0
LINE
  5
AD5E
  8
AM_0
 10
119.2802375909088
 20
502.70644975874131
 30
0.0
 11
118.7802375909088
 21
502.03246207361451
 31
0.0
  0
LINE
  5
AD5F
  8
AM_0
 10
118.7802375909088
 20
502.49473734658631
 30
0.0
 11
119.2802375909088
 21
502.70644975874131
 31
0.0
  0
ARC
  5
AD60
  8
AM_0
 10
116.2802375909088
 20
500.10479498410928
 30
0.0
 40
1.0
 50
129.8055710922664
 51
180.0
  0
CIRCLE
  5
AD68
  8
AM_0
 10
143.17890868725479
 20
446.07316783888842
 30
0.0
 40
3.0
  0
CIRCLE
  5
AD69
  8
AM_0
 10
143.17890868725479
 20
538.07317222820711
 30
0.0
 40
3.0
  0
LINE
  5
AE30
  8
AM_0
 10
415.18501628579799
 20
310.63116895930921
 30
0.0
 11
415.18501628579799
 21
230.6311665751235
 31
0.0
  0
LINE
  5
AE31
  8
AM_0
 10
415.18471167611079
 20
517.03823328151304
 30
0.0
 11
414.08565208639351
 21
454.0731515566942
 31
0.0
  0
LINE
  5
AE32
  8
AM_0
 10
415.18532067412758
 20
517.07315343424045
 30
0.0
 11
414.95840481937569
 21
530.07315404638848
 31
0.0
  0
TEXT
  5
AEDD
  8
AM_0
 10
476.54753290492312
 20
490.08448026189438
 30
0.0
 40
10.0
  1
VC01-010MHW~VC01-060MHW
1001
ACAD
1000
MTEXTBEGIN
1070
    73
1070
     1
1070
    44
1040
1.0
1070
    74
1070
     0
1000
MTEXTEND
  0
VIEWPORT
  5
89
 67
     1
  8
0
 10
210.0
 20
148.5
 30
0.0
 40
420.0
 41
297.0
 68
     1
 69
     1
1001
ACAD
1000
MVIEW
1002
{
1070
    16
1010
0.0
1020
0.0
1030
0.0
1010
0.0
1020
0.0
1030
1.0
1040
0.0
1040
297.0
1040
221.70154043645701
1040
148.5
1040
50.0
1040
0.0
1040
0.0
1070
     0
1070
   100
1070
     1
1070
     1
1070
     0
1070
     0
1070
     0
1070
     0
1040
0.0
1040
0.0
1040
0.0
1040
10.0
1040
10.0
1040
10.0
1040
10.0
1070
     0
1002
{
1002
}
1002
}
1001
GENIUS_GENOREF_13
1005
1B94
1001
GENIUS_GENSCREG_15
1000
PF
1040
1.0
1000
DF
1040
1.0
1000
MIN
1011
0.0
1021
0.0
1031
0.0
1021
0.0
1031
0.0
1000
MAX
1011
420.0
1021
0.0
1031
0.0
1021
297.0
1031
0.0
1000
FLAGS
1070
     4
  0
ENDSEC
  0
EOF
