  0
SECTION
  2
HEADER
  9
$ACADVER
  1
AC1009
  9
$INSBASE
 10
0.0
 20
0.0
 30
0.0
  9
$EXTMIN
 10
110.4773046670916
 20
154.70489649184151
 30
-0.0000000349181948
  9
$EXTMAX
 10
703.82233610251239
 20
545.61676153519284
 30
0.0000000814935747
  9
$LIMMIN
 10
0.0
 20
0.0
  9
$LIMMAX
 10
853.5
 20
555.00000000000011
  9
$ORTHOMODE
 70
     0
  9
$REGENMODE
 70
     1
  9
$FILLMODE
 70
     1
  9
$QTEXTMODE
 70
     0
  9
$MIRRTEXT
 70
     1
  9
$DRAGMODE
 70
     2
  9
$LTSCALE
 40
3.0
  9
$OSMODE
 70
   551
  9
$ATTMODE
 70
     1
  9
$TEXTSIZE
 40
2.5
  9
$TRACEWID
 40
1.0
  9
$TEXTSTYLE
  7
STANDARD
  9
$CLAYER
  8
AM_0
  9
$CELTYPE
  6
BYLAYER
  9
$CECOLOR
 62
   256
  9
$DIMSCALE
 40
3.0
  9
$DIMASZ
 40
2.5
  9
$DIMEXO
 40
1.0
  9
$DIMDLI
 40
7.0
  9
$DIMRND
 40
0.0
  9
$DIMDLE
 40
0.0
  9
$DIMEXE
 40
1.0
  9
$DIMTP
 40
0.1
  9
$DIMTM
 40
0.1000000001
  9
$DIMTXT
 40
2.5
  9
$DIMCEN
 40
0.0
  9
$DIMTSZ
 40
0.0
  9
$DIMTOL
 70
     0
  9
$DIMLIM
 70
     0
  9
$DIMTIH
 70
     0
  9
$DIMTOH
 70
     0
  9
$DIMSE1
 70
     0
  9
$DIMSE2
 70
     0
  9
$DIMTAD
 70
     3
  9
$DIMZIN
 70
     8
  9
$DIMBLK
  1

  9
$DIMASO
 70
     1
  9
$DIMSHO
 70
     1
  9
$DIMPOST
  1

  9
$DIMAPOST
  1
"
  9
$DIMALT
 70
     0
  9
$DIMALTD
 70
     2
  9
$DIMALTF
 40
0.0393701
  9
$DIMLFAC
 40
1.0
  9
$DIMTOFL
 70
     1
  9
$DIMTVP
 40
0.0
  9
$DIMTIX
 70
     0
  9
$DIMSOXD
 70
     0
  9
$DIMSAH
 70
     0
  9
$DIMBLK1
  1

  9
$DIMBLK2
  1

  9
$DIMSTYLE
  2
AM_JIS
  9
$DIMCLRD
 70
   256
  9
$DIMCLRE
 70
   256
  9
$DIMCLRT
 70
     4
  9
$DIMTFAC
 40
0.71
  9
$DIMGAP
 40
1.0
  9
$LUNITS
 70
     2
  9
$LUPREC
 70
     2
  9
$SKETCHINC
 40
1.0
  9
$FILLETRAD
 40
7.5
  9
$AUNITS
 70
     0
  9
$AUPREC
 70
     3
  9
$MENU
  1
.
  9
$ELEVATION
 40
0.0
  9
$PELEVATION
 40
0.0
  9
$THICKNESS
 40
0.0
  9
$LIMCHECK
 70
     0
  9
$BLIPMODE
 70
     0
  9
$CHAMFERA
 40
1.0
  9
$CHAMFERB
 40
1.0
  9
$SKPOLY
 70
     0
  9
$TDCREATE
 40
2453455.36471191
  9
$TDUPDATE
 40
2458543.565367349
  9
$TDINDWG
 40
0.2122036458
  9
$TDUSRTIMER
 40
0.2122036343
  9
$USRTIMER
 70
     1
  9
$ANGBASE
 50
0.0
  9
$ANGDIR
 70
     0
  9
$PDMODE
 70
     0
  9
$PDSIZE
 40
0.0
  9
$PLINEWID
 40
0.0
  9
$COORDS
 70
     1
  9
$SPLFRAME
 70
     0
  9
$SPLINETYPE
 70
     6
  9
$SPLINESEGS
 70
     8
  9
$ATTDIA
 70
     1
  9
$ATTREQ
 70
     1
  9
$HANDLING
 70
     1
  9
$HANDSEED
  5
D850
  9
$SURFTAB1
 70
     6
  9
$SURFTAB2
 70
     6
  9
$SURFTYPE
 70
     6
  9
$SURFU
 70
     6
  9
$SURFV
 70
     6
  9
$UCSNAME
  2

  9
$UCSORG
 10
0.0
 20
0.0
 30
0.0
  9
$UCSXDIR
 10
1.0
 20
0.0
 30
0.0
  9
$UCSYDIR
 10
0.0
 20
1.0
 30
0.0
  9
$PUCSNAME
  2

  9
$PUCSORG
 10
0.0
 20
0.0
 30
0.0
  9
$PUCSXDIR
 10
1.0
 20
0.0
 30
0.0
  9
$PUCSYDIR
 10
0.0
 20
1.0
 30
0.0
  9
$USERI1
 70
     0
  9
$USERI2
 70
     0
  9
$USERI3
 70
     0
  9
$USERI4
 70
     0
  9
$USERI5
 70
     0
  9
$USERR1
 40
0.0
  9
$USERR2
 40
0.0
  9
$USERR3
 40
0.0
  9
$USERR4
 40
0.0
  9
$USERR5
 40
0.0
  9
$WORLDVIEW
 70
     1
  9
$SHADEDGE
 70
     3
  9
$SHADEDIF
 70
    70
  9
$TILEMODE
 70
     1
  9
$MAXACTVP
 70
    48
  9
$PLIMCHECK
 70
     0
  9
$PEXTMIN
 10
1.0000000000000000E+020
 20
1.0000000000000000E+020
 30
1.0000000000000000E+020
  9
$PEXTMAX
 10
-1.0000000000000000E+020
 20
-1.0000000000000000E+020
 30
-1.0000000000000000E+020
  9
$PLIMMIN
 10
0.0
 20
0.0
  9
$PLIMMAX
 10
420.0
 20
297.0
  9
$UNITMODE
 70
     0
  9
$VISRETAIN
 70
     1
  9
$PLINEGEN
 70
     0
  9
$PSLTSCALE
 70
     1
  0
ENDSEC
  0
SECTION
  2
TABLES
  0
TABLE
  2
VPORT
 70
     1
  0
VPORT
  2
*ACTIVE
 70
     0
 10
0.0
 20
0.0
 11
1.0
 21
1.0
 12
407.14982038480213
 22
350.16082901351717
 13
0.0
 23
0.0
 14
7.5
 24
7.5
 15
30.0
 25
30.0
 16
0.0
 26
0.0
 36
1.0
 17
0.0
 27
0.0
 37
0.0
 40
393.59547052419822
 41
1.7571592210767459
 42
50.0
 43
0.0
 44
0.0
 50
0.0
 51
0.0
 71
    16
 72
   100
 73
     1
 74
     1
 75
     0
 76
     0
 77
     0
 78
     0
  0
ENDTAB
  0
TABLE
  2
LTYPE
 70
    22
  0
LTYPE
  2
CONTINUOUS
 70
     0
  3
Solid line
 72
    65
 73
     0
 40
0.0
  0
LTYPE
  2
HIDDEN
 70
     0
  3
Hidden __ __ __ __ __ __ __ __ __ __ __ __ __ _
 72
    65
 73
     2
 40
9.5249999999999968
 49
6.3499999999999979
 49
-3.174999999999998
  0
LTYPE
  2
PHANTOM2
 70
     0
  3
Phantom (.5x) ___ _ _ ___ _ _ ___ _ _ ___ _ _
 72
    65
 73
     6
 40
31.75
 49
15.875
 49
-3.174999999999998
 49
3.174999999999998
 49
-3.174999999999998
 49
3.174999999999998
 49
-3.174999999999998
  0
LTYPE
  2
CENTER
 70
     0
  3
Center ____ _ ____ _ ____ _ ____ _ ____ _ ____
 72
    65
 73
     4
 40
50.799999999999997
 49
31.75
 49
-6.3499999999999979
 49
6.3499999999999979
 49
-6.3499999999999979
  0
LTYPE
  2
ACANSTGBM
 70
     0
  3
__ . . __ . .
 72
    65
 73
     6
 40
9.0
 49
4.0
 49
-1.0
 49
1.0
 49
-1.0
 49
1.0
 49
-1.0
  0
LTYPE
  2
ACANSTGLM
 70
     0
  3
_ _ _ _ _
 72
    65
 73
     2
 40
3.0
 49
2.0
 49
-1.0
  0
LTYPE
  2
GEN7
 70
     0
  3
____ . ____ . ____ . ____ . ____ . ____ . ____
 72
    65
 73
     4
 40
14.25
 49
9.75
 49
-1.5
 49
1.5
 49
-1.5
  0
LTYPE
  2
GEN3B
 70
     0
  3
 - - - - -
 72
    65
 73
     2
 40
1.0
 49
0.5
 49
-0.5
  0
LTYPE
  2
GEN7A
 70
     0
  3
__ . __ . __
 72
    65
 73
     4
 40
7.375
 49
4.75
 49
-0.875
 49
0.875
 49
-0.875
  0
LTYPE
  2
AM_ISO02W050
 70
     0
  3
__ __ __ __ __ __ __ __ __ __ __ __ __ __ __
 72
    65
 73
     2
 40
7.5
 49
6.0
 49
-1.5
  0
LTYPE
  2
AM_ISO08W050
 70
     0
  3
____ . ____ . ____ . ____ . ____ . ____ . ____
 72
    65
 73
     4
 40
18.0
 49
12.0
 49
-1.5
 49
3.0
 49
-1.5
  0
LTYPE
  2
AM_ISO09W050
 70
     0
  3
_____ . . _____ . . _____ . . ____ .. ____
 72
    65
 73
     6
 40
22.5
 49
12.0
 49
-1.5
 49
3.0
 49
-1.5
 49
3.0
 49
-1.5
  0
LTYPE
  2
AMCONSTR
 70
     0
  3
_______________________
 72
    65
 73
     2
 40
9999.0
 49
9999.0
 49
0.0
  0
LTYPE
  2
AM_ISO02W050X2
 70
     0
  3
 _ _ _ _ _ _ _ _ _ _ _ _
 72
    65
 73
     2
 40
3.75
 49
3.0
 49
-0.75
  0
LTYPE
  2
AM_ISO08W050X2
 70
     0
  3
__ . __ . __ . __ . __ . __
 72
    65
 73
     4
 40
9.0
 49
6.0
 49
-0.75
 49
1.5
 49
-0.75
  0
LTYPE
  2
AMZIGZAG
 70
     0
  3
/\/-/\/-/\/-/\/-/\/-/\/
 72
    65
 73
     2
 40
11.0001
 49
0.0001
 49
-11.0
  0
LTYPE
  2
ACJISTGB
 70
     0
  3
__ . . __ . .
 72
    65
 73
     6
 40
9.0
 49
4.0
 49
-1.0
 49
1.0
 49
-1.0
 49
1.0
 49
-1.0
  0
LTYPE
  2
ACJISTGL
 70
     0
  3
_ _ _ _ _
 72
    65
 73
     2
 40
3.0
 49
2.0
 49
-1.0
  0
LTYPE
  2
ACISOWELD
 70
     0
  3
_ _ _ _ _
 72
    65
 73
     2
 40
2.0
 49
2.0
 49
-1.0
  0
LTYPE
  2
ACISOTGB
 70
     0
  3
__ . . __ . .
 72
    65
 73
     6
 40
9.0
 49
4.0
 49
-1.0
 49
1.0
 49
-1.0
 49
1.0
 49
-1.0
  0
LTYPE
  2
ACISOTGL
 70
     0
  3
_ _ _ _ _
 72
    65
 73
     2
 40
3.0
 49
2.0
 49
-1.0
  0
ENDTAB
  0
TABLE
  2
LAYER
 70
     7
  0
LAYER
  2
0
 70
     0
 62
     7
  6
CONTINUOUS
  0
LAYER
  2
DEFPOINTS
 70
     0
 62
     7
  6
CONTINUOUS
  0
LAYER
  2
ｶｸﾚｾﾝ2
 70
     0
 62
     3
  6
GEN3B
  0
LAYER
  2
ﾁｭｳｼﾝｾﾝ
 70
     0
 62
     1
  6
GEN7
  0
LAYER
  2
ﾁｭｳｼﾝｾﾝ1
 70
     0
 62
     1
  6
GEN7A
  0
LAYER
  2
AM_0
 70
     0
 62
     7
  6
CONTINUOUS
  0
LAYER
  2
AM_0N
 70
     0
 62
     7
  6
CONTINUOUS
  0
ENDTAB
  0
TABLE
  2
STYLE
 70
     8
  0
STYLE
  2
STANDARD
 70
     0
 40
0.0
 41
0.8299999999999999
 50
0.0
 71
     0
 42
2.5
  3
txt.shx
  4
bigfont.shx
  0
STYLE
  2
ACANSTS
 70
     0
 40
1.0
 41
1.0
 50
0.0
 71
     0
 42
2.5
  3
romans.shx
  4
bigfont.shx
  0
STYLE
  2
ACANSGDT
 70
     0
 40
0.0
 41
1.0
 50
0.0
 71
     0
 42
2.5
  3
amgdtans.shx
  4

  0
STYLE
  2

 70
     1
 40
0.0
 41
1.0
 50
0.0
 71
     0
 42
2.5
  3
ltypeshp.shx
  4

  0
STYLE
  2
ACJISTS
 70
     0
 40
1.0
 41
1.0
 50
0.0
 71
     0
 42
2.5
  3
isocp.shx
  4
bigfont.shx
  0
STYLE
  2
ACJISGDT
 70
     0
 40
0.0
 41
1.0
 50
0.0
 71
     0
 42
2.5
  3
amgdt.shx
  4

  0
STYLE
  2
ACISOTS
 70
     0
 40
1.0
 41
1.0
 50
0.0
 71
     0
 42
2.5
  3
isocp.shx
  4
extfont.shx
  0
STYLE
  2
ACISOGDT
 70
     0
 40
0.0
 41
1.0
 50
0.0
 71
     0
 42
2.5
  3
amgdt.shx
  4

  0
ENDTAB
  0
TABLE
  2
VIEW
 70
    12
  0
VIEW
  2
GEN1
 70
     0
 40
95.824742268041234
 10
71.5
 20
137.08762886597941
 41
143.0
 11
0.0
 21
0.0
 31
1.0
 12
0.0
 22
0.0
 32
0.0
 42
50.0
 43
0.0
 44
0.0
 50
0.0
 71
     0
  0
VIEW
  2
GEN2
 70
     0
 40
95.824742268041234
 10
214.5
 20
137.08762886597941
 41
143.0
 11
0.0
 21
0.0
 31
1.0
 12
0.0
 22
0.0
 32
0.0
 42
50.0
 43
0.0
 44
0.0
 50
0.0
 71
     0
  0
VIEW
  2
GEN3
 70
     0
 40
95.824742268041234
 10
71.5
 20
47.912371134020603
 41
143.0
 11
0.0
 21
0.0
 31
1.0
 12
0.0
 22
0.0
 32
0.0
 42
50.0
 43
0.0
 44
0.0
 50
0.0
 71
     0
  0
VIEW
  2
GEN4
 70
     0
 40
95.824742268041234
 10
214.5
 20
47.912371134020603
 41
143.0
 11
0.0
 21
0.0
 31
1.0
 12
0.0
 22
0.0
 32
0.0
 42
50.0
 43
0.0
 44
0.0
 50
0.0
 71
     0
  0
VIEW
  2
GEN5
 70
     0
 40
95.824742268041234
 10
143.0
 20
92.500000000000057
 41
143.0
 11
0.0
 21
0.0
 31
1.0
 12
0.0
 22
0.0
 32
0.0
 42
50.0
 43
0.0
 44
0.0
 50
0.0
 71
     0
  0
VIEW
  2
GEN6
 70
     0
 40
191.64756804123709
 10
143.0
 20
92.5
 41
285.99714
 11
0.0
 21
0.0
 31
1.0
 12
0.0
 22
0.0
 32
0.0
 42
50.0
 43
0.0
 44
0.0
 50
0.0
 71
     0
  0
VIEW
  2
AM_VIEW1
 70
     0
 40
277.50000000000011
 10
219.35382685069021
 20
416.25000000000011
 41
438.70765370138031
 11
0.0
 21
0.0
 31
1.0
 12
0.0
 22
0.0
 32
0.0
 42
50.0
 43
0.0
 44
0.0
 50
0.0
 71
    16
  0
VIEW
  2
AM_VIEW2
 70
     0
 40
277.50000000000011
 10
634.14617314930967
 20
416.25000000000011
 41
438.70765370138031
 11
0.0
 21
0.0
 31
1.0
 12
0.0
 22
0.0
 32
0.0
 42
50.0
 43
0.0
 44
0.0
 50
0.0
 71
    16
  0
VIEW
  2
AM_VIEW3
 70
     0
 40
277.50000000000011
 10
219.35382685069021
 20
138.75
 41
438.70765370138031
 11
0.0
 21
0.0
 31
1.0
 12
0.0
 22
0.0
 32
0.0
 42
50.0
 43
0.0
 44
0.0
 50
0.0
 71
    16
  0
VIEW
  2
AM_VIEW4
 70
     0
 40
277.50000000000011
 10
634.14617314930967
 20
138.75
 41
438.70765370138031
 11
0.0
 21
0.0
 31
1.0
 12
0.0
 22
0.0
 32
0.0
 42
50.0
 43
0.0
 44
0.0
 50
0.0
 71
    16
  0
VIEW
  2
AM_VIEW5
 70
     0
 40
277.50000000000011
 10
426.75
 20
277.50000000000011
 41
438.70765370138031
 11
0.0
 21
0.0
 31
1.0
 12
0.0
 22
0.0
 32
0.0
 42
50.0
 43
0.0
 44
0.0
 50
0.0
 71
    16
  0
VIEW
  2
AM_VIEW6
 70
     0
 40
554.99445000000014
 10
426.75
 20
277.5
 41
877.40653324968639
 11
0.0
 21
0.0
 31
1.0
 12
0.0
 22
0.0
 32
0.0
 42
50.0
 43
0.0
 44
0.0
 50
0.0
 71
    16
  0
ENDTAB
  0
TABLE
  2
UCS
 70
     0
  0
ENDTAB
  0
TABLE
  2
APPID
 70
    96
  0
APPID
  2
ACAD
 70
     0
  0
APPID
  2
MCAD_NO_VIS
 70
     0
  0
APPID
  2
ACAD_TEMP_GRAPHIC
 70
     0
  0
APPID
  2
AD_DRAW
 70
     0
  0
APPID
  2
DESIGNERASSEMBLIES
 70
     0
  0
APPID
  2
ASURF_PCURVE_APPNAME
 70
     0
  0
APPID
  2
GENIUS_GE3SECT_13
 70
     0
  0
APPID
  2
GENIUS_GENCFG_13
 70
     0
  0
APPID
  2
GENIUS_GE3CFG0_13
 70
     0
  0
APPID
  2
GENIUS_GENCFG0_13
 70
     0
  0
APPID
  2
GENIUS_GENCFG1_13
 70
     0
  0
APPID
  2
GENIUS_GENCFG2_13
 70
     0
  0
APPID
  2
GENIUS_GENCFG3_13
 70
     0
  0
APPID
  2
GENIUS_GENCFG4_13
 70
     0
  0
APPID
  2
GENIUS_GEVCFG0_13
 70
     0
  0
APPID
  2
GENIUS_GENOENT_13
 70
     0
  0
APPID
  2
GENIUS_GENREC_14
 70
     0
  0
APPID
  2
GENIUS_GENODEF_13
 70
     0
  0
APPID
  2
GENIUS_GENOBJ-N-REC_13
 70
     0
  0
APPID
  2
GENIUS_GENHINW_13
 70
     0
  0
APPID
  2
GENIUS_FIRSTVISTXT_14
 70
     0
  0
APPID
  2
GENIUS_GENOBJ-N-LEADER_13
 70
     0
  0
APPID
  2
GENIUS_GENOREF_13
 70
     0
  0
APPID
  2
GENIUS_GENOLIS_13
 70
     0
  0
APPID
  2
GEV_VCCNULL_SWITCH_OFF
 70
     0
  0
APPID
  2
GENIUS_GENDTOL_13
 70
     0
  0
APPID
  2
GENIUS_GEFCFG0_13
 70
     0
  0
APPID
  2
GENIUS_GENOBJ-N-TIT_13
 70
     0
  0
APPID
  2
GENIUS_GENTITLE_13
 70
     0
  0
APPID
  2
GENIUS_GENZVEED_13
 70
     0
  0
APPID
  2
GENIUS_GENOBJ-N-SDF_13
 70
     0
  0
APPID
  2
GENIUS_GENSCREG_13
 70
     0
  0
APPID
  2
GENIUS_DUMCFG0_13
 70
     0
  0
APPID
  2
GEVID936201362
 70
     0
  0
APPID
  2
GEVDC
 70
     0
  0
APPID
  2
GEVCON
 70
     0
  0
APPID
  2
VCC
 70
     0
  0
APPID
  2
GEVPT
 70
     0
  0
APPID
  2
GEVIT
 70
     0
  0
APPID
  2
GENBH
 70
     0
  0
APPID
  2
GEVMK
 70
     0
  0
APPID
  2
GENIUS_GENBH_13
 70
     0
  0
APPID
  2
GENIUS_GENOBJ-NBEHI-BHF_13
 70
     0
  0
APPID
  2
GENIUS_GENOBJ-NBEHI-BHB_13
 70
     0
  0
APPID
  2
GENIUS_GENOBJ-F-DESC_13
 70
     0
  0
APPID
  2
GENIUS_GEFDESC_14
 70
     0
  0
APPID
  2
GENIUS_GENOBJ-F-PART_13
 70
     0
  0
APPID
  2
GENIUS_GEFSTDP_13
 70
     0
  0
APPID
  2
GENIUS_GEFPARTINS_13
 70
     0
  0
APPID
  2
GENIUS_GENTRA_14
 70
     0
  0
APPID
  2
GENIUS_GENINF13_13
 70
     0
  0
APPID
  2
GENIUS_GENOBJ-N-INFOPT_13
 70
     0
  0
APPID
  2
GENIUS_GENOBJ-N-RSSYM_13
 70
     0
  0
APPID
  2
GENIUS_GENSYMENT_13
 70
     0
  0
APPID
  2
GENIUS_GENSCSYM_13
 70
     0
  0
APPID
  2
GENIUS_GEFINFNAM_13
 70
     0
  0
APPID
  2
GENIUS_GENSCREG_15
 70
     0
  0
APPID
  2
GENIUS_GENOBJ-N-CEN_13
 70
     0
  0
APPID
  2
GENIUS_GENOBJ-N-CRS_13
 70
     0
  0
APPID
  2
GENIUS_GENOBJ-N-CRC_13
 70
     0
  0
APPID
  2
GENIUS_GENCRC_14
 70
     0
  0
APPID
  2
GEVID942827039
 70
     0
  0
APPID
  2
GEVID942827040
 70
     0
  0
APPID
  2
GEVID942827041
 70
     0
  0
APPID
  2
GENIUS_GENOBJ-F-SCPASSM_13
 70
     0
  0
APPID
  2
GENIUS_GENDIMSH_14
 70
     0
  0
APPID
  2
GENIUS_GENFIL_13
 70
     0
  0
APPID
  2
GENIUS_GENOBJ-N-CHA_13
 70
     0
  0
APPID
  2
GENIUS_GENOBJ-N-FIL_13
 70
     0
  0
APPID
  2
GEVID942827042
 70
     0
  0
APPID
  2
GEVID946020473
 70
     0
  0
APPID
  2
GEVID946020474
 70
     0
  0
APPID
  2
GEVID946020475
 70
     0
  0
APPID
  2
GENIUS_GENOBJ-N-HTC_13
 70
     0
  0
APPID
  2
GENIUS_GENHATCH_13
 70
     0
  0
APPID
  2
GEVID948854295
 70
     0
  0
APPID
  2
GEVID939402019
 70
     0
  0
APPID
  2
GEVID952919491
 70
     0
  0
APPID
  2
GEVID952919492
 70
     0
  0
APPID
  2
GENIUS_GEFWELD_13
 70
     0
  0
APPID
  2
GENIUS_GENOBJ-F-WELS_13
 70
     0
  0
APPID
  2
GEVID952919493
 70
     0
  0
APPID
  2
GENIUS_GENOBJ-N-RSBK_13
 70
     0
  0
APPID
  2
GENIUS_GENOBJ-N-LIB_13
 70
     0
  0
APPID
  2
GENIUS_GENSCALE_13
 70
     0
  0
APPID
  2
GEVID986376691
 70
     0
  0
APPID
  2
ACATTRIBSERVICES
 70
     0
  0
APPID
  2
ACADM_DIM_EDIT
 70
     0
  0
APPID
  2
AMDT_DM_ADJ
 70
     0
  0
APPID
  2
ACAD_PSEXT
 70
     0
  0
APPID
  2
ACAD_MLEADERVER
 70
     0
  0
APPID
  2
ACAD_DSTYLE_DIMBREAK
 70
     0
  0
APPID
  2
ACAD_DSTYLE_DIMJAG
 70
     0
  0
APPID
  2
ACAD_NAV_VCDISPLAY
 70
     0
  0
APPID
  2
ACADANNOPO
 70
     0
  0
APPID
  2
ACAD_EXEMPT_FROM_CAD_STANDARDS
 70
     0
  0
ENDTAB
  0
TABLE
  2
DIMSTYLE
 70
    17
  0
DIMSTYLE
  2
STANDARD
 70
     0
  3

  4

  5

  6

  7

 40
1.0
 41
0.18
 42
0.0625
 43
0.38
 44
0.18
 45
0.0
 46
0.0
 47
0.0
 48
0.0
140
0.18
141
0.09
142
0.0
143
25.399999999999999
144
1.0
145
0.0
146
1.0
147
0.09
 71
     0
 72
     0
 73
     1
 74
     1
 75
     0
 76
     0
 77
     0
 78
     0
170
     0
171
     2
172
     0
173
     0
174
     0
175
     0
176
     0
177
     0
178
     0
  0
DIMSTYLE
  2
AM_JIS
 70
     0
  3

  4
"
  5

  6

  7

 40
1.0
 41
2.5
 42
1.0
 43
7.0
 44
1.0
 45
0.0
 46
0.0
 47
0.1
 48
0.1000000001
140
2.5
141
0.0
142
0.0
143
0.0393701
144
1.0
145
0.0
146
0.71
147
1.0
 71
     0
 72
     0
 73
     0
 74
     0
 75
     0
 76
     0
 77
     3
 78
     8
170
     0
171
     2
172
     1
173
     0
174
     0
175
     0
176
   256
177
   256
178
     4
  0
DIMSTYLE
  2
AM_JIS$3
 70
     0
  3

  4
"
  5

  6

  7

 40
1.0
 41
2.5
 42
1.0
 43
7.0
 44
1.0
 45
0.0
 46
0.0
 47
0.1
 48
0.1000000001
140
2.5
141
0.0
142
0.0
143
0.0393701
144
1.0
145
0.0
146
0.71
147
1.0
 71
     0
 72
     0
 73
     0
 74
     1
 75
     0
 76
     0
 77
     3
 78
     8
170
     0
171
     2
172
     0
173
     0
174
     0
175
     0
176
   256
177
   256
178
     4
  0
DIMSTYLE
  2
AM_JIS$4
 70
     0
  3

  4
"
  5

  6

  7

 40
1.0
 41
2.5
 42
1.0
 43
7.0
 44
1.0
 45
0.0
 46
0.0
 47
0.1
 48
0.1000000001
140
2.5
141
0.0
142
0.0
143
0.0393701
144
1.0
145
0.0
146
0.71
147
1.0
 71
     0
 72
     0
 73
     0
 74
     0
 75
     0
 76
     0
 77
     3
 78
     8
170
     0
171
     2
172
     0
173
     0
174
     0
175
     0
176
   256
177
   256
178
     4
  0
DIMSTYLE
  2
AM_JIS$6
 70
     0
  3

  4
"
  5

  6

  7

 40
1.0
 41
2.5
 42
1.0
 43
7.0
 44
1.0
 45
0.0
 46
0.0
 47
0.1
 48
0.1000000001
140
2.5
141
0.0
142
0.0
143
0.0393701
144
1.0
145
0.0
146
0.71
147
1.0
 71
     0
 72
     0
 73
     0
 74
     0
 75
     0
 76
     0
 77
     0
 78
     8
170
     0
171
     2
172
     1
173
     0
174
     0
175
     0
176
   256
177
   256
178
     4
  0
DIMSTYLE
  2
AM_JIS$7
 70
     0
  3

  4
"
  5

  6

  7

 40
1.0
 41
2.5
 42
1.0
 43
7.0
 44
1.0
 45
0.0
 46
0.0
 47
0.1
 48
0.1000000001
140
2.5
141
0.0
142
0.0
143
0.0393701
144
1.0
145
0.0
146
0.71
147
1.0
 71
     0
 72
     0
 73
     0
 74
     0
 75
     0
 76
     0
 77
     3
 78
     8
170
     0
171
     2
172
     1
173
     0
174
     0
175
     0
176
   256
177
   256
178
     4
  0
DIMSTYLE
  2
AM_JIS$SF
 70
     0
  3

  4
"
  5
OPEN30
  6
OPEN30
  7
OPEN30
 40
1.0
 41
2.5
 42
1.0
 43
10.0
 44
1.0
 45
0.0
 46
0.0
 47
0.1
 48
0.1
140
3.5
141
0.0
142
0.0
143
0.0393701
144
1.0
145
0.0
146
0.71
147
1.5
 71
     0
 72
     0
 73
     0
 74
     0
 75
     1
 76
     1
 77
     3
 78
     8
170
     0
171
     2
172
     1
173
     0
174
     0
175
     0
176
   256
177
   256
178
     4
  0
DIMSTYLE
  2
AM_JIS$SH
 70
     0
  3

  4
"
  5

  6
NONE
  7

 40
1.0
 41
2.5
 42
1.0
 43
10.0
 44
1.0
 45
0.0
 46
0.0
 47
0.1
 48
0.1
140
3.5
141
0.0
142
0.0
143
0.0393701
144
1.0
145
0.0
146
0.71
147
1.5
 71
     0
 72
     0
 73
     0
 74
     0
 75
     1
 76
     0
 77
     3
 78
     8
170
     0
171
     2
172
     1
173
     1
174
     0
175
     0
176
   256
177
   256
178
     4
  0
DIMSTYLE
  2
AM_ISO
 70
     0
  3

  4
"
  5

  6

  7

 40
1.0
 41
2.5
 42
1.0
 43
8.0
 44
0.6
 45
0.0
 46
0.0
 47
0.1
 48
0.1
140
2.5
141
0.0
142
0.0
143
0.0393701
144
1.0
145
0.0
146
0.71
147
0.8
 71
     0
 72
     0
 73
     0
 74
     0
 75
     0
 76
     0
 77
     1
 78
     8
170
     0
171
     2
172
     1
173
     0
174
     0
175
     0
176
   256
177
   256
178
     4
  0
DIMSTYLE
  2
AM_ISO$3
 70
     0
  3

  4
"
  5

  6

  7

 40
1.0
 41
2.5
 42
1.0
 43
8.0
 44
0.6
 45
0.0
 46
0.0
 47
0.1
 48
0.1
140
2.5
141
0.0
142
0.0
143
0.0393701
144
1.0
145
0.0
146
0.71
147
0.8
 71
     0
 72
     0
 73
     0
 74
     1
 75
     0
 76
     0
 77
     1
 78
     8
170
     0
171
     2
172
     0
173
     0
174
     0
175
     0
176
   256
177
   256
178
     4
  0
DIMSTYLE
  2
AM_ISO$4
 70
     0
  3

  4
"
  5

  6

  7

 40
1.0
 41
2.5
 42
1.0
 43
8.0
 44
0.6
 45
0.0
 46
0.0
 47
0.1
 48
0.1
140
2.5
141
0.0
142
0.0
143
0.0393701
144
1.0
145
0.0
146
0.71
147
0.8
 71
     0
 72
     0
 73
     0
 74
     1
 75
     0
 76
     0
 77
     1
 78
     8
170
     0
171
     2
172
     0
173
     0
174
     0
175
     0
176
   256
177
   256
178
     4
  0
DIMSTYLE
  2
AM_ISO$6
 70
     0
  3

  4
"
  5

  6

  7

 40
1.0
 41
2.5
 42
1.0
 43
8.0
 44
0.6
 45
0.0
 46
0.0
 47
0.1
 48
0.1
140
2.5
141
0.0
142
0.0
143
0.0393701
144
1.0
145
0.0
146
0.71
147
0.8
 71
     0
 72
     0
 73
     0
 74
     0
 75
     0
 76
     0
 77
     0
 78
     8
170
     0
171
     2
172
     1
173
     0
174
     0
175
     0
176
   256
177
   256
178
     4
  0
DIMSTYLE
  2
AM_ISO$7
 70
     0
  3

  4
"
  5

  6

  7

 40
1.0
 41
2.5
 42
1.0
 43
8.0
 44
0.6
 45
0.0
 46
0.0
 47
0.1
 48
0.1
140
2.5
141
0.0
142
0.0
143
0.0393701
144
1.0
145
0.0
146
0.71
147
0.8
 71
     0
 72
     0
 73
     0
 74
     0
 75
     0
 76
     0
 77
     1
 78
     8
170
     0
171
     2
172
     1
173
     0
174
     0
175
     0
176
   256
177
   256
178
     4
  0
DIMSTYLE
  2
AM_ISO$SF
 70
     0
  3

  4
"
  5

  6

  7

 40
1.0
 41
2.5
 42
1.0
 43
10.0
 44
1.0
 45
0.0
 46
0.0
 47
0.1
 48
0.1
140
3.5
141
0.0
142
0.0
143
0.0393701
144
1.0
145
0.0
146
0.71
147
1.5
 71
     0
 72
     0
 73
     0
 74
     0
 75
     1
 76
     1
 77
     1
 78
     8
170
     0
171
     2
172
     1
173
     0
174
     0
175
     0
176
   256
177
   256
178
     2
  0
DIMSTYLE
  2
AM_ISO$SH
 70
     0
  3

  4
"
  5

  6
GENAXEH
  7

 40
1.0
 41
2.5
 42
1.0
 43
10.0
 44
1.0
 45
0.0
 46
0.0
 47
0.1
 48
0.1
140
3.5
141
0.0
142
0.0
143
0.0393701
144
2.0
145
0.0
146
0.71
147
1.5
 71
     0
 72
     0
 73
     0
 74
     0
 75
     1
 76
     1
 77
     1
 78
     8
170
     0
171
     2
172
     1
173
     1
174
     0
175
     0
176
   256
177
   256
178
     2
  0
DIMSTYLE
  2
AM_ISO$0
 70
     0
  3

  4
"
  5

  6

  7

 40
1.0
 41
2.5
 42
1.0
 43
8.0
 44
0.6
 45
0.0
 46
0.0
 47
0.1
 48
0.1
140
2.5
141
0.0
142
0.0
143
0.0393701
144
1.0
145
0.0
146
0.71
147
0.8
 71
     0
 72
     0
 73
     0
 74
     0
 75
     0
 76
     0
 77
     1
 78
     8
170
     0
171
     2
172
     1
173
     0
174
     0
175
     0
176
   256
177
   256
178
     4
  0
DIMSTYLE
  2
AM_JIS$0
 70
     0
  3

  4
"
  5

  6

  7

 40
1.0
 41
2.5
 42
1.0
 43
7.0
 44
1.0
 45
0.0
 46
0.0
 47
0.1
 48
0.1000000001
140
2.5
141
0.0
142
0.0
143
0.0393701
144
1.0
145
0.0
146
0.71
147
1.0
 71
     0
 72
     0
 73
     0
 74
     0
 75
     0
 76
     0
 77
     3
 78
     8
170
     0
171
     2
172
     1
173
     0
174
     0
175
     0
176
   256
177
   256
178
     4
  0
ENDTAB
  0
ENDSEC
  0
SECTION
  2
BLOCKS
  0
BLOCK
  8
0
  2
$MODEL_SPACE
 70
     0
 10
0.0
 20
0.0
 30
0.0
  3
$MODEL_SPACE
  1

  0
ENDBLK
  5
1A
  8
0
  0
BLOCK
 67
     1
  8
0
  2
$PAPER_SPACE
 70
     0
 10
0.0
 20
0.0
 30
0.0
  3
$PAPER_SPACE
  1

  0
ENDBLK
  5
17
 67
     1
  8
0
  0
BLOCK
  8
0
  2
_OPEN30
 70
     0
 10
0.0
 20
0.0
 30
0.0
  3
_OPEN30
  1

  0
LINE
  5
21C5
  8
0
 62
     0
 10
-1.0
 20
0.26794919
 30
0.0
 11
0.0
 21
0.0
 31
0.0
  0
LINE
  5
21C6
  8
0
 62
     0
 10
0.0
 20
0.0
 30
0.0
 11
-1.0
 21
-0.26794919
 31
0.0
  0
LINE
  5
21C7
  8
0
 62
     0
 10
0.0
 20
0.0
 30
0.0
 11
-1.0
 21
0.0
 31
0.0
  0
ENDBLK
  5
21C9
  8
0
  0
BLOCK
  8
0
  2
GENAXEH
 70
     0
 10
0.0
 20
0.0
 30
0.0
  3
GENAXEH
  1

  0
LINE
  5
21D0
  8
0
 10
-1.0
 20
0.0
 30
0.0
 11
1.0
 21
0.0
 31
0.0
  0
ENDBLK
  5
21D2
  8
0
  0
BLOCK
  8
0
  2
_NONE
 70
     0
 10
0.0
 20
0.0
 30
0.0
  3
_NONE
  1

  0
ENDBLK
  5
8193
  8
0
  0
ENDSEC
  0
SECTION
  2
ENTITIES
  0
POINT
  5
1B94
  8
0
 10
0.0
 20
0.0
 30
0.0
1001
GENIUS_GENODEF_13
1002
{
1000
HIER
1070
     1
1002
}
1002
{
1000
MANEDIT
1070
     0
1002
}
1002
{
1000
NOSEL
1070
     0
1002
}
1002
{
1000
BEHIND
1070
     0
1002
}
1002
{
1000
REACTOR
1002
}
1001
GENIUS_GENOBJ-N-SDF_13
1002
{
1000
OWNER
1000
GEN
1002
}
1001
GENIUS_GENOENT_13
1002
{
1000
MYREF
1005
1B94
1002
}
1002
{
1000
GRP
1005
0
1002
}
1001
GENIUS_GENOLIS_13
1002
{
1000
ENT
1005
89
1002
}
  0
LINE
  5
C7E5
  8
AM_0
 10
222.05221189873581
 20
211.24814486778129
 30
0.0
 11
222.3067611727586
 21
220.9681148677812
 31
0.0
  0
LINE
  5
C7E6
  8
AM_0
 10
161.99977990349521
 20
211.24814486778129
 30
0.0
 11
161.74529786235641
 21
220.9681148677812
 31
0.0
  0
LINE
  5
C7E7
  8
AM_0
 10
158.5260220496952
 20
209.24814486778129
 30
0.0
 11
225.5260220496952
 21
209.24814486778129
 31
0.0
  0
LINE
  5
C7E8
  8
AM_0
 10
158.5260220496952
 20
208.24814486778129
 30
0.0
 11
158.5260220496952
 21
209.24814486778129
 31
0.0
  0
LINE
  5
C7E9
  8
AM_0
 10
225.5260220496952
 20
208.24814486778129
 30
0.0
 11
225.5260220496952
 21
209.24814486778129
 31
0.0
  0
LINE
  5
C7EA
  8
AM_0
 10
144.0260220496952
 20
170.24814486778129
 30
0.0
 11
145.28560718595759
 21
206.31794386118619
 31
0.0
  0
LINE
  5
C7EB
  8
AM_0
 10
147.28438883999581
 20
208.24814486778129
 30
0.0
 11
236.76765525939479
 21
208.24814486778129
 31
0.0
  0
ARC
  5
C7EC
  8
AM_0
 10
147.2843888399959
 20
206.24814486778129
 30
0.0
 40
2.0
 50
90.0
 51
178.00000000000259
1001
GENIUS_GENODEF_13
1002
{
1000
HIER
1070
     0
1002
}
1002
{
1000
MANEDIT
1070
     0
1002
}
1002
{
1000
NOSEL
1070
     0
1002
}
1002
{
1000
BEHIND
1070
     0
1002
}
1002
{
1000
OTHER
1070
     0
1002
}
1002
{
1000
REACTOR
1002
}
1001
GENIUS_GENOBJ-N-FIL_13
1002
{
1000
OWNER
1000
GEN
1002
}
  0
LINE
  5
C7ED
  8
AM_0
 10
238.7664369134331
 20
206.31794386118619
 30
0.0
 11
240.0260220496954
 21
170.24814486778129
 31
0.0
  0
ARC
  5
C7EE
  8
AM_0
 10
236.76765525939479
 20
206.24814486778129
 30
0.0
 40
2.0
 50
1.9999999999972149
 51
90.0
1001
GENIUS_GENOBJ-N-FIL_13
1002
{
1000
OWNER
1000
GEN
1002
}
1001
GENIUS_GENODEF_13
1002
{
1000
HIER
1070
     0
1002
}
1002
{
1000
MANEDIT
1070
     0
1002
}
1002
{
1000
NOSEL
1070
     0
1002
}
1002
{
1000
BEHIND
1070
     0
1002
}
1002
{
1000
OTHER
1070
     0
1002
}
1002
{
1000
REACTOR
1002
}
  0
LINE
  5
C7EF
  8
AM_0
 10
240.0260220496954
 20
170.24814486778129
 30
0.0
 11
144.026022049695
 21
170.24814486778129
 31
0.0
  0
LINE
  5
C7F0
  8
AM_0
 10
144.13078435817039
 20
173.24814486778109
 30
0.0
 11
143.0260220496952
 21
173.24814486778109
 31
0.0
  0
LINE
  5
C7F1
  8
AM_0
 10
145.24824898190641
 20
205.24814486778109
 30
0.0
 11
143.02602204969509
 21
205.24814486778109
 31
0.0
  0
LINE
  5
C7F2
  8
ﾁｭｳｼﾝｾﾝ1
 10
149.02602204969591
 20
159.98343736778131
 30
0.0
 11
149.02602204969591
 21
172.98343736778131
 31
0.0
  0
LINE
  5
C7F3
  8
ﾁｭｳｼﾝｾﾝ
 10
192.0260220496952
 20
215.54017554101031
 30
0.0
 11
192.0260220496952
 21
157.7976222269719
 31
0.0
  0
LINE
  5
C7F4
  8
AM_0
 10
140.5260220496952
 20
175.74814486778109
 30
0.0
 11
143.02602204969509
 21
175.74814486778081
 31
0.0
  0
LINE
  5
C7F5
  8
AM_0
 10
143.02602204969509
 20
202.74814486778081
 30
0.0
 11
140.5260220496952
 21
202.74814486778109
 31
0.0
  0
LINE
  5
C7F6
  8
AM_0
 10
129.62735095334921
 20
199.74814486778109
 30
0.0
 11
129.62735095334921
 21
178.74814486778109
 31
0.0
  0
LINE
  5
C7F7
  8
AM_0
 10
114.62735095334919
 20
181.2165198137659
 30
0.0
 11
114.62735095334919
 21
197.27976992179691
 31
0.0
  0
LINE
  5
C7F8
  8
AM_0
 10
127.62735095334919
 20
201.24814486778109
 30
0.0
 11
127.62735095334919
 21
177.24814486778109
 31
0.0
  0
LINE
  5
C7F9
  8
AM_0
 10
118.12735095334919
 20
189.24814486778109
 30
0.0
 11
118.62735095334919
 21
189.74814486778109
 31
0.0
  0
LINE
  5
C7FA
  8
AM_0
 10
125.12735095334919
 20
177.54814486778099
 30
0.0
 11
125.12735095334919
 21
200.94814486778091
 31
0.0
  0
LINE
  5
C7FB
  8
AM_0
 10
135.0260220496952
 20
177.74814486778109
 30
0.0
 11
135.0260220496952
 21
200.74814486778109
 31
0.0
  0
LINE
  5
C7FC
  8
AM_0
 10
129.12735095334921
 20
189.9481448677829
 30
0.0
 11
129.12735095334921
 21
188.54814486777991
 31
0.0
  0
LINE
  5
C7FD
  8
AM_0
 10
131.22698667992009
 20
198.348144867781
 30
0.0
 11
130.4769866799212
 21
180.1481448677809
 31
0.0
  0
LINE
  5
C7FE
  8
AM_0
 10
130.2760220496952
 20
198.348144867781
 30
0.0
 11
129.62735095334921
 21
182.60705959646489
 31
0.0
  0
LINE
  5
C7FF
  8
AM_0
 10
131.02471464026721
 20
199.06380358014511
 30
0.0
 11
130.2774545968592
 21
179.43577310661399
 31
0.0
  0
LINE
  5
C800
  8
AM_0
 10
130.4755541327572
 20
199.06051662894899
 30
0.0
 11
129.7269866799212
 21
179.3981448677809
 31
0.0
  0
LINE
  5
C801
  8
AM_0
 10
127.62735095334919
 20
177.24814486778109
 30
0.0
 11
125.4273509533492
 21
177.24814486778109
 31
0.0
  0
ARC
  5
C802
  8
AM_0
 10
139.5260220496952
 20
176.74814486778109
 30
0.0
 40
0.5
 50
0.0
 51
90.000000000013031
  0
ARC
  5
C803
  8
AM_0
 10
140.5260220496952
 20
176.24814486778109
 30
0.0
 40
0.5
 50
180.0
 51
270.0
  0
LINE
  5
C804
  8
AM_0
 10
140.0260220496952
 20
176.74814486778109
 30
0.0
 11
140.0260220496952
 21
176.24814486778109
 31
0.0
  0
LINE
  5
C805
  8
AM_0
 10
131.0260220496952
 20
180.1481448677809
 30
0.0
 11
134.5260220496952
 21
180.1481448677809
 31
0.0
  0
LINE
  5
C806
  8
AM_0
 10
140.0260220496952
 20
178.39207354637409
 30
0.0
 11
140.0260220496952
 21
188.10421618918889
 31
0.0
  0
LINE
  5
C807
  8
AM_0
 10
135.5260220496952
 20
177.24814486778109
 30
0.0
 11
139.52602204969509
 21
177.24814486778109
 31
0.0
  0
LINE
  5
C808
  8
AM_0
 10
139.5260220496952
 20
177.89207354637409
 30
0.0
 11
135.0260220496952
 21
177.89207354637409
 31
0.0
  0
ARC
  5
C809
  8
AM_0
 10
139.5260220496952
 20
178.39207354637409
 30
0.0
 40
0.5
 50
270.0
 51
0.0
  0
ARC
  5
C80A
  8
AM_0
 10
134.5260220496952
 20
179.64814486778121
 30
0.0
 40
0.5
 50
0.0
 51
90.0
  0
ARC
  5
C80B
  8
AM_0
 10
135.5260220496952
 20
177.74814486778109
 30
0.0
 40
0.5
 50
180.0
 51
270.0
  0
LINE
  5
C80C
  8
AM_0
 10
139.5260220496952
 20
188.60421618918889
 30
0.0
 11
135.0260220496952
 21
188.60421618918889
 31
0.0
  0
ARC
  5
C80D
  8
AM_0
 10
139.5260220496952
 20
188.10421618918909
 30
0.0
 40
0.5
 50
0.0
 51
90.0
  0
LINE
  5
C80E
  8
AM_0
 10
129.12735095334921
 20
183.10297411548891
 30
0.0
 11
129.12735095334921
 21
184.27521730192191
 31
0.0
  0
LINE
  5
C80F
  8
AM_0
 10
130.55371910834609
 20
180.1481448677809
 30
0.0
 11
131.0260220496952
 21
180.1481448677809
 31
0.0
  0
LINE
  5
C810
  8
AM_0
 10
130.45712661380691
 20
180.07402710104429
 30
0.0
 11
130.4769866799212
 21
180.1481448677809
 31
0.0
  0
ARC
  5
C811
  8
AM_0
 10
130.55371910834629
 20
180.04814486778099
 30
0.0
 40
0.1000000000000346
 50
90.0
 51
164.999804993553
  0
ARC
  5
C812
  8
AM_0
 10
128.8273509533492
 20
179.96131188727301
 30
0.0
 40
0.3000000000000043
 50
0.0
 51
90.0
  0
LINE
  5
C813
  8
AM_0
 10
127.62735095334919
 20
177.848144867781
 30
0.0
 11
128.84730665650619
 21
177.929475247992
 31
0.0
  0
LINE
  5
C814
  8
AM_0
 10
127.62735095334919
 20
179.004396903621
 30
0.0
 11
128.8273509533492
 21
179.004396903621
 31
0.0
  0
LINE
  5
C815
  8
AM_0
 10
129.12735095334921
 20
178.24814486778109
 30
0.0
 11
127.62735095334919
 21
178.24814486778109
 31
0.0
  0
ARC
  5
C816
  8
AM_0
 10
129.12735095334929
 20
178.74814486778109
 30
0.0
 40
0.5
 50
270.0
 51
0.0
  0
LINE
  5
C817
  8
AM_0
 10
129.12735095334921
 20
178.22881079534909
 30
0.0
 11
129.12735095334921
 21
178.24814486778109
 31
0.0
  0
LINE
  5
C818
  8
AM_0
 10
129.12735095334921
 20
177.94814486778111
 30
0.0
 11
129.12735095334921
 21
178.22881079534909
 31
0.0
  0
LINE
  5
C819
  8
AM_0
 10
128.84730665650619
 20
177.929475247992
 30
0.0
 11
129.12735095334921
 21
177.94814486778111
 31
0.0
  0
ARC
  5
C81A
  8
AM_0
 10
128.8273509533492
 20
178.22881079534909
 30
0.0
 40
0.3000000000000007
 50
273.81407483428148
 51
0.0
  0
LINE
  5
C81B
  8
AM_0
 10
130.19928962127
 20
179.3981448677809
 30
0.0
 11
130.27602204969611
 21
179.3981448677809
 31
0.0
  0
LINE
  5
C81C
  8
AM_0
 10
130.27602204969611
 20
179.3981448677809
 30
0.0
 11
130.29588211580921
 21
179.47226263451739
 31
0.0
  0
LINE
  5
C81D
  8
AM_0
 10
129.70712661380699
 20
179.47226263451739
 30
0.0
 11
129.7269866799212
 21
179.3981448677809
 31
0.0
  0
LINE
  5
C81E
  8
AM_0
 10
129.7269866799212
 20
179.3981448677809
 30
0.0
 11
129.8037191083462
 21
179.3981448677809
 31
0.0
  0
LINE
  5
C81F
  8
AM_0
 10
130.29588211580921
 20
179.47226263451739
 30
0.0
 11
130.45712661380691
 21
180.07402710104429
 31
0.0
  0
LINE
  5
C820
  8
AM_0
 10
129.8037191083462
 20
179.3981448677809
 30
0.0
 11
130.19928962127
 21
179.3981448677809
 31
0.0
  0
LINE
  5
C821
  8
AM_0
 10
129.6273509533502
 20
179.76998539934189
 30
0.0
 11
129.70712661380699
 21
179.47226263451739
 31
0.0
  0
ARC
  5
C822
  8
AM_0
 10
130.1992896212702
 20
179.49814486778109
 30
0.0
 40
0.0999999999999866
 50
270.0
 51
344.9998049934361
  0
ARC
  5
C823
  8
AM_0
 10
129.80371910834629
 20
179.49814486778109
 30
0.0
 40
0.1000000000000014
 50
195.00019500656381
 51
270.0
  0
LINE
  5
C824
  8
AM_0
 10
129.12735095334921
 20
179.3043969036209
 30
0.0
 11
129.12735095334921
 21
179.96131188727301
 31
0.0
  0
ARC
  5
C825
  8
AM_0
 10
128.8273509533492
 20
179.30439690362121
 30
0.0
 40
0.3000000000000007
 50
270.0
 51
0.0
  0
LINE
  5
C826
  8
AM_0
 10
127.62735095334919
 20
182.80297411548889
 30
0.0
 11
128.8273509533492
 21
182.80297411548889
 31
0.0
  0
LINE
  5
C827
  8
AM_0
 10
128.8273509533492
 20
180.261311887273
 30
0.0
 11
127.62735095334919
 21
180.261311887273
 31
0.0
  0
LINE
  5
C828
  8
AM_0
 10
130.4769866799212
 20
180.1481448677809
 30
0.0
 11
130.55371910834609
 21
180.1481448677809
 31
0.0
  0
ARC
  5
C829
  8
AM_0
 10
128.8273509533492
 20
183.1029741154891
 30
0.0
 40
0.3000000000000007
 50
270.0
 51
0.0
  0
LINE
  5
C82A
  8
AM_0
 10
128.8273509533492
 20
184.57521730192209
 30
0.0
 11
127.62735095334919
 21
184.57521730192209
 31
0.0
  0
ARC
  5
C82B
  8
AM_0
 10
128.8273509533492
 20
184.27521730192211
 30
0.0
 40
0.3000000000000043
 50
0.0
 51
90.0
  0
LINE
  5
C82C
  8
AM_0
 10
128.8273509533492
 20
188.2481448677799
 30
0.0
 11
127.62735095334919
 21
188.2481448677799
 31
0.0
  0
ARC
  5
C82D
  8
AM_0
 10
128.8273509533492
 20
188.54814486778011
 30
0.0
 40
0.3000000000000007
 50
270.0
 51
0.0
  0
LINE
  5
C82E
  8
AM_0
 10
118.62735095334919
 20
179.114865039134
 30
0.0
 11
125.12735095334919
 21
179.114865039134
 31
0.0
  0
LINE
  5
C82F
  8
AM_0
 10
118.62735095334919
 20
178.61486503913389
 30
0.0
 11
125.12735095334919
 21
178.61486503913389
 31
0.0
  0
LINE
  5
C830
  8
AM_0
 10
125.12735095334919
 20
188.74814486778109
 30
0.0
 11
118.62735095334919
 21
188.74814486778109
 31
0.0
  0
LINE
  5
C831
  8
AM_0
 10
118.12735095334919
 20
188.24814486778109
 30
0.0
 11
125.12735095334919
 21
188.24814486778109
 31
0.0
  0
LINE
  5
C832
  8
AM_0
 10
124.8273509533492
 20
178.24814486778109
 30
0.0
 11
117.98940088853119
 21
178.24814486778109
 31
0.0
  0
LINE
  5
C833
  8
AM_0
 10
125.12735095334919
 20
187.9014567992399
 30
0.0
 11
118.62735095334919
 21
187.9014567992399
 31
0.0
  0
LINE
  5
C834
  8
AM_0
 10
125.12735095334919
 20
179.59483293632201
 30
0.0
 11
118.62735095334919
 21
179.59483293632201
 31
0.0
  0
ARC
  5
C835
  8
AM_0
 10
125.4273509533493
 20
177.54814486778099
 30
0.0
 40
0.2999999999999971
 50
180.0
 51
270.0
  0
ARC
  5
C836
  8
AM_0
 10
124.8273509533492
 20
177.94814486778111
 30
0.0
 40
0.2999999999999971
 50
0.0
 51
90.0
  0
ARC
  5
C837
  8
AM_0
 10
126.75235095334941
 20
183.74814486778109
 30
0.0
 40
9.124999999999984
 50
152.9249332927206
 51
207.07506670727921
  0
LINE
  5
C838
  8
AM_0
 10
117.3492164888668
 20
178.47992358818351
 30
0.0
 11
114.9871665536847
 21
180.44829853416849
 31
0.0
  0
LINE
  5
C839
  8
AM_0
 10
118.12735095334919
 20
178.82657745128901
 30
0.0
 11
118.62735095334919
 21
178.24814486778109
 31
0.0
  0
ARC
  5
C83A
  8
AM_0
 10
117.98940088853119
 20
179.24814486778109
 30
0.0
 40
1.0
 50
230.19442890774451
 51
270.0
  0
LINE
  5
C83B
  8
AM_0
 10
118.62735095334919
 20
178.61486503913389
 30
0.0
 11
118.12735095334919
 21
178.82657745128901
 31
0.0
  0
LINE
  5
C83C
  8
AM_0
 10
118.12735095334919
 20
179.2888527242601
 30
0.0
 11
118.62735095334919
 21
178.61486503913389
 31
0.0
  0
LINE
  5
C83D
  8
AM_0
 10
118.62735095334919
 20
179.114865039134
 30
0.0
 11
118.12735095334919
 21
179.2888527242601
 31
0.0
  0
LINE
  5
C83E
  8
AM_0
 10
118.12735095334919
 20
179.82657745128901
 30
0.0
 11
118.62735095334919
 21
179.114865039134
 31
0.0
  0
LINE
  5
C83F
  8
AM_0
 10
118.62735095334919
 20
179.59483293632201
 30
0.0
 11
118.12735095334919
 21
179.82657745128901
 31
0.0
  0
ARC
  5
C840
  8
AM_0
 10
115.62735095334931
 20
181.2165198137661
 30
0.0
 40
1.0000000000000291
 50
180.0
 51
230.19442890773581
  0
LINE
  5
C841
  8
AM_0
 10
118.62735095334919
 20
188.74814486778109
 30
0.0
 11
118.12735095334919
 21
189.24814486778109
 31
0.0
  0
LINE
  5
C842
  8
AM_0
 10
118.12735095334919
 20
188.24814486778109
 30
0.0
 11
118.62735095334919
 21
188.74814486778109
 31
0.0
  0
LINE
  5
C843
  8
AM_0
 10
118.62735095334919
 20
187.9014567992399
 30
0.0
 11
118.12735095334919
 21
188.24814486778109
 31
0.0
  0
LINE
  5
C844
  8
AM_0
 10
125.4273509533492
 20
201.24814486778109
 30
0.0
 11
127.62735095334919
 21
201.24814486778109
 31
0.0
  0
ARC
  5
C845
  8
AM_0
 10
139.5260220496952
 20
201.74814486778109
 30
0.0
 40
0.5
 50
269.99999999998698
 51
0.0
  0
LINE
  5
C846
  8
AM_0
 10
134.5260220496952
 20
198.348144867781
 30
0.0
 11
131.30371910834609
 21
198.348144867781
 31
0.0
  0
LINE
  5
C847
  8
AM_0
 10
140.0260220496952
 20
190.39207354637409
 30
0.0
 11
140.0260220496952
 21
200.1042161891892
 31
0.0
  0
LINE
  5
C848
  8
AM_0
 10
135.0260220496952
 20
189.89207354637409
 30
0.0
 11
139.5260220496952
 21
189.89207354637409
 31
0.0
  0
ARC
  5
C849
  8
AM_0
 10
139.5260220496952
 20
190.39207354637409
 30
0.0
 40
0.5
 50
270.0
 51
0.0
  0
LINE
  5
C84A
  8
AM_0
 10
135.0260220496952
 20
200.6042161891892
 30
0.0
 11
139.5260220496952
 21
200.6042161891892
 31
0.0
  0
LINE
  5
C84B
  8
AM_0
 10
139.52602204969509
 20
201.24814486778109
 30
0.0
 11
135.5260220496952
 21
201.24814486778109
 31
0.0
  0
ARC
  5
C84C
  8
AM_0
 10
139.5260220496952
 20
200.1042161891892
 30
0.0
 40
0.5
 50
0.0
 51
90.0
  0
ARC
  5
C84D
  8
AM_0
 10
134.5260220496952
 20
198.848144867781
 30
0.0
 40
0.5
 50
270.0
 51
0.0
  0
ARC
  5
C84E
  8
AM_0
 10
135.5260220496952
 20
200.74814486778109
 30
0.0
 40
0.5
 50
90.0
 51
180.0
  0
ARC
  5
C84F
  8
AM_0
 10
128.8273509533492
 20
195.393315620073
 30
0.0
 40
0.3000000000000114
 50
0.0
 51
90.0
  0
LINE
  5
C850
  8
AM_0
 10
127.62735095334919
 20
190.24814486778291
 30
0.0
 11
128.8273509533492
 21
190.24814486778291
 31
0.0
  0
ARC
  5
C851
  8
AM_0
 10
128.8273509533492
 20
189.94814486778321
 30
0.0
 40
0.2999999999999971
 50
0.0
 51
90.0
  0
LINE
  5
C852
  8
AM_0
 10
127.62735095334919
 20
193.92107243363989
 30
0.0
 11
128.8273509533492
 21
193.92107243363989
 31
0.0
  0
ARC
  5
C853
  8
AM_0
 10
128.8273509533492
 20
194.2210724336401
 30
0.0
 40
0.3000000000000007
 50
270.0
 51
0.0
  0
LINE
  5
C854
  8
AM_0
 10
129.12735095334921
 20
194.2210724336401
 30
0.0
 11
129.12735095334921
 21
195.393315620073
 31
0.0
  0
LINE
  5
C855
  8
AM_0
 10
130.55371910834609
 20
199.098144867781
 30
0.0
 11
130.94928962127011
 21
199.098144867781
 31
0.0
  0
LINE
  5
C856
  8
AM_0
 10
130.55371910834609
 20
199.098144867781
 30
0.0
 11
130.94928962127011
 21
199.098144867781
 31
0.0
  0
LINE
  5
C857
  8
AM_0
 10
131.04588211580921
 20
199.02402710104451
 30
0.0
 11
131.20712661380711
 21
198.42226263451741
 31
0.0
  0
LINE
  5
C858
  8
AM_0
 10
131.04588211580921
 20
199.02402710104451
 30
0.0
 11
131.20712661380711
 21
198.42226263451741
 31
0.0
  0
ARC
  5
C859
  8
AM_0
 10
131.30371910834629
 20
198.44814486778111
 30
0.0
 40
0.0999999999999943
 50
195.00019500652121
 51
270.0
  0
ARC
  5
C85A
  8
AM_0
 10
130.94928962127031
 20
198.99814486778109
 30
0.0
 40
0.0999999999999943
 50
15.000195006505431
 51
90.0
  0
LINE
  5
C85B
  8
AM_0
 10
129.6265043648082
 20
198.72314486778109
 30
0.0
 11
129.70712661380699
 21
198.42226263451741
 31
0.0
  0
LINE
  5
C85C
  8
AM_0
 10
130.27873270190111
 20
198.38740940087899
 30
0.0
 11
130.45712661380711
 21
199.02402710104451
 31
0.0
  0
LINE
  5
C85D
  8
AM_0
 10
130.29588211580921
 20
198.42226263451741
 30
0.0
 11
130.45712661380711
 21
199.02402710104451
 31
0.0
  0
LINE
  5
C85E
  8
AM_0
 10
129.12735095334921
 20
198.53497784829
 30
0.0
 11
129.12735095334921
 21
199.191892831941
 31
0.0
  0
LINE
  5
C85F
  8
AM_0
 10
129.62735095334921
 20
198.7199853993429
 30
0.0
 11
129.70712661380699
 21
198.42226263451741
 31
0.0
  0
LINE
  5
C860
  8
AM_0
 10
127.62735095334919
 20
198.2349778482901
 30
0.0
 11
128.8273509533492
 21
198.2349778482901
 31
0.0
  0
LINE
  5
C861
  8
AM_0
 10
128.8273509533492
 20
195.69331562007301
 30
0.0
 11
127.62735095334919
 21
195.69331562007389
 31
0.0
  0
LINE
  5
C862
  8
AM_0
 10
130.23192188678519
 20
198.348144867781
 30
0.0
 11
130.27873270190111
 21
198.38740940087899
 31
0.0
  0
LINE
  5
C863
  8
AM_0
 10
129.8037191083462
 20
198.348144867781
 30
0.0
 11
130.23192188678519
 21
198.348144867781
 31
0.0
  0
LINE
  5
C864
  8
AM_0
 10
129.8037191083462
 20
198.348144867781
 30
0.0
 11
130.19928962127
 21
198.348144867781
 31
0.0
  0
ARC
  5
C865
  8
AM_0
 10
129.80371910834629
 20
198.44814486778111
 30
0.0
 40
0.0999999999999943
 50
195.00019500652121
 51
270.0
  0
ARC
  5
C866
  8
AM_0
 10
130.1992896212702
 20
198.44814486778111
 30
0.0
 40
0.0999999999999608
 50
270.0
 51
344.99980499347868
  0
ARC
  5
C867
  8
AM_0
 10
128.8273509533492
 20
198.53497784829
 30
0.0
 40
0.3000000000000007
 50
270.0
 51
0.0
  0
LINE
  5
C868
  8
AM_0
 10
127.62735095334919
 20
200.24814486778109
 30
0.0
 11
129.12735095334921
 21
200.24814486778109
 31
0.0
  0
LINE
  5
C869
  8
AM_0
 10
128.8273509533492
 20
199.4918928319409
 30
0.0
 11
127.62735095334919
 21
199.4918928319409
 31
0.0
  0
LINE
  5
C86A
  8
AM_0
 10
128.84730665650619
 20
200.56681448757101
 30
0.0
 11
127.62735095334919
 21
200.6481448677809
 31
0.0
  0
ARC
  5
C86B
  8
AM_0
 10
129.12735095334929
 20
199.74814486778109
 30
0.0
 40
0.5
 50
0.0
 51
90.0
  0
ARC
  5
C86C
  8
AM_0
 10
130.55371910834629
 20
198.99814486778109
 30
0.0
 40
0.0999999999999606
 50
90.0
 51
164.99980499349451
  0
ARC
  5
C86D
  8
AM_0
 10
128.8273509533492
 20
199.191892831941
 30
0.0
 40
0.2999999999999971
 50
0.0
 51
90.0
  0
LINE
  5
C86E
  8
AM_0
 10
129.12735095334921
 20
200.24814486778109
 30
0.0
 11
129.12735095334921
 21
200.267478940214
 31
0.0
  0
ARC
  5
C86F
  8
AM_0
 10
128.8273509533492
 20
200.267478940214
 30
0.0
 40
0.3000000000000043
 50
0.0
 51
86.185925165718459
  0
ARC
  5
C870
  8
AM_0
 10
140.5260220496952
 20
202.24814486778109
 30
0.0
 40
0.5
 50
90.0
 51
180.0
  0
LINE
  5
C871
  8
AM_0
 10
140.0260220496952
 20
202.24814486778109
 30
0.0
 11
140.0260220496952
 21
201.74814486778109
 31
0.0
  0
LINE
  5
C872
  8
AM_0
 10
118.62735095334919
 20
198.9014567992399
 30
0.0
 11
125.12735095334919
 21
198.9014567992399
 31
0.0
  0
LINE
  5
C873
  8
AM_0
 10
118.62735095334919
 20
190.59483293632189
 30
0.0
 11
125.12735095334919
 21
190.59483293632189
 31
0.0
  0
LINE
  5
C874
  8
AM_0
 10
117.98940088853119
 20
200.24814486778109
 30
0.0
 11
124.8273509533492
 21
200.24814486778109
 31
0.0
  0
LINE
  5
C875
  8
AM_0
 10
125.12735095334919
 20
190.24814486778109
 30
0.0
 11
118.12735095334919
 21
190.24814486778109
 31
0.0
  0
LINE
  5
C876
  8
AM_0
 10
118.62735095334919
 20
189.74814486778109
 30
0.0
 11
125.12735095334919
 21
189.74814486778109
 31
0.0
  0
LINE
  5
C877
  8
AM_0
 10
125.12735095334919
 20
199.88142469642889
 30
0.0
 11
118.62735095334919
 21
199.88142469642889
 31
0.0
  0
LINE
  5
C878
  8
AM_0
 10
125.12735095334919
 20
199.38142469642889
 30
0.0
 11
118.62735095334919
 21
199.38142469642889
 31
0.0
  0
ARC
  5
C879
  8
AM_0
 10
124.8273509533492
 20
200.54814486778099
 30
0.0
 40
0.3000000000000043
 50
270.0
 51
0.0
  0
ARC
  5
C87A
  8
AM_0
 10
125.4273509533493
 20
200.94814486778111
 30
0.0
 40
0.2999999999999971
 50
90.0
 51
180.0
  0
ARC
  5
C87B
  8
AM_0
 10
126.75235095334941
 20
194.74814486778109
 30
0.0
 40
9.124999999999984
 50
152.9249332927206
 51
207.07506670727921
  0
LINE
  5
C87C
  8
AM_0
 10
118.12735095334919
 20
190.24814486778109
 30
0.0
 11
118.62735095334919
 21
190.59483293632189
 31
0.0
  0
LINE
  5
C87D
  8
AM_0
 10
118.62735095334919
 20
189.74814486778109
 30
0.0
 11
118.12735095334919
 21
190.24814486778109
 31
0.0
  0
LINE
  5
C87E
  8
AM_0
 10
114.9871665536847
 20
198.0479912013943
 30
0.0
 11
117.3492164888668
 21
200.01636614737839
 31
0.0
  0
LINE
  5
C87F
  8
AM_0
 10
118.62735095334919
 20
200.24814486778109
 30
0.0
 11
118.12735095334919
 21
199.669712284274
 31
0.0
  0
ARC
  5
C880
  8
AM_0
 10
117.98940088853119
 20
199.24814486778109
 30
0.0
 40
1.00000000000004
 50
90.0
 51
129.80557109225549
  0
LINE
  5
C881
  8
AM_0
 10
118.12735095334919
 20
198.669712284274
 30
0.0
 11
118.62735095334919
 21
198.9014567992399
 31
0.0
  0
LINE
  5
C882
  8
AM_0
 10
118.62735095334919
 20
199.38142469642889
 30
0.0
 11
118.12735095334919
 21
198.669712284274
 31
0.0
  0
LINE
  5
C883
  8
AM_0
 10
118.12735095334919
 20
199.20743701130209
 30
0.0
 11
118.62735095334919
 21
199.38142469642889
 31
0.0
  0
LINE
  5
C884
  8
AM_0
 10
118.62735095334919
 20
199.88142469642889
 30
0.0
 11
118.12735095334919
 21
199.20743701130209
 31
0.0
  0
LINE
  5
C885
  8
AM_0
 10
118.12735095334919
 20
199.669712284274
 30
0.0
 11
118.62735095334919
 21
199.88142469642889
 31
0.0
  0
ARC
  5
C886
  8
AM_0
 10
115.62735095334931
 20
197.27976992179691
 30
0.0
 40
1.0
 50
129.8055710922641
 51
180.0
  0
LINE
  5
C887
  8
AM_0
 10
240.0260220496952
 20
166.24814486778129
 30
0.0
 11
219.2115171501629
 21
166.24814486778129
 31
0.0
  0
LINE
  5
C888
  8
AM_0
 10
164.84052694922761
 20
166.24814486778129
 30
0.0
 11
144.02602204969591
 21
166.24814486778129
 31
0.0
  0
LINE
  5
C889
  8
AM_0
 10
233.89024038053421
 20
162.24814486778129
 30
0.0
 11
150.16180371885611
 21
162.24814486778129
 31
0.0
  0
LINE
  5
C88A
  8
AM_0
 10
152.9333770220023
 20
164.18920735565339
 30
0.0
 11
153.0260220496958
 21
165.24814486778129
 31
0.0
  0
LINE
  5
C88B
  8
AM_0
 10
145.11866707738929
 20
164.18920735565339
 30
0.0
 11
145.02602204969591
 21
165.24814486778129
 31
0.0
  0
ARC
  5
C88C
  8
AM_0
 10
149.02602204969591
 20
168.64814486778141
 30
0.0
 40
6.5
 50
241.82726586813521
 51
298.1727341318649
  0
ARC
  5
C88D
  8
AM_0
 10
146.71257859433621
 20
164.32865654404981
 30
0.0
 40
1.6000000000000001
 50
185.0
 51
241.82726586813521
  0
LINE
  5
C88E
  8
AM_0
 10
151.32602204969581
 20
162.568671206353
 30
0.0
 11
149.0260220496958
 21
164.85823088514849
 31
0.0
  0
LINE
  5
C88F
  8
AM_0
 10
149.33752204969579
 20
164.5481448677813
 30
0.0
 11
148.7145220496958
 21
164.5481448677813
 31
0.0
  0
LINE
  5
C890
  8
AM_0
 10
146.72602204969581
 20
162.568671206353
 30
0.0
 11
149.0260220496958
 21
164.85823088514849
 31
0.0
  0
LINE
  5
C891
  8
AM_0
 10
149.33752204969579
 20
162.15561317744661
 30
0.0
 11
149.33752204969579
 21
164.5481448677813
 31
0.0
  0
LINE
  5
C892
  8
AM_0
 10
148.7145220496958
 20
162.15561317744661
 30
0.0
 11
148.7145220496958
 21
164.5481448677813
 31
0.0
  0
ARC
  5
C893
  8
AM_0
 10
151.33946550505561
 20
164.32865654404981
 30
0.0
 40
1.6000000000000001
 50
298.1727341318649
 51
354.99999999999977
  0
LINE
  5
C894
  8
AM_0
 10
240.0260220496954
 20
166.24814486778129
 30
0.0
 11
240.0260220496954
 21
170.24814486778129
 31
0.0
  0
LINE
  5
C895
  8
AM_0
 10
144.026022049695
 20
170.24814486778129
 30
0.0
 11
144.026022049696
 21
166.24814486778129
 31
0.0
  0
LINE
  5
C896
  8
AM_0N
 10
152.82602204969589
 20
166.24814486778129
 30
0.0
 11
152.82602204969589
 21
165.24814486778129
 31
0.0
  0
LINE
  5
C897
  8
AM_0N
 10
149.2260220496959
 20
165.24814486778129
 30
0.0
 11
149.589992283962
 21
166.24814486778129
 31
0.0
  0
LINE
  5
C898
  8
AM_0N
 10
148.82602204969589
 20
165.24814486778129
 30
0.0
 11
149.189992283962
 21
166.24814486778129
 31
0.0
  0
LINE
  5
C899
  8
AM_0N
 10
145.0260220496958
 20
165.24814486778129
 30
0.0
 11
153.0260220496958
 21
165.24814486778129
 31
0.0
  0
LINE
  5
C89A
  8
AM_0N
 10
145.2260220496959
 20
165.24814486778129
 30
0.0
 11
145.2260220496959
 21
166.24814486778129
 31
0.0
  0
LINE
  5
C89B
  8
AM_0
 10
164.8405269492275
 20
162.24814486778129
 30
0.0
 11
164.8405269492275
 21
166.24814486778129
 31
0.0
  0
LINE
  5
C89C
  8
AM_0
 10
163.1836726997351
 20
166.24814486778129
 30
0.0
 11
164.8405269492275
 21
162.24814486778129
 31
0.0
  0
LINE
  5
C89D
  8
AM_0
 10
219.2115171501629
 20
162.24814486778129
 30
0.0
 11
219.2115171501629
 21
166.24814486778129
 31
0.0
  0
LINE
  5
C89E
  8
AM_0
 10
220.86837139965539
 20
166.24814486778129
 30
0.0
 11
219.2115171501629
 21
162.24814486778129
 31
0.0
  0
LINE
  5
C89F
  8
AM_0
 10
158.5260220496952
 20
211.24814486778129
 30
0.0
 11
225.5260220496952
 21
211.24814486778129
 31
0.0
  0
LINE
  5
C8A0
  8
AM_0
 10
158.5260220496952
 20
211.24814486778129
 30
0.0
 11
158.5260220496952
 21
209.24814486778129
 31
0.0
  0
LINE
  5
C8A1
  8
AM_0
 10
225.5260220496952
 20
211.24814486778129
 30
0.0
 11
225.5260220496952
 21
209.24814486778129
 31
0.0
  0
LINE
  5
C8A2
  8
ﾁｭｳｼﾝｾﾝ1
 10
235.0260220496946
 20
159.98343736778131
 30
0.0
 11
235.0260220496946
 21
172.98343736778131
 31
0.0
  0
LINE
  5
C8A3
  8
AM_0
 10
231.11866707738821
 20
164.18920735565339
 30
0.0
 11
231.0260220496946
 21
165.24814486778129
 31
0.0
  0
LINE
  5
C8A4
  8
AM_0
 10
238.9333770220012
 20
164.18920735565339
 30
0.0
 11
239.0260220496946
 21
165.24814486778129
 31
0.0
  0
ARC
  5
C8A5
  8
AM_0
 10
235.0260220496948
 20
168.64814486778121
 30
0.0
 40
6.5
 50
241.82726586813521
 51
298.1727341318649
  0
ARC
  5
C8A6
  8
AM_0
 10
237.33946550505451
 20
164.32865654404961
 30
0.0
 40
1.6000000000000001
 50
298.1727341318649
 51
354.99999999999977
  0
LINE
  5
C8A7
  8
AM_0
 10
232.72602204969471
 20
162.568671206353
 30
0.0
 11
235.0260220496946
 21
164.85823088514849
 31
0.0
  0
LINE
  5
C8A8
  8
AM_0
 10
234.71452204969469
 20
164.5481448677813
 30
0.0
 11
235.33752204969471
 21
164.5481448677813
 31
0.0
  0
LINE
  5
C8A9
  8
AM_0
 10
237.3260220496947
 20
162.568671206353
 30
0.0
 11
235.0260220496946
 21
164.85823088514849
 31
0.0
  0
LINE
  5
C8AA
  8
AM_0
 10
234.71452204969469
 20
162.15561317744661
 30
0.0
 11
234.71452204969469
 21
164.5481448677813
 31
0.0
  0
LINE
  5
C8AB
  8
AM_0
 10
235.33752204969471
 20
162.15561317744661
 30
0.0
 11
235.33752204969471
 21
164.5481448677813
 31
0.0
  0
ARC
  5
C8AC
  8
AM_0
 10
232.7125785943351
 20
164.32865654404961
 30
0.0
 40
1.6000000000000001
 50
185.0
 51
241.82726586813521
  0
LINE
  5
C8AD
  8
AM_0N
 10
231.22602204969459
 20
166.24814486778129
 30
0.0
 11
231.22602204969459
 21
165.24814486778129
 31
0.0
  0
LINE
  5
C8AE
  8
AM_0N
 10
234.82602204969459
 20
165.24814486778129
 30
0.0
 11
234.46205181542851
 21
166.24814486778129
 31
0.0
  0
LINE
  5
C8AF
  8
AM_0N
 10
235.22602204969459
 20
165.24814486778129
 30
0.0
 11
234.86205181542849
 21
166.24814486778129
 31
0.0
  0
LINE
  5
C8B0
  8
AM_0N
 10
239.0260220496946
 20
165.24814486778129
 30
0.0
 11
231.0260220496946
 21
165.24814486778129
 31
0.0
  0
LINE
  5
C8B1
  8
AM_0N
 10
238.82602204969459
 20
165.24814486778129
 30
0.0
 11
238.82602204969459
 21
166.24814486778129
 31
0.0
  0
LINE
  5
C8B2
  8
AM_0
 10
143.0260220496952
 20
173.24814486778109
 30
0.0
 11
143.02602204969509
 21
205.24814486778109
 31
0.0
  0
LINE
  5
C8B3
  8
AM_0
 10
241.23177204969531
 20
322.17703486778129
 30
0.0
 11
237.0860520496955
 21
337.65814486778117
 31
0.0
  0
LINE
  5
C8B4
  8
AM_0
 10
241.23174204969541
 20
321.26703486778138
 30
0.0
 11
237.0860220496954
 21
336.74814486778132
 31
0.0
  0
LINE
  5
C8B5
  8
AM_0
 10
241.23174204969541
 20
319.41705486778142
 30
0.0
 11
237.0860220496954
 21
334.89819486778129
 31
0.0
  0
LINE
  5
C8B6
  8
AM_0
 10
243.0260220496954
 20
333.24814486778132
 30
0.0
 11
243.0260220496954
 21
221.24814486778109
 31
0.0
  0
LINE
  5
C8B7
  8
AM_0
 10
121.0260220496955
 20
325.26816486778131
 30
0.0
 11
121.0260220496955
 21
282.24814486778132
 31
0.0
  0
LINE
  5
C8B8
  8
AM_0
 10
123.2960420496954
 20
326.99814486778132
 30
0.0
 11
125.5260220496955
 21
326.99814486778132
 31
0.0
  0
LINE
  5
C8B9
  8
AM_0
 10
123.22603204969531
 20
312.9380848677813
 30
0.0
 11
125.32601204969539
 21
312.9380848677813
 31
0.0
  0
LINE
  5
C8BA
  8
AM_0
 10
122.7960420496954
 20
326.86810486778131
 30
0.0
 11
121.5260820496953
 21
326.12811486778128
 31
0.0
  0
LINE
  5
C8BB
  8
AM_0
 10
122.7859720496956
 20
324.74820486778128
 30
0.0
 11
121.5060020496953
 21
323.97818486778141
 31
0.0
  0
LINE
  5
C8BC
  8
AM_0
 10
122.77596204969559
 20
320.20816486778119
 30
0.0
 11
121.4759720496954
 21
319.35818486778129
 31
0.0
  0
LINE
  5
C8BD
  8
AM_0
 10
122.8360220496954
 20
312.85815486778131
 30
0.0
 11
121.6360720496955
 21
312.34814486778129
 31
0.0
  0
LINE
  5
C8BE
  8
AM_0
 10
123.3060520496954
 20
324.8881548677814
 30
0.0
 11
126.0260220496955
 21
324.8881548677814
 31
0.0
  0
LINE
  5
C8BF
  8
AM_0
 10
123.3260720496953
 20
320.3781448677812
 30
0.0
 11
126.0260220496955
 21
320.3781448677812
 31
0.0
  0
LINE
  5
C8C0
  8
AM_0
 10
123.1760520496955
 20
310.9881348677813
 30
0.0
 11
125.0260220496955
 21
310.9881348677813
 31
0.0
  0
LINE
  5
C8C1
  8
AM_0
 10
123.2960420496954
 20
319.2381348677813
 30
0.0
 11
125.0260220496955
 21
319.2381348677813
 31
0.0
  0
LINE
  5
C8C2
  8
AM_0
 10
123.2760220496954
 20
323.74814486778132
 30
0.0
 11
125.0260220496955
 21
323.74814486778132
 31
0.0
  0
LINE
  5
C8C3
  8
AM_0
 10
123.2660120496955
 20
325.84811486778131
 30
0.0
 11
125.5260220496955
 21
325.84811486778131
 31
0.0
  0
LINE
  5
C8C4
  8
AM_0
 10
122.7959820496955
 20
319.09817486778138
 30
0.0
 11
121.5160120496955
 21
318.34817486778132
 31
0.0
  0
LINE
  5
C8C5
  8
AM_0
 10
122.88601204969559
 20
310.94818486778132
 30
0.0
 11
121.7360420496955
 21
310.59817486778138
 31
0.0
  0
LINE
  5
C8C6
  8
AM_0
 10
122.8160020496955
 20
325.74814486778132
 30
0.0
 11
121.57601204969571
 21
325.11813486778112
 31
0.0
  0
LINE
  5
C8C7
  8
AM_0
 10
122.8060520496954
 20
323.63818486778132
 30
0.0
 11
121.5560520496953
 21
322.96817486778127
 31
0.0
  0
LINE
  5
C8C8
  8
AM_0
 10
125.0260220496955
 20
303.24814486778132
 30
0.0
 11
122.0260220496955
 21
303.24814486778132
 31
0.0
  0
LINE
  5
C8C9
  8
AM_0
 10
125.0260220496955
 20
301.24814486778132
 30
0.0
 11
122.0260220496955
 21
301.24814486778132
 31
0.0
  0
LINE
  5
C8CA
  8
AM_0
 10
125.0260220496955
 20
293.24814486778132
 30
0.0
 11
122.0260220496955
 21
293.24814486778132
 31
0.0
  0
LINE
  5
C8CB
  8
AM_0
 10
125.0260220496955
 20
291.24814486778132
 30
0.0
 11
122.0260220496955
 21
291.24814486778132
 31
0.0
  0
LINE
  5
C8CC
  8
AM_0
 10
125.0260220496955
 20
283.24814486778132
 30
0.0
 11
122.0260220496955
 21
283.24814486778132
 31
0.0
  0
LINE
  5
C8CD
  8
AM_0
 10
125.0260220496955
 20
281.24814486778132
 30
0.0
 11
122.0260220496955
 21
281.24814486778132
 31
0.0
  0
LINE
  5
C8CE
  8
AM_0
 10
123.0260220496955
 20
292.85812486778133
 30
0.0
 11
123.0260220496955
 21
291.64816486778119
 31
0.0
  0
LINE
  5
C8CF
  8
AM_0
 10
123.0260220496955
 20
282.85812486778133
 30
0.0
 11
123.0260220496955
 21
281.69809486778132
 31
0.0
  0
LINE
  5
C8D0
  8
AM_0
 10
123.0260220496955
 20
302.8781448677812
 30
0.0
 11
123.0260220496955
 21
301.50815486778129
 31
0.0
  0
LINE
  5
C8D1
  8
AM_0
 10
123.0260220496955
 20
312.63815486778128
 30
0.0
 11
123.0260220496955
 21
311.57809486778132
 31
0.0
  0
LINE
  5
C8D2
  8
AM_0
 10
123.0260220496955
 20
320.07809486778132
 30
0.0
 11
123.0260220496955
 21
319.60812486778133
 31
0.0
  0
LINE
  5
C8D3
  8
AM_0
 10
123.0260220496955
 20
324.64816486778142
 30
0.0
 11
123.0260220496955
 21
324.09811486778131
 31
0.0
  0
LINE
  5
C8D4
  8
AM_0
 10
123.0260220496955
 20
326.74814486778132
 30
0.0
 11
123.0260220496955
 21
326.2181148677812
 31
0.0
  0
LINE
  5
C8D5
  8
AM_0
 10
119.5260220496955
 20
297.24814486778132
 30
0.0
 11
119.5260220496955
 21
277.24814486778132
 31
0.0
  0
LINE
  5
C8D6
  8
AM_0
 10
119.5260220496955
 20
297.2481148677814
 30
0.0
 11
121.0260220496955
 21
297.37811486778128
 31
0.0
  0
LINE
  5
C8D7
  8
AM_0
 10
119.5260220496955
 20
292.3981648677813
 30
0.0
 11
121.0260220496955
 21
292.3981648677813
 31
0.0
  0
LINE
  5
C8D8
  8
AM_0
 10
119.5260220496955
 20
294.52817486778122
 30
0.0
 11
121.0260220496955
 21
294.52817486778122
 31
0.0
  0
LINE
  5
C8D9
  8
AM_0
 10
236.3660520496953
 20
313.24814486778132
 30
0.0
 11
137.38601204969541
 21
313.24814486778132
 31
0.0
  0
LINE
  5
C8DA
  8
AM_0
 10
236.3660520496953
 20
311.24814486778132
 30
0.0
 11
137.38601204969541
 21
311.24814486778132
 31
0.0
  0
LINE
  5
C8DB
  8
AM_0
 10
204.0260220496956
 20
303.24814486778132
 30
0.0
 11
137.38601204969541
 21
303.24814486778132
 31
0.0
  0
LINE
  5
C8DC
  8
AM_0
 10
236.35885204969551
 20
301.24814486778132
 30
0.0
 11
137.38601204969541
 21
301.24814486778132
 31
0.0
  0
LINE
  5
C8DD
  8
AM_0
 10
171.4647420496953
 20
293.24814486778132
 30
0.0
 11
137.38601204969541
 21
293.24814486778132
 31
0.0
  0
LINE
  5
C8DE
  8
AM_0
 10
171.4647420496953
 20
291.24814486778132
 30
0.0
 11
137.38601204969541
 21
291.24814486778132
 31
0.0
  0
LINE
  5
C8DF
  8
AM_0
 10
171.4647420496953
 20
283.24814486778132
 30
0.0
 11
137.38601204969541
 21
283.24814486778132
 31
0.0
  0
LINE
  5
C8E0
  8
AM_0
 10
171.4647420496953
 20
281.24814486778132
 30
0.0
 11
137.38601204969541
 21
281.24814486778132
 31
0.0
  0
LINE
  5
C8E1
  8
AM_0
 10
136.70601204969549
 20
313.9681148677812
 30
0.0
 11
239.8460320496954
 21
313.9681148677812
 31
0.0
  0
LINE
  5
C8E2
  8
AM_0
 10
136.70601204969549
 20
310.61813486778141
 30
0.0
 11
204.0460420496955
 21
310.61813486778141
 31
0.0
  0
LINE
  5
C8E3
  8
AM_0
 10
136.48604204969541
 20
303.73813486778118
 30
0.0
 11
204.0260220496956
 21
303.73813486778118
 31
0.0
  0
LINE
  5
C8E4
  8
AM_0
 10
136.48604204969541
 20
300.8081948677812
 30
0.0
 11
240.06026204969541
 21
300.8081948677812
 31
0.0
  0
LINE
  5
C8E5
  8
AM_0
 10
136.3560420496953
 20
293.58810486778128
 30
0.0
 11
172.68471204969541
 21
293.58810486778128
 31
0.0
  0
LINE
  5
C8E6
  8
AM_0
 10
136.3560420496953
 20
290.92819486778131
 30
0.0
 11
172.68471204969541
 21
290.92819486778131
 31
0.0
  0
LINE
  5
C8E7
  8
AM_0
 10
136.29604204969539
 20
283.51816486778131
 30
0.0
 11
172.74471204969541
 21
283.51816486778131
 31
0.0
  0
LINE
  5
C8E8
  8
AM_0
 10
136.29604204969539
 20
280.98813486778141
 30
0.0
 11
172.74471204969541
 21
280.98813486778141
 31
0.0
  0
LINE
  5
C8E9
  8
AM_0
 10
136.29604204969539
 20
273.51816486778131
 30
0.0
 11
172.74471204969541
 21
273.51816486778131
 31
0.0
  0
LINE
  5
C8EA
  8
AM_0
 10
171.4647420496953
 20
273.24814486778132
 30
0.0
 11
137.38601204969541
 21
273.24814486778132
 31
0.0
  0
LINE
  5
C8EB
  8
AM_0
 10
171.4647420496953
 20
271.24814486778132
 30
0.0
 11
137.38601204969541
 21
271.24814486778132
 31
0.0
  0
LINE
  5
C8EC
  8
AM_0
 10
136.29604204969539
 20
270.97812486778139
 30
0.0
 11
172.74471204969541
 21
270.97812486778139
 31
0.0
  0
LINE
  5
C8ED
  8
AM_0
 10
136.3560420496953
 20
263.56808486778141
 30
0.0
 11
172.68471204969541
 21
263.56808486778141
 31
0.0
  0
LINE
  5
C8EE
  8
AM_0
 10
171.4647420496953
 20
263.24814486778132
 30
0.0
 11
137.38601204969541
 21
263.24814486778132
 31
0.0
  0
LINE
  5
C8EF
  8
AM_0
 10
171.4647420496953
 20
261.24814486778132
 30
0.0
 11
137.38601204969541
 21
261.24814486778132
 31
0.0
  0
LINE
  5
C8F0
  8
AM_0
 10
136.3560420496953
 20
260.90817486778133
 30
0.0
 11
172.69729204969531
 21
260.90817486778133
 31
0.0
  0
LINE
  5
C8F1
  8
AM_0
 10
236.35885204969551
 20
253.24814486778129
 30
0.0
 11
137.38601204969541
 21
253.24814486778129
 31
0.0
  0
LINE
  5
C8F2
  8
AM_0
 10
136.48604204969541
 20
253.6880848677813
 30
0.0
 11
240.06026204969541
 21
253.6880848677813
 31
0.0
  0
LINE
  5
C8F3
  8
AM_0
 10
204.0260220496956
 20
251.24814486778129
 30
0.0
 11
137.38601204969541
 21
251.24814486778129
 31
0.0
  0
LINE
  5
C8F4
  8
AM_0
 10
136.48604204969541
 20
250.75815486778129
 30
0.0
 11
204.0260220496956
 21
250.75815486778129
 31
0.0
  0
LINE
  5
C8F5
  8
AM_0
 10
236.3660520496953
 20
243.24814486778121
 30
0.0
 11
192.02602204969531
 21
243.24814486778121
 31
0.0
  0
LINE
  5
C8F6
  8
AM_0
 10
236.3660520496953
 20
241.24814486778121
 30
0.0
 11
192.02602204969531
 21
241.24814486778121
 31
0.0
  0
LINE
  5
C8F7
  8
AM_0
 10
136.70601204969549
 20
240.52817486778119
 30
0.0
 11
192.02602204969531
 21
240.52817486778119
 31
0.0
  0
LINE
  5
C8F8
  8
AM_0
 10
239.8460320496954
 20
243.8781448677812
 30
0.0
 11
222.0060620496954
 21
243.8781448677812
 31
0.0
  0
LINE
  5
C8F9
  8
AM_0
 10
123.22603204969531
 20
241.55819486778131
 30
0.0
 11
125.32601204969539
 21
241.55819486778131
 31
0.0
  0
LINE
  5
C8FA
  8
AM_0
 10
122.83608204969519
 20
241.63818486778129
 30
0.0
 11
121.6360720496955
 21
242.15820486778119
 31
0.0
  0
LINE
  5
C8FB
  8
AM_0
 10
123.1760520496955
 20
243.50815486778109
 30
0.0
 11
125.0260220496955
 21
243.50815486778109
 31
0.0
  0
LINE
  5
C8FC
  8
AM_0
 10
122.88601204969559
 20
243.5481248677811
 30
0.0
 11
121.7360420496955
 21
243.9081448677814
 31
0.0
  0
LINE
  5
C8FD
  8
AM_0
 10
125.0260220496955
 20
251.24814486778129
 30
0.0
 11
122.0260220496955
 21
251.24814486778129
 31
0.0
  0
LINE
  5
C8FE
  8
AM_0
 10
125.0260220496955
 20
253.24814486778129
 30
0.0
 11
122.0260220496955
 21
253.24814486778129
 31
0.0
  0
LINE
  5
C8FF
  8
AM_0
 10
125.0260220496955
 20
261.24814486778132
 30
0.0
 11
122.0260220496955
 21
261.24814486778132
 31
0.0
  0
LINE
  5
C900
  8
AM_0
 10
125.0260220496955
 20
263.24814486778132
 30
0.0
 11
122.0260220496955
 21
263.24814486778132
 31
0.0
  0
LINE
  5
C901
  8
AM_0
 10
125.0260220496955
 20
271.24814486778132
 30
0.0
 11
122.0260220496955
 21
271.24814486778132
 31
0.0
  0
LINE
  5
C902
  8
AM_0
 10
125.0260220496955
 20
273.24814486778132
 30
0.0
 11
122.0260220496955
 21
273.24814486778132
 31
0.0
  0
LINE
  5
C903
  8
AM_0
 10
123.0260220496955
 20
261.6381548677814
 30
0.0
 11
123.0260220496955
 21
262.85812486778133
 31
0.0
  0
LINE
  5
C904
  8
AM_0
 10
123.0260220496955
 20
271.6381548677814
 30
0.0
 11
123.0260220496955
 21
272.7981848677814
 31
0.0
  0
LINE
  5
C905
  8
AM_0
 10
123.0260220496955
 20
251.61813486778141
 30
0.0
 11
123.0260220496955
 21
252.98813486778141
 31
0.0
  0
LINE
  5
C906
  8
AM_0
 10
123.0260220496955
 20
241.85812486778121
 30
0.0
 11
123.0260220496955
 21
242.91818486778129
 31
0.0
  0
LINE
  5
C907
  8
AM_0
 10
119.5260220496955
 20
257.24814486778132
 30
0.0
 11
119.5260220496955
 21
277.24814486778132
 31
0.0
  0
LINE
  5
C908
  8
AM_0
 10
119.5260220496955
 20
257.2481148677814
 30
0.0
 11
121.0260220496955
 21
257.11810486778131
 31
0.0
  0
LINE
  5
C909
  8
AM_0
 10
119.5260220496955
 20
262.09811486778131
 30
0.0
 11
121.0260220496955
 21
262.09811486778131
 31
0.0
  0
LINE
  5
C90A
  8
AM_0
 10
119.5260220496955
 20
259.9681148677812
 30
0.0
 11
121.0260220496955
 21
259.9681148677812
 31
0.0
  0
LINE
  5
C90B
  8
AM_0
 10
136.70601204969549
 20
243.8781448677812
 30
0.0
 11
204.0460420496955
 21
243.8781448677812
 31
0.0
  0
LINE
  5
C90C
  8
AM_0
 10
192.02602204969531
 20
243.24814486778121
 30
0.0
 11
137.38601204969541
 21
243.24814486778121
 31
0.0
  0
LINE
  5
C90D
  8
AM_0
 10
192.02602204969531
 20
241.24814486778121
 30
0.0
 11
137.38601204969541
 21
241.24814486778121
 31
0.0
  0
LINE
  5
C90E
  8
AM_0
 10
192.02602204969531
 20
240.52817486778119
 30
0.0
 11
239.8460320496954
 21
240.52817486778119
 31
0.0
  0
LINE
  5
C90F
  8
AM_0
 10
127.0260220496955
 20
330.24814486778132
 30
0.0
 11
127.0260220496955
 21
224.24814486778129
 31
0.0
  0
LINE
  5
C910
  8
AM_0
 10
135.02602204969551
 20
330.24814486778132
 30
0.0
 11
135.02602204969551
 21
224.24814486778129
 31
0.0
  0
LINE
  5
C911
  8
AM_0
 10
121.5160120496955
 20
236.14813486778121
 30
0.0
 11
121.4959920496953
 21
236.15811486778119
 31
0.0
  0
LINE
  5
C912
  8
AM_0
 10
126.0260220496955
 20
327.24814486778132
 30
0.0
 11
126.0260220496955
 21
227.24814486778109
 31
0.0
  0
LINE
  5
C913
  8
AM_0
 10
126.0260220496955
 20
327.24814486778132
 30
0.0
 11
127.0260220496955
 21
327.24814486778132
 31
0.0
  0
LINE
  5
C914
  8
AM_0
 10
127.0260220496955
 20
330.24814486778132
 30
0.0
 11
135.02602204969551
 21
330.24814486778132
 31
0.0
  0
LINE
  5
C915
  8
AM_0
 10
127.72603204969531
 20
320.4380848677813
 30
0.0
 11
133.9560120496956
 21
320.4380848677813
 31
0.0
  0
LINE
  5
C916
  8
AM_0
 10
243.0260220496954
 20
323.24814486778132
 30
0.0
 11
251.0260220496954
 21
323.24814486778132
 31
0.0
  0
LINE
  5
C917
  8
AM_0
 10
243.0260220496954
 20
309.1880848677813
 30
0.0
 11
251.0260220496954
 21
309.1880848677813
 31
0.0
  0
LINE
  5
C918
  8
AM_0
 10
243.0260220496954
 20
333.24814486778132
 30
0.0
 11
251.0260220496954
 21
333.24814486778132
 31
0.0
  0
LINE
  5
C919
  8
AM_0
 10
138.23604204969541
 20
333.5281748677815
 30
0.0
 11
235.15603204969531
 21
333.5281748677815
 31
0.0
  0
LINE
  5
C91A
  8
AM_0
 10
135.02602204969551
 20
325.34820486778131
 30
0.0
 11
136.26601204969549
 21
331.90820486778131
 31
0.0
  0
LINE
  5
C91B
  8
AM_0
 10
140.38607204969551
 20
313.8981648677813
 30
0.0
 11
135.0260820496953
 21
325.34814486778117
 31
0.0
  0
LINE
  5
C91C
  8
AM_0
 10
140.38601204969541
 20
240.59811486778131
 30
0.0
 11
135.0260820496953
 21
229.15820486778119
 31
0.0
  0
LINE
  5
C91D
  8
AM_0
 10
138.27602204969551
 20
336.3781448677812
 30
0.0
 11
235.15603204969531
 21
336.3781448677812
 31
0.0
  0
LINE
  5
C91E
  8
AM_0
 10
138.29604204969539
 20
338.22812486778139
 30
0.0
 11
235.15603204969531
 21
338.22812486778139
 31
0.0
  0
LINE
  5
C91F
  8
AM_0
 10
138.31606204969529
 20
339.1381548677814
 30
0.0
 11
235.15609204969539
 21
339.1381548677814
 31
0.0
  0
LINE
  5
C920
  8
AM_0
 10
135.0260820496953
 20
326.6881748677813
 30
0.0
 11
136.30605204969541
 21
334.69812486778142
 31
0.0
  0
LINE
  5
C921
  8
AM_0
 10
135.0260820496953
 20
328.03811486778119
 30
0.0
 11
136.31606204969549
 21
336.5282048677812
 31
0.0
  0
LINE
  5
C922
  8
AM_0
 10
135.02602204969551
 20
328.03814486778128
 30
0.0
 11
136.3360220496954
 21
337.41818486778129
 31
0.0
  0
LINE
  5
C923
  8
AM_0
 10
241.22609204969561
 20
316.58810486778128
 30
0.0
 11
237.08608204969531
 21
332.04812486778133
 31
0.0
  0
LINE
  5
C924
  8
AM_0
 10
237.56606204969549
 20
330.24814486778132
 30
0.0
 11
243.0260220496954
 21
330.24814486778132
 31
0.0
  0
LINE
  5
C925
  8
AM_0
 10
121.0260220496955
 20
229.22812486778139
 30
0.0
 11
121.0260220496955
 21
272.24814486778132
 31
0.0
  0
LINE
  5
C926
  8
AM_0
 10
123.2960420496954
 20
227.49814486778109
 30
0.0
 11
125.5260220496955
 21
227.49814486778109
 31
0.0
  0
LINE
  5
C927
  8
AM_0
 10
122.7960420496954
 20
227.6381548677812
 30
0.0
 11
121.5260820496953
 21
228.36813486778129
 31
0.0
  0
LINE
  5
C928
  8
AM_0
 10
122.7860920496953
 20
229.74814486778109
 30
0.0
 11
121.5060620496956
 21
230.51816486778119
 31
0.0
  0
LINE
  5
C929
  8
AM_0
 10
122.77596204969559
 20
234.28811486778119
 30
0.0
 11
121.4759720496954
 21
235.13812486778119
 31
0.0
  0
LINE
  5
C92A
  8
AM_0
 10
123.3060520496954
 20
229.60812486778121
 30
0.0
 11
126.0260220496955
 21
229.60812486778121
 31
0.0
  0
LINE
  5
C92B
  8
AM_0
 10
123.3260720496953
 20
234.1281448677812
 30
0.0
 11
126.0260220496955
 21
234.1281448677812
 31
0.0
  0
LINE
  5
C92C
  8
AM_0
 10
123.2960420496954
 20
235.26816486778119
 30
0.0
 11
125.0260220496955
 21
235.26816486778119
 31
0.0
  0
LINE
  5
C92D
  8
AM_0
 10
123.2760220496954
 20
230.74814486778109
 30
0.0
 11
125.0260220496955
 21
230.74814486778109
 31
0.0
  0
LINE
  5
C92E
  8
AM_0
 10
123.2660120496955
 20
228.6481648677813
 30
0.0
 11
125.5260220496955
 21
228.6481648677813
 31
0.0
  0
LINE
  5
C92F
  8
AM_0
 10
122.7960420496954
 20
235.39819486778131
 30
0.0
 11
121.51607204969559
 21
236.1481648677813
 31
0.0
  0
LINE
  5
C930
  8
AM_0
 10
122.8160020496955
 20
228.75812486778119
 30
0.0
 11
121.57601204969571
 21
229.38812486778119
 31
0.0
  0
LINE
  5
C931
  8
AM_0
 10
122.8060520496954
 20
230.86813486778141
 30
0.0
 11
121.5560520496953
 21
231.52813486778129
 31
0.0
  0
LINE
  5
C932
  8
AM_0
 10
123.0260220496955
 20
234.41818486778129
 30
0.0
 11
123.0260220496955
 21
234.8881548677814
 31
0.0
  0
LINE
  5
C933
  8
AM_0
 10
123.0260220496955
 20
229.84811486778131
 30
0.0
 11
123.0260220496955
 21
230.3981648677813
 31
0.0
  0
LINE
  5
C934
  8
AM_0
 10
123.0260220496955
 20
227.74814486778109
 30
0.0
 11
123.0260220496955
 21
228.2781748677813
 31
0.0
  0
LINE
  5
C935
  8
AM_0
 10
126.0260220496955
 20
227.24814486778109
 30
0.0
 11
127.0260220496955
 21
227.24814486778109
 31
0.0
  0
LINE
  5
C936
  8
AM_0
 10
127.0260220496955
 20
224.24814486778129
 30
0.0
 11
135.02602204969551
 21
224.24814486778129
 31
0.0
  0
LINE
  5
C937
  8
AM_0
 10
127.72603204969531
 20
234.0581948677812
 30
0.0
 11
133.9560120496956
 21
234.0581948677812
 31
0.0
  0
LINE
  5
C938
  8
AM_0
 10
243.0260220496954
 20
231.24814486778109
 30
0.0
 11
251.0260220496954
 21
231.24814486778109
 31
0.0
  0
LINE
  5
C939
  8
AM_0
 10
243.0260220496954
 20
221.24814486778109
 30
0.0
 11
251.0260220496954
 21
221.24814486778109
 31
0.0
  0
LINE
  5
C93A
  8
AM_0
 10
138.23604204969541
 20
220.9681148677812
 30
0.0
 11
235.15603204969531
 21
220.9681148677812
 31
0.0
  0
LINE
  5
C93B
  8
AM_0
 10
135.02602204969551
 20
229.15811486778131
 30
0.0
 11
136.26607204969531
 21
222.59811486778131
 31
0.0
  0
LINE
  5
C93C
  8
AM_0
 10
137.93227204969551
 20
218.11813486778141
 30
0.0
 11
160.42415204969529
 21
218.11813486778141
 31
0.0
  0
LINE
  5
C93D
  8
AM_0
 10
135.02602204969551
 20
227.80810486778131
 30
0.0
 11
136.30605204969541
 21
219.8081948677812
 31
0.0
  0
LINE
  5
C93E
  8
AM_0
 10
135.02602204969551
 20
226.4682048677812
 30
0.0
 11
136.03530204969539
 21
219.81802486778119
 31
0.0
  0
LINE
  5
C93F
  8
AM_0
 10
135.0260820496953
 20
226.4681748677813
 30
0.0
 11
135.95150204969531
 21
219.84158486778119
 31
0.0
  0
LINE
  5
C940
  8
AM_0
 10
241.23174204969541
 20
237.92929486778121
 30
0.0
 11
237.0860220496954
 21
222.44815486778131
 31
0.0
  0
LINE
  5
C941
  8
AM_0
 10
237.56807204969539
 20
224.24814486778129
 30
0.0
 11
243.0260220496954
 21
224.24814486778129
 31
0.0
  0
LINE
  5
C942
  8
AM_0
 10
243.0260220496954
 20
245.3081948677812
 30
0.0
 11
251.0260220496954
 21
245.3081948677812
 31
0.0
  0
LINE
  5
C943
  8
AM_0
 10
242.0260220496954
 20
224.24814486778129
 30
0.0
 11
236.3002820496954
 21
215.43124486778129
 31
0.0
  0
LINE
  5
C944
  8
AM_0
 10
223.5396320496954
 20
214.74814486778109
 30
0.0
 11
235.04226204969541
 21
214.74814486778109
 31
0.0
  0
LINE
  5
C945
  8
AM_0
 10
221.0060620496954
 20
304.74814486778132
 30
0.0
 11
221.0060620496954
 21
309.60812486778133
 31
0.0
  0
LINE
  5
C946
  8
AM_0
 10
205.04604204969539
 20
304.74814486778132
 30
0.0
 11
205.04604204969539
 21
309.60812486778133
 31
0.0
  0
LINE
  5
C947
  8
AM_0
 10
220.52602204969551
 20
304.74814486778132
 30
0.0
 11
220.52602204969551
 21
309.74814486778132
 31
0.0
  0
LINE
  5
C948
  8
AM_0
 10
205.5260220496954
 20
304.74814486778132
 30
0.0
 11
205.5260220496954
 21
309.74814486778132
 31
0.0
  0
LINE
  5
C949
  8
AM_0
 10
177.02602204969551
 20
290.24814486778132
 30
0.0
 11
240.0260220496954
 21
290.24814486778132
 31
0.0
  0
LINE
  5
C94A
  8
AM_0
 10
177.02602204969551
 20
256.74814486778132
 30
0.0
 11
240.0260220496954
 21
256.74814486778132
 31
0.0
  0
LINE
  5
C94B
  8
AM_0
 10
177.02602204969551
 20
297.74814486778132
 30
0.0
 11
240.0260220496954
 21
297.74814486778132
 31
0.0
  0
LINE
  5
C94C
  8
AM_0
 10
240.0260220496954
 20
297.74814486778132
 30
0.0
 11
240.0260220496954
 21
256.74814486778132
 31
0.0
  0
LINE
  5
C94D
  8
AM_0
 10
177.02602204969551
 20
297.74814486778132
 30
0.0
 11
177.02602204969551
 21
256.74814486778132
 31
0.0
  0
LINE
  5
C94E
  8
AM_0
 10
222.0260220496954
 20
303.73813486778118
 30
0.0
 11
240.0717420496953
 21
303.73813486778118
 31
0.0
  0
LINE
  5
C94F
  8
AM_0
 10
222.0260220496954
 20
250.76816486778131
 30
0.0
 11
240.06026204969541
 21
250.76816486778131
 31
0.0
  0
LINE
  5
C950
  8
AM_0
 10
221.0060620496954
 20
249.74814486778121
 30
0.0
 11
221.0060620496954
 21
244.8881548677814
 31
0.0
  0
LINE
  5
C951
  8
AM_0
 10
205.04604204969539
 20
249.74814486778121
 30
0.0
 11
205.04604204969539
 21
244.8881548677814
 31
0.0
  0
LINE
  5
C952
  8
AM_0
 10
220.52602204969551
 20
249.74814486778121
 30
0.0
 11
220.52602204969551
 21
244.74814486778129
 31
0.0
  0
LINE
  5
C953
  8
AM_0
 10
205.5260220496954
 20
249.74814486778121
 30
0.0
 11
205.5260220496954
 21
244.74814486778129
 31
0.0
  0
LINE
  5
C954
  8
AM_0
 10
236.35885204969551
 20
251.24814486778129
 30
0.0
 11
222.0260220496954
 21
251.24814486778129
 31
0.0
  0
LINE
  5
C955
  8
AM_0
 10
236.3731920496956
 20
303.24814486778132
 30
0.0
 11
222.0260220496954
 21
303.24814486778132
 31
0.0
  0
LINE
  5
C956
  8
AM_0
 10
222.0060620496954
 20
310.60812486778133
 30
0.0
 11
239.8460320496954
 21
310.60812486778133
 31
0.0
  0
ARC
  5
C957
  8
AM_0
 10
242.67922204969551
 20
322.58090486778133
 30
0.0
 40
1.502775999999999
 50
194.75642999999729
 51
269.87757999999872
  0
ARC
  5
C958
  8
AM_0
 10
242.67922204969551
 20
321.67087486778132
 30
0.0
 40
1.502775999999999
 50
194.75642999999729
 51
269.87757999999872
  0
ARC
  5
C959
  8
AM_0
 10
242.67922204969551
 20
319.82089486778142
 30
0.0
 40
1.502775999999999
 50
194.75642999999729
 51
269.87757999999872
  0
ARC
  5
C95A
  8
AM_0
 10
235.1512020496956
 20
337.13339486778108
 30
0.0
 40
2.0047290000000002
 50
15.173495999996319
 51
89.861678000000197
  0
ARC
  5
C95B
  8
AM_0
 10
235.1512020496956
 20
336.22336486778107
 30
0.0
 40
2.0047290000000002
 50
15.173495999996319
 51
89.861678000000197
  0
ARC
  5
C95C
  8
AM_0
 10
235.1512020496956
 20
334.37338486778128
 30
0.0
 40
2.0047290000000002
 50
15.173495999996319
 51
89.861678000000197
  0
ARC
  5
C95D
  8
AM_0
 10
242.67922204969551
 20
237.52536486778129
 30
0.0
 40
1.502775999999999
 50
90.122413000001615
 51
165.24357000000259
  0
ARC
  5
C95E
  8
AM_0
 10
122.0192520496953
 20
325.26608486778127
 30
0.0
 40
0.99319202
 50
119.7733799999976
 51
179.87958999999799
  0
ARC
  5
C95F
  8
AM_0
 10
122.0216320496956
 20
324.22787486778128
 30
0.0
 40
0.995579
 50
116.5870899999978
 51
179.98263999999989
  0
ARC
  5
C960
  8
AM_0
 10
123.2880520496953
 20
326.0022948677813
 30
0.0
 40
0.9959030199999999
 50
89.541266999999124
 51
119.607169999996
  0
ARC
  5
C961
  8
AM_0
 10
123.2508120496955
 20
324.85409486778121
 30
0.0
 40
0.99411702
 50
89.122643999998544
 51
115.9349800000027
  0
ARC
  5
C962
  8
AM_0
 10
123.2948820496951
 20
323.89389486778128
 30
0.0
 40
0.99427301
 50
89.356065999996787
 51
120.7809099999981
  0
ARC
  5
C963
  8
AM_0
 10
123.26113204969531
 20
322.75277486778128
 30
0.0
 40
0.99545902
 50
89.141290999999939
 51
117.20382000000021
  0
ARC
  5
C964
  8
AM_0
 10
123.3326620496955
 20
319.38192486778132
 30
0.0
 40
0.99617702
 50
90.381317999995943
 51
123.97049000000089
  0
ARC
  5
C965
  8
AM_0
 10
123.3054420496953
 20
318.2416748677814
 30
0.0
 40
0.99648702
 50
90.540721000001867
 51
120.7437700000016
  0
ARC
  5
C966
  8
AM_0
 10
122.0201020496954
 20
317.49130486778131
 30
0.0
 40
0.99404597
 50
120.4681999999988
 51
180.18564000000029
  0
ARC
  5
C967
  8
AM_0
 10
122.0208320496954
 20
318.52572486778132
 30
0.0
 40
0.9948369899999999
 50
123.2049600000056
 51
180.4378599999981
  0
ARC
  5
C968
  8
AM_0
 10
122.0192520496953
 20
322.08957486778132
 30
0.0
 40
0.9932109699999999
 50
117.7993199999969
 51
180.08187000000001
  0
ARC
  5
C969
  8
AM_0
 10
122.0204720496951
 20
323.12716486778118
 30
0.0
 40
0.9944329899999999
 50
121.15212999999621
 51
179.94050999999911
  0
ARC
  5
C96A
  8
AM_0
 10
123.2270120496957
 20
311.94272486778129
 30
0.0
 40
0.9954450099999999
 50
90.056904999996419
 51
113.1274500000043
  0
ARC
  5
C96B
  8
AM_0
 10
123.1651820496954
 20
309.99545486778129
 30
0.0
 40
0.9927430199999999
 50
89.374555000002019
 51
106.3320700000012
  0
ARC
  5
C96C
  8
AM_0
 10
122.0223020496955
 20
309.64389486778123
 30
0.0
 40
0.9962710099999999
 50
106.6979200000001
 51
180.33005
  0
ARC
  5
C96D
  8
AM_0
 10
122.02242204969551
 20
311.42965486778132
 30
0.0
 40
0.9963999999999998
 50
112.81736000000041
 51
180.0904199999996
  0
ARC
  5
C96E
  8
AM_0
 10
122.0211420496953
 20
302.25302486778128
 30
0.0
 40
0.99507803
 50
89.715886999998077
 51
180.28410999999991
  0
ARC
  5
C96F
  8
AM_0
 10
122.02627204969529
 20
302.24838486778128
 30
0.0
 40
1.000203
 50
180.01164999999551
 51
269.9883500000044
  0
ARC
  5
C970
  8
AM_0
 10
122.0211420496953
 20
292.25302486778122
 30
0.0
 40
0.99508202
 50
89.716099000001435
 51
180.2839099999978
  0
ARC
  5
C971
  8
AM_0
 10
122.02627204969529
 20
292.2483848677814
 30
0.0
 40
1.000199999999998
 50
180.01143000000161
 51
269.98856999999839
  0
ARC
  5
C972
  8
AM_0
 10
122.0211420496953
 20
282.25302486778128
 30
0.0
 40
0.9950849999999999
 50
89.716311000000914
 51
180.28368999999969
  0
ARC
  5
C973
  8
AM_0
 10
122.02627204969529
 20
282.2483848677814
 30
0.0
 40
1.000195999999997
 50
180.0112199999958
 51
269.98877999999758
  0
ARC
  5
C974
  8
AM_0
 10
125.0262020496952
 20
280.2482648677813
 30
0.0
 40
0.9998249999999999
 50
359.98994999999871
 51
90.010050000001243
  0
ARC
  5
C975
  8
AM_0
 10
125.02108204969539
 20
284.25302486778128
 30
0.0
 40
1.0049469
 50
270.28134999999719
 51
359.71866000000068
  0
ARC
  5
C976
  8
AM_0
 10
125.0262020496952
 20
290.24826486778119
 30
0.0
 40
0.9998210099999999
 50
359.98975000000149
 51
90.010254999999034
  0
ARC
  5
C977
  8
AM_0
 10
125.02108204969539
 20
294.25302486778128
 30
0.0
 40
1.004939
 50
270.28091000000421
 51
359.71909999999991
  0
ARC
  5
C978
  8
AM_0
 10
125.0262020496952
 20
300.24826486778119
 30
0.0
 40
0.9998289899999999
 50
359.99019000000038
 51
90.009811000000937
  0
ARC
  5
C979
  8
AM_0
 10
125.02108204969539
 20
304.25302486778128
 30
0.0
 40
1.004942999999999
 50
270.28111000000013
 51
359.71888999999987
  0
ARC
  5
C97A
  8
AM_0
 10
125.0277320496955
 20
309.98983486778133
 30
0.0
 40
0.9982839799999999
 50
359.90142000000009
 51
90.098576000001358
  0
ARC
  5
C97B
  8
AM_0
 10
125.0237020496954
 20
318.2358148677813
 30
0.0
 40
1.002353
 50
0.1343268199984526
 51
89.865672999999376
  0
ARC
  5
C97C
  8
AM_0
 10
125.32149204969529
 20
313.64267486778141
 30
0.0
 40
0.704566
 50
270.3700999999968
 51
359.62990999999778
  0
ARC
  5
C97D
  8
AM_0
 10
125.0270020496953
 20
322.74911486778137
 30
0.0
 40
0.9990100299999999
 50
359.94319000000132
 51
90.056808999996804
  0
ARC
  5
C97E
  8
AM_0
 10
125.5277320496955
 20
325.34982486778131
 30
0.0
 40
0.4983060100000002
 50
359.80488999999778
 51
90.195107000000036
  0
ARC
  5
C97F
  8
AM_0
 10
125.52144204969569
 20
327.50277486778123
 30
0.0
 40
0.50463498
 50
270.52383000000037
 51
359.47616999999963
  0
ARC
  5
C980
  8
AM_0
 10
137.57064204969541
 20
242.24814486778121
 30
0.0
 40
1.000013899999999
 50
89.69165999999926
 51
270.30834000000073
  0
ARC
  5
C981
  8
AM_0
 10
239.8460320496954
 20
312.29318486778112
 30
0.0
 40
1.6750020000000001
 50
269.999989999999
 51
90.00000299999769
  0
ARC
  5
C982
  8
AM_0
 10
236.3660520496953
 20
312.24814486778132
 30
0.0
 40
1.0
 50
269.999989999999
 51
90.00000299999769
  0
ARC
  5
C983
  8
AM_0
 10
236.3660520496953
 20
242.24814486778121
 30
0.0
 40
1.0
 50
269.999989999999
 51
90.00000299999769
  0
ARC
  5
C984
  8
AM_0
 10
239.8460320496954
 20
242.20309486778129
 30
0.0
 40
1.6750020000000001
 50
269.999989999999
 51
90.00000299999769
  0
ARC
  5
C985
  8
AM_0
 10
125.0226620496953
 20
244.51144486778139
 30
0.0
 40
1.003352
 50
270.19110999999691
 51
359.80890000000107
  0
ARC
  5
C986
  8
AM_0
 10
125.02108204969539
 20
254.25302486778099
 30
0.0
 40
1.0049469
 50
270.28136999999919
 51
359.7186300000007
  0
ARC
  5
C987
  8
AM_0
 10
125.0262020496952
 20
250.24826486778119
 30
0.0
 40
0.9998239899999999
 50
359.98991999999532
 51
90.010077000000464
  0
ARC
  5
C988
  8
AM_0
 10
125.3265620496957
 20
240.85873486778121
 30
0.0
 40
0.6994530000000001
 50
359.95517000000092
 51
90.044828999997534
  0
ARC
  5
C989
  8
AM_0
 10
123.2290220496954
 20
242.5633248677814
 30
0.0
 40
1.005233
 50
246.98638999999699
 51
269.82924999999938
  0
ARC
  5
C98A
  8
AM_0
 10
123.1665920496953
 20
244.5108348677814
 30
0.0
 40
1.002699
 50
253.75271999999509
 51
270.54064000000108
  0
ARC
  5
C98B
  8
AM_0
 10
122.02242204969551
 20
244.8625248677813
 30
0.0
 40
0.99638802
 50
180.24990999999889
 51
253.29664000000031
  0
ARC
  5
C98C
  8
AM_0
 10
122.0225420496956
 20
243.07663486778119
 30
0.0
 40
0.9965090199999998
 50
179.9137499999965
 51
247.17845000000281
  0
ARC
  5
C98D
  8
AM_0
 10
122.02627204969529
 20
252.2483848677812
 30
0.0
 40
1.000195999999997
 50
180.01124999999951
 51
269.98875000000061
  0
ARC
  5
C98E
  8
AM_0
 10
122.0211420496953
 20
252.25302486778099
 30
0.0
 40
0.9950849999999999
 50
89.716283000002676
 51
180.28371999999919
  0
ARC
  5
C98F
  8
AM_0
 10
122.02627204969529
 20
262.24838486778128
 30
0.0
 40
1.000199999999998
 50
180.01145999999861
 51
269.98854000000142
  0
ARC
  5
C990
  8
AM_0
 10
122.0211420496953
 20
262.25302486778128
 30
0.0
 40
0.9950810099999999
 50
89.716071999996828
 51
180.2839200000044
  0
ARC
  5
C991
  8
AM_0
 10
122.02627204969529
 20
272.2483848677814
 30
0.0
 40
1.0002040000000001
 50
180.01165999999679
 51
269.98832000000073
  0
ARC
  5
C992
  8
AM_0
 10
122.0211420496953
 20
272.25302486778128
 30
0.0
 40
0.9950770099999999
 50
89.715859999999495
 51
180.28414000000049
  0
ARC
  5
C993
  8
AM_0
 10
125.02108204969539
 20
274.25302486778128
 30
0.0
 40
1.004942999999999
 50
270.28113999999943
 51
359.71886999999822
  0
ARC
  5
C994
  8
AM_0
 10
125.0262020496952
 20
270.2482648677813
 30
0.0
 40
0.9998279799999998
 50
359.9901599999971
 51
90.009838000000173
  0
ARC
  5
C995
  8
AM_0
 10
125.02108204969539
 20
264.25302486778128
 30
0.0
 40
1.004939
 50
270.280940000003
 51
359.71907000000078
  0
ARC
  5
C996
  8
AM_0
 10
125.0262020496952
 20
260.24826486778119
 30
0.0
 40
0.9998210099999999
 50
359.98971999999799
 51
90.010282000004807
  0
ARC
  5
C997
  8
AM_0
 10
136.6986320496955
 20
312.29318486778112
 30
0.0
 40
1.6750160000000001
 50
89.746145000004475
 51
270.25387000000092
  0
ARC
  5
C998
  8
AM_0
 10
137.57064204969541
 20
312.24814486778132
 30
0.0
 40
1.000013899999999
 50
89.69165999999926
 51
270.30834000000073
  0
ARC
  5
C999
  8
AM_0
 10
137.57064204969541
 20
302.24814486778132
 30
0.0
 40
1.000013899999999
 50
89.69165999999926
 51
270.30834000000073
  0
ARC
  5
C99A
  8
AM_0
 10
137.57064204969541
 20
292.24814486778132
 30
0.0
 40
1.000013899999999
 50
89.69165999999926
 51
270.30834000000073
  0
ARC
  5
C99B
  8
AM_0
 10
137.57064204969541
 20
282.24814486778132
 30
0.0
 40
1.000013899999999
 50
89.69165999999926
 51
270.30834000000073
  0
ARC
  5
C99C
  8
AM_0
 10
137.57064204969541
 20
272.24814486778132
 30
0.0
 40
1.000013899999999
 50
89.69165999999926
 51
270.30834000000073
  0
ARC
  5
C99D
  8
AM_0
 10
137.57064204969541
 20
262.24814486778132
 30
0.0
 40
1.000013899999999
 50
89.69165999999926
 51
270.30834000000073
  0
ARC
  5
C99E
  8
AM_0
 10
137.57064204969541
 20
252.24814486778121
 30
0.0
 40
1.000013899999999
 50
89.69165999999926
 51
270.30834000000073
  0
ARC
  5
C99F
  8
AM_0
 10
136.48604204969541
 20
302.2731648677813
 30
0.0
 40
1.465004
 50
90.00000299999769
 51
270.0
  0
ARC
  5
C9A0
  8
AM_0
 10
136.3560420496953
 20
292.25815486778129
 30
0.0
 40
1.3300049999999981
 50
90.00000299999769
 51
270.0
  0
ARC
  5
C9A1
  8
AM_0
 10
136.2901820496954
 20
282.2531448677812
 30
0.0
 40
1.2650129999999991
 50
89.735579000001735
 51
270.2644100000025
  0
ARC
  5
C9A2
  8
AM_0
 10
136.2901820496954
 20
272.24814486778132
 30
0.0
 40
1.2700129999999981
 50
89.736617000001601
 51
270.26336999999921
  0
ARC
  5
C9A3
  8
AM_0
 10
136.3560420496953
 20
262.23813486778141
 30
0.0
 40
1.3300049999999981
 50
90.00000299999769
 51
270.0
  0
ARC
  5
C9A4
  8
AM_0
 10
136.48604204969541
 20
252.22311486778131
 30
0.0
 40
1.465004
 50
90.00000299999769
 51
270.0
  0
ARC
  5
C9A5
  8
AM_0
 10
136.69918204969531
 20
242.20309486778129
 30
0.0
 40
1.675014
 50
89.766498999996756
 51
270.2335099999994
  0
ARC
  5
C9A6
  8
AM_0
 10
125.0227920496954
 20
236.27487486778119
 30
0.0
 40
1.0032760000000001
 50
334.19810000000479
 51
359.61810999999818
  0
ARC
  5
C9A7
  8
AM_0
 10
122.0245020496954
 20
237.00741486778131
 30
0.0
 40
0.9984580299999999
 50
179.95957999999851
 51
239.3865700000018
  0
ARC
  5
C9A8
  8
AM_0
 10
138.2247520496953
 20
331.53402486778128
 30
0.0
 40
1.994108999999999
 50
89.675548000002763
 51
169.18776999999841
  0
ARC
  5
C9A9
  8
AM_0
 10
138.27627204969531
 20
334.38290486778141
 30
0.0
 40
1.995282999999997
 50
90.006203999996856
 51
170.90835000000069
  0
ARC
  5
C9AA
  8
AM_0
 10
138.29061204969551
 20
336.23141486778133
 30
0.0
 40
1.9967330000000001
 50
89.843966999998912
 51
171.4538800000027
  0
ARC
  5
C9AB
  8
AM_0
 10
138.31252204969539
 20
337.14254486778123
 30
0.0
 40
1.995633
 50
89.899707999995798
 51
172.06112999999991
  0
ARC
  5
C9AC
  8
AM_0
 10
235.15615204969541
 20
331.52987486778142
 30
0.0
 40
1.9982919999999991
 50
15.032547999996
 51
90.002632000001341
  0
ARC
  5
C9AD
  8
AM_0
 10
242.67922204969551
 20
316.97091486778118
 30
0.0
 40
1.502775999999999
 50
194.75642999999729
 51
269.87757999999872
  0
ARC
  5
C9AE
  8
AM_0
 10
235.1512020496956
 20
222.9728748677812
 30
0.0
 40
2.0047290000000002
 50
270.13832000000423
 51
344.82650000000189
  0
ARC
  5
C9AF
  8
AM_0
 10
122.0236420496956
 20
229.2327548677813
 30
0.0
 40
0.9976310099999999
 50
180.2678099999986
 51
240.07924000000381
  0
ARC
  5
C9B0
  8
AM_0
 10
122.02175204969529
 20
230.2785348677813
 30
0.0
 40
0.9956849800000001
 50
180.02113
 51
243.40914000000089
  0
ARC
  5
C9B1
  8
AM_0
 10
123.3067220496953
 20
228.4992348677813
 30
0.0
 40
1.001123999999999
 50
239.32782000000049
 51
269.38768000000198
  0
ARC
  5
C9B2
  8
AM_0
 10
123.2718720496952
 20
229.6474348677811
 30
0.0
 40
0.9993420200000001
 50
242.86200000000159
 51
269.6654599999984
  0
ARC
  5
C9B3
  8
AM_0
 10
123.2974420496955
 20
230.61178486778141
 30
0.0
 40
1.003743999999998
 50
239.3711300000015
 51
270.49190000000061
  0
ARC
  5
C9B4
  8
AM_0
 10
123.2812120496953
 20
231.74875486778129
 30
0.0
 40
1.0006820000000001
 50
241.6506200000008
 51
269.70392999999558
  0
ARC
  5
C9B5
  8
AM_0
 10
123.3188120496954
 20
235.1286348677813
 30
0.0
 40
1.000521999999999
 50
237.14618000000269
 51
270.41344000000362
  0
ARC
  5
C9B6
  8
AM_0
 10
123.28939204969539
 20
236.26913486778139
 30
0.0
 40
1.001044999999998
 50
240.47187000000349
 51
270.37970999999948
  0
ARC
  5
C9B7
  8
AM_0
 10
122.0245020496954
 20
237.00741486778131
 30
0.0
 40
0.9984580299999999
 50
179.95957999999851
 51
239.3865700000018
  0
ARC
  5
C9B8
  8
AM_0
 10
122.0251120496953
 20
235.9728748677814
 30
0.0
 40
0.9990889999999998
 50
179.6950899999965
 51
236.6620900000016
  0
ARC
  5
C9B9
  8
AM_0
 10
122.02376204969519
 20
232.4093948677812
 30
0.0
 40
0.9977070099999998
 50
180.074020000004
 51
242.04481000000081
  0
ARC
  5
C9BA
  8
AM_0
 10
122.0248020496954
 20
231.37167486778139
 30
0.0
 40
0.9987969999999998
 50
179.62728000000101
 51
238.70794999999649
  0
ARC
  5
C9BB
  8
AM_0
 10
125.02358204969531
 20
236.27060486778129
 30
0.0
 40
1.002470999999999
 50
270.14107000000013
 51
359.85892999999987
  0
ARC
  5
C9BC
  8
AM_0
 10
125.02193204969529
 20
231.7522948677813
 30
0.0
 40
1.004119999999999
 50
270.23460999999998
 51
359.76539000000002
  0
ARC
  5
C9BD
  8
AM_0
 10
125.5226620496953
 20
229.15158486778111
 30
0.0
 40
0.5033929900000002
 50
270.38491000000062
 51
359.61509999999811
  0
ARC
  5
C9BE
  8
AM_0
 10
125.5265120496954
 20
226.99862486778119
 30
0.0
 40
0.49952301
 50
359.9452300000014
 51
90.054773999999597
  0
ARC
  5
C9BF
  8
AM_0
 10
138.23092204969541
 20
222.9673748677813
 30
0.0
 40
1.9992490000000001
 50
190.643100000001
 51
270.14743000000129
  0
ARC
  5
C9C0
  8
AM_0
 10
138.28225204969539
 20
220.11850486778121
 30
0.0
 40
2.000420099999999
 50
188.92682000000181
 51
269.82270999999599
  0
ARC
  5
C9C1
  8
AM_0
 10
223.5396320496954
 20
213.24814486778109
 30
0.0
 40
1.5
 50
90.00000299999769
 51
178.4999999999973
  0
ARC
  5
C9C2
  8
AM_0
 10
235.04226204969541
 20
216.24814486778109
 30
0.0
 40
1.5
 50
269.999989999999
 51
326.9999999999996
  0
ARC
  5
C9C3
  8
AM_0
 10
138.0126520496953
 20
220.11813486778129
 30
0.0
 40
2.0
 50
188.629619999998
 51
269.999989999999
  0
ARC
  5
C9C4
  8
AM_0
 10
137.93227204969551
 20
220.11813486778129
 30
0.0
 40
2.0
 50
187.9504400000034
 51
269.999989999999
  0
ARC
  5
C9C5
  8
AM_0
 10
160.42415204969529
 20
216.61813486778141
 30
0.0
 40
1.5
 50
1.5000027000022329
 51
90.00000299999769
  0
ARC
  5
C9C6
  8
AM_0
 10
171.4647420496953
 20
292.24814486778132
 30
0.0
 40
1.000005699999998
 50
269.999989999999
 51
90.00000299999769
  0
ARC
  5
C9C7
  8
AM_0
 10
171.4647420496953
 20
282.24814486778132
 30
0.0
 40
1.000005699999998
 50
269.999989999999
 51
90.00000299999769
  0
ARC
  5
C9C8
  8
AM_0
 10
171.4647420496953
 20
272.24814486778132
 30
0.0
 40
1.000005699999998
 50
269.999989999999
 51
90.00000299999769
  0
ARC
  5
C9C9
  8
AM_0
 10
171.4647420496953
 20
262.24814486778132
 30
0.0
 40
1.000005699999998
 50
269.999989999999
 51
90.00000299999769
  0
ARC
  5
C9CA
  8
AM_0
 10
222.0260220496954
 20
244.74814486778129
 30
0.0
 40
1.5
 50
179.999989999999
 51
270.0
  0
ARC
  5
C9CB
  8
AM_0
 10
204.0260220496956
 20
244.74814486778129
 30
0.0
 40
1.5
 50
269.999989999999
 51
0.0000006832495047
  0
ARC
  5
C9CC
  8
AM_0
 10
204.0460420496955
 20
244.8881548677814
 30
0.0
 40
1.0
 50
269.999989999999
 51
0.0000006832495047
  0
ARC
  5
C9CD
  8
AM_0
 10
222.0060620496954
 20
244.8881548677814
 30
0.0
 40
1.0
 50
179.999989999999
 51
270.0
  0
CIRCLE
  5
C9CE
  8
AM_0
 10
210.5260220496954
 20
305.74814486778132
 30
0.0
 40
1.1000000000000001
  0
CIRCLE
  5
C9CF
  8
AM_0
 10
210.5260220496954
 20
305.74814486778132
 30
0.0
 40
1.149999999999999
  0
CIRCLE
  5
C9D0
  8
AM_0
 10
215.5260220496954
 20
305.74814486778132
 30
0.0
 40
1.0
  0
ARC
  5
C9D1
  8
AM_0
 10
204.0260220496956
 20
304.74814486778132
 30
0.0
 40
1.02
 50
269.999989999999
 51
0.0000006832429909
  0
ARC
  5
C9D2
  8
AM_0
 10
222.0260220496954
 20
304.74814486778132
 30
0.0
 40
1.02
 50
179.999989999999
 51
270.0
  0
ARC
  5
C9D3
  8
AM_0
 10
204.0260220496956
 20
304.74814486778132
 30
0.0
 40
1.5
 50
269.999989999999
 51
0.0000006832495047
  0
ARC
  5
C9D4
  8
AM_0
 10
222.0260220496954
 20
304.74814486778132
 30
0.0
 40
1.5
 50
179.999989999999
 51
270.0
  0
CIRCLE
  5
C9D5
  8
AM_0
 10
215.5260220496954
 20
248.74814486778129
 30
0.0
 40
1.0
  0
CIRCLE
  5
C9D6
  8
AM_0
 10
210.5260220496954
 20
248.74814486778129
 30
0.0
 40
1.149999999999999
  0
CIRCLE
  5
C9D7
  8
AM_0
 10
210.5260220496954
 20
248.74814486778129
 30
0.0
 40
1.1000000000000001
  0
ARC
  5
C9D8
  8
AM_0
 10
204.0260220496956
 20
249.74814486778121
 30
0.0
 40
1.02
 50
0.0
 51
90.00000299999769
  0
ARC
  5
C9D9
  8
AM_0
 10
222.0260220496954
 20
249.74814486778121
 30
0.0
 40
1.02
 50
90.00000299999769
 51
180.000010000001
  0
ARC
  5
C9DA
  8
AM_0
 10
204.0260220496956
 20
249.74814486778121
 30
0.0
 40
1.5
 50
0.0
 51
90.00000299999769
  0
ARC
  5
C9DB
  8
AM_0
 10
222.0260220496954
 20
249.74814486778121
 30
0.0
 40
1.5
 50
90.00000299999769
 51
180.000010000001
  0
ARC
  5
C9DC
  8
AM_0
 10
172.6910020496955
 20
262.23813486778141
 30
0.0
 40
1.3300148000000001
 50
269.7294199999987
 51
90.270567000000995
  0
ARC
  5
C9DD
  8
AM_0
 10
172.7529520496953
 20
272.24814486778132
 30
0.0
 40
1.2700266
 50
269.62932000000001
 51
90.370669999998199
  0
ARC
  5
C9DE
  8
AM_0
 10
172.7529520496953
 20
282.25815486778129
 30
0.0
 40
1.2700266
 50
269.62932000000001
 51
90.370669999998199
  0
ARC
  5
C9DF
  8
AM_0
 10
172.6910020496955
 20
292.2631548677814
 30
0.0
 40
1.3350147999999991
 50
269.7304299999999
 51
90.269556000001415
  0
ARC
  5
C9E0
  8
AM_0
 10
236.36599204969551
 20
302.24814486778132
 30
0.0
 40
1.000025599999997
 50
269.5894700000033
 51
90.410530999997775
  0
ARC
  5
C9E1
  8
AM_0
 10
240.06600204969541
 20
302.27817486778127
 30
0.0
 40
1.460011199999999
 50
269.77524999999667
 51
90.224750000003354
  0
ARC
  5
C9E2
  8
AM_0
 10
236.36599204969551
 20
252.24814486778121
 30
0.0
 40
1.000025599999997
 50
269.5894700000033
 51
90.410530999997775
  0
ARC
  5
C9E3
  8
AM_0
 10
240.06600204969541
 20
252.2181148677812
 30
0.0
 40
1.460011199999999
 50
269.77524999999667
 51
90.224750000003354
  0
ARC
  5
C9E4
  8
AM_0
 10
222.0060620496954
 20
309.60812486778133
 30
0.0
 40
1.0
 50
90.00000299999769
 51
180.000010000001
  0
ARC
  5
C9E5
  8
AM_0
 10
222.0260220496954
 20
309.74814486778132
 30
0.0
 40
1.5
 50
90.00000299999769
 51
180.000010000001
  0
ARC
  5
C9E6
  8
AM_0
 10
204.0260220496956
 20
309.74814486778132
 30
0.0
 40
1.5
 50
0.0
 51
90.00000299999769
  0
ARC
  5
C9E7
  8
AM_0
 10
204.0460420496955
 20
309.60812486778133
 30
0.0
 40
1.0
 50
0.0
 51
90.00000299999769
  0
POLYLINE
  5
C9E8
  8
AM_0
 66
     1
 10
0.0
 20
0.0
 30
0.0
  0
VERTEX
  5
C9E9
  8
AM_0
 10
137.38601204969541
 20
277.24814486778132
 30
0.0
 42
0.00039106593
  0
VERTEX
  5
C9EA
  8
AM_0
 10
137.3836520496954
 20
276.9370048677813
 30
0.0
 42
0.00040574899
  0
VERTEX
  5
C9EB
  8
AM_0
 10
137.3817820496954
 20
276.62589486778131
 30
0.0
 42
0.0003534546
  0
VERTEX
  5
C9EC
  8
AM_0
 10
137.3803920496955
 20
276.3147948677813
 30
0.0
 42
0.00034407327
  0
VERTEX
  5
C9ED
  8
AM_0
 10
137.3794120496955
 20
276.00365486778128
 30
0.0
 42
0.00045699408
  0
VERTEX
  5
C9EE
  8
AM_0
 10
137.3789520496955
 20
275.69254486778141
 30
0.0
 42
0.00035571853
  0
VERTEX
  5
C9EF
  8
AM_0
 10
137.3789920496954
 20
275.38144486778128
 30
0.0
 42
0.00038547362
  0
VERTEX
  5
C9F0
  8
AM_0
 10
137.3794820496953
 20
275.07030486778132
 30
0.0
 42
0.00035501498
  0
VERTEX
  5
C9F1
  8
AM_0
 10
137.38044204969529
 20
274.75920486778119
 30
0.0
 42
0.00040118614
  0
VERTEX
  5
C9F2
  8
AM_0
 10
137.3818620496954
 20
274.4479648677812
 30
0.0
 42
0.00038319871
  0
VERTEX
  5
C9F3
  8
AM_0
 10
137.38377204969541
 20
274.13683486778132
 30
0.0
 42
0.00040742136
  0
VERTEX
  5
C9F4
  8
AM_0
 10
137.38617204969569
 20
273.82560486778129
 30
0.0
 42
0.0003578071
  0
VERTEX
  5
C9F5
  8
AM_0
 10
137.38906204969541
 20
273.5144948677812
 30
0.0
  0
SEQEND
  5
C9F6
  8
AM_0
  0
POLYLINE
  5
C9F7
  8
AM_0
 66
     1
 10
0.0
 20
0.0
 30
0.0
  0
VERTEX
  5
C9F8
  8
AM_0
 10
137.4300720496953
 20
270.97775486778141
 30
0.0
 42
0.00076695232
  0
VERTEX
  5
C9F9
  8
AM_0
 10
137.44487204969531
 20
270.35999486778132
 30
0.0
 42
0.00073263044
  0
VERTEX
  5
C9FA
  8
AM_0
 10
137.4615120496955
 20
269.74239486778129
 30
0.0
 42
0.0007652599
  0
VERTEX
  5
C9FB
  8
AM_0
 10
137.48000204969551
 20
269.1247248677812
 30
0.0
 42
0.00075144485
  0
VERTEX
  5
C9FC
  8
AM_0
 10
137.50037204969561
 20
268.50712486778127
 30
0.0
 42
0.00078594403
  0
VERTEX
  5
C9FD
  8
AM_0
 10
137.5226220496954
 20
267.88969486778132
 30
0.0
 42
0.00073349202
  0
VERTEX
  5
C9FE
  8
AM_0
 10
137.54677204969539
 20
267.27231486778112
 30
0.0
 42
0.0007358075
  0
VERTEX
  5
C9FF
  8
AM_0
 10
137.57271204969541
 20
266.65491486778132
 30
0.0
 42
0.00078592699
  0
VERTEX
  5
CA00
  8
AM_0
 10
137.60054204969541
 20
266.03752486778131
 30
0.0
 42
0.00074823144
  0
VERTEX
  5
CA01
  8
AM_0
 10
137.63027204969529
 20
265.42013486778143
 30
0.0
 42
0.00074896603
  0
VERTEX
  5
CA02
  8
AM_0
 10
137.66183204969551
 20
264.80300486778128
 30
0.0
 42
0.00076039765
  0
VERTEX
  5
CA03
  8
AM_0
 10
137.69525204969571
 20
264.18597486778128
 30
0.0
 42
0.00075616128
  0
VERTEX
  5
CA04
  8
AM_0
 10
137.7305520496954
 20
263.56894486778128
 30
0.0
  0
SEQEND
  5
CA05
  8
AM_0
  0
POLYLINE
  5
CA06
  8
AM_0
 66
     1
 10
0.0
 20
0.0
 30
0.0
  0
VERTEX
  5
CA07
  8
AM_0
 10
137.90426204969549
 20
260.90756486778128
 30
0.0
 42
0.00073721992
  0
VERTEX
  5
CA08
  8
AM_0
 10
137.94841204969541
 20
260.30515486778131
 30
0.0
 42
0.00074398496
  0
VERTEX
  5
CA09
  8
AM_0
 10
137.9943420496954
 20
259.70288486778122
 30
0.0
 42
0.00073322625
  0
VERTEX
  5
CA0A
  8
AM_0
 10
138.04207204969541
 20
259.10055486778128
 30
0.0
 42
0.00073594289
  0
VERTEX
  5
CA0B
  8
AM_0
 10
138.09155204969531
 20
258.4985648677814
 30
0.0
 42
0.00074742568
  0
VERTEX
  5
CA0C
  8
AM_0
 10
138.1428220496955
 20
257.89670486778141
 30
0.0
 42
0.00073216749
  0
VERTEX
  5
CA0D
  8
AM_0
 10
138.1958820496954
 20
257.2948948677813
 30
0.0
 42
0.00074184065
  0
VERTEX
  5
CA0E
  8
AM_0
 10
138.25070204969529
 20
256.69336486778138
 30
0.0
 42
0.00072077528
  0
VERTEX
  5
CA0F
  8
AM_0
 10
138.30728204969569
 20
256.0921348677814
 30
0.0
 42
0.00074978179
  0
VERTEX
  5
CA10
  8
AM_0
 10
138.36562204969519
 20
255.49093486778111
 30
0.0
 42
0.00074288888
  0
VERTEX
  5
CA11
  8
AM_0
 10
138.4257720496953
 20
254.8899148677811
 30
0.0
 42
0.00072503679
  0
VERTEX
  5
CA12
  8
AM_0
 10
138.48768204969539
 20
254.28917486778121
 30
0.0
 42
0.00074640584
  0
VERTEX
  5
CA13
  8
AM_0
 10
138.5513520496954
 20
253.6885748677812
 30
0.0
  0
SEQEND
  5
CA14
  8
AM_0
  0
POLYLINE
  5
CA15
  8
AM_0
 66
     1
 10
0.0
 20
0.0
 30
0.0
  0
VERTEX
  5
CA16
  8
AM_0
 10
138.88692204969539
 20
250.7651048677815
 30
0.0
 42
0.0006890001
  0
VERTEX
  5
CA17
  8
AM_0
 10
138.95780204969529
 20
250.1903548677812
 30
0.0
 42
0.00070644651
  0
VERTEX
  5
CA18
  8
AM_0
 10
139.03030204969531
 20
249.61567486778131
 30
0.0
 42
0.0006924559
  0
VERTEX
  5
CA19
  8
AM_0
 10
139.10439204969541
 20
249.04135486778131
 30
0.0
 42
0.00069587797
  0
VERTEX
  5
CA1A
  8
AM_0
 10
139.1800720496953
 20
248.46721486778119
 30
0.0
 42
0.00071687041
  0
VERTEX
  5
CA1B
  8
AM_0
 10
139.2573820496952
 20
247.8932148677811
 30
0.0
 42
0.00069759113
  0
VERTEX
  5
CA1C
  8
AM_0
 10
139.3363220496953
 20
247.31942486778129
 30
0.0
 42
0.00071003142
  0
VERTEX
  5
CA1D
  8
AM_0
 10
139.4168620496954
 20
246.74595486778119
 30
0.0
 42
0.00069954544
  0
VERTEX
  5
CA1E
  8
AM_0
 10
139.49900204969549
 20
246.1728548677813
 30
0.0
 42
0.0007188852
  0
VERTEX
  5
CA1F
  8
AM_0
 10
139.5827820496954
 20
245.59982486778131
 30
0.0
 42
0.00071266165
  0
VERTEX
  5
CA20
  8
AM_0
 10
139.66821204969551
 20
245.02706486778109
 30
0.0
 42
0.00071614577
  0
VERTEX
  5
CA21
  8
AM_0
 10
139.7552420496954
 20
244.45471486778129
 30
0.0
 42
0.00072290806
  0
VERTEX
  5
CA22
  8
AM_0
 10
139.84395204969539
 20
243.88241486778131
 30
0.0
  0
SEQEND
  5
CA23
  8
AM_0
  0
POLYLINE
  5
CA24
  8
AM_0
 66
     1
 10
0.0
 20
0.0
 30
0.0
  0
VERTEX
  5
CA25
  8
AM_0
 10
137.38601204969541
 20
277.24814486778132
 30
0.0
 42
-0.00039106653
  0
VERTEX
  5
CA26
  8
AM_0
 10
137.3836520496954
 20
277.55927486778131
 30
0.0
 42
-0.00040574511
  0
VERTEX
  5
CA27
  8
AM_0
 10
137.3817820496954
 20
277.8703848677813
 30
0.0
 42
-0.00035346331
  0
VERTEX
  5
CA28
  8
AM_0
 10
137.3803920496955
 20
278.18149486778128
 30
0.0
 42
-0.00034406545
  0
VERTEX
  5
CA29
  8
AM_0
 10
137.3794120496955
 20
278.49263486778142
 30
0.0
 42
-0.00045699059
  0
VERTEX
  5
CA2A
  8
AM_0
 10
137.3789520496955
 20
278.8037348677812
 30
0.0
 42
-0.00035573431
  0
VERTEX
  5
CA2B
  8
AM_0
 10
137.3789920496954
 20
279.11483486778133
 30
0.0
 42
-0.00038545888
  0
VERTEX
  5
CA2C
  8
AM_0
 10
137.3794820496953
 20
279.42597486778118
 30
0.0
 42
-0.00035501203
  0
VERTEX
  5
CA2D
  8
AM_0
 10
137.38044204969529
 20
279.73708486778128
 30
0.0
 42
-0.00040120778
  0
VERTEX
  5
CA2E
  8
AM_0
 10
137.3818620496954
 20
280.0483148677813
 30
0.0
 42
-0.00038317821
  0
VERTEX
  5
CA2F
  8
AM_0
 10
137.38377204969541
 20
280.35944486778129
 30
0.0
 42
-0.00040741862
  0
VERTEX
  5
CA30
  8
AM_0
 10
137.38617204969569
 20
280.67067486778132
 30
0.0
 42
-0.00035783324
  0
VERTEX
  5
CA31
  8
AM_0
 10
137.38906204969541
 20
280.98178486778141
 30
0.0
  0
SEQEND
  5
CA32
  8
AM_0
  0
POLYLINE
  5
CA33
  8
AM_0
 66
     1
 10
0.0
 20
0.0
 30
0.0
  0
VERTEX
  5
CA34
  8
AM_0
 10
137.4300720496953
 20
283.51852486778131
 30
0.0
 42
-0.00076691987
  0
VERTEX
  5
CA35
  8
AM_0
 10
137.44487204969531
 20
284.1362848677814
 30
0.0
 42
-0.00073262795
  0
VERTEX
  5
CA36
  8
AM_0
 10
137.4615120496955
 20
284.75388486778121
 30
0.0
 42
-0.0007652954
  0
VERTEX
  5
CA37
  8
AM_0
 10
137.48000204969551
 20
285.3715548677813
 30
0.0
 42
-0.00077334627
  0
VERTEX
  5
CA38
  8
AM_0
 10
137.50041204969551
 20
285.98915486778128
 30
0.0
 42
-0.00073282897
  0
VERTEX
  5
CA39
  8
AM_0
 10
137.5226720496953
 20
286.60657486778132
 30
0.0
 42
-0.0007571179
  0
VERTEX
  5
CA3A
  8
AM_0
 10
137.54677204969539
 20
287.22409486778128
 30
0.0
 42
-0.00073783152
  0
VERTEX
  5
CA3B
  8
AM_0
 10
137.57271204969541
 20
287.84148486778122
 30
0.0
 42
-0.0007835518
  0
VERTEX
  5
CA3C
  8
AM_0
 10
137.60054204969541
 20
288.45875486778141
 30
0.0
 42
-0.00074826133
  0
VERTEX
  5
CA3D
  8
AM_0
 10
137.63027204969529
 20
289.0761448677813
 30
0.0
 42
-0.00074893555
  0
VERTEX
  5
CA3E
  8
AM_0
 10
137.66183204969551
 20
289.69327486778133
 30
0.0
 42
-0.00076039841
  0
VERTEX
  5
CA3F
  8
AM_0
 10
137.69525204969571
 20
290.31030486778133
 30
0.0
 42
-0.00075618789
  0
VERTEX
  5
CA40
  8
AM_0
 10
137.7305520496954
 20
290.92733486778121
 30
0.0
  0
SEQEND
  5
CA41
  8
AM_0
  0
POLYLINE
  5
CA42
  8
AM_0
 66
     1
 10
0.0
 20
0.0
 30
0.0
  0
VERTEX
  5
CA43
  8
AM_0
 10
137.90426204969549
 20
293.58871486778139
 30
0.0
 42
-0.0007337051
  0
VERTEX
  5
CA44
  8
AM_0
 10
137.94840204969569
 20
294.19112486778118
 30
0.0
 42
-0.00075211323
  0
VERTEX
  5
CA45
  8
AM_0
 10
137.9943420496954
 20
294.7935248677814
 30
0.0
 42
-0.0007297491
  0
VERTEX
  5
CA46
  8
AM_0
 10
138.04207204969541
 20
295.39572486778133
 30
0.0
 42
-0.00073593041
  0
VERTEX
  5
CA47
  8
AM_0
 10
138.09155204969531
 20
295.99771486778133
 30
0.0
 42
-0.00074742739
  0
VERTEX
  5
CA48
  8
AM_0
 10
138.1428220496955
 20
296.5995748677812
 30
0.0
 42
-0.00073217363
  0
VERTEX
  5
CA49
  8
AM_0
 10
138.1958820496954
 20
297.20138486778143
 30
0.0
 42
-0.00073754168
  0
VERTEX
  5
CA4A
  8
AM_0
 10
138.25070204969529
 20
297.80292486778131
 30
0.0
 42
-0.00073075073
  0
VERTEX
  5
CA4B
  8
AM_0
 10
138.30728204969569
 20
298.40427486778128
 30
0.0
 42
-0.00074550816
  0
VERTEX
  5
CA4C
  8
AM_0
 10
138.36562204969519
 20
299.00534486778128
 30
0.0
 42
-0.00074288416
  0
VERTEX
  5
CA4D
  8
AM_0
 10
138.4257720496953
 20
299.60636486778139
 30
0.0
 42
-0.00072504001
  0
VERTEX
  5
CA4E
  8
AM_0
 10
138.48768204969539
 20
300.20710486778131
 30
0.0
 42
-0.00074640667
  0
VERTEX
  5
CA4F
  8
AM_0
 10
138.5513520496954
 20
300.8077148677811
 30
0.0
  0
SEQEND
  5
CA50
  8
AM_0
  0
POLYLINE
  5
CA51
  8
AM_0
 66
     1
 10
0.0
 20
0.0
 30
0.0
  0
VERTEX
  5
CA52
  8
AM_0
 10
138.88692204969539
 20
303.73117486778142
 30
0.0
 42
-0.00068898283
  0
VERTEX
  5
CA53
  8
AM_0
 10
138.95780204969529
 20
304.30592486778141
 30
0.0
 42
-0.00070644357
  0
VERTEX
  5
CA54
  8
AM_0
 10
139.03030204969531
 20
304.88061486778128
 30
0.0
 42
-0.00069248074
  0
VERTEX
  5
CA55
  8
AM_0
 10
139.10439204969541
 20
305.4549248677813
 30
0.0
 42
-0.0006958566
  0
VERTEX
  5
CA56
  8
AM_0
 10
139.1800720496953
 20
306.02906486778141
 30
0.0
 42
-0.00071687219
  0
VERTEX
  5
CA57
  8
AM_0
 10
139.2573820496952
 20
306.60306486778131
 30
0.0
 42
-0.00069760022
  0
VERTEX
  5
CA58
  8
AM_0
 10
139.3363220496953
 20
307.17685486778129
 30
0.0
 42
-0.00071002302
  0
VERTEX
  5
CA59
  8
AM_0
 10
139.4168620496954
 20
307.75032486778127
 30
0.0
 42
-0.00069954889
  0
VERTEX
  5
CA5A
  8
AM_0
 10
139.49900204969549
 20
308.32342486778128
 30
0.0
 42
-0.00071887947
  0
VERTEX
  5
CA5B
  8
AM_0
 10
139.5827820496954
 20
308.89645486778142
 30
0.0
 42
-0.00071266929
  0
VERTEX
  5
CA5C
  8
AM_0
 10
139.66821204969551
 20
309.46922486778112
 30
0.0
 42
-0.00071614429
  0
VERTEX
  5
CA5D
  8
AM_0
 10
139.7552420496954
 20
310.04156486778101
 30
0.0
 42
-0.00072288978
  0
VERTEX
  5
CA5E
  8
AM_0
 10
139.84395204969539
 20
310.61386486778127
 30
0.0
  0
SEQEND
  5
CA5F
  8
AM_0
  0
LINE
  5
CA60
  8
AM_0
 10
621.73634105358121
 20
170.24814486778109
 30
0.0
 11
620.65911316352913
 21
201.09591557073369
 31
0.0
  0
LINE
  5
CA61
  8
AM_0
 10
530.84402641968506
 20
201.96810356931411
 30
0.0
 11
529.73634105358133
 21
170.24814486778121
 31
0.0
  0
LINE
  5
CA62
  8
AM_0
 10
529.73634105358133
 20
170.24814486778121
 30
0.0
 11
621.73634105358144
 21
170.24814486778109
 31
0.0
  0
LINE
  5
CA63
  8
ﾁｭｳｼﾝｾﾝ1
 10
616.73634105358065
 20
159.24814486778109
 30
0.0
 11
616.73634105358065
 21
175.07566788031789
 31
0.0
  0
LINE
  5
CA64
  8
AM_0
 10
529.73634105358133
 20
166.24814486778121
 30
0.0
 11
550.55084595311382
 21
166.24814486778121
 31
0.0
  0
LINE
  5
CA65
  8
AM_0
 10
600.92183615404883
 20
166.24814486778109
 30
0.0
 11
621.73634105358065
 21
166.24814486778109
 31
0.0
  0
LINE
  5
CA66
  8
AM_0
 10
535.87212272274201
 20
162.24814486778121
 30
0.0
 11
615.60055938442065
 21
162.24814486778109
 31
0.0
  0
LINE
  5
CA67
  8
AM_0
 10
612.82898608127425
 20
164.18920735565331
 30
0.0
 11
612.73634105358065
 21
165.24814486778109
 31
0.0
  0
LINE
  5
CA68
  8
AM_0
 10
620.64369602588715
 20
164.18920735565331
 30
0.0
 11
620.73634105358065
 21
165.24814486778109
 31
0.0
  0
ARC
  5
CA69
  8
AM_0
 10
616.73634105358065
 20
168.6481448677813
 30
0.0
 40
6.5
 50
241.82726586813521
 51
298.1727341318649
  0
ARC
  5
CA6A
  8
AM_0
 10
619.04978450894032
 20
164.32865654404981
 30
0.0
 40
1.6000000000000001
 50
298.1727341318649
 51
354.99999999999977
  0
LINE
  5
CA6B
  8
AM_0
 10
614.4363410535808
 20
162.56867120635289
 30
0.0
 11
616.73634105358065
 21
164.8582308851484
 31
0.0
  0
LINE
  5
CA6C
  8
AM_0
 10
616.42484105358074
 20
164.5481448677811
 30
0.0
 11
617.04784105358078
 21
164.5481448677811
 31
0.0
  0
LINE
  5
CA6D
  8
AM_0
 10
619.03634105358083
 20
162.56867120635289
 30
0.0
 11
616.73634105358065
 21
164.8582308851484
 31
0.0
  0
LINE
  5
CA6E
  8
AM_0
 10
616.42484105358074
 20
162.15561317744641
 30
0.0
 11
616.42484105358074
 21
164.5481448677811
 31
0.0
  0
LINE
  5
CA6F
  8
AM_0
 10
617.04784105358078
 20
162.15561317744641
 30
0.0
 11
617.04784105358078
 21
164.5481448677811
 31
0.0
  0
ARC
  5
CA70
  8
AM_0
 10
614.42289759822086
 20
164.32865654404981
 30
0.0
 40
1.6000000000000001
 50
185.0
 51
241.82726586813521
  0
LINE
  5
CA71
  8
AM_0
 10
529.73634105358133
 20
166.24814486778121
 30
0.0
 11
529.73634105358133
 21
170.24814486778121
 31
0.0
  0
LINE
  5
CA72
  8
AM_0
 10
530.73634105358144
 20
165.24814486778101
 30
0.0
 11
529.73634105358133
 21
166.24814486778141
 31
0.0
  0
LINE
  5
CA73
  8
AM_0
 10
621.73634105358144
 20
170.24814486778109
 30
0.0
 11
621.73634105358053
 21
166.24814486778109
 31
0.0
  0
LINE
  5
CA74
  8
AM_0N
 10
612.93634105358046
 20
166.24814486778109
 30
0.0
 11
612.93634105358046
 21
165.24814486778109
 31
0.0
  0
LINE
  5
CA75
  8
AM_0N
 10
616.53634105358083
 20
165.24814486778109
 30
0.0
 11
616.17237081931455
 21
166.24814486778109
 31
0.0
  0
LINE
  5
CA76
  8
AM_0N
 10
616.93634105358046
 20
165.24814486778109
 30
0.0
 11
616.57237081931453
 21
166.24814486778109
 31
0.0
  0
LINE
  5
CA77
  8
AM_0N
 10
620.73634105358065
 20
165.24814486778109
 30
0.0
 11
612.73634105358065
 21
165.24814486778109
 31
0.0
  0
LINE
  5
CA78
  8
AM_0N
 10
620.53634105358083
 20
165.24814486778109
 30
0.0
 11
620.53634105358083
 21
166.24814486778109
 31
0.0
  0
LINE
  5
CA79
  8
AM_0
 10
600.92183615404895
 20
162.24814486778109
 30
0.0
 11
600.92183615404895
 21
166.24814486778109
 31
0.0
  0
LINE
  5
CA7A
  8
AM_0
 10
602.57869040354126
 20
166.24814486778109
 30
0.0
 11
600.92183615404895
 21
162.24814486778109
 31
0.0
  0
LINE
  5
CA7B
  8
AM_0
 10
550.55084595311382
 20
162.24814486778121
 30
0.0
 11
550.55084595311382
 21
166.24814486778121
 31
0.0
  0
LINE
  5
CA7C
  8
AM_0
 10
548.89399170362105
 20
166.24814486778121
 30
0.0
 11
550.55084595311382
 21
162.24814486778121
 31
0.0
  0
LINE
  5
CA7D
  8
ﾁｭｳｼﾝｾﾝ1
 10
534.73634105358201
 20
159.24814486778121
 30
0.0
 11
534.73634105358201
 21
175.07566788031789
 31
0.0
  0
LINE
  5
CA7E
  8
AM_0
 10
538.64369602588818
 20
164.18920735565331
 30
0.0
 11
538.73634105358201
 21
165.24814486778109
 31
0.0
  0
LINE
  5
CA7F
  8
AM_0
 10
530.8289860812755
 20
164.18920735565331
 30
0.0
 11
530.73634105358201
 21
165.24814486778109
 31
0.0
  0
ARC
  5
CA80
  8
AM_0
 10
534.7363410535819
 20
168.6481448677813
 30
0.0
 40
6.5
 50
241.82726586813521
 51
298.1727341318649
  0
ARC
  5
CA81
  8
AM_0
 10
532.42289759822211
 20
164.32865654404981
 30
0.0
 40
1.6000000000000001
 50
185.0
 51
241.82726586813521
  0
LINE
  5
CA82
  8
AM_0
 10
537.03634105358185
 20
162.56867120635289
 30
0.0
 11
534.73634105358201
 21
164.8582308851484
 31
0.0
  0
LINE
  5
CA83
  8
AM_0
 10
535.04784105358203
 20
164.5481448677811
 30
0.0
 11
534.42484105358187
 21
164.5481448677811
 31
0.0
  0
LINE
  5
CA84
  8
AM_0
 10
532.43634105358205
 20
162.56867120635289
 30
0.0
 11
534.73634105358201
 21
164.8582308851484
 31
0.0
  0
LINE
  5
CA85
  8
AM_0
 10
535.04784105358203
 20
162.15561317744641
 30
0.0
 11
535.04784105358203
 21
164.5481448677811
 31
0.0
  0
LINE
  5
CA86
  8
AM_0
 10
534.42484105358187
 20
162.15561317744641
 30
0.0
 11
534.42484105358187
 21
164.5481448677811
 31
0.0
  0
ARC
  5
CA87
  8
AM_0
 10
537.04978450894146
 20
164.32865654404981
 30
0.0
 40
1.6000000000000001
 50
298.1727341318649
 51
354.99999999999977
  0
LINE
  5
CA88
  8
AM_0N
 10
538.53634105358185
 20
166.24814486778109
 30
0.0
 11
538.53634105358185
 21
165.24814486778109
 31
0.0
  0
LINE
  5
CA89
  8
AM_0N
 10
534.93634105358205
 20
165.24814486778109
 30
0.0
 11
535.30031128784799
 21
166.24814486778109
 31
0.0
  0
LINE
  5
CA8A
  8
AM_0N
 10
534.53634105358185
 20
165.24814486778109
 30
0.0
 11
534.90031128784813
 21
166.24814486778109
 31
0.0
  0
LINE
  5
CA8B
  8
AM_0N
 10
530.73634105358201
 20
165.24814486778109
 30
0.0
 11
538.73634105358201
 21
165.24814486778109
 31
0.0
  0
LINE
  5
CA8C
  8
AM_0N
 10
530.93634105358205
 20
165.24814486778109
 30
0.0
 11
530.93634105358205
 21
166.24814486778109
 31
0.0
  0
LINE
  5
CA90
  8
ﾁｭｳｼﾝｾﾝ
 10
255.3265881833901
 20
260.748144376043
 30
0.0
 11
427.52602663925308
 21
260.748144376043
 31
0.0
  0
LINE
  5
CA91
  8
AM_0
 10
295.01820795853229
 20
314.74814598536841
 30
0.0
 11
396.03384073041639
 21
314.74814598536841
 31
0.0
  0
LINE
  5
CA92
  8
AM_0
 10
264.53212556532043
 20
320.74814486778132
 30
0.0
 11
412.52602204969531
 21
320.74814486778132
 31
0.0
  0
LINE
  5
CA93
  8
AM_0
 10
278.52602234771871
 20
200.74814258790369
 30
0.0
 11
412.52602634122991
 21
200.74814258790369
 31
0.0
  0
LINE
  5
CA94
  8
AM_0
 10
278.52602234771871
 20
200.7481425879038
 30
0.0
 11
412.52602634122991
 21
200.7481425879038
 31
0.0
  0
LINE
  5
CA95
  8
AM_0
 10
295.01820795853229
 20
206.74814276671759
 30
0.0
 11
396.03384073041639
 21
206.74814276671759
 31
0.0
  0
CIRCLE
  5
CA96
  8
AM_0
 10
365.02602492561942
 20
260.748144376043
 30
0.0
 40
37.500001117587097
  0
CIRCLE
  5
CA97
  8
AM_0
 10
365.02602492561942
 20
260.748144376043
 30
0.0
 40
36.500001117587097
  0
LINE
  5
CA98
  8
ﾁｭｳｼﾝｾﾝ
 10
286.15697919423332
 20
277.24814486778132
 30
0.0
 11
110.5321255653203
 21
277.24814486778132
 31
0.0
  0
ARC
  5
CA99
  8
AM_0
 10
278.52602234771871
 20
310.74814586615901
 30
0.0
 40
10.000000298023229
 50
90.000002504475205
 51
180.00000500895359
  0
LINE
  5
CA9A
  8
ﾁｭｳｼﾝｾﾝ1
 10
279.02602236261993
 20
317.74814607477538
 30
0.0
 11
279.02602236261993
 21
302.74814562774048
 31
0.0
  0
ARC
  5
CA9B
  8
AM_0
 10
494.53211030653108
 20
277.24814486778132
 30
0.0
 40
236.0
 50
169.43602826973299
 51
179.999994991043
  0
LINE
  5
CA9C
  8
AM_0
 10
262.53212556532043
 20
331.24814486778121
 30
0.0
 11
262.53212556532048
 21
223.24814486778129
 31
0.0
  0
LINE
  5
CA9D
  8
AM_0
 10
251.0260220496954
 20
333.24814486778132
 30
0.0
 11
251.0260220496954
 21
221.24814486778129
 31
0.0
  0
ARC
  5
CA9E
  8
AM_0
 10
494.53211030653108
 20
277.24814486778132
 30
0.0
 40
236.0
 50
179.999994991043
 51
190.56396171235889
  0
LINE
  5
CA9F
  8
AM_0
 10
274.52602222850931
 20
294.25596025534549
 30
0.0
 11
274.52602222850931
 21
227.24032849674049
 31
0.0
  0
LINE
  5
CAA0
  8
AM_0
 10
268.52602204969548
 20
310.74814586615901
 30
0.0
 11
268.52602204969548
 21
210.74814288592691
 31
0.0
  0
CIRCLE
  5
CAA1
  8
AM_0
 10
279.02602236261993
 20
211.24814290082799
 30
0.0
 40
4.5000001341104507
  0
LINE
  5
CAA2
  8
ﾁｭｳｼﾝｾﾝ1
 10
286.52602258613729
 20
211.24814290082799
 30
0.0
 11
271.52602213910239
 21
211.24814290082799
 31
0.0
  0
ARC
  5
CAA3
  8
AM_0
 10
279.02602236261993
 20
211.24814290082799
 30
0.0
 40
11.0
 50
1.790784178846567
 51
88.209215821153393
  0
LINE
  5
CAA4
  8
ﾁｭｳｼﾝｾﾝ1
 10
279.02602236261993
 20
203.7481426773106
 30
0.0
 11
279.02602236261993
 21
218.74814312434549
 31
0.0
  0
ARC
  5
CAA5
  8
AM_0
 10
278.52602234771871
 20
210.74814288592691
 30
0.0
 40
10.000000298023259
 50
179.999994991043
 51
269.99999749551819
  0
LINE
  5
CAA6
  8
AM_0
 10
251.0260220496954
 20
221.24814486778129
 30
0.0
 11
260.53212556532048
 21
221.24814486778129
 31
0.0
  0
LINE
  5
CAA7
  8
AM_0
 10
251.0260220496954
 20
245.3081948677814
 30
0.0
 11
260.63203818565819
 21
245.3081948677814
 31
0.0
  0
LINE
  5
CAA8
  8
AM_0
 10
251.0260220496954
 20
231.24814486778121
 30
0.0
 11
262.53212556532048
 21
231.24814486778129
 31
0.0
  0
LINE
  5
CAA9
  8
AM_0
 10
263.03212556532048
 20
233.98152804649229
 30
0.0
 11
268.52602204969548
 21
233.98152804649229
 31
0.0
  0
ARC
  5
CAAA
  8
AM_0
 10
266.52602204969548
 20
221.24814486778129
 30
0.0
 40
2.0
 50
0.0
 51
90.0
1001
GENIUS_GENODEF_13
1002
{
1000
HIER
1070
     0
1002
}
1002
{
1000
MANEDIT
1070
     0
1002
}
1002
{
1000
NOSEL
1070
     0
1002
}
1002
{
1000
BEHIND
1070
     0
1002
}
1002
{
1000
OTHER
1070
     0
1002
}
1002
{
1000
REACTOR
1002
}
1001
GENIUS_GENOBJ-N-FIL_13
1002
{
1000
OWNER
1000
GEN
1002
}
  0
ARC
  5
CAAB
  8
AM_0
 10
260.53212556532048
 20
223.24814486778129
 30
0.0
 40
2.0
 50
270.0
 51
329.99999999999869
1001
GENIUS_GENOBJ-N-FIL_13
1002
{
1000
OWNER
1000
GEN
1002
}
1001
GENIUS_GENODEF_13
1002
{
1000
HIER
1070
     0
1002
}
1002
{
1000
MANEDIT
1070
     0
1002
}
1002
{
1000
NOSEL
1070
     0
1002
}
1002
{
1000
BEHIND
1070
     0
1002
}
1002
{
1000
OTHER
1070
     0
1002
}
1002
{
1000
REACTOR
1002
}
  0
LINE
  5
CAAC
  8
AM_0
 10
266.52602204969548
 20
223.24814486778129
 30
0.0
 11
263.99622718045822
 21
223.24814486778129
 31
0.0
  0
ARC
  5
CAAD
  8
AM_0
 10
263.99622718045822
 20
221.24814486778129
 30
0.0
 40
2.0
 50
90.0
 51
149.99999999999869
1001
GENIUS_GENOBJ-N-FIL_13
1002
{
1000
OWNER
1000
GEN
1002
}
1001
GENIUS_GENODEF_13
1002
{
1000
HIER
1070
     0
1002
}
1002
{
1000
MANEDIT
1070
     0
1002
}
1002
{
1000
NOSEL
1070
     0
1002
}
1002
{
1000
BEHIND
1070
     0
1002
}
1002
{
1000
OTHER
1070
     0
1002
}
1002
{
1000
REACTOR
1002
}
  0
ARC
  5
CAAE
  8
AM_0
 10
279.52602222850931
 20
227.24032849674049
 30
0.0
 40
5.0
 50
180.0
 51
268.20921582115341
1001
GENIUS_GENOBJ-N-FIL_13
1002
{
1000
OWNER
1000
GEN
1002
}
1001
GENIUS_GENODEF_13
1002
{
1000
HIER
1070
     0
1002
}
1002
{
1000
MANEDIT
1070
     0
1002
}
1002
{
1000
NOSEL
1070
     0
1002
}
1002
{
1000
BEHIND
1070
     0
1002
}
1002
{
1000
OTHER
1070
     0
1002
}
1002
{
1000
REACTOR
1002
}
  0
ARC
  5
CAAF
  8
AM_0
 10
295.01820795853229
 20
211.74814276671759
 30
0.0
 40
5.0
 50
181.79078417884659
 51
270.0
1001
GENIUS_GENOBJ-N-FIL_13
1002
{
1000
OWNER
1000
GEN
1002
}
1001
GENIUS_GENODEF_13
1002
{
1000
HIER
1070
     0
1002
}
1002
{
1000
MANEDIT
1070
     0
1002
}
1002
{
1000
NOSEL
1070
     0
1002
}
1002
{
1000
BEHIND
1070
     0
1002
}
1002
{
1000
OTHER
1070
     0
1002
}
1002
{
1000
REACTOR
1002
}
  0
CIRCLE
  5
CAB0
  8
AM_0
 10
279.02602236261993
 20
310.2481458512579
 30
0.0
 40
4.5000001341104507
  0
LINE
  5
CAB1
  8
ﾁｭｳｼﾝｾﾝ1
 10
286.52602258613729
 20
310.2481458512579
 30
0.0
 11
271.52602213910239
 21
310.2481458512579
 31
0.0
  0
ARC
  5
CAB2
  8
AM_0
 10
279.02602236261993
 20
310.2481458512579
 30
0.0
 40
11.0
 50
271.79078417884659
 51
358.20921582115352
  0
LINE
  5
CAB3
  8
AM_0
 10
251.0260220496954
 20
309.1880848677813
 30
0.0
 11
260.70677241068898
 21
309.1880848677813
 31
0.0
  0
ARC
  5
CAB4
  8
AM_0
 10
279.52602222850931
 20
294.25596025534549
 30
0.0
 40
5.0
 50
91.790784178846579
 51
180.0
1001
GENIUS_GENOBJ-N-FIL_13
1002
{
1000
OWNER
1000
GEN
1002
}
1001
GENIUS_GENODEF_13
1002
{
1000
HIER
1070
     0
1002
}
1002
{
1000
MANEDIT
1070
     0
1002
}
1002
{
1000
NOSEL
1070
     0
1002
}
1002
{
1000
BEHIND
1070
     0
1002
}
1002
{
1000
OTHER
1070
     0
1002
}
1002
{
1000
REACTOR
1002
}
  0
ARC
  5
CAB5
  8
AM_0
 10
295.01820795853229
 20
309.74814598536841
 30
0.0
 40
5.0
 50
90.0
 51
178.20921582115341
1001
GENIUS_GENOBJ-N-FIL_13
1002
{
1000
OWNER
1000
GEN
1002
}
1001
GENIUS_GENODEF_13
1002
{
1000
HIER
1070
     0
1002
}
1002
{
1000
MANEDIT
1070
     0
1002
}
1002
{
1000
NOSEL
1070
     0
1002
}
1002
{
1000
BEHIND
1070
     0
1002
}
1002
{
1000
OTHER
1070
     0
1002
}
1002
{
1000
REACTOR
1002
}
  0
LINE
  5
CAB6
  8
AM_0
 10
251.0260220496954
 20
333.24814486778132
 30
0.0
 11
260.53212556532043
 21
333.24814486778121
 31
0.0
  0
LINE
  5
CAB7
  8
AM_0
 10
251.0260220496954
 20
323.24814486778132
 30
0.0
 11
262.53212556532043
 21
323.24814486778132
 31
0.0
  0
ARC
  5
CAB8
  8
AM_0
 10
260.53212556532043
 20
331.24814486778121
 30
0.0
 40
2.0
 50
0.0
 51
90.0
1001
GENIUS_GENOBJ-N-FIL_13
1002
{
1000
OWNER
1000
GEN
1002
}
1001
GENIUS_GENODEF_13
1002
{
1000
HIER
1070
     0
1002
}
1002
{
1000
MANEDIT
1070
     0
1002
}
1002
{
1000
NOSEL
1070
     0
1002
}
1002
{
1000
BEHIND
1070
     0
1002
}
1002
{
1000
OTHER
1070
     0
1002
}
1002
{
1000
REACTOR
1002
}
  0
ARC
  5
CAB9
  8
AM_0
 10
264.53212556532043
 20
322.74814486778132
 30
0.0
 40
2.0
 50
180.0
 51
270.0
1001
GENIUS_GENOBJ-N-FIL_13
1002
{
1000
OWNER
1000
GEN
1002
}
1001
GENIUS_GENODEF_13
1002
{
1000
HIER
1070
     0
1002
}
1002
{
1000
MANEDIT
1070
     0
1002
}
1002
{
1000
NOSEL
1070
     0
1002
}
1002
{
1000
BEHIND
1070
     0
1002
}
1002
{
1000
OTHER
1070
     0
1002
}
1002
{
1000
REACTOR
1002
}
  0
LINE
  5
CABA
  8
ﾁｭｳｼﾝｾﾝ
 10
575.73634105358121
 20
154.70804086754879
 30
0.0
 11
575.73634105358121
 21
343.74814437604289
 31
0.0
  0
LINE
  5
CABB
  8
AM_0
 10
526.73633959326753
 20
280.74814497208922
 30
0.0
 11
525.73634105358133
 21
280.74814497208922
 31
0.0
  0
LINE
  5
CABC
  8
AM_0
 10
526.73633959326753
 20
240.7481437799965
 30
0.0
 11
525.73634105358133
 21
240.7481437799965
 31
0.0
  0
LINE
  5
CABD
  8
ﾁｭｳｼﾝｾﾝ
 10
509.23634105358133
 20
277.24814486778132
 30
0.0
 11
642.23634105358121
 21
277.24814486778132
 31
0.0
  0
LINE
  5
CABE
  8
ﾁｭｳｼﾝｾﾝ
 10
512.73633947405813
 20
260.748144376043
 30
0.0
 11
638.7363426331043
 21
260.748144376043
 31
0.0
  0
LINE
  5
CABF
  8
AM_0
 10
517.57003662171962
 20
301.20595845299857
 30
0.0
 11
524.45538699546114
 21
300.96551671972719
 31
0.0
  0
ARC
  5
CAC0
  8
AM_0
 10
575.73634105358121
 20
277.248144376043
 30
0.0
 40
56.5
 50
144.98137173791559
 51
159.26891515525759
  0
LINE
  5
CAC1
  8
AM_0
 10
520.42646968075132
 20
313.27224419875182
 30
0.0
 11
529.73634105358133
 21
313.59735207096031
 31
0.0
  0
LINE
  5
CAC2
  8
AM_0
 10
520.40238577641094
 20
311.20167850964611
 30
0.0
 11
529.73634105358133
 21
310.87572960896568
 31
0.0
  0
LINE
  5
CAC3
  8
AM_0
 10
517.58637135604226
 20
303.27475510200219
 30
0.0
 11
525.73664645614815
 21
303.55936898006729
 31
0.0
  0
LINE
  5
CAC4
  8
ﾁｭｳｼﾝｾﾝ1
 10
412.0260263263288
 20
317.74814607477538
 30
0.0
 11
412.0260263263288
 21
302.74814562774048
 31
0.0
  0
ARC
  5
CAC5
  8
AM_0
 10
412.52602634122991
 20
310.74814586615901
 30
0.0
 40
10.00000029802322
 50
0.0
 51
90.000002504475205
  0
LINE
  5
CAC6
  8
ﾁｭｳｼﾝｾﾝ
 10
365.02602492561942
 20
325.74814551598189
 30
0.0
 11
365.02602492561942
 21
195.74814323610411
 31
0.0
  0
ARC
  5
CAC7
  8
AM_0
 10
365.02602492561942
 20
260.748144376043
 30
0.0
 40
12.500000372529
 50
108.6629275058358
 51
71.337073860656602
  0
CIRCLE
  5
CAC8
  8
AM_0
 10
365.02602492561942
 20
260.748144376043
 30
0.0
 40
18.500000596046451
  0
LINE
  5
CAC9
  8
AM_0
 10
416.52602646043891
 20
294.25596025534549
 30
0.0
 11
416.52602646043891
 21
227.24032849674049
 31
0.0
  0
LINE
  5
CACA
  8
AM_0
 10
422.52602663925308
 20
310.74814586615901
 30
0.0
 11
422.52602663925308
 21
210.74814288592691
 31
0.0
  0
LINE
  5
CACB
  8
ﾁｭｳｼﾝｾﾝ1
 10
412.0260263263288
 20
203.7481426773106
 30
0.0
 11
412.0260263263288
 21
218.74814312434549
 31
0.0
  0
ARC
  5
CACC
  8
AM_0
 10
412.0260263263288
 20
211.24814290082799
 30
0.0
 40
11.0
 50
91.790784178846579
 51
178.20921582115341
  0
ARC
  5
CACD
  8
AM_0
 10
396.03384073041639
 20
211.74814276671759
 30
0.0
 40
5.0
 50
270.0
 51
358.20921582115352
1001
GENIUS_GENODEF_13
1002
{
1000
HIER
1070
     0
1002
}
1002
{
1000
MANEDIT
1070
     0
1002
}
1002
{
1000
NOSEL
1070
     0
1002
}
1002
{
1000
BEHIND
1070
     0
1002
}
1002
{
1000
OTHER
1070
     0
1002
}
1002
{
1000
REACTOR
1002
}
1001
GENIUS_GENOBJ-N-FIL_13
1002
{
1000
OWNER
1000
GEN
1002
}
  0
ARC
  5
CACE
  8
AM_0
 10
412.52602634122991
 20
210.74814288592691
 30
0.0
 40
10.000000298023229
 50
269.99999749551819
 51
0.0
  0
LINE
  5
CACF
  8
ﾁｭｳｼﾝｾﾝ1
 10
404.52602610281099
 20
211.24814290082799
 30
0.0
 11
419.52602654984611
 21
211.24814290082799
 31
0.0
  0
CIRCLE
  5
CAD0
  8
AM_0
 10
412.0260263263288
 20
211.24814290082799
 30
0.0
 40
4.5000001341104507
  0
ARC
  5
CAD1
  8
AM_0
 10
411.52602646043903
 20
227.24032849674049
 30
0.0
 40
5.0
 50
271.79078417884659
 51
0.0
1001
GENIUS_GENOBJ-N-FIL_13
1002
{
1000
OWNER
1000
GEN
1002
}
1001
GENIUS_GENODEF_13
1002
{
1000
HIER
1070
     0
1002
}
1002
{
1000
MANEDIT
1070
     0
1002
}
1002
{
1000
NOSEL
1070
     0
1002
}
1002
{
1000
BEHIND
1070
     0
1002
}
1002
{
1000
OTHER
1070
     0
1002
}
1002
{
1000
REACTOR
1002
}
  0
LINE
  5
CAD2
  8
AM_0
 10
361.02602480641042
 20
276.54813263988808
 30
0.0
 11
369.02602504482888
 21
276.54813263988808
 31
0.0
  0
LINE
  5
CAD3
  8
AM_0
 10
361.02602480641042
 20
276.54813263988808
 30
0.0
 11
361.02602480641042
 21
272.59085713132708
 31
0.0
  0
LINE
  5
CAD4
  8
AM_0
 10
369.02602504482888
 20
276.54813263988808
 30
0.0
 11
369.02602504482888
 21
272.59085713132708
 31
0.0
  0
ARC
  5
CAD5
  8
AM_0
 10
412.0260263263288
 20
310.2481458512579
 30
0.0
 40
11.0
 50
181.79078417884659
 51
268.20921582115341
  0
ARC
  5
CAD6
  8
AM_0
 10
396.03384073041639
 20
309.7481459853683
 30
0.0
 40
5.0
 50
1.790784178846567
 51
90.0
1001
GENIUS_GENOBJ-N-FIL_13
1002
{
1000
OWNER
1000
GEN
1002
}
1001
GENIUS_GENODEF_13
1002
{
1000
HIER
1070
     0
1002
}
1002
{
1000
MANEDIT
1070
     0
1002
}
1002
{
1000
NOSEL
1070
     0
1002
}
1002
{
1000
BEHIND
1070
     0
1002
}
1002
{
1000
OTHER
1070
     0
1002
}
1002
{
1000
REACTOR
1002
}
  0
ARC
  5
CAD7
  8
AM_0
 10
411.52602646043903
 20
294.25596025534549
 30
0.0
 40
5.0
 50
0.0
 51
88.209215821153393
1001
GENIUS_GENOBJ-N-FIL_13
1002
{
1000
OWNER
1000
GEN
1002
}
1001
GENIUS_GENODEF_13
1002
{
1000
HIER
1070
     0
1002
}
1002
{
1000
MANEDIT
1070
     0
1002
}
1002
{
1000
NOSEL
1070
     0
1002
}
1002
{
1000
BEHIND
1070
     0
1002
}
1002
{
1000
OTHER
1070
     0
1002
}
1002
{
1000
REACTOR
1002
}
  0
LINE
  5
CAD8
  8
ﾁｭｳｼﾝｾﾝ1
 10
404.52602610281099
 20
310.2481458512579
 30
0.0
 11
419.52602654984611
 21
310.2481458512579
 31
0.0
  0
CIRCLE
  5
CAD9
  8
AM_0
 10
412.0260263263288
 20
310.2481458512579
 30
0.0
 40
4.5000001341104507
  0
ARC
  5
CADA
  8
AM_0
 10
517.62127085274494
 20
252.2209244771025
 30
0.0
 40
1.0
 50
193.15111826064549
 51
268.0000000000029
1001
GENIUS_GENODEF_13
1002
{
1000
HIER
1070
     0
1002
}
1002
{
1000
MANEDIT
1070
     0
1002
}
1002
{
1000
NOSEL
1070
     0
1002
}
1002
{
1000
BEHIND
1070
     0
1002
}
1002
{
1000
REACTOR
1002
}
1001
GENIUS_GENOBJ-N-FIL_13
1002
{
1000
OWNER
1000
GEN
1002
}
  0
LINE
  5
CADB
  8
AM_0
 10
517.58637135604226
 20
251.2215336500835
 30
0.0
 11
518.23634105358144
 21
251.1988362080991
 31
0.0
  0
LINE
  5
CADC
  8
AM_0
 10
517.57003662171962
 20
253.29033029908709
 30
0.0
 11
518.23634105358121
 21
253.31359816256341
 31
0.0
  0
ARC
  5
CADD
  8
AM_0
 10
517.60493611842207
 20
252.29093947206781
 30
0.0
 40
1.0
 50
92.000000000003624
 51
193.11367014329679
1001
GENIUS_GENODEF_13
1002
{
1000
HIER
1070
     0
1002
}
1002
{
1000
MANEDIT
1070
     0
1002
}
1002
{
1000
NOSEL
1070
     0
1002
}
1002
{
1000
BEHIND
1070
     0
1002
}
1002
{
1000
REACTOR
1002
}
1001
GENIUS_GENOBJ-N-FIL_13
1002
{
1000
OWNER
1000
GEN
1002
}
  0
ARC
  5
CADE
  8
AM_0
 10
624.73634105358121
 20
277.248144376043
 30
0.0
 40
111.0
 50
193.1136701432992
 51
193.15111826064549
  0
LINE
  5
CADF
  8
AM_0
 10
515.73308187060911
 20
261.21889701997668
 30
0.0
 11
518.23634105358121
 21
261.13148128306989
 31
0.0
  0
LINE
  5
CAE0
  8
AM_0
 10
515.72359971823562
 20
263.28658642994918
 30
0.0
 11
518.23634105358121
 21
263.37433329091328
 31
0.0
  0
ARC
  5
CAE1
  8
AM_0
 10
624.73634105358121
 20
277.248144376043
 30
0.0
 40
111.0
 50
187.81694783169559
 51
187.8531780888066
  0
ARC
  5
CAE2
  8
AM_0
 10
515.76798136731168
 20
262.21828784699562
 30
0.0
 40
1.0
 50
187.85317808880569
 51
268.0000000000029
1001
GENIUS_GENODEF_13
1002
{
1000
HIER
1070
     0
1002
}
1002
{
1000
MANEDIT
1070
     0
1002
}
1002
{
1000
NOSEL
1070
     0
1002
}
1002
{
1000
BEHIND
1070
     0
1002
}
1002
{
1000
REACTOR
1002
}
1001
GENIUS_GENOBJ-N-FIL_13
1002
{
1000
OWNER
1000
GEN
1002
}
  0
ARC
  5
CAE3
  8
AM_0
 10
515.75849921493818
 20
262.28719560293013
 30
0.0
 40
1.0
 50
92.000000000003624
 51
187.81694783168999
1001
GENIUS_GENODEF_13
1002
{
1000
HIER
1070
     0
1002
}
1002
{
1000
MANEDIT
1070
     0
1002
}
1002
{
1000
NOSEL
1070
     0
1002
}
1002
{
1000
BEHIND
1070
     0
1002
}
1002
{
1000
REACTOR
1002
}
1001
GENIUS_GENOBJ-N-FIL_13
1002
{
1000
OWNER
1000
GEN
1002
}
  0
LINE
  5
CAE4
  8
AM_0
 10
514.81351774900418
 20
273.28324258529841
 30
0.0
 11
518.23634105358144
 21
273.4027702089287
 31
0.0
  0
LINE
  5
CAE5
  8
AM_0
 10
514.81662792746465
 20
271.21608689714429
 30
0.0
 11
518.23634105358121
 21
271.09666788333931
 31
0.0
  0
ARC
  5
CAE6
  8
AM_0
 10
514.85152742416722
 20
272.21547772416329
 30
0.0
 40
1.0
 50
182.62228408795301
 51
267.99999999999642
1001
GENIUS_GENODEF_13
1002
{
1000
HIER
1070
     0
1002
}
1002
{
1000
MANEDIT
1070
     0
1002
}
1002
{
1000
NOSEL
1070
     0
1002
}
1002
{
1000
BEHIND
1070
     0
1002
}
1002
{
1000
REACTOR
1002
}
1001
GENIUS_GENOBJ-N-FIL_13
1002
{
1000
OWNER
1000
GEN
1002
}
  0
ARC
  5
CAE7
  8
AM_0
 10
624.73634105358121
 20
277.248144376043
 30
0.0
 40
111.0
 50
182.58663322877649
 51
182.62228408795301
  0
ARC
  5
CAE8
  8
AM_0
 10
514.84841724570686
 20
272.2838517582793
 30
0.0
 40
1.0
 50
92.000000000003624
 51
182.58663322877649
1001
GENIUS_GENODEF_13
1002
{
1000
HIER
1070
     0
1002
}
1002
{
1000
MANEDIT
1070
     0
1002
}
1002
{
1000
NOSEL
1070
     0
1002
}
1002
{
1000
BEHIND
1070
     0
1002
}
1002
{
1000
REACTOR
1002
}
1001
GENIUS_GENOBJ-N-FIL_13
1002
{
1000
OWNER
1000
GEN
1002
}
  0
LINE
  5
CAE9
  8
AM_0
 10
514.81351774900418
 20
281.21304616678691
 30
0.0
 11
518.73634105358133
 21
281.07605815841129
 31
0.0
  0
LINE
  5
CAEA
  8
AM_0
 10
514.81662792746465
 20
283.28020185494131
 30
0.0
 11
518.73634105358133
 21
283.41708125349231
 31
0.0
  0
ARC
  5
CAEB
  8
AM_0
 10
514.85152742416722
 20
282.28081102792231
 30
0.0
 40
1.0
 50
92.000000000003624
 51
177.37771591204699
1001
GENIUS_GENODEF_13
1002
{
1000
HIER
1070
     0
1002
}
1002
{
1000
MANEDIT
1070
     0
1002
}
1002
{
1000
NOSEL
1070
     0
1002
}
1002
{
1000
BEHIND
1070
     0
1002
}
1002
{
1000
REACTOR
1002
}
1001
GENIUS_GENOBJ-N-FIL_13
1002
{
1000
OWNER
1000
GEN
1002
}
  0
ARC
  5
CAEC
  8
AM_0
 10
624.73634105358121
 20
277.248144376043
 30
0.0
 40
111.0
 50
177.37771591204699
 51
177.41336677122339
  0
ARC
  5
CAED
  8
AM_0
 10
514.84841724570686
 20
282.21243699380619
 30
0.0
 40
1.0
 50
177.41336677122669
 51
267.99999999999642
1001
GENIUS_GENODEF_13
1002
{
1000
HIER
1070
     0
1002
}
1002
{
1000
MANEDIT
1070
     0
1002
}
1002
{
1000
NOSEL
1070
     0
1002
}
1002
{
1000
BEHIND
1070
     0
1002
}
1002
{
1000
REACTOR
1002
}
1001
GENIUS_GENOBJ-N-FIL_13
1002
{
1000
OWNER
1000
GEN
1002
}
  0
ARC
  5
CAEE
  8
AM_0
 10
515.75849921493818
 20
292.20909314915531
 30
0.0
 40
1.0
 50
172.1830521683091
 51
267.99999999999642
1001
GENIUS_GENODEF_13
1002
{
1000
HIER
1070
     0
1002
}
1002
{
1000
MANEDIT
1070
     0
1002
}
1002
{
1000
NOSEL
1070
     0
1002
}
1002
{
1000
BEHIND
1070
     0
1002
}
1002
{
1000
REACTOR
1002
}
1001
GENIUS_GENOBJ-N-FIL_13
1002
{
1000
OWNER
1000
GEN
1002
}
  0
LINE
  5
CAEF
  8
AM_0
 10
515.72359971823562
 20
291.20970232213631
 30
0.0
 11
518.7363410535811
 21
291.10449507642647
 31
0.0
  0
LINE
  5
CAF0
  8
AM_0
 10
515.73308187060911
 20
293.27739173210921
 30
0.0
 11
518.73634105358133
 21
293.38226785376168
 31
0.0
  0
ARC
  5
CAF1
  8
AM_0
 10
624.73634105358121
 20
277.248144376043
 30
0.0
 40
111.0
 50
172.14682191119249
 51
172.1830521683091
  0
ARC
  5
CAF2
  8
AM_0
 10
515.76798136731168
 20
292.27800090508993
 30
0.0
 40
1.0
 50
91.999999999997158
 51
172.14682191119741
1001
GENIUS_GENODEF_13
1002
{
1000
HIER
1070
     0
1002
}
1002
{
1000
MANEDIT
1070
     0
1002
}
1002
{
1000
NOSEL
1070
     0
1002
}
1002
{
1000
BEHIND
1070
     0
1002
}
1002
{
1000
REACTOR
1002
}
1001
GENIUS_GENOBJ-N-FIL_13
1002
{
1000
OWNER
1000
GEN
1002
}
  0
LINE
  5
CAF3
  8
AM_0
 10
521.73634105358144
 20
311.15509576490012
 30
0.0
 11
521.73634105358133
 21
303.4196752372078
 31
0.0
  0
ARC
  5
CAF4
  8
AM_0
 10
517.60493611842207
 20
302.20534928001757
 30
0.0
 40
1.0
 50
166.88632985670239
 51
267.99999999999642
1001
GENIUS_GENODEF_13
1002
{
1000
HIER
1070
     0
1002
}
1002
{
1000
MANEDIT
1070
     0
1002
}
1002
{
1000
NOSEL
1070
     0
1002
}
1002
{
1000
BEHIND
1070
     0
1002
}
1002
{
1000
REACTOR
1002
}
1001
GENIUS_GENOBJ-N-FIL_13
1002
{
1000
OWNER
1000
GEN
1002
}
  0
ARC
  5
CAF5
  8
AM_0
 10
624.73634105358121
 20
277.248144376043
 30
0.0
 40
111.0
 50
166.84888173935369
 51
166.88632985670239
  0
ARC
  5
CAF6
  8
AM_0
 10
517.62127085274494
 20
302.27536427498291
 30
0.0
 40
1.0
 50
91.999999999997158
 51
166.84888173935369
1001
GENIUS_GENODEF_13
1002
{
1000
HIER
1070
     0
1002
}
1002
{
1000
MANEDIT
1070
     0
1002
}
1002
{
1000
NOSEL
1070
     0
1002
}
1002
{
1000
BEHIND
1070
     0
1002
}
1002
{
1000
REACTOR
1002
}
1001
GENIUS_GENOBJ-N-FIL_13
1002
{
1000
OWNER
1000
GEN
1002
}
  0
ARC
  5
CAF7
  8
AM_0
 10
520.46136917745355
 20
312.27285337173248
 30
0.0
 40
1.0
 50
92.000000000003624
 51
161.43341919809711
1001
GENIUS_GENODEF_13
1002
{
1000
HIER
1070
     0
1002
}
1002
{
1000
MANEDIT
1070
     0
1002
}
1002
{
1000
NOSEL
1070
     0
1002
}
1002
{
1000
BEHIND
1070
     0
1002
}
1002
{
1000
REACTOR
1002
}
1001
GENIUS_GENOBJ-N-FIL_13
1002
{
1000
OWNER
1000
GEN
1002
}
  0
ARC
  5
CAF8
  8
AM_0
 10
624.73634105358121
 20
277.248144376043
 30
0.0
 40
111.0
 50
161.43341919810169
 51
161.47285768552871
  0
ARC
  5
CAF9
  8
AM_0
 10
520.43728527311373
 20
312.20106933666489
 30
0.0
 40
1.0
 50
161.47285768552871
 51
267.99999999999642
1001
GENIUS_GENODEF_13
1002
{
1000
HIER
1070
     0
1002
}
1002
{
1000
MANEDIT
1070
     0
1002
}
1002
{
1000
NOSEL
1070
     0
1002
}
1002
{
1000
BEHIND
1070
     0
1002
}
1002
{
1000
REACTOR
1002
}
1001
GENIUS_GENOBJ-N-FIL_13
1002
{
1000
OWNER
1000
GEN
1002
}
  0
LINE
  5
CAFA
  8
AM_0
 10
621.73634105358121
 20
310.53102285732803
 30
0.0
 11
621.73634105358121
 21
318.24814437604289
 31
0.0
1001
GENIUS_GENODEF_13
1002
{
1000
HIER
1070
     0
1002
}
1002
{
1000
MANEDIT
1070
     0
1002
}
1002
{
1000
NOSEL
1070
     0
1002
}
1002
{
1000
BEHIND
1070
     0
1002
}
1002
{
1000
REACTOR
1002
}
1001
GENIUS_GENOBJ-N-CEN_13
1002
{
1000
OWNER
1000
GEN
1002
}
  0
LINE
  5
CAFB
  8
AM_0
 10
529.73634105358133
 20
310.53102285732803
 30
0.0
 11
529.73634105358133
 21
318.24814437604289
 31
0.0
1001
GENIUS_GENODEF_13
1002
{
1000
HIER
1070
     0
1002
}
1002
{
1000
MANEDIT
1070
     0
1002
}
1002
{
1000
NOSEL
1070
     0
1002
}
1002
{
1000
BEHIND
1070
     0
1002
}
1002
{
1000
REACTOR
1002
}
1001
GENIUS_GENOBJ-N-CEN_13
1002
{
1000
OWNER
1000
GEN
1002
}
  0
LINE
  5
CAFC
  8
AM_0
 10
530.73633971247693
 20
319.52627778250701
 30
0.0
 11
530.73633971247671
 21
201.9699832263251
 31
0.0
  0
LINE
  5
CAFD
  8
AM_0
 10
620.73634239468572
 20
201.09726368841621
 30
0.0
 11
620.73634239468572
 21
320.39902506366951
 31
0.0
  0
LINE
  5
CAFE
  8
AM_0
 10
600.73634200725564
 20
320.74814616418229
 30
0.0
 11
600.73634200725564
 21
200.7481425879036
 31
0.0
  0
LINE
  5
CAFF
  8
AM_0
 10
620.73634239468572
 20
298.24814549362992
 30
0.0
 11
624.73634251389512
 21
298.24814549362992
 31
0.0
  0
LINE
  5
CB00
  8
AM_0
 10
631.04621242641133
 20
313.27224419875182
 30
0.0
 11
621.73634105358121
 21
313.59735207096031
 31
0.0
  0
LINE
  5
CB01
  8
AM_0
 10
631.07029633075172
 20
311.20167850964611
 30
0.0
 11
621.73634105358121
 21
310.87572960896568
 31
0.0
  0
ARC
  5
CB02
  8
AM_0
 10
575.73634105358121
 20
277.248144376043
 30
0.0
 40
56.5
 50
20.731084844742298
 51
35.018628262084228
  0
LINE
  5
CB03
  8
ﾁｭｳｼﾝｾﾝ
 10
527.73633971247671
 20
310.2481458512579
 30
0.0
 11
623.73634239468572
 21
310.2481458512579
 31
0.0
  0
LINE
  5
CB04
  8
AM_0
 10
620.73634239468572
 20
223.248143258456
 30
0.0
 11
624.73634251389512
 21
223.248143258456
 31
0.0
  0
LINE
  5
CB05
  8
ﾁｭｳｼﾝｾﾝ
 10
527.73633971247671
 20
211.24814290082799
 30
0.0
 11
623.73634239468572
 21
211.24814290082799
 31
0.0
  0
LINE
  5
CB06
  8
AM_0
 10
526.73633959326753
 20
298.24814549362992
 30
0.0
 11
526.73633959326753
 21
223.248143258456
 31
0.0
  0
LINE
  5
CB07
  8
ｶｸﾚｾﾝ2
 10
530.73633971247682
 20
206.74814276671751
 30
0.0
 11
620.73634239468572
 21
206.74814276671751
 31
0.0
  0
LINE
  5
CB08
  8
ｶｸﾚｾﾝ2
 10
530.73633971247682
 20
215.74814303493841
 30
0.0
 11
620.73634239468572
 21
215.74814303493841
 31
0.0
  0
LINE
  5
CB09
  8
AM_0
 10
600.73634200725564
 20
200.74814258790369
 30
0.0
 11
530.73633971247682
 21
201.96998322632521
 31
0.0
  0
LINE
  5
CB0A
  8
AM_0
 10
530.73633971247682
 20
223.248143258456
 30
0.0
 11
526.73633959326753
 21
223.248143258456
 31
0.0
  0
LINE
  5
CB0B
  8
AM_0
 10
620.73634239468572
 20
201.09726368841621
 30
0.0
 11
600.73634200725564
 21
200.74814258790369
 31
0.0
  0
LINE
  5
CB0C
  8
ｶｸﾚｾﾝ2
 10
530.73633971247682
 20
305.74814571714751
 30
0.0
 11
620.73634239468572
 21
305.74814571714751
 31
0.0
  0
LINE
  5
CB0D
  8
ｶｸﾚｾﾝ2
 10
530.73633971247682
 20
314.7481459853683
 30
0.0
 11
620.73634239468572
 21
314.7481459853683
 31
0.0
  0
LINE
  5
CB0E
  8
AM_0
 10
530.73633971247682
 20
298.24814549362992
 30
0.0
 11
526.73633959326753
 21
298.24814549362992
 31
0.0
  0
ARC
  5
CB0F
  8
AM_0
 10
528.23634105358133
 20
310.53102285732791
 30
0.0
 40
1.5
 50
324.98137173791508
 51
0.0
1001
GENIUS_GENODEF_13
1002
{
1000
HIER
1070
     0
1002
}
1002
{
1000
MANEDIT
1070
     0
1002
}
1002
{
1000
NOSEL
1070
     0
1002
}
1002
{
1000
BEHIND
1070
     0
1002
}
1002
{
1000
REACTOR
1002
}
1001
GENIUS_GENOBJ-N-FIL_13
1002
{
1000
OWNER
1000
GEN
1002
}
  0
ARC
  5
CB10
  8
AM_0
 10
623.2363410535811
 20
310.53102285732803
 30
0.0
 40
1.5
 50
180.0
 51
215.01862826208421
1001
GENIUS_GENODEF_13
1002
{
1000
HIER
1070
     0
1002
}
1002
{
1000
MANEDIT
1070
     0
1002
}
1002
{
1000
NOSEL
1070
     0
1002
}
1002
{
1000
BEHIND
1070
     0
1002
}
1002
{
1000
REACTOR
1002
}
1001
GENIUS_GENOBJ-N-FIL_13
1002
{
1000
OWNER
1000
GEN
1002
}
  0
LINE
  5
CB11
  8
AM_0
 10
624.73634251389512
 20
298.24814549362992
 30
0.0
 11
624.73634251389512
 21
223.248143258456
 31
0.0
  0
LINE
  5
CB12
  8
AM_0
 10
624.73634251389512
 20
240.7481437799965
 30
0.0
 11
625.73634105358121
 21
240.7481437799965
 31
0.0
  0
LINE
  5
CB13
  8
AM_0
 10
635.74908238892704
 20
263.28658642994918
 30
0.0
 11
633.23634105358144
 21
263.37433329091328
 31
0.0
  0
LINE
  5
CB14
  8
AM_0
 10
635.73960023655354
 20
261.21889701997668
 30
0.0
 11
633.23634105358121
 21
261.13148128307
 31
0.0
  0
ARC
  5
CB15
  8
AM_0
 10
635.71418289222436
 20
262.28719560293018
 30
0.0
 40
1.0
 50
352.18305216830908
 51
88.000000000002856
1001
GENIUS_GENODEF_13
1002
{
1000
HIER
1070
     0
1002
}
1002
{
1000
MANEDIT
1070
     0
1002
}
1002
{
1000
NOSEL
1070
     0
1002
}
1002
{
1000
BEHIND
1070
     0
1002
}
1002
{
1000
REACTOR
1002
}
1001
GENIUS_GENOBJ-N-FIL_13
1002
{
1000
OWNER
1000
GEN
1002
}
  0
ARC
  5
CB16
  8
AM_0
 10
526.73634105358133
 20
277.24814437604277
 30
0.0
 40
111.0
 50
352.1468219111934
 51
352.1830521683043
  0
ARC
  5
CB17
  8
AM_0
 10
635.70470073985086
 20
262.21828784699568
 30
0.0
 40
1.0
 50
271.9999999999971
 51
352.14682191119749
1001
GENIUS_GENODEF_13
1002
{
1000
HIER
1070
     0
1002
}
1002
{
1000
MANEDIT
1070
     0
1002
}
1002
{
1000
NOSEL
1070
     0
1002
}
1002
{
1000
BEHIND
1070
     0
1002
}
1002
{
1000
REACTOR
1002
}
1001
GENIUS_GENOBJ-N-FIL_13
1002
{
1000
OWNER
1000
GEN
1002
}
  0
LINE
  5
CB18
  8
AM_0
 10
636.656054179698
 20
283.28020185494131
 30
0.0
 11
632.73634105358121
 21
283.41708125349231
 31
0.0
  0
LINE
  5
CB19
  8
AM_0
 10
636.65916435815848
 20
281.21304616678691
 30
0.0
 11
632.73634105358121
 21
281.07605815841117
 31
0.0
  0
LINE
  5
CB1A
  8
AM_0
 10
636.65916435815848
 20
273.28324258529841
 30
0.0
 11
633.23634105358121
 21
273.4027702089287
 31
0.0
  0
LINE
  5
CB1B
  8
AM_0
 10
636.656054179698
 20
271.21608689714429
 30
0.0
 11
633.23634105358121
 21
271.09666788333931
 31
0.0
  0
LINE
  5
CB1C
  8
AM_0
 10
624.73634251389512
 20
280.74814497208922
 30
0.0
 11
625.73634105358121
 21
280.74814497208922
 31
0.0
  0
ARC
  5
CB1D
  8
AM_0
 10
636.62115468299532
 20
272.21547772416352
 30
0.0
 40
1.0
 50
271.9999999999971
 51
357.37771591204699
1001
GENIUS_GENODEF_13
1002
{
1000
HIER
1070
     0
1002
}
1002
{
1000
MANEDIT
1070
     0
1002
}
1002
{
1000
NOSEL
1070
     0
1002
}
1002
{
1000
BEHIND
1070
     0
1002
}
1002
{
1000
REACTOR
1002
}
1001
GENIUS_GENOBJ-N-FIL_13
1002
{
1000
OWNER
1000
GEN
1002
}
  0
ARC
  5
CB1E
  8
AM_0
 10
526.73634105358133
 20
277.24814437604277
 30
0.0
 40
111.0
 50
357.37771591204699
 51
357.41336677122348
  0
ARC
  5
CB1F
  8
AM_0
 10
636.6242648614558
 20
272.28385175827952
 30
0.0
 40
1.0
 50
357.41336677122348
 51
87.999999999996362
1001
GENIUS_GENODEF_13
1002
{
1000
HIER
1070
     0
1002
}
1002
{
1000
MANEDIT
1070
     0
1002
}
1002
{
1000
NOSEL
1070
     0
1002
}
1002
{
1000
BEHIND
1070
     0
1002
}
1002
{
1000
REACTOR
1002
}
1001
GENIUS_GENOBJ-N-FIL_13
1002
{
1000
OWNER
1000
GEN
1002
}
  0
ARC
  5
CB20
  8
AM_0
 10
526.73634105358133
 20
277.24814437604277
 30
0.0
 40
111.0
 50
2.586633228776543
 51
2.6222840879530001
  0
ARC
  5
CB21
  8
AM_0
 10
636.62115468299532
 20
282.28081102792243
 30
0.0
 40
1.0
 50
2.6222840879530001
 51
88.000000000002856
1001
GENIUS_GENODEF_13
1002
{
1000
HIER
1070
     0
1002
}
1002
{
1000
MANEDIT
1070
     0
1002
}
1002
{
1000
NOSEL
1070
     0
1002
}
1002
{
1000
BEHIND
1070
     0
1002
}
1002
{
1000
REACTOR
1002
}
1001
GENIUS_GENOBJ-N-FIL_13
1002
{
1000
OWNER
1000
GEN
1002
}
  0
ARC
  5
CB22
  8
AM_0
 10
636.6242648614558
 20
282.21243699380619
 30
0.0
 40
1.0
 50
272.00000000000369
 51
2.586633228776543
1001
GENIUS_GENODEF_13
1002
{
1000
HIER
1070
     0
1002
}
1002
{
1000
MANEDIT
1070
     0
1002
}
1002
{
1000
NOSEL
1070
     0
1002
}
1002
{
1000
BEHIND
1070
     0
1002
}
1002
{
1000
REACTOR
1002
}
1001
GENIUS_GENOBJ-N-FIL_13
1002
{
1000
OWNER
1000
GEN
1002
}
  0
LINE
  5
CB23
  8
AM_0
 10
635.73960023655354
 20
293.27739173210921
 30
0.0
 11
632.73634105358144
 21
293.38226785376168
 31
0.0
  0
LINE
  5
CB24
  8
AM_0
 10
635.74908238892704
 20
291.20970232213631
 30
0.0
 11
632.73634105358121
 21
291.10449507642647
 31
0.0
  0
ARC
  5
CB25
  8
AM_0
 10
635.71418289222436
 20
292.20909314915531
 30
0.0
 40
1.0
 50
271.9999999999971
 51
7.8169478316908387
1001
GENIUS_GENODEF_13
1002
{
1000
HIER
1070
     0
1002
}
1002
{
1000
MANEDIT
1070
     0
1002
}
1002
{
1000
NOSEL
1070
     0
1002
}
1002
{
1000
BEHIND
1070
     0
1002
}
1002
{
1000
REACTOR
1002
}
1001
GENIUS_GENOBJ-N-FIL_13
1002
{
1000
OWNER
1000
GEN
1002
}
  0
ARC
  5
CB26
  8
AM_0
 10
526.73634105358133
 20
277.24814437604277
 30
0.0
 40
111.0
 50
7.8169478316957592
 51
7.8531780888073861
  0
ARC
  5
CB27
  8
AM_0
 10
635.70470073985086
 20
292.27800090508998
 30
0.0
 40
1.0
 50
7.8531780888025473
 51
88.000000000002856
1001
GENIUS_GENODEF_13
1002
{
1000
HIER
1070
     0
1002
}
1002
{
1000
MANEDIT
1070
     0
1002
}
1002
{
1000
NOSEL
1070
     0
1002
}
1002
{
1000
BEHIND
1070
     0
1002
}
1002
{
1000
REACTOR
1002
}
1001
GENIUS_GENOBJ-N-FIL_13
1002
{
1000
OWNER
1000
GEN
1002
}
  0
ARC
  5
CB28
  8
AM_0
 10
633.85141125441737
 20
302.27536427498302
 30
0.0
 40
1.0
 50
13.151118260645489
 51
88.000000000002856
1001
GENIUS_GENODEF_13
1002
{
1000
HIER
1070
     0
1002
}
1002
{
1000
MANEDIT
1070
     0
1002
}
1002
{
1000
NOSEL
1070
     0
1002
}
1002
{
1000
BEHIND
1070
     0
1002
}
1002
{
1000
REACTOR
1002
}
1001
GENIUS_GENOBJ-N-FIL_13
1002
{
1000
OWNER
1000
GEN
1002
}
  0
ARC
  5
CB29
  8
AM_0
 10
633.86774598874024
 20
302.2053492800178
 30
0.0
 40
1.0
 50
272.00000000000369
 51
13.113670143297609
1001
GENIUS_GENODEF_13
1002
{
1000
HIER
1070
     0
1002
}
1002
{
1000
MANEDIT
1070
     0
1002
}
1002
{
1000
NOSEL
1070
     0
1002
}
1002
{
1000
BEHIND
1070
     0
1002
}
1002
{
1000
REACTOR
1002
}
1001
GENIUS_GENOBJ-N-FIL_13
1002
{
1000
OWNER
1000
GEN
1002
}
  0
LINE
  5
CB2A
  8
AM_0
 10
629.73634105358121
 20
311.15509576490012
 30
0.0
 11
629.73634105358121
 21
303.4196752372078
 31
0.0
  0
LINE
  5
CB2B
  8
AM_0
 10
633.90264548544292
 20
301.20595845299857
 30
0.0
 11
627.01729511170151
 21
300.96551671972719
 31
0.0
  0
LINE
  5
CB2C
  8
AM_0
 10
633.88631075112005
 20
303.27475510200219
 30
0.0
 11
625.73603565101439
 21
303.55936898006729
 31
0.0
  0
ARC
  5
CB2D
  8
AM_0
 10
526.73634105358133
 20
277.24814437604277
 30
0.0
 40
111.0
 50
13.113670143299201
 51
13.151118260645489
  0
ARC
  5
CB2E
  8
AM_0
 10
631.01131292970877
 20
312.27285337173271
 30
0.0
 40
1.0
 50
18.56658080190293
 51
87.999999999996362
1001
GENIUS_GENODEF_13
1002
{
1000
HIER
1070
     0
1002
}
1002
{
1000
MANEDIT
1070
     0
1002
}
1002
{
1000
NOSEL
1070
     0
1002
}
1002
{
1000
BEHIND
1070
     0
1002
}
1002
{
1000
REACTOR
1002
}
1001
GENIUS_GENOBJ-N-FIL_13
1002
{
1000
OWNER
1000
GEN
1002
}
  0
ARC
  5
CB2F
  8
AM_0
 10
526.73634105358133
 20
277.24814437604277
 30
0.0
 40
111.0
 50
18.527142314471341
 51
18.56658080189829
  0
ARC
  5
CB30
  8
AM_0
 10
631.0353968340487
 20
312.20106933666511
 30
0.0
 40
1.0
 50
271.9999999999971
 51
18.527142314471341
1001
GENIUS_GENODEF_13
1002
{
1000
HIER
1070
     0
1002
}
1002
{
1000
MANEDIT
1070
     0
1002
}
1002
{
1000
NOSEL
1070
     0
1002
}
1002
{
1000
BEHIND
1070
     0
1002
}
1002
{
1000
REACTOR
1002
}
1001
GENIUS_GENOBJ-N-FIL_13
1002
{
1000
OWNER
1000
GEN
1002
}
  0
ARC
  5
CB31
  8
AM_0
 10
616.73634105358121
 20
318.24814437604289
 30
0.0
 40
5.0
 50
0.0
 51
90.0
1001
GENIUS_GENODEF_13
1002
{
1000
HIER
1070
     0
1002
}
1002
{
1000
MANEDIT
1070
     0
1002
}
1002
{
1000
NOSEL
1070
     0
1002
}
1002
{
1000
BEHIND
1070
     0
1002
}
1002
{
1000
REACTOR
1002
}
1001
GENIUS_GENOBJ-N-FIL_13
1002
{
1000
OWNER
1000
GEN
1002
}
  0
LINE
  5
CB32
  8
AM_0
 10
600.73634200725564
 20
320.74814616418229
 30
0.0
 11
530.73633971247693
 21
319.52627778250712
 31
0.0
  0
ARC
  5
CB33
  8
AM_0
 10
575.73634105358121
 20
277.248144376043
 30
0.0
 40
56.5
 50
55.136162045694739
 51
124.8638379543052
  0
ARC
  5
CB34
  8
AM_0
 10
540.78341609295887
 20
332.54720015651031
 30
0.0
 40
1.0
 50
2.0000000000004698
 51
108.5271423144752
1001
GENIUS_GENODEF_13
1002
{
1000
HIER
1070
     0
1002
}
1002
{
1000
MANEDIT
1070
     0
1002
}
1002
{
1000
NOSEL
1070
     0
1002
}
1002
{
1000
BEHIND
1070
     0
1002
}
1002
{
1000
REACTOR
1002
}
1001
GENIUS_GENOBJ-N-FIL_13
1002
{
1000
OWNER
1000
GEN
1002
}
  0
ARC
  5
CB35
  8
AM_0
 10
540.71163205789162
 20
332.52311625217038
 30
0.0
 40
1.0
 50
108.5665808019031
 51
177.99999999999301
1001
GENIUS_GENODEF_13
1002
{
1000
HIER
1070
     0
1002
}
1002
{
1000
MANEDIT
1070
     0
1002
}
1002
{
1000
NOSEL
1070
     0
1002
}
1002
{
1000
BEHIND
1070
     0
1002
}
1002
{
1000
REACTOR
1002
}
1001
GENIUS_GENOBJ-N-FIL_13
1002
{
1000
OWNER
1000
GEN
1002
}
  0
LINE
  5
CB36
  8
AM_0
 10
534.73634105358121
 20
323.248144376043
 30
0.0
 11
542.29609583916942
 21
323.248144376043
 31
0.0
  0
ARC
  5
CB37
  8
AM_0
 10
534.73634105358121
 20
318.24814437604289
 30
0.0
 40
5.0
 50
90.0
 51
180.0
1001
GENIUS_GENOBJ-N-CEN_13
1002
{
1000
OWNER
1000
GEN
1002
}
1001
GENIUS_GENODEF_13
1002
{
1000
HIER
1070
     0
1002
}
1002
{
1000
MANEDIT
1070
     0
1002
}
1002
{
1000
NOSEL
1070
     0
1002
}
1002
{
1000
BEHIND
1070
     0
1002
}
1002
{
1000
REACTOR
1002
}
1001
GENIUS_GENOBJ-N-FIL_13
1002
{
1000
OWNER
1000
GEN
1002
}
  0
LINE
  5
CB38
  8
AM_0
 10
541.78280691997816
 20
332.58209965321311
 30
0.0
 11
542.10844773526117
 21
323.25696678750398
 31
0.0
  0
LINE
  5
CB39
  8
AM_0
 10
539.71224123087222
 20
332.558015748873
 30
0.0
 11
539.38713335866385
 21
323.248144376043
 31
0.0
  0
ARC
  5
CB3A
  8
AM_0
 10
542.29609583916942
 20
325.248144376043
 30
0.0
 40
2.0
 50
270.0
 51
304.86383795430532
1001
GENIUS_GENOBJ-N-FIL_13
1002
{
1000
OWNER
1000
GEN
1002
}
1001
GENIUS_GENODEF_13
1002
{
1000
HIER
1070
     0
1002
}
1002
{
1000
MANEDIT
1070
     0
1002
}
1002
{
1000
NOSEL
1070
     0
1002
}
1002
{
1000
BEHIND
1070
     0
1002
}
1002
{
1000
OTHER
1070
     0
1002
}
1002
{
1000
REACTOR
1002
}
  0
ARC
  5
CB3B
  8
AM_0
 10
575.73634105358121
 20
228.24814437604289
 30
0.0
 40
111.0
 50
108.5271423144752
 51
108.56658080189619
  0
LINE
  5
CB3C
  8
AM_0
 10
559.70709369751512
 20
337.2514035590151
 30
0.0
 11
559.50155129366772
 21
331.36543922206602
 31
0.0
  0
LINE
  5
CB3D
  8
AM_0
 10
561.77478310748756
 20
337.26088571138871
 30
0.0
 11
561.95702619335407
 21
332.04212654546291
 31
0.0
  0
LINE
  5
CB3E
  8
AM_0
 10
551.77852697662524
 20
335.41444880790448
 30
0.0
 11
552.01896870989685
 21
328.52909843416319
 31
0.0
  0
LINE
  5
CB3F
  8
AM_0
 10
549.7097303276222
 20
335.39811407358189
 30
0.0
 11
549.42511644955664
 21
327.24783897347589
 31
0.0
  0
ARC
  5
CB40
  8
AM_0
 10
560.77539228046862
 20
337.2259862146858
 30
0.0
 40
1.0
 50
1.9999999999972149
 51
97.816947831694506
1001
GENIUS_GENODEF_13
1002
{
1000
HIER
1070
     0
1002
}
1002
{
1000
MANEDIT
1070
     0
1002
}
1002
{
1000
NOSEL
1070
     0
1002
}
1002
{
1000
BEHIND
1070
     0
1002
}
1002
{
1000
REACTOR
1002
}
1001
GENIUS_GENOBJ-N-FIL_13
1002
{
1000
OWNER
1000
GEN
1002
}
  0
ARC
  5
CB41
  8
AM_0
 10
575.73634105358121
 20
228.24814437604289
 30
0.0
 40
111.0
 50
103.11367014329871
 51
103.1511182606551
  0
ARC
  5
CB42
  8
AM_0
 10
550.70912115464102
 20
335.36321457687922
 30
0.0
 40
1.0
 50
103.1511182606551
 51
178.00000000000259
1001
GENIUS_GENODEF_13
1002
{
1000
HIER
1070
     0
1002
}
1002
{
1000
MANEDIT
1070
     0
1002
}
1002
{
1000
NOSEL
1070
     0
1002
}
1002
{
1000
BEHIND
1070
     0
1002
}
1002
{
1000
REACTOR
1002
}
1001
GENIUS_GENOBJ-N-FIL_13
1002
{
1000
OWNER
1000
GEN
1002
}
  0
ARC
  5
CB43
  8
AM_0
 10
550.77913614960653
 20
335.37954931120169
 30
0.0
 40
1.0
 50
2.000000000003725
 51
103.11367014329871
1001
GENIUS_GENODEF_13
1002
{
1000
HIER
1070
     0
1002
}
1002
{
1000
MANEDIT
1070
     0
1002
}
1002
{
1000
NOSEL
1070
     0
1002
}
1002
{
1000
BEHIND
1070
     0
1002
}
1002
{
1000
REACTOR
1002
}
1001
GENIUS_GENOBJ-N-FIL_13
1002
{
1000
OWNER
1000
GEN
1002
}
  0
ARC
  5
CB44
  8
AM_0
 10
560.70648452453395
 20
337.21650406231259
 30
0.0
 40
1.0
 50
97.853178088806132
 51
178.00000000000259
1001
GENIUS_GENODEF_13
1002
{
1000
HIER
1070
     0
1002
}
1002
{
1000
MANEDIT
1070
     0
1002
}
1002
{
1000
NOSEL
1070
     0
1002
}
1002
{
1000
BEHIND
1070
     0
1002
}
1002
{
1000
REACTOR
1002
}
1001
GENIUS_GENOBJ-N-FIL_13
1002
{
1000
OWNER
1000
GEN
1002
}
  0
ARC
  5
CB45
  8
AM_0
 10
575.73634105358121
 20
228.24814437604289
 30
0.0
 40
111.0
 50
97.816947831694506
 51
97.853178088806132
  0
LINE
  5
CB46
  8
AM_0
 10
571.77143926283702
 20
338.17096768061992
 30
0.0
 11
571.93036922419765
 21
333.61980905284588
 31
0.0
  0
LINE
  5
CB47
  8
AM_0
 10
569.70428357468268
 20
338.16785750215939
 30
0.0
 11
569.53803510083458
 21
333.40712409715383
 31
0.0
  0
ARC
  5
CB48
  8
AM_0
 10
570.77204843581774
 20
338.1360681839173
 30
0.0
 40
1.0
 50
2.000000000003725
 51
92.586633228773294
1001
GENIUS_GENODEF_13
1002
{
1000
HIER
1070
     0
1002
}
1002
{
1000
MANEDIT
1070
     0
1002
}
1002
{
1000
NOSEL
1070
     0
1002
}
1002
{
1000
BEHIND
1070
     0
1002
}
1002
{
1000
REACTOR
1002
}
1001
GENIUS_GENOBJ-N-FIL_13
1002
{
1000
OWNER
1000
GEN
1002
}
  0
ARC
  5
CB49
  8
AM_0
 10
570.70367440170173
 20
338.13295800545683
 30
0.0
 40
1.0
 50
92.622284087952863
 51
177.99999999999949
1001
GENIUS_GENODEF_13
1002
{
1000
HIER
1070
     0
1002
}
1002
{
1000
MANEDIT
1070
     0
1002
}
1002
{
1000
NOSEL
1070
     0
1002
}
1002
{
1000
BEHIND
1070
     0
1002
}
1002
{
1000
REACTOR
1002
}
1001
GENIUS_GENOBJ-N-FIL_13
1002
{
1000
OWNER
1000
GEN
1002
}
  0
LINE
  5
CB4A
  8
AM_0
 10
591.76558840964753
 20
337.2514035590151
 30
0.0
 11
591.97113081349482
 21
331.36543922206602
 31
0.0
  0
LINE
  5
CB4B
  8
AM_0
 10
589.69789899967475
 20
337.26088571138871
 30
0.0
 11
589.51565591380859
 21
332.04212654546291
 31
0.0
  0
LINE
  5
CB4C
  8
AM_0
 10
579.70124284432563
 20
338.17096768061992
 30
0.0
 11
579.54231288296467
 21
333.61980905284588
 31
0.0
  0
LINE
  5
CB4D
  8
AM_0
 10
581.76839853247975
 20
338.16785750215939
 30
0.0
 11
581.93464700632774
 21
333.40712409715383
 31
0.0
  0
ARC
  5
CB4E
  8
AM_0
 10
580.7006336713448
 20
338.1360681839173
 30
0.0
 40
1.0
 50
87.413366771226677
 51
177.99999999999619
1001
GENIUS_GENODEF_13
1002
{
1000
HIER
1070
     0
1002
}
1002
{
1000
MANEDIT
1070
     0
1002
}
1002
{
1000
NOSEL
1070
     0
1002
}
1002
{
1000
BEHIND
1070
     0
1002
}
1002
{
1000
REACTOR
1002
}
1001
GENIUS_GENOBJ-N-FIL_13
1002
{
1000
OWNER
1000
GEN
1002
}
  0
ARC
  5
CB4F
  8
AM_0
 10
580.76900770546069
 20
338.13295800545683
 30
0.0
 40
1.0
 50
2.0000000000004698
 51
87.377715912047094
1001
GENIUS_GENODEF_13
1002
{
1000
HIER
1070
     0
1002
}
1002
{
1000
MANEDIT
1070
     0
1002
}
1002
{
1000
NOSEL
1070
     0
1002
}
1002
{
1000
BEHIND
1070
     0
1002
}
1002
{
1000
REACTOR
1002
}
1001
GENIUS_GENOBJ-N-FIL_13
1002
{
1000
OWNER
1000
GEN
1002
}
  0
ARC
  5
CB50
  8
AM_0
 10
590.76619758262837
 20
337.21650406231259
 30
0.0
 40
1.0
 50
1.9999999999972149
 51
82.146821911193925
1001
GENIUS_GENODEF_13
1002
{
1000
HIER
1070
     0
1002
}
1002
{
1000
MANEDIT
1070
     0
1002
}
1002
{
1000
NOSEL
1070
     0
1002
}
1002
{
1000
BEHIND
1070
     0
1002
}
1002
{
1000
REACTOR
1002
}
1001
GENIUS_GENOBJ-N-FIL_13
1002
{
1000
OWNER
1000
GEN
1002
}
  0
ARC
  5
CB51
  8
AM_0
 10
590.69728982669403
 20
337.2259862146858
 30
0.0
 40
1.0
 50
82.183052168305494
 51
178.00000000000259
1001
GENIUS_GENODEF_13
1002
{
1000
HIER
1070
     0
1002
}
1002
{
1000
MANEDIT
1070
     0
1002
}
1002
{
1000
NOSEL
1070
     0
1002
}
1002
{
1000
BEHIND
1070
     0
1002
}
1002
{
1000
REACTOR
1002
}
1001
GENIUS_GENOBJ-N-FIL_13
1002
{
1000
OWNER
1000
GEN
1002
}
  0
ARC
  5
CB52
  8
AM_0
 10
575.73634105358121
 20
228.24814437604289
 30
0.0
 40
111.0
 50
82.146821911193925
 51
82.183052168305494
  0
ARC
  5
CB53
  8
AM_0
 10
610.68926601420367
 20
332.54720015651031
 30
0.0
 40
1.0
 50
71.472857685524801
 51
177.99999999999949
1001
GENIUS_GENODEF_13
1002
{
1000
HIER
1070
     0
1002
}
1002
{
1000
MANEDIT
1070
     0
1002
}
1002
{
1000
NOSEL
1070
     0
1002
}
1002
{
1000
BEHIND
1070
     0
1002
}
1002
{
1000
REACTOR
1002
}
1001
GENIUS_GENOBJ-N-FIL_13
1002
{
1000
OWNER
1000
GEN
1002
}
  0
ARC
  5
CB54
  8
AM_0
 10
610.76105004927103
 20
332.52311625217038
 30
0.0
 40
1.0
 50
2.0000000000069811
 51
71.433419198096814
1001
GENIUS_GENODEF_13
1002
{
1000
HIER
1070
     0
1002
}
1002
{
1000
MANEDIT
1070
     0
1002
}
1002
{
1000
NOSEL
1070
     0
1002
}
1002
{
1000
BEHIND
1070
     0
1002
}
1002
{
1000
REACTOR
1002
}
1001
GENIUS_GENOBJ-N-FIL_13
1002
{
1000
OWNER
1000
GEN
1002
}
  0
LINE
  5
CB55
  8
AM_0
 10
601.76295177954057
 20
335.39811407358189
 30
0.0
 11
602.04756565760601
 21
327.24783897347589
 31
0.0
  0
LINE
  5
CB56
  8
AM_0
 10
599.69415513053696
 20
335.41444880790448
 30
0.0
 11
599.4537133972658
 21
328.52909843416319
 31
0.0
  0
LINE
  5
CB57
  8
AM_0
 10
609.17658626799323
 20
323.248144376043
 30
0.0
 11
616.73634105358121
 21
323.248144376043
 31
0.0
  0
LINE
  5
CB58
  8
AM_0
 10
620.73634239468572
 20
320.39902506366951
 30
0.0
 11
600.73634200725564
 21
320.74814616418229
 31
0.0
  0
LINE
  5
CB59
  8
AM_0
 10
609.6898751871845
 20
332.58209965321311
 30
0.0
 11
609.36423437190115
 21
323.25696678750398
 31
0.0
  0
ARC
  5
CB5A
  8
AM_0
 10
609.17658626799323
 20
325.248144376043
 30
0.0
 40
2.0
 50
235.1361620456947
 51
270.0
1001
GENIUS_GENODEF_13
1002
{
1000
HIER
1070
     0
1002
}
1002
{
1000
MANEDIT
1070
     0
1002
}
1002
{
1000
NOSEL
1070
     0
1002
}
1002
{
1000
BEHIND
1070
     0
1002
}
1002
{
1000
OTHER
1070
     0
1002
}
1002
{
1000
REACTOR
1002
}
1001
GENIUS_GENOBJ-N-FIL_13
1002
{
1000
OWNER
1000
GEN
1002
}
  0
LINE
  5
CB5B
  8
AM_0
 10
611.76044087629032
 20
332.558015748873
 30
0.0
 11
612.08554874849881
 21
323.248144376043
 31
0.0
  0
ARC
  5
CB5C
  8
AM_0
 10
575.73634105358121
 20
228.24814437604289
 30
0.0
 40
111.0
 50
76.848881739344861
 51
76.886329856701238
  0
ARC
  5
CB5D
  8
AM_0
 10
600.76356095252163
 20
335.36321457687922
 30
0.0
 40
1.0
 50
1.9999999999972149
 51
76.848881739344861
1001
GENIUS_GENODEF_13
1002
{
1000
HIER
1070
     0
1002
}
1002
{
1000
MANEDIT
1070
     0
1002
}
1002
{
1000
NOSEL
1070
     0
1002
}
1002
{
1000
BEHIND
1070
     0
1002
}
1002
{
1000
REACTOR
1002
}
1001
GENIUS_GENOBJ-N-FIL_13
1002
{
1000
OWNER
1000
GEN
1002
}
  0
ARC
  5
CB5E
  8
AM_0
 10
600.69354595755613
 20
335.37954931120169
 30
0.0
 40
1.0
 50
76.886329856701238
 51
177.99999999999619
1001
GENIUS_GENODEF_13
1002
{
1000
HIER
1070
     0
1002
}
1002
{
1000
MANEDIT
1070
     0
1002
}
1002
{
1000
NOSEL
1070
     0
1002
}
1002
{
1000
BEHIND
1070
     0
1002
}
1002
{
1000
REACTOR
1002
}
1001
GENIUS_GENOBJ-N-FIL_13
1002
{
1000
OWNER
1000
GEN
1002
}
  0
ARC
  5
CB5F
  8
AM_0
 10
575.73634105358121
 20
228.24814437604289
 30
0.0
 40
111.0
 50
71.433419198103763
 51
71.472857685524801
  0
LINE
  5
CB7A
  8
AM_0
 10
518.23634105358121
 20
242.74814437604289
 30
0.0
 11
518.73634105358133
 21
242.248144376043
 31
0.0
1001
GENIUS_GENFIL_13
1070
     0
1040
0.5
1040
0.5
1040
20.0
1040
0.0
1002
{
1002
}
1001
GENIUS_GENODEF_13
1002
{
1000
HIER
1070
     0
1002
}
1002
{
1000
MANEDIT
1070
     0
1002
}
1002
{
1000
NOSEL
1070
     0
1002
}
1002
{
1000
BEHIND
1070
     0
1002
}
1002
{
1000
OTHER
1070
     0
1002
}
1002
{
1000
REACTOR
1002
}
1001
GENIUS_GENOBJ-N-CHA_13
1002
{
1000
OWNER
1000
GEN
1002
}
  0
LINE
  5
CB7B
  8
AM_0
 10
633.23634105358121
 20
278.74814437604289
 30
0.0
 11
632.73634105358121
 21
279.24814437604289
 31
0.0
1001
GENIUS_GENFIL_13
1070
     0
1040
0.5
1040
0.5
1040
20.0
1040
0.0
1002
{
1002
}
1001
GENIUS_GENODEF_13
1002
{
1000
HIER
1070
     0
1002
}
1002
{
1000
MANEDIT
1070
     0
1002
}
1002
{
1000
NOSEL
1070
     0
1002
}
1002
{
1000
BEHIND
1070
     0
1002
}
1002
{
1000
OTHER
1070
     0
1002
}
1002
{
1000
REACTOR
1002
}
1001
GENIUS_GENOBJ-N-CHA_13
1002
{
1000
OWNER
1000
GEN
1002
}
  0
LINE
  5
CB7C
  8
AM_0
 10
518.23634105358121
 20
278.74814437604289
 30
0.0
 11
518.73634105358133
 21
279.24814437604289
 31
0.0
1001
GENIUS_GENFIL_13
1070
     0
1040
0.5
1040
0.5
1040
20.0
1040
0.0
1002
{
1002
}
1001
GENIUS_GENOBJ-N-CHA_13
1002
{
1000
OWNER
1000
GEN
1002
}
1001
GENIUS_GENODEF_13
1002
{
1000
HIER
1070
     0
1002
}
1002
{
1000
MANEDIT
1070
     0
1002
}
1002
{
1000
NOSEL
1070
     0
1002
}
1002
{
1000
BEHIND
1070
     0
1002
}
1002
{
1000
OTHER
1070
     0
1002
}
1002
{
1000
REACTOR
1002
}
  0
LINE
  5
CB7D
  8
AM_0
 10
519.73634105358133
 20
297.24814437604311
 30
0.0
 11
525.73634105358133
 21
297.24814437604289
 31
0.0
  0
LINE
  5
CB7E
  8
AM_0
 10
525.73634105358133
 20
224.24814437604289
 30
0.0
 11
525.73634105358133
 21
297.24814437604289
 31
0.0
  0
LINE
  5
CB7F
  8
AM_0
 10
518.73634105358133
 20
225.24814437604309
 30
0.0
 11
518.73634105358133
 21
296.24814437604311
 31
0.0
  0
LINE
  5
CB80
  8
AM_0
 10
519.73634105358133
 20
297.24814437604311
 30
0.0
 11
518.73634105358133
 21
296.24814437604311
 31
0.0
1001
GENIUS_GENFIL_13
1070
     0
1040
1.0
1040
1.0
1040
20.0
1040
0.0
1002
{
1002
}
1001
GENIUS_GENODEF_13
1002
{
1000
HIER
1070
     0
1002
}
1002
{
1000
MANEDIT
1070
     0
1002
}
1002
{
1000
NOSEL
1070
     0
1002
}
1002
{
1000
BEHIND
1070
     0
1002
}
1002
{
1000
OTHER
1070
     0
1002
}
1002
{
1000
REACTOR
1002
}
1001
GENIUS_GENOBJ-N-CHA_13
1002
{
1000
OWNER
1000
GEN
1002
}
  0
LINE
  5
CB81
  8
AM_0
 10
518.23634105358121
 20
242.74814437604289
 30
0.0
 11
518.23634105358121
 21
278.74814437604289
 31
0.0
  0
LINE
  5
CB82
  8
AM_0
 10
519.73634105358133
 20
224.24814437604309
 30
0.0
 11
525.73634105358133
 21
224.24814437604289
 31
0.0
  0
LINE
  5
CB83
  8
AM_0
 10
518.73634105358133
 20
225.24814437604309
 30
0.0
 11
519.73634105358133
 21
224.24814437604309
 31
0.0
1001
GENIUS_GENFIL_13
1070
     0
1040
1.0
1040
1.0
1040
20.0
1040
0.0
1002
{
1002
}
1001
GENIUS_GENOBJ-N-CHA_13
1002
{
1000
OWNER
1000
GEN
1002
}
1001
GENIUS_GENODEF_13
1002
{
1000
HIER
1070
     0
1002
}
1002
{
1000
MANEDIT
1070
     0
1002
}
1002
{
1000
NOSEL
1070
     0
1002
}
1002
{
1000
BEHIND
1070
     0
1002
}
1002
{
1000
OTHER
1070
     0
1002
}
1002
{
1000
REACTOR
1002
}
  0
LINE
  5
CB84
  8
AM_0
 10
631.7363410535811
 20
297.24814437604289
 30
0.0
 11
625.73634105358121
 21
297.24814437604289
 31
0.0
  0
LINE
  5
CB85
  8
AM_0
 10
625.73634105358121
 20
224.24814437604289
 30
0.0
 11
625.73634105358121
 21
297.24814437604289
 31
0.0
  0
LINE
  5
CB86
  8
AM_0
 10
632.73634105358076
 20
225.248144376043
 30
0.0
 11
632.73634105358121
 21
296.248144376043
 31
0.0
  0
LINE
  5
CB87
  8
AM_0
 10
631.7363410535811
 20
297.24814437604289
 30
0.0
 11
632.73634105358121
 21
296.248144376043
 31
0.0
1001
GENIUS_GENFIL_13
1070
     0
1040
1.0
1040
1.0
1040
20.0
1040
0.0
1002
{
1002
}
1001
GENIUS_GENOBJ-N-CHA_13
1002
{
1000
OWNER
1000
GEN
1002
}
1001
GENIUS_GENODEF_13
1002
{
1000
HIER
1070
     0
1002
}
1002
{
1000
MANEDIT
1070
     0
1002
}
1002
{
1000
NOSEL
1070
     0
1002
}
1002
{
1000
BEHIND
1070
     0
1002
}
1002
{
1000
OTHER
1070
     0
1002
}
1002
{
1000
REACTOR
1002
}
  0
LINE
  5
CB88
  8
AM_0
 10
633.23634105358121
 20
242.74814437604289
 30
0.0
 11
633.23634105358121
 21
278.74814437604289
 31
0.0
  0
LINE
  5
CB89
  8
AM_0
 10
632.73634105358121
 20
242.248144376043
 30
0.0
 11
633.23634105358121
 21
242.74814437604289
 31
0.0
1001
GENIUS_GENFIL_13
1070
     0
1040
0.5
1040
0.5
1040
20.0
1040
0.0
1002
{
1002
}
1001
GENIUS_GENOBJ-N-CHA_13
1002
{
1000
OWNER
1000
GEN
1002
}
1001
GENIUS_GENODEF_13
1002
{
1000
HIER
1070
     0
1002
}
1002
{
1000
MANEDIT
1070
     0
1002
}
1002
{
1000
NOSEL
1070
     0
1002
}
1002
{
1000
BEHIND
1070
     0
1002
}
1002
{
1000
OTHER
1070
     0
1002
}
1002
{
1000
REACTOR
1002
}
  0
LINE
  5
CB8A
  8
AM_0
 10
631.73634105358087
 20
224.24814437604289
 30
0.0
 11
625.73634105358121
 21
224.24814437604289
 31
0.0
  0
LINE
  5
CB8B
  8
AM_0
 10
632.73634105358076
 20
225.248144376043
 30
0.0
 11
631.73634105358087
 21
224.24814437604289
 31
0.0
1001
GENIUS_GENFIL_13
1070
     0
1040
1.0
1040
1.0
1040
20.0
1040
0.0
1002
{
1002
}
1001
GENIUS_GENOBJ-N-CHA_13
1002
{
1000
OWNER
1000
GEN
1002
}
1001
GENIUS_GENODEF_13
1002
{
1000
HIER
1070
     0
1002
}
1002
{
1000
MANEDIT
1070
     0
1002
}
1002
{
1000
NOSEL
1070
     0
1002
}
1002
{
1000
BEHIND
1070
     0
1002
}
1002
{
1000
OTHER
1070
     0
1002
}
1002
{
1000
REACTOR
1002
}
  0
CIRCLE
  5
CB8F
  8
AM_0
 10
142.52602204969531
 20
231.24814486778121
 30
0.0
 40
3.0
  0
LINE
  5
D0B1
  8
ﾁｭｳｼﾝｾﾝ
 10
110.5321255653204
 20
482.5798880743917
 30
0.0
 11
427.52602663925308
 21
482.57984462481681
 31
0.0
1001
GENIUS_GENODEF_13
1002
{
1000
HIER
1070
     0
1002
}
1002
{
1000
MANEDIT
1070
     0
1002
}
1002
{
1000
NOSEL
1070
     0
1002
}
1002
{
1000
BEHIND
1070
     0
1002
}
1002
{
1000
REACTOR
1002
}
1001
GENIUS_GENOBJ-N-CEN_13
1002
{
1000
OWNER
1000
GEN
1002
}
  0
LINE
  5
D0B7
  8
AM_0
 10
251.0260220496954
 20
426.57985807439178
 30
0.0
 11
251.0260220496954
 21
538.57987907439156
 31
0.0
  0
ARC
  5
D437
  8
AM_0
 10
125.0260220496954
 20
469.57989042039588
 30
0.0
 40
1.0
 50
269.9999969999991
 51
0.0
  0
ARC
  5
D438
  8
AM_0
 10
122.0260220496954
 20
467.57989042039588
 30
0.0
 40
1.0
 50
90.0
 51
180.00001000000091
  0
LINE
  5
D439
  8
AM_0
 10
121.0260220496954
 20
434.56353042039592
 30
0.0
 11
121.0260220496954
 21
477.57990042039592
 31
0.0
  0
LINE
  5
D43A
  8
AM_0
 10
126.0260220496954
 20
432.5799004203958
 30
0.0
 11
126.0260220496954
 21
533.70311942039598
 31
0.0
  0
LINE
  5
D43B
  8
AM_0
 10
119.5260220496954
 20
462.57990042039592
 30
0.0
 11
119.5260220496954
 21
502.57988042039591
 31
0.0
  0
LINE
  5
D43C
  8
AM_0
 10
127.0260220496954
 20
429.57990042039592
 30
0.0
 11
127.0260220496954
 21
535.57988142039608
 31
0.0
  0
LINE
  5
D43D
  8
AM_0
 10
122.7937820496953
 20
532.19504742039612
 30
0.0
 11
121.52559204969531
 21
531.46206842039578
 31
0.0
  0
LINE
  5
D43E
  8
AM_0
 10
126.0260220496954
 20
532.57988142039596
 30
0.0
 11
127.0260220496954
 21
532.57988142039596
 31
0.0
  0
LINE
  5
D43F
  8
AM_0
 10
123.2942120496954
 20
532.32927842039612
 30
0.0
 11
125.5260220496954
 21
532.32927842039612
 31
0.0
  0
ARC
  5
D440
  8
AM_0
 10
125.5260220496954
 20
532.82927142039591
 30
0.0
 40
0.5
 50
269.9999969999991
 51
0.0
  0
ARC
  5
D441
  8
AM_0
 10
123.2942120496954
 20
531.32927142039591
 30
0.0
 40
1.0
 50
90.0
 51
120.0263999999994
  0
LINE
  5
D442
  8
AM_0
 10
121.0260220496954
 20
530.59629942039601
 30
0.0
 11
121.0260220496954
 21
487.57988042039591
 31
0.0
  0
ARC
  5
D443
  8
AM_0
 10
125.0260220496954
 20
515.3230604203959
 30
0.0
 40
1.0
 50
0.0
 51
90.0
  0
ARC
  5
D444
  8
AM_0
 10
123.1763520496953
 20
515.3230604203959
 30
0.0
 40
1.0
 50
90.0
 51
107.0976299999995
  0
ARC
  5
D445
  8
AM_0
 10
125.0260220496954
 20
523.56482142039613
 30
0.0
 40
1.0
 50
0.0
 51
90.0
  0
LINE
  5
D446
  8
AM_0
 10
122.7919520496953
 20
524.42772042039587
 30
0.0
 11
121.5205920496954
 21
523.68303842039609
 31
0.0
  0
ARC
  5
D447
  8
AM_0
 10
122.0260220496954
 20
523.85325742039583
 30
0.0
 40
1.0
 50
123.25471999999949
 51
180.00001000000091
  0
LINE
  5
D448
  8
AM_0
 10
122.80636204969539
 20
528.96508942039577
 30
0.0
 11
121.5577620496954
 21
528.30322442039585
 31
0.0
  0
LINE
  5
D449
  8
AM_0
 10
122.8126420496954
 20
531.07462442039605
 30
0.0
 11
121.5733820496953
 21
530.44559642039599
 31
0.0
  0
LINE
  5
D44A
  8
AM_0
 10
122.77627204969529
 20
525.54105542039611
 30
0.0
 11
121.4776220496954
 21
524.68949242039594
 31
0.0
  0
LINE
  5
D44B
  8
AM_0
 10
122.7884720496954
 20
530.07898142039608
 30
0.0
 11
121.5115620496954
 21
529.31273842039593
 31
0.0
  0
ARC
  5
D44C
  8
AM_0
 10
122.0260220496954
 20
528.45524742039606
 30
0.0
 40
1.0
 50
120.96660000000119
 51
180.00001000000091
  0
ARC
  5
D44D
  8
AM_0
 10
122.0260220496954
 20
527.41967142039584
 30
0.0
 40
1.0
 50
117.926589999999
 51
180.00001000000091
  0
ARC
  5
D44E
  8
AM_0
 10
122.0260220496954
 20
529.55394942039607
 30
0.0
 40
1.0
 50
116.91125000000009
 51
180.00001000000091
  0
ARC
  5
D44F
  8
AM_0
 10
122.0260220496954
 20
530.59629942039601
 30
0.0
 40
1.0
 50
120.0263900000018
 51
180.00001000000091
  0
LINE
  5
D450
  8
AM_0
 10
123.2652820496954
 20
531.18296942039592
 30
0.0
 11
125.5260220496954
 21
531.18296942039592
 31
0.0
  0
LINE
  5
D451
  8
AM_0
 10
123.2746820496954
 20
529.08153742039576
 30
0.0
 11
125.0260220496954
 21
529.08153742039576
 31
0.0
  0
LINE
  5
D452
  8
AM_0
 10
123.2973220496954
 20
524.56480542039594
 30
0.0
 11
125.0260220496954
 21
524.56480542039594
 31
0.0
  0
LINE
  5
D453
  8
AM_0
 10
123.32467204969529
 20
525.70482042039612
 30
0.0
 11
126.0260220496954
 21
525.70482042039612
 31
0.0
  0
LINE
  5
D454
  8
AM_0
 10
123.3030620496953
 20
530.22155142039594
 30
0.0
 11
126.0260220496954
 21
530.22155142039594
 31
0.0
  0
ARC
  5
D455
  8
AM_0
 10
125.5260220496954
 20
530.68297742039601
 30
0.0
 40
0.5
 50
0.0
 51
90.0
  0
ARC
  5
D456
  8
AM_0
 10
125.0260220496954
 20
528.08152942039601
 30
0.0
 40
1.0
 50
0.0
 51
90.0
  0
LINE
  5
D457
  8
AM_0
 10
123.0260220496954
 20
529.9764424203961
 30
0.0
 11
123.0260220496954
 21
529.43042142039576
 31
0.0
  0
LINE
  5
D458
  8
AM_0
 10
123.0260220496954
 20
525.41034142039575
 30
0.0
 11
123.0260220496954
 21
524.93822642039584
 31
0.0
  0
ARC
  5
D459
  8
AM_0
 10
123.2973220496954
 20
523.56482142039613
 30
0.0
 40
1.0
 50
90.0
 51
120.3595000000014
  0
ARC
  5
D45A
  8
AM_0
 10
123.32467204969529
 20
524.70483542039585
 30
0.0
 40
1.0
 50
90.0
 51
123.2547299999989
  0
ARC
  5
D45B
  8
AM_0
 10
123.2746820496954
 20
528.08152942039601
 30
0.0
 40
1.0
 50
90.0
 51
117.9265999999992
  0
ARC
  5
D45C
  8
AM_0
 10
123.3030620496953
 20
529.22154442039584
 30
0.0
 40
1.0
 50
90.0
 51
120.96660000000119
  0
ARC
  5
D45D
  8
AM_0
 10
123.2652820496954
 20
530.18298542039611
 30
0.0
 40
1.0
 50
90.0
 51
116.9112599999988
  0
LINE
  5
D45E
  8
AM_0
 10
123.0260220496954
 20
532.07604342039576
 30
0.0
 11
123.0260220496954
 21
531.55027942039578
 31
0.0
  0
LINE
  5
D45F
  8
AM_0
 10
122.8379120496954
 20
518.188791420396
 30
0.0
 11
121.6332020496954
 21
517.67427942039592
 31
0.0
  0
ARC
  5
D460
  8
AM_0
 10
122.0260220496954
 20
516.75462542039577
 30
0.0
 40
1.0
 50
113.1270199999981
 51
180.00001000000091
  0
LINE
  5
D461
  8
AM_0
 10
121.5205920496954
 20
523.68300042039584
 30
0.0
 11
121.49703204969541
 21
523.66917542039585
 31
0.0
  0
ARC
  5
D462
  8
AM_0
 10
122.0260220496954
 20
522.82013142039614
 30
0.0
 40
1.0
 50
120.35951000000171
 51
180.00001000000091
  0
ARC
  5
D463
  8
AM_0
 10
122.0260220496954
 20
522.82013142039614
 30
0.0
 40
1.0
 50
120.35951000000171
 51
180.00001000000091
  0
LINE
  5
D464
  8
AM_0
 10
123.1763520496953
 20
516.32304542039606
 30
0.0
 11
125.0260220496954
 21
516.32304542039606
 31
0.0
  0
LINE
  5
D465
  8
AM_0
 10
123.2306720496954
 20
518.26915942039591
 30
0.0
 11
125.32601204969539
 21
518.26915942039591
 31
0.0
  0
ARC
  5
D466
  8
AM_0
 10
125.32601204969539
 20
518.96910242039576
 30
0.0
 40
0.6999999900000002
 50
269.9999969999991
 51
0.0
  0
LINE
  5
D467
  8
AM_0
 10
123.0260220496954
 20
517.97278042039602
 30
0.0
 11
123.0260220496954
 21
516.91282842039584
 31
0.0
  0
ARC
  5
D468
  8
AM_0
 10
123.2306720496954
 20
517.26915142039593
 30
0.0
 40
1.0
 50
90.0
 51
113.1270299999986
  0
ARC
  5
D469
  8
AM_0
 10
125.0260220496954
 20
523.56482142039613
 30
0.0
 40
1.0
 50
0.0
 51
25.363240000000559
  0
ARC
  5
D46A
  8
AM_0
 10
122.0260220496954
 20
507.5799004203958
 30
0.0
 40
1.0
 50
90.0
 51
180.00001000000091
  0
LINE
  5
D46B
  8
AM_0
 10
125.0260220496954
 20
508.57988042039591
 30
0.0
 11
122.0260220496954
 21
508.57988042039591
 31
0.0
  0
LINE
  5
D46C
  8
AM_0
 10
122.8823420496954
 20
516.27882542039595
 30
0.0
 11
121.73195204969539
 21
515.92497442039576
 31
0.0
  0
ARC
  5
D46D
  8
AM_0
 10
122.0260220496954
 20
514.96916342039594
 30
0.0
 40
1.0
 50
107.0976299999995
 51
180.00001000000091
  0
ARC
  5
D46E
  8
AM_0
 10
125.0260220496954
 20
509.57989042039588
 30
0.0
 40
1.0
 50
269.9999969999991
 51
0.0
  0
LINE
  5
D46F
  8
AM_0
 10
125.0260220496954
 20
506.57989042039583
 30
0.0
 11
122.0260220496954
 21
506.57989042039583
 31
0.0
  0
LINE
  5
D470
  8
AM_0
 10
119.5260820496954
 20
502.57988042039591
 30
0.0
 11
121.0260220496954
 21
502.71111042039581
 31
0.0
  0
ARC
  5
D471
  8
AM_0
 10
122.0260220496954
 20
507.5799004203958
 30
0.0
 40
1.0
 50
179.999989999999
 51
269.9999969999991
  0
LINE
  5
D472
  8
AM_0
 10
123.0260220496954
 20
508.20612042039591
 30
0.0
 11
123.0260220496954
 21
506.84326042039612
 31
0.0
  0
ARC
  5
D473
  8
AM_0
 10
125.0260220496954
 20
505.5798804203958
 30
0.0
 40
1.0
 50
0.0
 51
90.0
  0
LINE
  5
D474
  8
AM_0
 10
119.5260220496954
 20
497.72992042039579
 30
0.0
 11
121.0260220496954
 21
497.72992042039579
 31
0.0
  0
LINE
  5
D475
  8
AM_0
 10
125.0260220496954
 20
496.5798804203958
 30
0.0
 11
122.0260220496954
 21
496.5798804203958
 31
0.0
  0
LINE
  5
D476
  8
AM_0
 10
125.0260220496954
 20
498.57990042039592
 30
0.0
 11
122.0260220496954
 21
498.57990042039592
 31
0.0
  0
ARC
  5
D477
  8
AM_0
 10
122.0260220496954
 20
497.57989042039583
 30
0.0
 40
1.0
 50
179.999989999999
 51
269.9999969999991
  0
LINE
  5
D478
  8
AM_0
 10
119.5260220496954
 20
499.86193042039599
 30
0.0
 11
121.0260220496954
 21
499.86193042039599
 31
0.0
  0
ARC
  5
D479
  8
AM_0
 10
122.0260220496954
 20
497.57989042039583
 30
0.0
 40
1.0
 50
90.0
 51
180.00001000000091
  0
ARC
  5
D47A
  8
AM_0
 10
125.0260220496954
 20
495.57990042039592
 30
0.0
 40
1.0
 50
0.0
 51
90.0
  0
ARC
  5
D47B
  8
AM_0
 10
125.0260220496954
 20
499.57988042039602
 30
0.0
 40
1.0
 50
269.9999969999991
 51
0.0
  0
LINE
  5
D47C
  8
AM_0
 10
123.0260220496954
 20
498.18700042039609
 30
0.0
 11
123.0260220496954
 21
496.97564042039608
 31
0.0
  0
LINE
  5
D47D
  8
AM_0
 10
125.0260220496954
 20
486.5799004203958
 30
0.0
 11
122.0260220496954
 21
486.5799004203958
 31
0.0
  0
LINE
  5
D47E
  8
AM_0
 10
125.0260220496954
 20
488.57989042039588
 30
0.0
 11
122.0260220496954
 21
488.57989042039588
 31
0.0
  0
ARC
  5
D47F
  8
AM_0
 10
122.0260220496954
 20
487.57988042039591
 30
0.0
 40
1.0
 50
179.999989999999
 51
269.9999969999991
  0
ARC
  5
D480
  8
AM_0
 10
122.0260220496954
 20
487.57988042039591
 30
0.0
 40
1.0
 50
90.0
 51
180.00001000000091
  0
ARC
  5
D481
  8
AM_0
 10
125.0260220496954
 20
489.57990042039592
 30
0.0
 40
1.0
 50
269.9999969999991
 51
0.0
  0
ARC
  5
D482
  8
AM_0
 10
125.0260220496954
 20
485.57989042039583
 30
0.0
 40
1.0
 50
0.0
 51
90.0
  0
LINE
  5
D483
  8
AM_0
 10
123.0260220496954
 20
488.1931704203958
 30
0.0
 11
123.0260220496954
 21
487.03228042039609
 31
0.0
  0
ARC
  5
D484
  8
AM_0
 10
125.0260220496954
 20
475.57989042039588
 30
0.0
 40
1.0
 50
0.0
 51
90.0
  0
ARC
  5
D485
  8
AM_0
 10
122.0260220496954
 20
477.57990042039592
 30
0.0
 40
1.0
 50
179.999989999999
 51
269.9999969999991
  0
LINE
  5
D486
  8
AM_0
 10
125.0260220496954
 20
478.57989042039583
 30
0.0
 11
122.0260220496954
 21
478.57989042039583
 31
0.0
  0
LINE
  5
D487
  8
AM_0
 10
125.0260220496954
 20
476.57989042039588
 30
0.0
 11
122.0260220496954
 21
476.57989042039588
 31
0.0
  0
ARC
  5
D488
  8
AM_0
 10
122.0260220496954
 20
477.57990042039592
 30
0.0
 40
1.0
 50
90.0
 51
180.00001000000091
  0
ARC
  5
D489
  8
AM_0
 10
125.0260220496954
 20
479.57989042039588
 30
0.0
 40
1.0
 50
269.9999969999991
 51
0.0
  0
LINE
  5
D48A
  8
AM_0
 10
123.0260220496954
 20
476.9666804203959
 30
0.0
 11
123.0260220496954
 21
478.1275704203959
 31
0.0
  0
ARC
  5
D48B
  8
AM_0
 10
125.0260220496954
 20
437.07826042039591
 30
0.0
 40
1.0
 50
269.9999969999991
 51
0.0
  0
LINE
  5
D48C
  8
AM_0
 10
122.80636204969539
 20
436.1947304203959
 30
0.0
 11
121.55770204969529
 21
436.85659042039589
 31
0.0
  0
ARC
  5
D48D
  8
AM_0
 10
122.0260220496954
 20
437.74018042039597
 30
0.0
 40
1.0
 50
179.999989999999
 51
242.07340000000079
  0
LINE
  5
D48E
  8
AM_0
 10
119.5260220496954
 20
467.42986042039598
 30
0.0
 11
121.0260220496954
 21
467.42986042039598
 31
0.0
  0
LINE
  5
D48F
  8
AM_0
 10
125.0260220496954
 20
468.57990042039597
 30
0.0
 11
122.0260220496954
 21
468.57990042039597
 31
0.0
  0
LINE
  5
D490
  8
AM_0
 10
125.0260220496954
 20
466.57989042039588
 30
0.0
 11
122.0260220496954
 21
466.57989042039588
 31
0.0
  0
LINE
  5
D491
  8
AM_0
 10
119.5260220496954
 20
462.57990042039592
 30
0.0
 11
121.0260220496954
 21
462.44868042039599
 31
0.0
  0
LINE
  5
D492
  8
AM_0
 10
119.5260220496954
 20
465.29792042039583
 30
0.0
 11
121.0260220496954
 21
465.29792042039583
 31
0.0
  0
ARC
  5
D493
  8
AM_0
 10
122.0260220496954
 20
467.57989042039588
 30
0.0
 40
1.0
 50
179.999989999999
 51
269.9999969999991
  0
ARC
  5
D494
  8
AM_0
 10
125.0260220496954
 20
465.5799004203958
 30
0.0
 40
1.0
 50
0.0
 51
90.0
  0
LINE
  5
D495
  8
AM_0
 10
123.0260220496954
 20
466.97279042039582
 30
0.0
 11
123.0260220496954
 21
468.18421042039591
 31
0.0
  0
LINE
  5
D496
  8
AM_0
 10
125.0260220496954
 20
458.57989042039588
 30
0.0
 11
122.0260220496954
 21
458.57989042039588
 31
0.0
  0
LINE
  5
D497
  8
AM_0
 10
125.0260220496954
 20
456.57990042039597
 30
0.0
 11
122.0260220496954
 21
456.57990042039597
 31
0.0
  0
ARC
  5
D498
  8
AM_0
 10
122.0260220496954
 20
457.57989042039588
 30
0.0
 40
1.0
 50
90.0
 51
180.00001000000091
  0
ARC
  5
D499
  8
AM_0
 10
122.0260220496954
 20
457.57989042039588
 30
0.0
 40
1.0
 50
179.999989999999
 51
269.9999969999991
  0
ARC
  5
D49A
  8
AM_0
 10
125.0260220496954
 20
459.57990042039597
 30
0.0
 40
1.0
 50
269.9999969999991
 51
0.0
  0
LINE
  5
D49B
  8
AM_0
 10
123.0260220496954
 20
456.95373042039603
 30
0.0
 11
123.0260220496954
 21
458.31652042039582
 31
0.0
  0
ARC
  5
D49C
  8
AM_0
 10
125.0260220496954
 20
455.57989042039588
 30
0.0
 40
1.0
 50
0.0
 51
90.0
  0
LINE
  5
D49D
  8
AM_0
 10
122.8378520496954
 20
446.97100042039591
 30
0.0
 11
121.6332620496954
 21
447.48547042039581
 31
0.0
  0
LINE
  5
D49E
  8
AM_0
 10
122.8823420496954
 20
448.88096042039581
 30
0.0
 11
121.7320220496954
 21
449.23480042039591
 31
0.0
  0
ARC
  5
D49F
  8
AM_0
 10
122.0260220496954
 20
450.19062042039599
 30
0.0
 40
1.0
 50
179.999989999999
 51
252.9023700000005
  0
ARC
  5
D4A0
  8
AM_0
 10
122.0260220496954
 20
448.40516042039587
 30
0.0
 40
1.0
 50
179.999989999999
 51
246.87297000000149
  0
LINE
  5
D4A1
  8
AM_0
 10
123.2306720496954
 20
446.89069042039603
 30
0.0
 11
125.32601204969539
 21
446.89069042039603
 31
0.0
  0
ARC
  5
D4A2
  8
AM_0
 10
125.32601204969539
 20
446.19068042039589
 30
0.0
 40
0.6999999900000002
 50
0.0
 51
90.0
  0
ARC
  5
D4A3
  8
AM_0
 10
123.2306720496954
 20
447.89068042039582
 30
0.0
 40
1.0
 50
246.87297000000149
 51
269.9999969999991
  0
LINE
  5
D4A4
  8
AM_0
 10
123.1763520496953
 20
448.83679042039591
 30
0.0
 11
125.0260220496954
 21
448.83679042039591
 31
0.0
  0
ARC
  5
D4A5
  8
AM_0
 10
125.0260220496954
 20
449.8367904203958
 30
0.0
 40
1.0
 50
269.9999969999991
 51
0.0
  0
ARC
  5
D4A6
  8
AM_0
 10
123.1763520496953
 20
449.8367904203958
 30
0.0
 40
1.0
 50
252.9023700000005
 51
269.9999969999991
  0
LINE
  5
D4A7
  8
AM_0
 10
123.0260220496954
 20
447.18701042039589
 30
0.0
 11
123.0260220496954
 21
448.24696042039591
 31
0.0
  0
LINE
  5
D4A8
  8
AM_0
 10
122.79189204969541
 20
440.73211042039583
 30
0.0
 11
121.5205920496954
 21
441.47678042039581
 31
0.0
  0
LINE
  5
D4A9
  8
AM_0
 10
122.77627204969529
 20
439.61874042039591
 30
0.0
 11
121.4776820496954
 21
440.47030042039592
 31
0.0
  0
ARC
  5
D4AA
  8
AM_0
 10
122.0260220496954
 20
441.30657042039581
 30
0.0
 40
1.0
 50
179.999989999999
 51
236.74527000000111
  0
ARC
  5
D4AB
  8
AM_0
 10
122.0260220496954
 20
442.33965042039591
 30
0.0
 40
1.0
 50
179.999989999999
 51
239.64049999999861
  0
LINE
  5
D4AC
  8
AM_0
 10
123.32467204969529
 20
439.45501042039592
 30
0.0
 11
126.0260220496954
 21
439.45501042039592
 31
0.0
  0
LINE
  5
D4AD
  8
AM_0
 10
123.2973220496954
 20
440.59498042039593
 30
0.0
 11
125.0260220496954
 21
440.59498042039593
 31
0.0
  0
ARC
  5
D4AE
  8
AM_0
 10
125.0260220496954
 20
441.59496042039598
 30
0.0
 40
1.0
 50
269.9999969999991
 51
0.0
  0
LINE
  5
D4AF
  8
AM_0
 10
123.0260220496954
 20
439.74944042039601
 30
0.0
 11
123.0260220496954
 21
440.22163042039591
 31
0.0
  0
ARC
  5
D4B0
  8
AM_0
 10
123.2973220496954
 20
441.59496042039598
 30
0.0
 40
1.0
 50
239.64049999999861
 51
269.9999969999991
  0
ARC
  5
D4B1
  8
AM_0
 10
123.32467204969529
 20
440.45501042039592
 30
0.0
 40
1.0
 50
236.74527000000111
 51
269.9999969999991
  0
LINE
  5
D4B2
  8
AM_0
 10
122.8127020496953
 20
434.08508042039591
 30
0.0
 11
121.5734520496954
 21
434.71410042039599
 31
0.0
  0
LINE
  5
D4B3
  8
AM_0
 10
122.7884720496954
 20
435.08079042039589
 30
0.0
 11
121.5114320496953
 21
435.84709042039589
 31
0.0
  0
LINE
  5
D4B4
  8
AM_0
 10
122.7938420496954
 20
432.96478042039593
 30
0.0
 11
121.5256620496954
 21
433.69773042039583
 31
0.0
  0
ARC
  5
D4B5
  8
AM_0
 10
122.0260220496954
 20
436.70458042039598
 30
0.0
 40
1.0
 50
179.999989999999
 51
239.03339999999869
  0
ARC
  5
D4B6
  8
AM_0
 10
122.0260220496954
 20
435.60583042039582
 30
0.0
 40
1.0
 50
179.999989999999
 51
243.08874000000111
  0
ARC
  5
D4B7
  8
AM_0
 10
122.0260220496954
 20
434.56353042039592
 30
0.0
 40
1.0
 50
179.999989999999
 51
239.9736000000006
  0
LINE
  5
D4B8
  8
AM_0
 10
126.0260220496954
 20
432.5799004203958
 30
0.0
 11
127.0260220496954
 21
432.5799004203958
 31
0.0
  0
LINE
  5
D4B9
  8
AM_0
 10
123.2652820496954
 20
433.97682042039582
 30
0.0
 11
125.5260220496954
 21
433.97682042039582
 31
0.0
  0
LINE
  5
D4BA
  8
AM_0
 10
123.2746820496954
 20
436.07824042039579
 30
0.0
 11
125.0260220496954
 21
436.07824042039579
 31
0.0
  0
LINE
  5
D4BB
  8
AM_0
 10
123.3030620496953
 20
434.93830042039599
 30
0.0
 11
126.0260220496954
 21
434.93830042039599
 31
0.0
  0
LINE
  5
D4BC
  8
AM_0
 10
123.2942120496954
 20
432.83050042039599
 30
0.0
 11
125.5260220496954
 21
432.83050042039599
 31
0.0
  0
ARC
  5
D4BD
  8
AM_0
 10
125.5260220496954
 20
432.33051042039591
 30
0.0
 40
0.5
 50
0.0
 51
90.0
  0
ARC
  5
D4BE
  8
AM_0
 10
125.5260220496954
 20
434.47680042039599
 30
0.0
 40
0.5
 50
269.9999969999991
 51
0.0
  0
LINE
  5
D4BF
  8
AM_0
 10
123.0260220496954
 20
433.08373042039591
 30
0.0
 11
123.0260220496954
 21
433.60951042039591
 31
0.0
  0
LINE
  5
D4C0
  8
AM_0
 10
123.0260220496954
 20
435.18334042039589
 30
0.0
 11
123.0260220496954
 21
435.72942042039591
 31
0.0
  0
ARC
  5
D4C1
  8
AM_0
 10
123.2746820496954
 20
437.07826042039591
 30
0.0
 40
1.0
 50
242.07340000000079
 51
269.9999969999991
  0
ARC
  5
D4C2
  8
AM_0
 10
123.3030620496953
 20
435.93829042039579
 30
0.0
 40
1.0
 50
239.03339999999869
 51
269.9999969999991
  0
ARC
  5
D4C3
  8
AM_0
 10
123.2652820496954
 20
434.97680042039588
 30
0.0
 40
1.0
 50
243.08874000000111
 51
269.9999969999991
  0
ARC
  5
D4C4
  8
AM_0
 10
123.2942120496954
 20
433.83051042039602
 30
0.0
 40
1.0
 50
239.9736000000006
 51
269.9999969999991
  0
LINE
  5
D4C5
  8
AM_0
 10
127.71605204969541
 20
525.77490774400553
 30
0.0
 11
133.9460320496953
 21
525.77490774400553
 31
0.0
  0
LINE
  5
D4C6
  8
AM_0
 10
127.02605204969539
 20
535.58489674400539
 30
0.0
 11
135.02605204969541
 21
535.58489674400539
 31
0.0
  0
LINE
  5
D4C7
  8
AM_0
 10
127.02605204969539
 20
535.57990774400525
 30
0.0
 11
135.02605204969541
 21
535.57990774400525
 31
0.0
  0
LINE
  5
D4C8
  8
AM_0
 10
127.71605204969541
 20
439.39491374400529
 30
0.0
 11
133.9460320496953
 21
439.39491374400529
 31
0.0
  0
LINE
  5
D4C9
  8
AM_0
 10
127.02605204969539
 20
429.58489374400529
 30
0.0
 11
135.02605204969541
 21
429.58489374400529
 31
0.0
  0
LINE
  5
D4CA
  8
AM_0
 10
127.02605204969539
 20
429.57990374400538
 30
0.0
 11
135.02605204969541
 21
429.57990374400538
 31
0.0
  0
LINE
  5
D4CB
  8
AM_0
 10
140.3509392660074
 20
445.85992718166932
 30
0.0
 11
135.02605204969541
 21
434.48490374400529
 31
0.0
  0
LINE
  5
D4CC
  8
AM_0
 10
241.2260620496954
 20
443.24488374400528
 30
0.0
 11
237.0760720496954
 21
427.78489374400527
 31
0.0
  0
LINE
  5
D4CD
  8
AM_0
 10
243.02605204969541
 20
426.57990374400538
 30
0.0
 11
243.02605204969541
 21
538.57990774400525
 31
0.0
  0
LINE
  5
D4CE
  8
AM_0
 10
135.02605204969541
 20
429.58489374400529
 30
0.0
 11
135.02605204969541
 21
532.02489174400523
 31
0.0
  0
LINE
  5
D4CF
  8
AM_0
 10
138.22606204969529
 20
426.2949037440053
 30
0.0
 11
235.1460220496954
 21
426.2949037440053
 31
0.0
  0
LINE
  5
D4D0
  8
AM_0
 10
138.31603204969531
 20
420.6948937440053
 30
0.0
 11
172.02605204969541
 21
420.6948937440053
 31
0.0
  0
LINE
  5
D4D1
  8
AM_0
 10
138.29607204969531
 20
421.6049037440053
 30
0.0
 11
172.02605204969541
 21
421.6049037440053
 31
0.0
  0
LINE
  5
D4D2
  8
AM_0
 10
138.27605204969541
 20
423.45490374400538
 30
0.0
 11
172.02605204969541
 21
423.45490374400538
 31
0.0
  0
ARC
  5
D4D3
  8
AM_0
 10
138.2744620496953
 20
425.4480437440053
 30
0.0
 40
1.9931281000000001
 50
189.0388199999997
 51
270.04662699999949
  0
LINE
  5
D4D4
  8
AM_0
 10
135.02605204969541
 20
431.79492374400519
 30
0.0
 11
136.33605204969541
 21
422.41491374400522
 31
0.0
  0
LINE
  5
D4D5
  8
AM_0
 10
135.0261120496954
 20
431.79488374400529
 30
0.0
 11
136.31609204969541
 21
423.30489374400531
 31
0.0
  0
ARC
  5
D4D6
  8
AM_0
 10
138.2887520496954
 20
423.59947374400531
 30
0.0
 40
1.994588
 50
188.49291000000531
 51
270.20924700000091
  0
ARC
  5
D4D7
  8
AM_0
 10
138.31072204969541
 20
422.68838374400542
 30
0.0
 40
1.9934921000000001
 50
187.88525999999729
 51
270.15390899999858
  0
ARC
  5
D4D8
  8
AM_0
 10
138.22893204969529
 20
428.29180374400528
 30
0.0
 40
1.9969039999999989
 50
190.58743999999851
 51
269.91652600000037
  0
LINE
  5
D4D9
  8
AM_0
 10
135.02605204969541
 20
433.14489374400529
 30
0.0
 11
136.30602204969529
 21
425.13490374400533
 31
0.0
  0
LINE
  5
D4DA
  8
AM_0
 10
135.02605204969541
 20
434.48489374400538
 30
0.0
 11
136.2660420496955
 21
427.92489374400532
 31
0.0
  0
ARC
  5
D4DB
  8
AM_0
 10
172.02562204969539
 20
425.45532374400523
 30
0.0
 40
2.000407899999999
 50
270.01164999999889
 51
359.98835099999928
  0
LINE
  5
D4DC
  8
AM_0
 10
174.02605204969541
 20
422.69491374400531
 30
0.0
 11
174.02605204969541
 21
426.2949037440053
 31
0.0
  0
ARC
  5
D4DD
  8
AM_0
 10
172.0244620496953
 20
423.60645374400542
 30
0.0
 40
2.0015439999999991
 50
270.04421600000092
 51
359.95578600099913
  0
ARC
  5
D4DE
  8
AM_0
 10
172.0247720496954
 20
422.69619374400531
 30
0.0
 40
2.001287899999999
 50
270.03687399999882
 51
359.9631280009977
  0
LINE
  5
D4DF
  8
AM_0
 10
243.02605204969541
 20
426.57990374400538
 30
0.0
 11
251.0260220496954
 21
426.57990374400538
 31
0.0
  0
ARC
  5
D4E0
  8
AM_0
 10
235.14324204969549
 20
428.29350374400519
 30
0.0
 40
1.9986041000000001
 50
270.08048399999888
 51
345.25728400000048
  0
LINE
  5
D4E1
  8
AM_0
 10
237.56603204969539
 20
429.58489374400529
 30
0.0
 11
243.02605204969541
 21
429.58489374400529
 31
0.0
  0
LINE
  5
D4E2
  8
AM_0
 10
236.3660431624362
 20
446.5798734785821
 30
0.0
 11
137.38600316243929
 21
446.57989791361808
 31
0.0
  0
LINE
  5
D4E3
  8
AM_0
 10
236.36604365617279
 20
448.5798734785821
 30
0.0
 11
137.38600365617589
 21
448.57989791361803
 31
0.0
  0
LINE
  5
D4E4
  8
AM_0
 10
236.358846124856
 20
458.57987348035931
 30
0.0
 11
137.38600612485899
 21
458.57989791361769
 31
0.0
  0
LINE
  5
D4E5
  8
AM_0
 10
136.7060029847014
 20
445.85992808148842
 30
0.0
 11
239.84602298469829
 21
445.85990261948518
 31
0.0
  0
LINE
  5
D4E6
  8
AM_0
 10
136.48603623346631
 20
459.0198381357917
 30
0.0
 11
240.06025623346321
 21
459.01981256659838
 31
0.0
  0
LINE
  5
D4E7
  8
AM_0
 10
136.48603551015941
 20
456.0899081357918
 30
0.0
 11
240.07167551015621
 21
456.0898825637791
 31
0.0
  0
LINE
  5
D4E8
  8
AM_0
 10
236.37318563111941
 20
456.57987347681922
 30
0.0
 11
137.38600563112249
 21
456.5798979136178
 31
0.0
  0
LINE
  5
D4E9
  8
AM_0
 10
136.70600381170539
 20
449.20990808148849
 30
0.0
 11
239.8460238117022
 21
449.20988261948543
 31
0.0
  0
LINE
  5
D4EA
  8
AM_0
 10
136.3560380158803
 20
466.23993816788447
 30
0.0
 11
240.35461597227749
 21
466.23991249393038
 31
0.0
  0
LINE
  5
D4EB
  8
AM_0
 10
136.3560386725278
 20
468.8998481678845
 30
0.0
 11
240.203091130518
 21
468.89982253133729
 31
0.0
  0
LINE
  5
D4EC
  8
AM_0
 10
136.29604050182931
 20
476.30987818269631
 30
0.0
 11
240.4121397553331
 21
476.30985247973013
 31
0.0
  0
LINE
  5
D4ED
  8
AM_0
 10
136.2960411264136
 20
478.83990818269632
 30
0.0
 11
240.2488531024199
 21
478.83988252004031
 31
0.0
  0
LINE
  5
D4EE
  8
AM_0
 10
236.36938735563371
 20
478.57987347775759
 30
0.0
 11
137.38601106222541
 21
478.57989791361712
 31
0.0
  0
LINE
  5
D4EF
  8
AM_0
 10
236.369386861897
 20
476.57987347775759
 30
0.0
 11
137.38601056848881
 21
476.57989791361729
 31
0.0
  0
LINE
  5
D4F0
  8
AM_0
 10
236.3693848869469
 20
468.57987347775781
 30
0.0
 11
137.3860085935423
 21
468.5798979136174
 31
0.0
  0
LINE
  5
D4F1
  8
AM_0
 10
236.36938439323509
 20
466.57987347775799
 30
0.0
 11
137.38600809980571
 21
466.57989791361757
 31
0.0
  0
LINE
  5
D4F2
  8
AM_0
 10
236.36938834312801
 20
498.57987183444533
 30
0.0
 11
137.38601204969549
 21
498.57987183444533
 31
0.0
  0
LINE
  5
D4F3
  8
AM_0
 10
236.36938834310311
 20
496.5798718344455
 30
0.0
 11
137.38601204969549
 21
496.5798718344455
 31
0.0
  0
LINE
  5
D4F4
  8
AM_0
 10
236.36938834310669
 20
488.5798718344455
 30
0.0
 11
137.38601204969549
 21
488.5798718344455
 31
0.0
  0
LINE
  5
D4F5
  8
AM_0
 10
236.36938834310669
 20
486.57987183444533
 30
0.0
 11
137.38601204969549
 21
486.57987183444533
 31
0.0
  0
LINE
  5
D4F6
  8
AM_0
 10
136.29604204969539
 20
486.31986183444542
 30
0.0
 11
240.24885402570479
 21
486.31986183444559
 31
0.0
  0
LINE
  5
D4F7
  8
AM_0
 10
136.29604204969539
 20
488.84989183444532
 30
0.0
 11
240.4121413032023
 21
488.84989183444532
 31
0.0
  0
LINE
  5
D4F8
  8
AM_0
 10
136.35604204969539
 20
496.25992183444532
 30
0.0
 11
240.20309450768889
 21
496.25992183444532
 31
0.0
  0
LINE
  5
D4F9
  8
AM_0
 10
136.35604204969539
 20
498.91983183444552
 30
0.0
 11
240.3546200060959
 21
498.91983183444552
 31
0.0
  0
LINE
  5
D4FA
  8
AM_0
 10
136.7060120496954
 20
515.94986183444553
 30
0.0
 11
239.8460320496954
 21
515.9498618344453
 31
0.0
  0
LINE
  5
D4FB
  8
AM_0
 10
236.37319204969549
 20
508.57987183444561
 30
0.0
 11
137.38601204969549
 21
508.57987183444561
 31
0.0
  0
LINE
  5
D4FC
  8
AM_0
 10
136.48604204969541
 20
509.06986183444559
 30
0.0
 11
240.0716820496954
 21
509.06986183444559
 31
0.0
  0
LINE
  5
D4FD
  8
AM_0
 10
136.48604204969541
 20
506.13993183444558
 30
0.0
 11
240.0602620496955
 21
506.13993183444558
 31
0.0
  0
LINE
  5
D4FE
  8
AM_0
 10
136.7060120496954
 20
519.29984183444571
 30
0.0
 11
239.8460320496954
 21
519.29984183444571
 31
0.0
  0
LINE
  5
D4FF
  8
AM_0
 10
236.3588520496954
 20
506.5798718344455
 30
0.0
 11
137.38601204969549
 21
506.5798718344455
 31
0.0
  0
LINE
  5
D500
  8
AM_0
 10
236.36605204969541
 20
516.57987183444561
 30
0.0
 11
137.38601204969549
 21
516.57987183444561
 31
0.0
  0
LINE
  5
D501
  8
AM_0
 10
236.36605204969541
 20
518.57987183444561
 30
0.0
 11
137.38601204969549
 21
518.57987183444561
 31
0.0
  0
LINE
  5
D502
  8
AM_0
 10
160.52605204969541
 20
444.35491374400527
 30
0.0
 11
243.02605204969541
 21
444.35491374400527
 31
0.0
  0
LINE
  5
D503
  8
AM_0
 10
160.52605204969541
 20
520.8048987440053
 30
0.0
 11
243.02605204969541
 21
520.8048987440053
 31
0.0
  0
LINE
  5
D504
  8
AM_0
 10
138.22606204969529
 20
538.86491074400533
 30
0.0
 11
235.1460220496954
 21
538.86491074400533
 31
0.0
  0
LINE
  5
D505
  8
AM_0
 10
140.35559938897919
 20
519.29984183444571
 30
0.0
 11
135.02599204969539
 21
530.67487874400524
 31
0.0
  0
POLYLINE
  5
D506
  8
AM_0
 66
     1
 10
0.0
 20
0.0
 30
0.0
  0
VERTEX
  5
D507
  8
AM_0
 10
137.38601204969871
 20
482.57989791361712
 30
0.0
 42
0.00039106649
  0
VERTEX
  5
D508
  8
AM_0
 10
137.3836519728905
 20
482.26876791419949
 30
0.0
 42
0.00035488198
  0
VERTEX
  5
D509
  8
AM_0
 10
137.38176189608731
 20
481.95765791466619
 30
0.0
 42
0.00039706113
  0
VERTEX
  5
D50A
  8
AM_0
 10
137.38033181928409
 20
481.64654791501908
 30
0.0
 42
0.00038765718
  0
VERTEX
  5
D50B
  8
AM_0
 10
137.37940174247339
 20
481.33540791524882
 30
0.0
 42
0.00040613432
  0
VERTEX
  5
D50C
  8
AM_0
 10
137.3789516656727
 20
481.02430791535988
 30
0.0
 42
0.00035573434
  0
VERTEX
  5
D50D
  8
AM_0
 10
137.37899158886961
 20
480.71319791535001
 30
0.0
 42
0.00038545884
  0
VERTEX
  5
D50E
  8
AM_0
 10
137.3794815120614
 20
480.40206791522922
 30
0.0
 42
0.00035501205
  0
VERTEX
  5
D50F
  8
AM_0
 10
137.38044143525821
 20
480.0909579149922
 30
0.0
 42
0.00040120779
  0
VERTEX
  5
D510
  8
AM_0
 10
137.3818613584254
 20
479.77972791464163
 30
0.0
 42
0.00038317817
  0
VERTEX
  5
D511
  8
AM_0
 10
137.3837712816173
 20
479.46859791417018
 30
0.0
 42
0.00035656084
  0
VERTEX
  5
D512
  8
AM_0
 10
137.3861512047819
 20
479.15735791358259
 30
0.0
 42
0.00040143615
  0
VERTEX
  5
D513
  8
AM_0
 10
137.3890011279812
 20
478.84625791287908
 30
0.0
  0
SEQEND
  5
D514
  8
AM_0
  0
LINE
  5
D515
  8
AM_0
 10
160.5259920496955
 20
444.3549037440053
 30
0.0
 11
140.3485620496954
 21
445.8549037440053
 31
0.0
  0
ARC
  5
D516
  8
AM_0
 10
136.4860358718141
 20
457.5548781357918
 30
0.0
 40
1.465004
 50
89.999985855485264
 51
269.99998285548429
  0
ARC
  5
D517
  8
AM_0
 10
136.6986233981886
 20
447.5348580833105
 30
0.0
 40
1.6750160000000001
 50
89.746115855485513
 51
270.25384085548518
  0
ARC
  5
D518
  8
AM_0
 10
137.5706334093075
 20
447.57989786803881
 30
0.0
 40
1.0000138999999999
 50
89.691645855484865
 51
270.30832585548637
  0
ARC
  5
D519
  8
AM_0
 10
137.5706358779907
 20
457.57989786803859
 30
0.0
 40
1.0000138999999999
 50
89.691645855484865
 51
270.30832585548637
  0
POLYLINE
  5
D51A
  8
AM_0
 66
     1
 10
0.0
 20
0.0
 30
0.0
  0
VERTEX
  5
D51B
  8
AM_0
 10
138.88691551187759
 20
456.09686754309058
 30
0.0
 42
0.00068898288
  0
VERTEX
  5
D51C
  8
AM_0
 10
138.9577953699899
 20
455.52211752559259
 30
0.0
 42
0.00070644354
  0
VERTEX
  5
D51D
  8
AM_0
 10
139.03029522811721
 20
454.94742750769473
 30
0.0
 42
0.00069248071
  0
VERTEX
  5
D51E
  8
AM_0
 10
139.1043850863382
 20
454.37311748940431
 30
0.0
 42
0.00069585665
  0
VERTEX
  5
D51F
  8
AM_0
 10
139.1800649446013
 20
453.79897747072118
 30
0.0
 42
0.00068980191
  0
VERTEX
  5
D520
  8
AM_0
 10
139.25736480289879
 20
453.22497745163849
 30
0.0
 42
0.00072080104
  0
VERTEX
  5
D521
  8
AM_0
 10
139.33625466124829
 20
452.65118743216323
 30
0.0
 42
0.00071002307
  0
VERTEX
  5
D522
  8
AM_0
 10
139.4167945196767
 20
452.07771741228032
 30
0.0
 42
0.00072659056
  0
VERTEX
  5
D523
  8
AM_0
 10
139.49895437819649
 20
451.50461739199761
 30
0.0
 42
0.00069570481
  0
VERTEX
  5
D524
  8
AM_0
 10
139.58277423673351
 20
450.931587371305
 30
0.0
 42
0.00071266935
  0
VERTEX
  5
D525
  8
AM_0
 10
139.6682040953348
 20
450.35881735021508
 30
0.0
 42
0.00071614426
  0
VERTEX
  5
D526
  8
AM_0
 10
139.7552339540421
 20
449.78647732873031
 30
0.0
 42
0.00072288975
  0
VERTEX
  5
D527
  8
AM_0
 10
139.84394381275939
 20
449.21417730683038
 30
0.0
  0
SEQEND
  5
D528
  8
AM_0
  0
POLYLINE
  5
D529
  8
AM_0
 66
     1
 10
0.0
 20
0.0
 30
0.0
  0
VERTEX
  5
D52A
  8
AM_0
 10
137.43007050174049
 20
476.30951790274008
 30
0.0
 42
0.00076691992
  0
VERTEX
  5
D52B
  8
AM_0
 10
137.44487034923259
 20
475.69174789908658
 30
0.0
 42
0.00073262792
  0
VERTEX
  5
D52C
  8
AM_0
 10
137.46151019676921
 20
475.07415789497873
 30
0.0
 42
0.00076529537
  0
VERTEX
  5
D52D
  8
AM_0
 10
137.48000004428599
 20
474.45648789041411
 30
0.0
 42
0.00075141097
  0
VERTEX
  5
D52E
  8
AM_0
 10
137.50036989182021
 20
473.83888788538547
 30
0.0
 42
0.00075841687
  0
VERTEX
  5
D52F
  8
AM_0
 10
137.5225997393963
 20
473.22145787989763
 30
0.0
 42
0.00075711788
  0
VERTEX
  5
D530
  8
AM_0
 10
137.5467095869526
 20
472.60394787394557
 30
0.0
 42
0.00075976003
  0
VERTEX
  5
D531
  8
AM_0
 10
137.57269943453861
 20
471.98655786752948
 30
0.0
 42
0.00075797311
  0
VERTEX
  5
D532
  8
AM_0
 10
137.6005392821518
 20
471.36927786065661
 30
0.0
 42
0.0007482613
  0
VERTEX
  5
D533
  8
AM_0
 10
137.63026912974021
 20
470.7518978533173
 30
0.0
 42
0.00074893561
  0
VERTEX
  5
D534
  8
AM_0
 10
137.6618289773902
 20
470.13476784552608
 30
0.0
 42
0.00076039839
  0
VERTEX
  5
D535
  8
AM_0
 10
137.69524882506519
 20
469.51773783727577
 30
0.0
 42
0.00075618786
  0
VERTEX
  5
D536
  8
AM_0
 10
137.73054867273751
 20
468.90069782856142
 30
0.0
  0
SEQEND
  5
D537
  8
AM_0
  0
ARC
  5
D538
  8
AM_0
 10
136.3560383442028
 20
467.56988816788453
 30
0.0
 40
1.3300049999999981
 50
89.999985855485264
 51
269.99998285548429
  0
ARC
  5
D539
  8
AM_0
 10
137.57063834667389
 20
467.57989786803819
 30
0.0
 40
1.0000138999999999
 50
89.691645855484865
 51
270.30832585548637
  0
POLYLINE
  5
D53A
  8
AM_0
 66
     1
 10
0.0
 20
0.0
 30
0.0
  0
VERTEX
  5
D53B
  8
AM_0
 10
137.9042580157296
 20
466.23932778567797
 30
0.0
 42
0.0007337051
  0
VERTEX
  5
D53C
  8
AM_0
 10
137.94839786701121
 20
465.63690777478121
 30
0.0
 42
0.00075211323
  0
VERTEX
  5
D53D
  8
AM_0
 10
137.99433771830019
 20
465.03451776344019
 30
0.0
 42
0.0007297491
  0
VERTEX
  5
D53E
  8
AM_0
 10
138.042067569636
 20
464.43231775165708
 30
0.0
 42
0.00073593041
  0
VERTEX
  5
D53F
  8
AM_0
 10
138.09154742102379
 20
463.83032773944223
 30
0.0
 42
0.00074742739
  0
VERTEX
  5
D540
  8
AM_0
 10
138.14281727244119
 20
463.22845772678522
 30
0.0
 42
0.00073217363
  0
VERTEX
  5
D541
  8
AM_0
 10
138.19587712387579
 20
462.62665771368631
 30
0.0
 42
0.00073754168
  0
VERTEX
  5
D542
  8
AM_0
 10
138.25069697537461
 20
462.0251177001532
 30
0.0
 42
0.00073075073
  0
VERTEX
  5
D543
  8
AM_0
 10
138.3072768269179
 20
461.4237576861853
 30
0.0
 42
0.00074550816
  0
VERTEX
  5
D544
  8
AM_0
 10
138.36561667853519
 20
460.82269767178292
 30
0.0
 42
0.00074288416
  0
VERTEX
  5
D545
  8
AM_0
 10
138.42576653016241
 20
460.22167765693382
 30
0.0
 42
0.00072504001
  0
VERTEX
  5
D546
  8
AM_0
 10
138.48767638185629
 20
459.62092764165033
 30
0.0
 42
0.00074640667
  0
VERTEX
  5
D547
  8
AM_0
 10
138.5513462335872
 20
459.02032762593211
 30
0.0
  0
SEQEND
  5
D548
  8
AM_0
  0
ARC
  5
D549
  8
AM_0
 10
136.29018081412269
 20
477.5748981841428
 30
0.0
 40
1.2650129999999991
 50
89.735575855488491
 51
270.2644068554892
  0
ARC
  5
D54A
  8
AM_0
 10
137.57064081535711
 20
477.57989786803779
 30
0.0
 40
1.0000138999999999
 50
89.691645855484865
 51
270.30832585548637
  0
LINE
  5
D54B
  8
AM_0
 10
160.52605204969541
 20
520.8048987440053
 30
0.0
 11
140.3532020496954
 21
519.3048987440053
 31
0.0
  0
POLYLINE
  5
D54C
  8
AM_0
 66
     1
 10
0.0
 20
0.0
 30
0.0
  0
VERTEX
  5
D54D
  8
AM_0
 10
137.90426204969549
 20
498.92044183444551
 30
0.0
 42
-0.0007337051
  0
VERTEX
  5
D54E
  8
AM_0
 10
137.9484020496954
 20
499.52286183444528
 30
0.0
 42
-0.00075211323
  0
VERTEX
  5
D54F
  8
AM_0
 10
137.9943420496954
 20
500.12525183444552
 30
0.0
 42
-0.0007297491
  0
VERTEX
  5
D550
  8
AM_0
 10
138.04207204969541
 20
500.72745183444562
 30
0.0
 42
-0.00073593041
  0
VERTEX
  5
D551
  8
AM_0
 10
138.09155204969539
 20
501.32944183444528
 30
0.0
 42
-0.00074742739
  0
VERTEX
  5
D552
  8
AM_0
 10
138.1428220496955
 20
501.9313118344453
 30
0.0
 42
-0.00073217363
  0
VERTEX
  5
D553
  8
AM_0
 10
138.1958820496954
 20
502.53311183444521
 30
0.0
 42
-0.00073754168
  0
VERTEX
  5
D554
  8
AM_0
 10
138.25070204969541
 20
503.13465183444549
 30
0.0
 42
-0.00073075073
  0
VERTEX
  5
D555
  8
AM_0
 10
138.3072820496954
 20
503.73601183444521
 30
0.0
 42
-0.00074550816
  0
VERTEX
  5
D556
  8
AM_0
 10
138.36562204969539
 20
504.33707183444562
 30
0.0
 42
-0.00074288416
  0
VERTEX
  5
D557
  8
AM_0
 10
138.42577204969541
 20
504.93809183444557
 30
0.0
 42
-0.00072504001
  0
VERTEX
  5
D558
  8
AM_0
 10
138.48768204969539
 20
505.53884183444552
 30
0.0
 42
-0.00074640667
  0
VERTEX
  5
D559
  8
AM_0
 10
138.5513520496954
 20
506.13944183444551
 30
0.0
  0
SEQEND
  5
D55A
  8
AM_0
  0
POLYLINE
  5
D55B
  8
AM_0
 66
     1
 10
0.0
 20
0.0
 30
0.0
  0
VERTEX
  5
D55C
  8
AM_0
 10
137.43007204969541
 20
488.85025183444532
 30
0.0
 42
-0.00076691992
  0
VERTEX
  5
D55D
  8
AM_0
 10
137.44487204969539
 20
489.46802183444532
 30
0.0
 42
-0.00073262792
  0
VERTEX
  5
D55E
  8
AM_0
 10
137.46151204969539
 20
490.08561183444567
 30
0.0
 42
-0.00076529537
  0
VERTEX
  5
D55F
  8
AM_0
 10
137.48000204969529
 20
490.70328183444531
 30
0.0
 42
-0.00075141097
  0
VERTEX
  5
D560
  8
AM_0
 10
137.50037204969539
 20
491.32088183444529
 30
0.0
 42
-0.00075841687
  0
VERTEX
  5
D561
  8
AM_0
 10
137.52260204969551
 20
491.93831183444541
 30
0.0
 42
-0.00075711788
  0
VERTEX
  5
D562
  8
AM_0
 10
137.5467120496954
 20
492.55582183444551
 30
0.0
 42
-0.00075976003
  0
VERTEX
  5
D563
  8
AM_0
 10
137.57270204969541
 20
493.17321183444551
 30
0.0
 42
-0.00075797311
  0
VERTEX
  5
D564
  8
AM_0
 10
137.60054204969549
 20
493.79049183444562
 30
0.0
 42
-0.0007482613
  0
VERTEX
  5
D565
  8
AM_0
 10
137.63027204969541
 20
494.40787183444547
 30
0.0
 42
-0.00074893561
  0
VERTEX
  5
D566
  8
AM_0
 10
137.66183204969531
 20
495.0250018344455
 30
0.0
 42
-0.00076039839
  0
VERTEX
  5
D567
  8
AM_0
 10
137.6952520496954
 20
495.64203183444528
 30
0.0
 42
-0.00075618786
  0
VERTEX
  5
D568
  8
AM_0
 10
137.7305520496954
 20
496.25907183444542
 30
0.0
  0
SEQEND
  5
D569
  8
AM_0
  0
POLYLINE
  5
D56A
  8
AM_0
 66
     1
 10
0.0
 20
0.0
 30
0.0
  0
VERTEX
  5
D56B
  8
AM_0
 10
137.38601204969549
 20
482.57987183444533
 30
0.0
 42
-0.00039106649
  0
VERTEX
  5
D56C
  8
AM_0
 10
137.3836520496954
 20
482.89100183444549
 30
0.0
 42
-0.00035488198
  0
VERTEX
  5
D56D
  8
AM_0
 10
137.3817620496954
 20
483.2021118344453
 30
0.0
 42
-0.00039706113
  0
VERTEX
  5
D56E
  8
AM_0
 10
137.3803320496954
 20
483.51322183444552
 30
0.0
 42
-0.00038765718
  0
VERTEX
  5
D56F
  8
AM_0
 10
137.37940204969539
 20
483.82436183444548
 30
0.0
 42
-0.00040613432
  0
VERTEX
  5
D570
  8
AM_0
 10
137.37895204969541
 20
484.13546183444521
 30
0.0
 42
-0.00035573434
  0
VERTEX
  5
D571
  8
AM_0
 10
137.37899204969551
 20
484.44657183444542
 30
0.0
 42
-0.00038545884
  0
VERTEX
  5
D572
  8
AM_0
 10
137.37948204969541
 20
484.75770183444553
 30
0.0
 42
-0.00035501205
  0
VERTEX
  5
D573
  8
AM_0
 10
137.38044204969549
 20
485.06881183444551
 30
0.0
 42
-0.00040120779
  0
VERTEX
  5
D574
  8
AM_0
 10
137.3818620496954
 20
485.38004183444531
 30
0.0
 42
-0.00038317817
  0
VERTEX
  5
D575
  8
AM_0
 10
137.38377204969549
 20
485.69117183444553
 30
0.0
 42
-0.00035656084
  0
VERTEX
  5
D576
  8
AM_0
 10
137.3861520496954
 20
486.00241183444541
 30
0.0
 42
-0.00040143615
  0
VERTEX
  5
D577
  8
AM_0
 10
137.38900204969551
 20
486.31351183444531
 30
0.0
  0
SEQEND
  5
D578
  8
AM_0
  0
ARC
  5
D579
  8
AM_0
 10
137.57064204969549
 20
487.57987183444533
 30
0.0
 40
1.0000138999999999
 50
89.691659999999231
 51
270.30834000000073
  0
ARC
  5
D57A
  8
AM_0
 10
136.2901820496954
 20
487.58487183444549
 30
0.0
 40
1.2650129999999991
 50
89.735578999998495
 51
270.2644099999992
  0
ARC
  5
D57B
  8
AM_0
 10
137.57064204969549
 20
497.5798718344455
 30
0.0
 40
1.0000138999999999
 50
89.691659999999231
 51
270.30834000000073
  0
ARC
  5
D57C
  8
AM_0
 10
136.35604204969539
 20
497.58988183444529
 30
0.0
 40
1.3300049999999981
 50
90.000003000000945
 51
270.0
  0
POLYLINE
  5
D57D
  8
AM_0
 66
     1
 10
0.0
 20
0.0
 30
0.0
  0
VERTEX
  5
D57E
  8
AM_0
 10
138.8869220496955
 20
509.06290183444531
 30
0.0
 42
-0.00068898288
  0
VERTEX
  5
D57F
  8
AM_0
 10
138.95780204969529
 20
509.63765183444531
 30
0.0
 42
-0.00070644354
  0
VERTEX
  5
D580
  8
AM_0
 10
139.03030204969551
 20
510.21234183444562
 30
0.0
 42
-0.00069248071
  0
VERTEX
  5
D581
  8
AM_0
 10
139.10439204969541
 20
510.78665183444542
 30
0.0
 42
-0.00069585665
  0
VERTEX
  5
D582
  8
AM_0
 10
139.18007204969541
 20
511.36079183444542
 30
0.0
 42
-0.00068980191
  0
VERTEX
  5
D583
  8
AM_0
 10
139.25737204969539
 20
511.93479183444549
 30
0.0
 42
-0.00072080104
  0
VERTEX
  5
D584
  8
AM_0
 10
139.33626204969551
 20
512.50858183444552
 30
0.0
 42
-0.00071002307
  0
VERTEX
  5
D585
  8
AM_0
 10
139.41680204969541
 20
513.08205183444568
 30
0.0
 42
-0.00072659056
  0
VERTEX
  5
D586
  8
AM_0
 10
139.49896204969539
 20
513.65515183444563
 30
0.0
 42
-0.00069570481
  0
VERTEX
  5
D587
  8
AM_0
 10
139.5827820496954
 20
514.22818183444565
 30
0.0
 42
-0.00071266935
  0
VERTEX
  5
D588
  8
AM_0
 10
139.66821204969551
 20
514.80095183444564
 30
0.0
 42
-0.00071614426
  0
VERTEX
  5
D589
  8
AM_0
 10
139.7552420496954
 20
515.37329183444569
 30
0.0
 42
-0.00072288975
  0
VERTEX
  5
D58A
  8
AM_0
 10
139.84395204969539
 20
515.94559183444551
 30
0.0
  0
SEQEND
  5
D58B
  8
AM_0
  0
ARC
  5
D58C
  8
AM_0
 10
136.48604204969541
 20
507.6048918344456
 30
0.0
 40
1.465004
 50
90.000003000000945
 51
270.0
  0
ARC
  5
D58D
  8
AM_0
 10
137.57064204969549
 20
507.57987183444561
 30
0.0
 40
1.0000138999999999
 50
89.691659999999231
 51
270.30834000000073
  0
ARC
  5
D58E
  8
AM_0
 10
137.57064204969549
 20
517.57987183444561
 30
0.0
 40
1.0000138999999999
 50
89.691659999999231
 51
270.30834000000073
  0
ARC
  5
D58F
  8
AM_0
 10
136.69863204969539
 20
517.6249118344457
 30
0.0
 40
1.6750160000000001
 50
89.746145000001221
 51
270.25387000000092
  0
LINE
  5
D590
  8
AM_0
 10
138.31603204969531
 20
544.47489674400526
 30
0.0
 11
172.02605204969541
 21
544.47489674400526
 31
0.0
  0
LINE
  5
D591
  8
AM_0
 10
138.29607204969531
 20
543.55490574400551
 30
0.0
 11
172.02605204969541
 21
543.55490574400551
 31
0.0
  0
LINE
  5
D592
  8
AM_0
 10
138.27605204969541
 20
541.71490174400537
 30
0.0
 11
172.02605204969541
 21
541.71490174400537
 31
0.0
  0
ARC
  5
D593
  8
AM_0
 10
138.2307020496954
 20
536.86590274400521
 30
0.0
 40
1.9990078999999989
 50
90.133450000000266
 51
169.36258999999629
  0
LINE
  5
D594
  8
AM_0
 10
135.02605204969541
 20
533.3648807440054
 30
0.0
 11
136.33605204969541
 21
542.74488574400539
 31
0.0
  0
LINE
  5
D595
  8
AM_0
 10
135.0261120496954
 20
533.36490374400535
 30
0.0
 11
136.31609204969541
 21
541.86489574400525
 31
0.0
  0
LINE
  5
D596
  8
AM_0
 10
135.02605204969541
 20
532.02490774400553
 30
0.0
 11
136.30602204969529
 21
540.02489974400532
 31
0.0
  0
LINE
  5
D597
  8
AM_0
 10
135.02605204969541
 20
530.67491674400526
 30
0.0
 11
136.2660420496955
 21
537.23491374400521
 31
0.0
  0
ARC
  5
D598
  8
AM_0
 10
138.28203204969529
 20
539.71472674400525
 30
0.0
 40
2.0001840999999998
 50
90.171470000000795
 51
171.07900000000399
  0
ARC
  5
D599
  8
AM_0
 10
138.28960204969539
 20
541.55756874400527
 30
0.0
 40
1.9973480999999991
 50
89.815319999999133
 51
171.14853000000031
  0
ARC
  5
D59A
  8
AM_0
 10
138.31817204969539
 20
542.47442374400521
 30
0.0
 40
2.0004758999999992
 50
90.060310000000726
 51
172.22953999999919
  0
LINE
  5
D59B
  8
AM_0
 10
174.02605204969541
 20
542.47490374400525
 30
0.0
 11
174.02605204969541
 21
538.86491074400533
 31
0.0
  0
ARC
  5
D59C
  8
AM_0
 10
172.0188520496954
 20
539.7077227440052
 30
0.0
 40
2.0071799999999991
 50
0.2046200000042345
 51
89.795379999999028
  0
ARC
  5
D59D
  8
AM_0
 10
172.0227620496953
 20
541.55161774400528
 30
0.0
 40
2.003279899999999
 50
0.0937900000036546
 51
89.906209999999604
  0
ARC
  5
D59E
  8
AM_0
 10
172.0180620496954
 20
542.46689374400523
 30
0.0
 40
2.0080360999999991
 50
0.2287899999994317
 51
89.771210000000551
  0
LINE
  5
D59F
  8
AM_0
 10
241.52605204969541
 20
520.80489074400532
 30
0.0
 11
237.07604204969539
 21
537.38489274400524
 31
0.0
  0
LINE
  5
D5A0
  8
AM_0
 10
243.02605204969541
 20
436.57990374400521
 30
0.0
 11
251.0260220496954
 21
436.57990374400521
 31
0.0
  0
LINE
  5
D5A1
  8
AM_0
 10
243.02605204969541
 20
450.63989374400529
 30
0.0
 11
251.0260220496954
 21
450.63989374400529
 31
0.0
  0
ARC
  5
D5A2
  8
AM_0
 10
236.36598587798781
 20
457.5798734785966
 30
0.0
 40
1.0000255999999981
 50
269.58945485548588
 51
90.410515855487006
  0
ARC
  5
D5A3
  8
AM_0
 10
236.3660434093045
 20
447.5798734785821
 30
0.0
 40
1.0
 50
269.99998285548429
 51
89.999995855486276
  0
ARC
  5
D5A4
  8
AM_0
 10
239.84600323042571
 20
447.53485661949088
 30
0.0
 40
1.675026000120903
 50
270.0006727121953
 51
89.999295998819832
  0
ARC
  5
D5A5
  8
AM_0
 10
242.67925204969541
 20
442.8571337440053
 30
0.0
 40
1.5027759999999999
 50
90.122410000000286
 51
165.24357000000069
  0
ARC
  5
D5A6
  8
AM_0
 10
240.0659958705742
 20
457.54984256518139
 30
0.0
 40
1.460011199999999
 50
269.7752358554871
 51
90.224735855487296
  0
ARC
  5
D5A7
  8
AM_0
 10
236.3660082466709
 20
467.57987347859131
 30
0.0
 40
1.000005699999998
 50
269.99998285548429
 51
89.999995855486276
  0
ARC
  5
D5A8
  8
AM_0
 10
236.36601071535409
 20
477.57987347859108
 30
0.0
 40
1.000005699999998
 50
269.99998285548429
 51
89.999995855486276
  0
ARC
  5
D5A9
  8
AM_0
 10
240.1909947429653
 20
467.56486253432331
 30
0.0
 40
1.3350147999999999
 50
269.73042985548369
 51
90.269555855485152
  0
ARC
  5
D5AA
  8
AM_0
 10
240.25294721288279
 20
477.5698625190297
 30
0.0
 40
1.2700266
 50
269.62931585548409
 51
90.370665855485655
  0
LINE
  5
D5AB
  8
AM_0
 10
243.02605204969541
 20
514.51989474400523
 30
0.0
 11
251.0260220496954
 21
514.51989474400523
 31
0.0
  0
ARC
  5
D5AC
  8
AM_0
 10
236.36601194969549
 20
487.57987183444533
 30
0.0
 40
1.000005699999998
 50
269.999989999999
 51
90.000003000000945
  0
ARC
  5
D5AD
  8
AM_0
 10
236.36601194969549
 20
497.5798718344455
 30
0.0
 40
1.000005699999998
 50
269.999989999999
 51
90.000003000000945
  0
ARC
  5
D5AE
  8
AM_0
 10
240.25294844969551
 20
487.58988183444529
 30
0.0
 40
1.2700266
 50
269.62931999999989
 51
90.370670000001468
  0
ARC
  5
D5AF
  8
AM_0
 10
240.1909984496954
 20
497.59488183444552
 30
0.0
 40
1.3350147999999999
 50
269.7304299999999
 51
90.269556000001415
  0
ARC
  5
D5B0
  8
AM_0
 10
236.36605204969541
 20
517.57987183444561
 30
0.0
 40
1.0
 50
269.999989999999
 51
90.000003000000945
  0
ARC
  5
D5B1
  8
AM_0
 10
236.36599204969551
 20
507.57987183444561
 30
0.0
 40
1.0000255999999981
 50
269.58947000000001
 51
90.410531000001029
  0
ARC
  5
D5B2
  8
AM_0
 10
240.0660020496955
 20
507.60990183444528
 30
0.0
 40
1.460011199999999
 50
269.77524999999991
 51
90.224750000000071
  0
ARC
  5
D5B3
  8
AM_0
 10
239.84601188192971
 20
517.62488783444485
 30
0.0
 40
1.675026000120903
 50
270.00068985666542
 51
89.999313143289925
  0
LINE
  5
D5B4
  8
AM_0
 10
243.02605204969541
 20
528.57989974400516
 30
0.0
 11
251.0260220496954
 21
528.57989974400516
 31
0.0
  0
LINE
  5
D5B5
  8
AM_0
 10
243.02605204969541
 20
538.57990774400525
 30
0.0
 11
251.0260220496954
 21
538.57990774400525
 31
0.0
  0
ARC
  5
D5B6
  8
AM_0
 10
235.14318204969541
 20
536.8627677440054
 30
0.0
 40
2.0021281000000002
 50
15.116699999994969
 51
89.918480000000116
  0
LINE
  5
D5B7
  8
AM_0
 10
237.56603204969539
 20
535.58489674400539
 30
0.0
 11
243.02605204969541
 21
535.58489674400539
 31
0.0
  0
LINE
  5
D5B8
  8
AM_0
 10
114.62735095334919
 20
474.5482626624248
 30
0.0
 11
114.62735095334919
 21
490.6115127704557
 31
0.0
  0
LINE
  5
D5B9
  8
AM_0
 10
118.12735095334919
 20
482.57988771644
 30
0.0
 11
118.62735095334919
 21
483.07988771644
 31
0.0
  0
LINE
  5
D5BA
  8
AM_0
 10
118.62735095334919
 20
472.44660788779282
 30
0.0
 11
119.5260220496954
 21
472.44660788779282
 31
0.0
  0
LINE
  5
D5BB
  8
AM_0
 10
118.62735095334919
 20
471.94660788779282
 30
0.0
 11
119.5260220496954
 21
471.94660788779282
 31
0.0
  0
LINE
  5
D5BC
  8
AM_0
 10
119.5260220496954
 20
482.07988771644011
 30
0.0
 11
118.62735095334919
 21
482.07988771643983
 31
0.0
  0
LINE
  5
D5BD
  8
AM_0
 10
118.12735095334919
 20
481.57988771643983
 30
0.0
 11
119.5260220496954
 21
481.57988771643983
 31
0.0
  0
LINE
  5
D5BE
  8
AM_0
 10
119.5260220496954
 20
471.57988771644011
 30
0.0
 11
117.98940088853119
 21
471.57988771644011
 31
0.0
  0
LINE
  5
D5BF
  8
AM_0
 10
119.5260220496954
 20
481.2331996478988
 30
0.0
 11
118.62735095334919
 21
481.23319964789857
 31
0.0
  0
LINE
  5
D5C0
  8
AM_0
 10
119.5260220496954
 20
472.92657578498103
 30
0.0
 11
118.62735095334919
 21
472.92657578498103
 31
0.0
  0
ARC
  5
D5C1
  8
AM_0
 10
126.75235095334919
 20
477.07988771643983
 30
0.0
 40
9.124999999999984
 50
152.92493329271849
 51
207.07506670728151
  0
LINE
  5
D5C2
  8
AM_0
 10
117.3492164888667
 20
471.8116664368423
 30
0.0
 11
114.9871665536846
 21
473.78004138282728
 31
0.0
  0
LINE
  5
D5C3
  8
AM_0
 10
118.12735095334919
 20
472.15832029994789
 30
0.0
 11
118.62735095334919
 21
471.57988771644011
 31
0.0
  0
ARC
  5
D5C4
  8
AM_0
 10
117.98940088853109
 20
472.57988771644
 30
0.0
 40
1.0
 50
230.19442890774391
 51
270.0
  0
LINE
  5
D5C5
  8
AM_0
 10
118.62735095334919
 20
471.94660788779282
 30
0.0
 11
118.12735095334919
 21
472.15832029994789
 31
0.0
  0
LINE
  5
D5C6
  8
AM_0
 10
118.12735095334919
 20
472.62059557291911
 30
0.0
 11
118.62735095334919
 21
471.94660788779282
 31
0.0
  0
LINE
  5
D5C7
  8
AM_0
 10
118.62735095334919
 20
472.44660788779282
 30
0.0
 11
118.12735095334919
 21
472.62059557291911
 31
0.0
  0
LINE
  5
D5C8
  8
AM_0
 10
118.12735095334919
 20
473.15832029994789
 30
0.0
 11
118.62735095334919
 21
472.44660788779282
 31
0.0
  0
LINE
  5
D5C9
  8
AM_0
 10
118.62735095334919
 20
472.92657578498103
 30
0.0
 11
118.12735095334919
 21
473.15832029994789
 31
0.0
  0
ARC
  5
D5CA
  8
AM_0
 10
115.62735095334931
 20
474.54826266242509
 30
0.0
 40
1.0000000000000291
 50
180.0
 51
230.1944289077336
  0
LINE
  5
D5CB
  8
AM_0
 10
118.62735095334919
 20
482.07988771643983
 30
0.0
 11
118.12735095334919
 21
482.57988771644
 31
0.0
  0
LINE
  5
D5CC
  8
AM_0
 10
118.12735095334919
 20
481.57988771643983
 30
0.0
 11
118.62735095334919
 21
482.07988771643983
 31
0.0
  0
LINE
  5
D5CD
  8
AM_0
 10
118.62735095334919
 20
481.23319964789857
 30
0.0
 11
118.12735095334919
 21
481.57988771643983
 31
0.0
  0
LINE
  5
D5CE
  8
AM_0
 10
118.62735095334919
 20
492.2331996478988
 30
0.0
 11
119.5260220496954
 21
492.2331996478988
 31
0.0
  0
LINE
  5
D5CF
  8
AM_0
 10
118.62735095334919
 20
483.9265757849808
 30
0.0
 11
119.5260220496954
 21
483.92657578498103
 31
0.0
  0
LINE
  5
D5D0
  8
AM_0
 10
117.98940088853119
 20
493.57988771643988
 30
0.0
 11
119.5260220496954
 21
493.57988771644
 31
0.0
  0
LINE
  5
D5D1
  8
AM_0
 10
119.5260220496954
 20
483.57988771644
 30
0.0
 11
118.12735095334919
 21
483.57988771644
 31
0.0
  0
LINE
  5
D5D2
  8
AM_0
 10
118.62735095334919
 20
483.07988771644
 30
0.0
 11
119.5260220496954
 21
483.07988771644011
 31
0.0
  0
LINE
  5
D5D3
  8
AM_0
 10
119.5260220496954
 20
493.2131675450878
 30
0.0
 11
118.62735095334919
 21
493.2131675450878
 31
0.0
  0
LINE
  5
D5D4
  8
AM_0
 10
119.5260220496954
 20
492.7131675450878
 30
0.0
 11
118.62735095334919
 21
492.7131675450878
 31
0.0
  0
ARC
  5
D5D5
  8
AM_0
 10
126.75235095334919
 20
488.07988771644011
 30
0.0
 40
9.124999999999984
 50
152.92493329271849
 51
207.07506670728151
  0
LINE
  5
D5D6
  8
AM_0
 10
118.12735095334919
 20
483.57988771644
 30
0.0
 11
118.62735095334919
 21
483.9265757849808
 31
0.0
  0
LINE
  5
D5D7
  8
AM_0
 10
118.62735095334919
 20
483.07988771644
 30
0.0
 11
118.12735095334919
 21
483.57988771644
 31
0.0
  0
LINE
  5
D5D8
  8
AM_0
 10
114.9871665536846
 20
491.37973405005312
 30
0.0
 11
117.3492164888667
 21
493.34810899603718
 31
0.0
  0
LINE
  5
D5D9
  8
AM_0
 10
118.62735095334919
 20
493.57988771643988
 30
0.0
 11
118.12735095334919
 21
493.00145513293279
 31
0.0
  0
ARC
  5
D5DA
  8
AM_0
 10
117.98940088853109
 20
492.57988771644011
 30
0.0
 40
1.00000000000004
 50
90.0
 51
129.805571092256
  0
LINE
  5
D5DB
  8
AM_0
 10
118.12735095334919
 20
492.00145513293279
 30
0.0
 11
118.62735095334919
 21
492.2331996478988
 31
0.0
  0
LINE
  5
D5DC
  8
AM_0
 10
118.62735095334919
 20
492.7131675450878
 30
0.0
 11
118.12735095334919
 21
492.00145513293279
 31
0.0
  0
LINE
  5
D5DD
  8
AM_0
 10
118.12735095334919
 20
492.53917985996083
 30
0.0
 11
118.62735095334919
 21
492.7131675450878
 31
0.0
  0
LINE
  5
D5DE
  8
AM_0
 10
118.62735095334919
 20
493.2131675450878
 30
0.0
 11
118.12735095334919
 21
492.53917985996083
 31
0.0
  0
LINE
  5
D5DF
  8
AM_0
 10
118.12735095334919
 20
493.00145513293279
 30
0.0
 11
118.62735095334919
 21
493.2131675450878
 31
0.0
  0
ARC
  5
D5E0
  8
AM_0
 10
115.62735095334931
 20
490.6115127704557
 30
0.0
 40
1.0
 50
129.8055710922664
 51
180.0
  0
CIRCLE
  5
D5E1
  8
AM_0
 10
142.5260220496952
 20
436.57988562523479
 30
0.0
 40
3.0
  0
CIRCLE
  5
D5E2
  8
AM_0
 10
142.5260220496952
 20
528.57989001455371
 30
0.0
 40
3.0
  0
LINE
  5
D652
  8
AM_0
 10
421.30415825757791
 20
437.57985375920953
 30
0.0
 11
269.74786268811698
 21
437.57985375920941
 31
0.0
  0
LINE
  5
D653
  8
AM_0
 10
268.87514315020809
 20
527.57985644141866
 30
0.0
 11
422.17690553874041
 21
527.57985644141854
 31
0.0
  0
LINE
  5
D654
  8
AM_0
 10
422.52602663925279
 20
507.57985605398829
 30
0.0
 11
268.5260220496956
 21
507.57985605398829
 31
0.0
  0
LINE
  5
D655
  8
AM_0
 10
268.5260220496956
 20
507.57985605398829
 30
0.0
 11
269.74786268811698
 21
437.57985375920953
 31
0.0
  0
LINE
  5
D656
  8
ｶｸﾚｾﾝ2
 10
283.52602249673032
 20
437.57985375920953
 30
0.0
 11
283.52602249673032
 21
527.57985644141854
 31
0.0
  0
LINE
  5
D657
  8
ｶｸﾚｾﾝ2
 10
274.52602222850942
 20
437.57985375920953
 30
0.0
 11
274.52602222850942
 21
527.57985644141854
 31
0.0
  0
LINE
  5
D658
  8
ﾁｭｳｼﾝｾﾝ
 10
279.02602236261993
 20
434.5798537592093
 30
0.0
 11
279.02602236261993
 21
530.57985644141854
 31
0.0
  0
LINE
  5
D659
  8
AM_0
 10
259.66359922521008
 20
427.047782542363
 30
0.0
 11
259.66361448332452
 21
538.11196031483905
 31
0.0
  0
LINE
  5
D65A
  8
AM_0
 10
260.34765470992937
 20
536.92716759367443
 30
0.0
 11
264.34932299314607
 21
507.23255998108738
 31
0.0
1001
GENIUS_GENODEF_13
1002
{
1000
HIER
1070
     0
1002
}
1002
{
1000
MANEDIT
1070
     0
1002
}
1002
{
1000
NOSEL
1070
     0
1002
}
1002
{
1000
BEHIND
1070
     0
1002
}
1002
{
1000
REACTOR
1002
}
1001
GENIUS_GENOBJ-N-CEN_13
1002
{
1000
OWNER
1000
GEN
1002
}
  0
LINE
  5
D65B
  8
AM_0
 10
251.0260220496954
 20
538.57987152077362
 30
0.0
 11
258.3780391541045
 21
538.57987152077362
 31
0.0
  0
ARC
  5
D65C
  8
AM_0
 10
258.3780391541045
 20
536.57987152077362
 30
0.0
 40
2.0
 50
9.9999917840739627
 51
90.0
1001
GENIUS_GENOBJ-N-CEN_13
1002
{
1000
OWNER
1000
GEN
1002
}
1001
GENIUS_GENODEF_13
1002
{
1000
HIER
1070
     0
1002
}
1002
{
1000
MANEDIT
1070
     0
1002
}
1002
{
1000
NOSEL
1070
     0
1002
}
1002
{
1000
BEHIND
1070
     0
1002
}
1002
{
1000
OTHER
1070
     0
1002
}
1002
{
1000
REACTOR
1002
}
1001
GENIUS_GENOBJ-N-FIL_13
1002
{
1000
OWNER
1000
GEN
1002
}
  0
LINE
  5
D65D
  8
AM_0
 10
251.0260220496954
 20
514.51732902077345
 30
0.0
 11
259.66361124217337
 21
514.51954401593105
 31
0.0
  0
LINE
  5
D65E
  8
AM_0
 10
251.0260220496954
 20
528.57989702077361
 30
0.0
 11
259.66361317379699
 21
528.57987787801403
 31
0.0
  0
LINE
  5
D65F
  8
AM_0
 10
268.87514315020809
 20
527.57985644141854
 30
0.0
 11
268.5260220496956
 21
507.57985605398829
 31
0.0
  0
LINE
  5
D660
  8
AM_0
 10
267.54332459081968
 20
505.57985605398829
 30
0.0
 11
266.318938548971
 21
505.57985605398829
 31
0.0
  0
ARC
  5
D661
  8
AM_0
 10
266.318938548971
 20
507.57985605398829
 30
0.0
 40
2.0
 50
189.9999917840739
 51
270.0
1001
GENIUS_GENOBJ-N-CEN_13
1002
{
1000
OWNER
1000
GEN
1002
}
1001
GENIUS_GENOBJ-N-FIL_13
1002
{
1000
OWNER
1000
GEN
1002
}
1001
GENIUS_GENODEF_13
1002
{
1000
HIER
1070
     0
1002
}
1002
{
1000
MANEDIT
1070
     0
1002
}
1002
{
1000
NOSEL
1070
     0
1002
}
1002
{
1000
BEHIND
1070
     0
1002
}
1002
{
1000
OTHER
1070
     0
1002
}
1002
{
1000
REACTOR
1002
}
  0
ARC
  5
D662
  8
AM_0
 10
267.54332459081968
 20
506.57985605398829
 30
0.0
 40
1.0
 50
270.0
 51
0.9999885880236628
1001
GENIUS_GENOBJ-N-FIL_13
1002
{
1000
OWNER
1000
GEN
1002
}
1001
GENIUS_GENODEF_13
1002
{
1000
HIER
1070
     0
1002
}
1002
{
1000
MANEDIT
1070
     0
1002
}
1002
{
1000
NOSEL
1070
     0
1002
}
1002
{
1000
BEHIND
1070
     0
1002
}
1002
{
1000
OTHER
1070
     0
1002
}
1002
{
1000
REACTOR
1002
}
  0
LINE
  5
D663
  8
AM_0
 10
260.34763957190779
 20
428.23257488300652
 30
0.0
 11
262.05705623491212
 21
437.9271503969764
 31
0.0
1001
GENIUS_GENODEF_13
1002
{
1000
HIER
1070
     0
1002
}
1002
{
1000
MANEDIT
1070
     0
1002
}
1002
{
1000
NOSEL
1070
     0
1002
}
1002
{
1000
BEHIND
1070
     0
1002
}
1002
{
1000
REACTOR
1002
}
1001
GENIUS_GENOBJ-N-CEN_13
1002
{
1000
OWNER
1000
GEN
1002
}
  0
LINE
  5
D664
  8
AM_0
 10
251.0260220496954
 20
450.63992152077373
 30
0.0
 11
259.6636024663232
 21
450.63992152077373
 31
0.0
  0
LINE
  5
D665
  8
AM_0
 10
251.0260220496954
 20
436.57987152077362
 30
0.0
 11
259.66360053473858
 21
436.57987152077339
 31
0.0
  0
LINE
  5
D666
  8
AM_0
 10
267.74755803898353
 20
439.57985375920953
 30
0.0
 11
264.0266716911359
 21
439.57985375920953
 31
0.0
  0
ARC
  5
D667
  8
AM_0
 10
267.74755803898353
 20
437.57985375920953
 30
0.0
 40
2.0
 50
0.9999885880236628
 51
90.0
1001
GENIUS_GENOBJ-N-FIL_13
1002
{
1000
OWNER
1000
GEN
1002
}
1001
GENIUS_GENODEF_13
1002
{
1000
HIER
1070
     0
1002
}
1002
{
1000
MANEDIT
1070
     0
1002
}
1002
{
1000
NOSEL
1070
     0
1002
}
1002
{
1000
BEHIND
1070
     0
1002
}
1002
{
1000
OTHER
1070
     0
1002
}
1002
{
1000
REACTOR
1002
}
  0
ARC
  5
D668
  8
AM_0
 10
264.0266716911359
 20
437.57985375920953
 30
0.0
 40
2.0
 50
90.0
 51
169.99999178407
1001
GENIUS_GENOBJ-N-CEN_13
1002
{
1000
OWNER
1000
GEN
1002
}
1001
GENIUS_GENODEF_13
1002
{
1000
HIER
1070
     0
1002
}
1002
{
1000
MANEDIT
1070
     0
1002
}
1002
{
1000
NOSEL
1070
     0
1002
}
1002
{
1000
BEHIND
1070
     0
1002
}
1002
{
1000
OTHER
1070
     0
1002
}
1002
{
1000
REACTOR
1002
}
1001
GENIUS_GENOBJ-N-FIL_13
1002
{
1000
OWNER
1000
GEN
1002
}
  0
LINE
  5
D669
  8
AM_0
 10
251.0260220496954
 20
426.57987152077351
 30
0.0
 11
258.37802411568413
 21
426.57987152077351
 31
0.0
  0
ARC
  5
D66A
  8
AM_0
 10
258.37802411568413
 20
428.57987152077362
 30
0.0
 40
2.0
 50
270.0
 51
349.99999178407012
1001
GENIUS_GENOBJ-N-CEN_13
1002
{
1000
OWNER
1000
GEN
1002
}
1001
GENIUS_GENOBJ-N-FIL_13
1002
{
1000
OWNER
1000
GEN
1002
}
1001
GENIUS_GENODEF_13
1002
{
1000
HIER
1070
     0
1002
}
1002
{
1000
MANEDIT
1070
     0
1002
}
1002
{
1000
NOSEL
1070
     0
1002
}
1002
{
1000
BEHIND
1070
     0
1002
}
1002
{
1000
OTHER
1070
     0
1002
}
1002
{
1000
REACTOR
1002
}
  0
LINE
  5
D66B
  8
ﾁｭｳｼﾝｾﾝ
 10
365.02602492561948
 20
419.5798546677089
 30
0.0
 11
365.02602492561948
 21
545.57985782675507
 31
0.0
  0
LINE
  5
D66C
  8
AM_0
 10
422.52602663925308
 20
507.57985605398829
 30
0.0
 11
421.30415825757791
 21
437.57985375920953
 31
0.0
  0
LINE
  5
D66D
  8
ｶｸﾚｾﾝ2
 10
407.52602619221813
 20
437.57985375920953
 30
0.0
 11
407.52602619221813
 21
527.57985644141854
 31
0.0
  0
LINE
  5
D66E
  8
ｶｸﾚｾﾝ2
 10
416.52602646043908
 20
437.57985375920953
 30
0.0
 11
416.52602646043908
 21
527.57985644141854
 31
0.0
  0
LINE
  5
D66F
  8
ﾁｭｳｼﾝｾﾝ
 10
412.02602632632858
 20
434.5798537592093
 30
0.0
 11
412.0260263263288
 21
530.57985644141854
 31
0.0
  0
LINE
  5
D670
  8
AM_0
 10
422.17690553874041
 20
527.57985644141854
 30
0.0
 11
422.52602663925279
 21
507.57985605398829
 31
0.0
  0
LINE
  5
D671
  8
AM_0
 10
345.0260243295732
 20
433.57985364000018
 30
0.0
 11
345.0260243295732
 21
432.57985510031398
 31
0.0
  0
LINE
  5
D672
  8
AM_0
 10
385.02602552166587
 20
433.57985364000018
 30
0.0
 11
385.02602552166587
 21
432.57985510031398
 31
0.0
  0
LINE
  5
D673
  8
AM_0
 10
327.52602380803251
 20
527.57985644141854
 30
0.0
 11
327.52602380803251
 21
531.57985656062783
 31
0.0
  0
LINE
  5
D674
  8
AM_0
 10
402.5260260432064
 20
527.57985644141854
 30
0.0
 11
402.5260260432064
 21
531.57985656062783
 31
0.0
  0
LINE
  5
D675
  8
AM_0
 10
327.52602380803251
 20
433.57985364000018
 30
0.0
 11
402.5260260432064
 21
433.57985364000018
 31
0.0
  0
LINE
  5
D676
  8
AM_0
 10
402.5260260432064
 20
437.57985375920953
 30
0.0
 11
402.5260260432064
 21
433.57985364000018
 31
0.0
  0
LINE
  5
D677
  8
AM_0
 10
327.52602380803251
 20
437.57985375920953
 30
0.0
 11
327.52602380803251
 21
433.57985364000018
 31
0.0
  0
LINE
  5
D678
  8
AM_0
 10
327.52602380803251
 20
531.57985656062783
 30
0.0
 11
402.5260260432064
 21
531.57985656062783
 31
0.0
  0
LINE
  5
D679
  8
AM_0
 10
385.02602552166587
 20
531.57985656062783
 30
0.0
 11
385.02602552166587
 21
532.57985510031403
 31
0.0
  0
LINE
  5
D67A
  8
AM_0
 10
383.02602492561948
 20
425.07985510031398
 30
0.0
 11
383.52602492561948
 21
425.57985510031398
 31
0.0
1001
GENIUS_GENFIL_13
1070
     0
1040
0.5
1040
0.5
1040
20.0
1040
0.0
1002
{
1002
}
1001
GENIUS_GENODEF_13
1002
{
1000
HIER
1070
     0
1002
}
1002
{
1000
MANEDIT
1070
     0
1002
}
1002
{
1000
NOSEL
1070
     0
1002
}
1002
{
1000
BEHIND
1070
     0
1002
}
1002
{
1000
OTHER
1070
     0
1002
}
1002
{
1000
REACTOR
1002
}
1001
GENIUS_GENOBJ-N-CHA_13
1002
{
1000
OWNER
1000
GEN
1002
}
  0
LINE
  5
D67B
  8
AM_0
 10
347.02602492561948
 20
425.07985510031398
 30
0.0
 11
346.52602492561948
 21
425.57985510031398
 31
0.0
1001
GENIUS_GENFIL_13
1070
     0
1040
0.5
1040
0.5
1040
20.0
1040
0.0
1002
{
1002
}
1001
GENIUS_GENOBJ-N-CHA_13
1002
{
1000
OWNER
1000
GEN
1002
}
1001
GENIUS_GENODEF_13
1002
{
1000
HIER
1070
     0
1002
}
1002
{
1000
MANEDIT
1070
     0
1002
}
1002
{
1000
NOSEL
1070
     0
1002
}
1002
{
1000
BEHIND
1070
     0
1002
}
1002
{
1000
OTHER
1070
     0
1002
}
1002
{
1000
REACTOR
1002
}
  0
LINE
  5
D67C
  8
AM_0
 10
328.52602492561931
 20
426.57985510031398
 30
0.0
 11
328.52602492561948
 21
432.57985510031398
 31
0.0
  0
LINE
  5
D67D
  8
AM_0
 10
401.52602492561931
 20
432.57985510031398
 30
0.0
 11
328.52602492561948
 21
432.57985510031398
 31
0.0
  0
LINE
  5
D67E
  8
AM_0
 10
400.52602492561948
 20
425.57985510031398
 30
0.0
 11
329.52602492561942
 21
425.57985510031398
 31
0.0
  0
LINE
  5
D67F
  8
AM_0
 10
328.52602492561931
 20
426.57985510031398
 30
0.0
 11
329.52602492561942
 21
425.57985510031398
 31
0.0
1001
GENIUS_GENFIL_13
1070
     0
1040
1.0
1040
1.0
1040
20.0
1040
0.0
1002
{
1002
}
1001
GENIUS_GENODEF_13
1002
{
1000
HIER
1070
     0
1002
}
1002
{
1000
MANEDIT
1070
     0
1002
}
1002
{
1000
NOSEL
1070
     0
1002
}
1002
{
1000
BEHIND
1070
     0
1002
}
1002
{
1000
OTHER
1070
     0
1002
}
1002
{
1000
REACTOR
1002
}
1001
GENIUS_GENOBJ-N-CHA_13
1002
{
1000
OWNER
1000
GEN
1002
}
  0
LINE
  5
D680
  8
AM_0
 10
383.02602492561948
 20
425.07985510031398
 30
0.0
 11
347.02602492561948
 21
425.07985510031398
 31
0.0
  0
LINE
  5
D681
  8
AM_0
 10
401.52602492561931
 20
426.57985510031398
 30
0.0
 11
401.52602492561931
 21
432.57985510031398
 31
0.0
  0
LINE
  5
D682
  8
AM_0
 10
400.52602492561948
 20
425.57985510031398
 30
0.0
 11
401.52602492561931
 21
426.57985510031398
 31
0.0
1001
GENIUS_GENFIL_13
1070
     0
1040
1.0
1040
1.0
1040
20.0
1040
0.0
1002
{
1002
}
1001
GENIUS_GENOBJ-N-CHA_13
1002
{
1000
OWNER
1000
GEN
1002
}
1001
GENIUS_GENODEF_13
1002
{
1000
HIER
1070
     0
1002
}
1002
{
1000
MANEDIT
1070
     0
1002
}
1002
{
1000
NOSEL
1070
     0
1002
}
1002
{
1000
BEHIND
1070
     0
1002
}
1002
{
1000
OTHER
1070
     0
1002
}
1002
{
1000
REACTOR
1002
}
  0
LINE
  5
D683
  8
AM_0
 10
328.52602492561948
 20
538.57985510031403
 30
0.0
 11
328.52602492561948
 21
532.57985510031403
 31
0.0
  0
LINE
  5
D684
  8
AM_0
 10
401.52602492561931
 20
532.57985510031403
 30
0.0
 11
328.52602492561948
 21
532.57985510031403
 31
0.0
  0
LINE
  5
D685
  8
AM_0
 10
400.52602492561948
 20
539.57985510031335
 30
0.0
 11
329.52602492561948
 21
539.57985510031403
 31
0.0
  0
LINE
  5
D686
  8
AM_0
 10
328.52602492561948
 20
538.57985510031403
 30
0.0
 11
329.52602492561948
 21
539.57985510031403
 31
0.0
1001
GENIUS_GENFIL_13
1070
     0
1040
1.0
1040
1.0
1040
20.0
1040
0.0
1002
{
1002
}
1001
GENIUS_GENOBJ-N-CHA_13
1002
{
1000
OWNER
1000
GEN
1002
}
1001
GENIUS_GENODEF_13
1002
{
1000
HIER
1070
     0
1002
}
1002
{
1000
MANEDIT
1070
     0
1002
}
1002
{
1000
NOSEL
1070
     0
1002
}
1002
{
1000
BEHIND
1070
     0
1002
}
1002
{
1000
OTHER
1070
     0
1002
}
1002
{
1000
REACTOR
1002
}
  0
LINE
  5
D687
  8
AM_0
 10
383.02602492561948
 20
540.07985510031403
 30
0.0
 11
347.02602492561948
 21
540.07985510031403
 31
0.0
  0
LINE
  5
D688
  8
AM_0
 10
383.52602492561948
 20
539.57985510031403
 30
0.0
 11
383.02602492561948
 21
540.07985510031403
 31
0.0
1001
GENIUS_GENFIL_13
1070
     0
1040
0.5
1040
0.5
1040
20.0
1040
0.0
1002
{
1002
}
1001
GENIUS_GENOBJ-N-CHA_13
1002
{
1000
OWNER
1000
GEN
1002
}
1001
GENIUS_GENODEF_13
1002
{
1000
HIER
1070
     0
1002
}
1002
{
1000
MANEDIT
1070
     0
1002
}
1002
{
1000
NOSEL
1070
     0
1002
}
1002
{
1000
BEHIND
1070
     0
1002
}
1002
{
1000
OTHER
1070
     0
1002
}
1002
{
1000
REACTOR
1002
}
  0
LINE
  5
D689
  8
AM_0
 10
401.52602492561931
 20
538.57985510031335
 30
0.0
 11
401.52602492561931
 21
532.57985510031403
 31
0.0
  0
LINE
  5
D68A
  8
AM_0
 10
400.52602492561948
 20
539.57985510031335
 30
0.0
 11
401.52602492561931
 21
538.57985510031335
 31
0.0
1001
GENIUS_GENFIL_13
1070
     0
1040
1.0
1040
1.0
1040
20.0
1040
0.0
1002
{
1002
}
1001
GENIUS_GENOBJ-N-CHA_13
1002
{
1000
OWNER
1000
GEN
1002
}
1001
GENIUS_GENODEF_13
1002
{
1000
HIER
1070
     0
1002
}
1002
{
1000
MANEDIT
1070
     0
1002
}
1002
{
1000
NOSEL
1070
     0
1002
}
1002
{
1000
BEHIND
1070
     0
1002
}
1002
{
1000
OTHER
1070
     0
1002
}
1002
{
1000
REACTOR
1002
}
  0
TEXT
  5
D7F3
  8
AM_0
 10
478.76549409572999
 20
455.14889287470089
 30
0.0
 40
10.0
  1
VC01-080MHW~VC01-240MHW
1001
ACAD
1000
MTEXTBEGIN
1070
    73
1070
     1
1070
    44
1040
1.0
1070
    74
1070
     0
1000
MTEXTEND
  0
VIEWPORT
  5
89
 67
     1
  8
0
 10
210.0
 20
148.5
 30
0.0
 40
420.0
 41
297.0
 68
     1
 69
     1
1001
ACAD
1000
MVIEW
1002
{
1070
    16
1010
0.0
1020
0.0
1030
0.0
1010
0.0
1020
0.0
1030
1.0
1040
0.0
1040
297.0
1040
221.70154043645701
1040
148.5
1040
50.0
1040
0.0
1040
0.0
1070
     0
1070
   100
1070
     1
1070
     1
1070
     0
1070
     0
1070
     0
1070
     0
1040
0.0
1040
0.0
1040
0.0
1040
10.0
1040
10.0
1040
10.0
1040
10.0
1070
     0
1002
{
1002
}
1002
}
1001
GENIUS_GENOREF_13
1005
1B94
1001
GENIUS_GENSCREG_15
1000
PF
1040
1.0
1000
DF
1040
1.0
1000
MIN
1011
0.0
1021
0.0
1031
-1.#QNAN00000000000E+000
1021
0.0
1031
0.0
1000
MAX
1011
420.0
1021
0.0
1031
-1.#QNAN00000000000E+000
1021
297.0
1031
0.0
1000
FLAGS
1070
     4
  0
ENDSEC
  0
EOF
