  0
SECTION
  2
HEADER
  9
$ACADVER
  1
AC1009
  9
$INSBASE
 10
0.0
 20
0.0
 30
0.0
  9
$EXTMIN
 10
70.235071343876143
 20
139.99530421137359
 30
-0.0000000349181948
  9
$EXTMAX
 10
743.9343356609279
 20
576.93593473258829
 30
0.0000000814935747
  9
$LIMMIN
 10
0.0
 20
0.0
  9
$LIMMAX
 10
853.5
 20
555.00000000000011
  9
$ORTHOMODE
 70
     0
  9
$REGENMODE
 70
     1
  9
$FILLMODE
 70
     1
  9
$QTEXTMODE
 70
     0
  9
$MIRRTEXT
 70
     1
  9
$DRAGMODE
 70
     2
  9
$LTSCALE
 40
3.0
  9
$OSMODE
 70
   551
  9
$ATTMODE
 70
     1
  9
$TEXTSIZE
 40
2.5
  9
$TRACEWID
 40
1.0
  9
$TEXTSTYLE
  7
STANDARD
  9
$CLAYER
  8
AM_0
  9
$CELTYPE
  6
BYLAYER
  9
$CECOLOR
 62
   256
  9
$DIMSCALE
 40
3.0
  9
$DIMASZ
 40
2.5
  9
$DIMEXO
 40
1.0
  9
$DIMDLI
 40
7.0
  9
$DIMRND
 40
0.0
  9
$DIMDLE
 40
0.0
  9
$DIMEXE
 40
1.0
  9
$DIMTP
 40
0.1
  9
$DIMTM
 40
0.1000000001
  9
$DIMTXT
 40
2.5
  9
$DIMCEN
 40
0.0
  9
$DIMTSZ
 40
0.0
  9
$DIMTOL
 70
     0
  9
$DIMLIM
 70
     0
  9
$DIMTIH
 70
     0
  9
$DIMTOH
 70
     0
  9
$DIMSE1
 70
     0
  9
$DIMSE2
 70
     0
  9
$DIMTAD
 70
     3
  9
$DIMZIN
 70
     8
  9
$DIMBLK
  1

  9
$DIMASO
 70
     1
  9
$DIMSHO
 70
     1
  9
$DIMPOST
  1

  9
$DIMAPOST
  1
"
  9
$DIMALT
 70
     0
  9
$DIMALTD
 70
     2
  9
$DIMALTF
 40
0.0393701
  9
$DIMLFAC
 40
1.0
  9
$DIMTOFL
 70
     1
  9
$DIMTVP
 40
0.0
  9
$DIMTIX
 70
     0
  9
$DIMSOXD
 70
     0
  9
$DIMSAH
 70
     0
  9
$DIMBLK1
  1

  9
$DIMBLK2
  1

  9
$DIMSTYLE
  2
AM_JIS
  9
$DIMCLRD
 70
   256
  9
$DIMCLRE
 70
   256
  9
$DIMCLRT
 70
     4
  9
$DIMTFAC
 40
0.71
  9
$DIMGAP
 40
1.0
  9
$LUNITS
 70
     2
  9
$LUPREC
 70
     2
  9
$SKETCHINC
 40
1.0
  9
$FILLETRAD
 40
7.5
  9
$AUNITS
 70
     0
  9
$AUPREC
 70
     3
  9
$MENU
  1
.
  9
$ELEVATION
 40
0.0
  9
$PELEVATION
 40
0.0
  9
$THICKNESS
 40
0.0
  9
$LIMCHECK
 70
     0
  9
$BLIPMODE
 70
     0
  9
$CHAMFERA
 40
0.5
  9
$CHAMFERB
 40
0.5
  9
$SKPOLY
 70
     0
  9
$TDCREATE
 40
2453455.36471191
  9
$TDUPDATE
 40
2458543.5667024772
  9
$TDINDWG
 40
0.3218881713
  9
$TDUSRTIMER
 40
0.3218881713
  9
$USRTIMER
 70
     1
  9
$ANGBASE
 50
0.0
  9
$ANGDIR
 70
     0
  9
$PDMODE
 70
     0
  9
$PDSIZE
 40
0.0
  9
$PLINEWID
 40
0.0
  9
$COORDS
 70
     1
  9
$SPLFRAME
 70
     0
  9
$SPLINETYPE
 70
     6
  9
$SPLINESEGS
 70
     8
  9
$ATTDIA
 70
     1
  9
$ATTREQ
 70
     1
  9
$HANDLING
 70
     1
  9
$HANDSEED
  5
10DFE
  9
$SURFTAB1
 70
     6
  9
$SURFTAB2
 70
     6
  9
$SURFTYPE
 70
     6
  9
$SURFU
 70
     6
  9
$SURFV
 70
     6
  9
$UCSNAME
  2

  9
$UCSORG
 10
0.0
 20
0.0
 30
0.0
  9
$UCSXDIR
 10
1.0
 20
0.0
 30
0.0
  9
$UCSYDIR
 10
0.0
 20
1.0
 30
0.0
  9
$PUCSNAME
  2

  9
$PUCSORG
 10
0.0
 20
0.0
 30
0.0
  9
$PUCSXDIR
 10
1.0
 20
0.0
 30
0.0
  9
$PUCSYDIR
 10
0.0
 20
1.0
 30
0.0
  9
$USERI1
 70
     0
  9
$USERI2
 70
     0
  9
$USERI3
 70
     0
  9
$USERI4
 70
     0
  9
$USERI5
 70
     0
  9
$USERR1
 40
0.0
  9
$USERR2
 40
0.0
  9
$USERR3
 40
0.0
  9
$USERR4
 40
0.0
  9
$USERR5
 40
0.0
  9
$WORLDVIEW
 70
     1
  9
$SHADEDGE
 70
     3
  9
$SHADEDIF
 70
    70
  9
$TILEMODE
 70
     1
  9
$MAXACTVP
 70
    48
  9
$PLIMCHECK
 70
     0
  9
$PEXTMIN
 10
1.0000000000000000E+020
 20
1.0000000000000000E+020
 30
1.0000000000000000E+020
  9
$PEXTMAX
 10
-1.0000000000000000E+020
 20
-1.0000000000000000E+020
 30
-1.0000000000000000E+020
  9
$PLIMMIN
 10
0.0
 20
0.0
  9
$PLIMMAX
 10
420.0
 20
297.0
  9
$UNITMODE
 70
     0
  9
$VISRETAIN
 70
     1
  9
$PLINEGEN
 70
     0
  9
$PSLTSCALE
 70
     1
  0
ENDSEC
  0
SECTION
  2
TABLES
  0
TABLE
  2
VPORT
 70
     1
  0
VPORT
  2
*ACTIVE
 70
     0
 10
0.0
 20
0.0
 11
1.0
 21
1.0
 12
407.08470350240202
 22
358.46561947198097
 13
0.0
 23
0.0
 14
7.5
 24
7.5
 15
30.0
 25
30.0
 16
0.0
 26
0.0
 36
1.0
 17
0.0
 27
0.0
 37
0.0
 40
439.94022295042208
 41
1.7571592210767459
 42
50.0
 43
0.0
 44
0.0
 50
0.0
 51
0.0
 71
    16
 72
   100
 73
     1
 74
     1
 75
     0
 76
     0
 77
     0
 78
     0
  0
ENDTAB
  0
TABLE
  2
LTYPE
 70
    22
  0
LTYPE
  2
CONTINUOUS
 70
     0
  3
Solid line
 72
    65
 73
     0
 40
0.0
  0
LTYPE
  2
HIDDEN
 70
     0
  3
Hidden __ __ __ __ __ __ __ __ __ __ __ __ __ _
 72
    65
 73
     2
 40
9.5249999999999968
 49
6.3499999999999979
 49
-3.174999999999998
  0
LTYPE
  2
PHANTOM2
 70
     0
  3
Phantom (.5x) ___ _ _ ___ _ _ ___ _ _ ___ _ _
 72
    65
 73
     6
 40
31.75
 49
15.875
 49
-3.174999999999998
 49
3.174999999999998
 49
-3.174999999999998
 49
3.174999999999998
 49
-3.174999999999998
  0
LTYPE
  2
CENTER
 70
     0
  3
Center ____ _ ____ _ ____ _ ____ _ ____ _ ____
 72
    65
 73
     4
 40
50.799999999999997
 49
31.75
 49
-6.3499999999999979
 49
6.3499999999999979
 49
-6.3499999999999979
  0
LTYPE
  2
ACANSTGBM
 70
     0
  3
__ . . __ . .
 72
    65
 73
     6
 40
9.0
 49
4.0
 49
-1.0
 49
1.0
 49
-1.0
 49
1.0
 49
-1.0
  0
LTYPE
  2
ACANSTGLM
 70
     0
  3
_ _ _ _ _
 72
    65
 73
     2
 40
3.0
 49
2.0
 49
-1.0
  0
LTYPE
  2
GEN7
 70
     0
  3
____ . ____ . ____ . ____ . ____ . ____ . ____
 72
    65
 73
     4
 40
14.25
 49
9.75
 49
-1.5
 49
1.5
 49
-1.5
  0
LTYPE
  2
GEN3B
 70
     0
  3
 - - - - -
 72
    65
 73
     2
 40
1.0
 49
0.5
 49
-0.5
  0
LTYPE
  2
GEN7A
 70
     0
  3
__ . __ . __
 72
    65
 73
     4
 40
7.375
 49
4.75
 49
-0.875
 49
0.875
 49
-0.875
  0
LTYPE
  2
AM_ISO02W050
 70
     0
  3
__ __ __ __ __ __ __ __ __ __ __ __ __ __ __
 72
    65
 73
     2
 40
7.5
 49
6.0
 49
-1.5
  0
LTYPE
  2
AM_ISO08W050
 70
     0
  3
____ . ____ . ____ . ____ . ____ . ____ . ____
 72
    65
 73
     4
 40
18.0
 49
12.0
 49
-1.5
 49
3.0
 49
-1.5
  0
LTYPE
  2
AM_ISO09W050
 70
     0
  3
_____ . . _____ . . _____ . . ____ .. ____
 72
    65
 73
     6
 40
22.5
 49
12.0
 49
-1.5
 49
3.0
 49
-1.5
 49
3.0
 49
-1.5
  0
LTYPE
  2
AMCONSTR
 70
     0
  3
_______________________
 72
    65
 73
     2
 40
9999.0
 49
9999.0
 49
0.0
  0
LTYPE
  2
AM_ISO02W050X2
 70
     0
  3
 _ _ _ _ _ _ _ _ _ _ _ _
 72
    65
 73
     2
 40
3.75
 49
3.0
 49
-0.75
  0
LTYPE
  2
AM_ISO08W050X2
 70
     0
  3
__ . __ . __ . __ . __ . __
 72
    65
 73
     4
 40
9.0
 49
6.0
 49
-0.75
 49
1.5
 49
-0.75
  0
LTYPE
  2
AMZIGZAG
 70
     0
  3
/\/-/\/-/\/-/\/-/\/-/\/
 72
    65
 73
     2
 40
11.0001
 49
0.0001
 49
-11.0
  0
LTYPE
  2
ACJISTGB
 70
     0
  3
__ . . __ . .
 72
    65
 73
     6
 40
9.0
 49
4.0
 49
-1.0
 49
1.0
 49
-1.0
 49
1.0
 49
-1.0
  0
LTYPE
  2
ACJISTGL
 70
     0
  3
_ _ _ _ _
 72
    65
 73
     2
 40
3.0
 49
2.0
 49
-1.0
  0
LTYPE
  2
ACISOWELD
 70
     0
  3
_ _ _ _ _
 72
    65
 73
     2
 40
2.0
 49
2.0
 49
-1.0
  0
LTYPE
  2
ACISOTGB
 70
     0
  3
__ . . __ . .
 72
    65
 73
     6
 40
9.0
 49
4.0
 49
-1.0
 49
1.0
 49
-1.0
 49
1.0
 49
-1.0
  0
LTYPE
  2
ACISOTGL
 70
     0
  3
_ _ _ _ _
 72
    65
 73
     2
 40
3.0
 49
2.0
 49
-1.0
  0
ENDTAB
  0
TABLE
  2
LAYER
 70
     7
  0
LAYER
  2
0
 70
     0
 62
     7
  6
CONTINUOUS
  0
LAYER
  2
DEFPOINTS
 70
     0
 62
     7
  6
CONTINUOUS
  0
LAYER
  2
ｶｸﾚｾﾝ2
 70
     0
 62
     3
  6
GEN3B
  0
LAYER
  2
ﾁｭｳｼﾝｾﾝ
 70
     0
 62
     1
  6
GEN7
  0
LAYER
  2
ﾁｭｳｼﾝｾﾝ1
 70
     0
 62
     1
  6
GEN7A
  0
LAYER
  2
AM_0
 70
     0
 62
     7
  6
CONTINUOUS
  0
LAYER
  2
AM_0N
 70
     0
 62
     7
  6
CONTINUOUS
  0
ENDTAB
  0
TABLE
  2
STYLE
 70
     8
  0
STYLE
  2
STANDARD
 70
     0
 40
0.0
 41
0.8299999999999999
 50
0.0
 71
     0
 42
2.5
  3
txt.shx
  4
bigfont.shx
  0
STYLE
  2
ACANSTS
 70
     0
 40
1.0
 41
1.0
 50
0.0
 71
     0
 42
2.5
  3
romans.shx
  4
bigfont.shx
  0
STYLE
  2
ACANSGDT
 70
     0
 40
0.0
 41
1.0
 50
0.0
 71
     0
 42
2.5
  3
amgdtans.shx
  4

  0
STYLE
  2

 70
     1
 40
0.0
 41
1.0
 50
0.0
 71
     0
 42
2.5
  3
ltypeshp.shx
  4

  0
STYLE
  2
ACJISTS
 70
     0
 40
1.0
 41
1.0
 50
0.0
 71
     0
 42
2.5
  3
isocp.shx
  4
bigfont.shx
  0
STYLE
  2
ACJISGDT
 70
     0
 40
0.0
 41
1.0
 50
0.0
 71
     0
 42
2.5
  3
amgdt.shx
  4

  0
STYLE
  2
ACISOTS
 70
     0
 40
1.0
 41
1.0
 50
0.0
 71
     0
 42
2.5
  3
isocp.shx
  4
extfont.shx
  0
STYLE
  2
ACISOGDT
 70
     0
 40
0.0
 41
1.0
 50
0.0
 71
     0
 42
2.5
  3
amgdt.shx
  4

  0
ENDTAB
  0
TABLE
  2
VIEW
 70
    12
  0
VIEW
  2
GEN1
 70
     0
 40
95.824742268041234
 10
71.5
 20
137.08762886597941
 41
143.0
 11
0.0
 21
0.0
 31
1.0
 12
0.0
 22
0.0
 32
0.0
 42
50.0
 43
0.0
 44
0.0
 50
0.0
 71
     0
  0
VIEW
  2
GEN2
 70
     0
 40
95.824742268041234
 10
214.5
 20
137.08762886597941
 41
143.0
 11
0.0
 21
0.0
 31
1.0
 12
0.0
 22
0.0
 32
0.0
 42
50.0
 43
0.0
 44
0.0
 50
0.0
 71
     0
  0
VIEW
  2
GEN3
 70
     0
 40
95.824742268041234
 10
71.5
 20
47.912371134020603
 41
143.0
 11
0.0
 21
0.0
 31
1.0
 12
0.0
 22
0.0
 32
0.0
 42
50.0
 43
0.0
 44
0.0
 50
0.0
 71
     0
  0
VIEW
  2
GEN4
 70
     0
 40
95.824742268041234
 10
214.5
 20
47.912371134020603
 41
143.0
 11
0.0
 21
0.0
 31
1.0
 12
0.0
 22
0.0
 32
0.0
 42
50.0
 43
0.0
 44
0.0
 50
0.0
 71
     0
  0
VIEW
  2
GEN5
 70
     0
 40
95.824742268041234
 10
143.0
 20
92.500000000000057
 41
143.0
 11
0.0
 21
0.0
 31
1.0
 12
0.0
 22
0.0
 32
0.0
 42
50.0
 43
0.0
 44
0.0
 50
0.0
 71
     0
  0
VIEW
  2
GEN6
 70
     0
 40
191.64756804123709
 10
143.0
 20
92.5
 41
285.99714
 11
0.0
 21
0.0
 31
1.0
 12
0.0
 22
0.0
 32
0.0
 42
50.0
 43
0.0
 44
0.0
 50
0.0
 71
     0
  0
VIEW
  2
AM_VIEW1
 70
     0
 40
277.50000000000011
 10
219.35382685069021
 20
416.25000000000011
 41
438.70765370138031
 11
0.0
 21
0.0
 31
1.0
 12
0.0
 22
0.0
 32
0.0
 42
50.0
 43
0.0
 44
0.0
 50
0.0
 71
    16
  0
VIEW
  2
AM_VIEW2
 70
     0
 40
277.50000000000011
 10
634.14617314930967
 20
416.25000000000011
 41
438.70765370138031
 11
0.0
 21
0.0
 31
1.0
 12
0.0
 22
0.0
 32
0.0
 42
50.0
 43
0.0
 44
0.0
 50
0.0
 71
    16
  0
VIEW
  2
AM_VIEW3
 70
     0
 40
277.50000000000011
 10
219.35382685069021
 20
138.75
 41
438.70765370138031
 11
0.0
 21
0.0
 31
1.0
 12
0.0
 22
0.0
 32
0.0
 42
50.0
 43
0.0
 44
0.0
 50
0.0
 71
    16
  0
VIEW
  2
AM_VIEW4
 70
     0
 40
277.50000000000011
 10
634.14617314930967
 20
138.75
 41
438.70765370138031
 11
0.0
 21
0.0
 31
1.0
 12
0.0
 22
0.0
 32
0.0
 42
50.0
 43
0.0
 44
0.0
 50
0.0
 71
    16
  0
VIEW
  2
AM_VIEW5
 70
     0
 40
277.50000000000011
 10
426.75
 20
277.50000000000011
 41
438.70765370138031
 11
0.0
 21
0.0
 31
1.0
 12
0.0
 22
0.0
 32
0.0
 42
50.0
 43
0.0
 44
0.0
 50
0.0
 71
    16
  0
VIEW
  2
AM_VIEW6
 70
     0
 40
554.99445000000014
 10
426.75
 20
277.5
 41
877.40653324968639
 11
0.0
 21
0.0
 31
1.0
 12
0.0
 22
0.0
 32
0.0
 42
50.0
 43
0.0
 44
0.0
 50
0.0
 71
    16
  0
ENDTAB
  0
TABLE
  2
UCS
 70
     0
  0
ENDTAB
  0
TABLE
  2
APPID
 70
    96
  0
APPID
  2
ACAD
 70
     0
  0
APPID
  2
MCAD_NO_VIS
 70
     0
  0
APPID
  2
ACAD_TEMP_GRAPHIC
 70
     0
  0
APPID
  2
AD_DRAW
 70
     0
  0
APPID
  2
DESIGNERASSEMBLIES
 70
     0
  0
APPID
  2
ASURF_PCURVE_APPNAME
 70
     0
  0
APPID
  2
GENIUS_GE3SECT_13
 70
     0
  0
APPID
  2
GENIUS_GENCFG_13
 70
     0
  0
APPID
  2
GENIUS_GE3CFG0_13
 70
     0
  0
APPID
  2
GENIUS_GENCFG0_13
 70
     0
  0
APPID
  2
GENIUS_GENCFG1_13
 70
     0
  0
APPID
  2
GENIUS_GENCFG2_13
 70
     0
  0
APPID
  2
GENIUS_GENCFG3_13
 70
     0
  0
APPID
  2
GENIUS_GENCFG4_13
 70
     0
  0
APPID
  2
GENIUS_GEVCFG0_13
 70
     0
  0
APPID
  2
GENIUS_GENOENT_13
 70
     0
  0
APPID
  2
GENIUS_GENREC_14
 70
     0
  0
APPID
  2
GENIUS_GENODEF_13
 70
     0
  0
APPID
  2
GENIUS_GENOBJ-N-REC_13
 70
     0
  0
APPID
  2
GENIUS_GENHINW_13
 70
     0
  0
APPID
  2
GENIUS_FIRSTVISTXT_14
 70
     0
  0
APPID
  2
GENIUS_GENOBJ-N-LEADER_13
 70
     0
  0
APPID
  2
GENIUS_GENOREF_13
 70
     0
  0
APPID
  2
GENIUS_GENOLIS_13
 70
     0
  0
APPID
  2
GEV_VCCNULL_SWITCH_OFF
 70
     0
  0
APPID
  2
GENIUS_GENDTOL_13
 70
     0
  0
APPID
  2
GENIUS_GEFCFG0_13
 70
     0
  0
APPID
  2
GENIUS_GENOBJ-N-TIT_13
 70
     0
  0
APPID
  2
GENIUS_GENTITLE_13
 70
     0
  0
APPID
  2
GENIUS_GENZVEED_13
 70
     0
  0
APPID
  2
GENIUS_GENOBJ-N-SDF_13
 70
     0
  0
APPID
  2
GENIUS_GENSCREG_13
 70
     0
  0
APPID
  2
GENIUS_DUMCFG0_13
 70
     0
  0
APPID
  2
GEVID936201362
 70
     0
  0
APPID
  2
GEVDC
 70
     0
  0
APPID
  2
GEVCON
 70
     0
  0
APPID
  2
VCC
 70
     0
  0
APPID
  2
GEVPT
 70
     0
  0
APPID
  2
GEVIT
 70
     0
  0
APPID
  2
GENBH
 70
     0
  0
APPID
  2
GEVMK
 70
     0
  0
APPID
  2
GENIUS_GENBH_13
 70
     0
  0
APPID
  2
GENIUS_GENOBJ-NBEHI-BHF_13
 70
     0
  0
APPID
  2
GENIUS_GENOBJ-NBEHI-BHB_13
 70
     0
  0
APPID
  2
GENIUS_GENOBJ-F-DESC_13
 70
     0
  0
APPID
  2
GENIUS_GEFDESC_14
 70
     0
  0
APPID
  2
GENIUS_GENOBJ-F-PART_13
 70
     0
  0
APPID
  2
GENIUS_GEFSTDP_13
 70
     0
  0
APPID
  2
GENIUS_GEFPARTINS_13
 70
     0
  0
APPID
  2
GENIUS_GENTRA_14
 70
     0
  0
APPID
  2
GENIUS_GENINF13_13
 70
     0
  0
APPID
  2
GENIUS_GENOBJ-N-INFOPT_13
 70
     0
  0
APPID
  2
GENIUS_GENOBJ-N-RSSYM_13
 70
     0
  0
APPID
  2
GENIUS_GENSYMENT_13
 70
     0
  0
APPID
  2
GENIUS_GENSCSYM_13
 70
     0
  0
APPID
  2
GENIUS_GEFINFNAM_13
 70
     0
  0
APPID
  2
GENIUS_GENSCREG_15
 70
     0
  0
APPID
  2
GENIUS_GENOBJ-N-CEN_13
 70
     0
  0
APPID
  2
GENIUS_GENOBJ-N-CRS_13
 70
     0
  0
APPID
  2
GENIUS_GENOBJ-N-CRC_13
 70
     0
  0
APPID
  2
GENIUS_GENCRC_14
 70
     0
  0
APPID
  2
GEVID942827039
 70
     0
  0
APPID
  2
GEVID942827040
 70
     0
  0
APPID
  2
GEVID942827041
 70
     0
  0
APPID
  2
GENIUS_GENOBJ-F-SCPASSM_13
 70
     0
  0
APPID
  2
GENIUS_GENDIMSH_14
 70
     0
  0
APPID
  2
GENIUS_GENFIL_13
 70
     0
  0
APPID
  2
GENIUS_GENOBJ-N-CHA_13
 70
     0
  0
APPID
  2
GENIUS_GENOBJ-N-FIL_13
 70
     0
  0
APPID
  2
GEVID942827042
 70
     0
  0
APPID
  2
GEVID946020473
 70
     0
  0
APPID
  2
GEVID946020474
 70
     0
  0
APPID
  2
GEVID946020475
 70
     0
  0
APPID
  2
GENIUS_GENOBJ-N-HTC_13
 70
     0
  0
APPID
  2
GENIUS_GENHATCH_13
 70
     0
  0
APPID
  2
GEVID948854295
 70
     0
  0
APPID
  2
GEVID939402019
 70
     0
  0
APPID
  2
GEVID952919491
 70
     0
  0
APPID
  2
GEVID952919492
 70
     0
  0
APPID
  2
GENIUS_GEFWELD_13
 70
     0
  0
APPID
  2
GENIUS_GENOBJ-F-WELS_13
 70
     0
  0
APPID
  2
GEVID952919493
 70
     0
  0
APPID
  2
GENIUS_GENOBJ-N-RSBK_13
 70
     0
  0
APPID
  2
GENIUS_GENOBJ-N-LIB_13
 70
     0
  0
APPID
  2
GENIUS_GENSCALE_13
 70
     0
  0
APPID
  2
GEVID986376691
 70
     0
  0
APPID
  2
ACATTRIBSERVICES
 70
     0
  0
APPID
  2
ACADM_DIM_EDIT
 70
     0
  0
APPID
  2
AMDT_DM_ADJ
 70
     0
  0
APPID
  2
ACAD_PSEXT
 70
     0
  0
APPID
  2
ACAD_MLEADERVER
 70
     0
  0
APPID
  2
ACAD_DSTYLE_DIMBREAK
 70
     0
  0
APPID
  2
ACAD_DSTYLE_DIMJAG
 70
     0
  0
APPID
  2
ACAD_NAV_VCDISPLAY
 70
     0
  0
APPID
  2
ACADANNOPO
 70
     0
  0
APPID
  2
ACAD_EXEMPT_FROM_CAD_STANDARDS
 70
     0
  0
ENDTAB
  0
TABLE
  2
DIMSTYLE
 70
    17
  0
DIMSTYLE
  2
STANDARD
 70
     0
  3

  4

  5

  6

  7

 40
1.0
 41
0.18
 42
0.0625
 43
0.38
 44
0.18
 45
0.0
 46
0.0
 47
0.0
 48
0.0
140
0.18
141
0.09
142
0.0
143
25.399999999999999
144
1.0
145
0.0
146
1.0
147
0.09
 71
     0
 72
     0
 73
     1
 74
     1
 75
     0
 76
     0
 77
     0
 78
     0
170
     0
171
     2
172
     0
173
     0
174
     0
175
     0
176
     0
177
     0
178
     0
  0
DIMSTYLE
  2
AM_JIS
 70
     0
  3

  4
"
  5

  6

  7

 40
1.0
 41
2.5
 42
1.0
 43
7.0
 44
1.0
 45
0.0
 46
0.0
 47
0.1
 48
0.1000000001
140
2.5
141
0.0
142
0.0
143
0.0393701
144
1.0
145
0.0
146
0.71
147
1.0
 71
     0
 72
     0
 73
     0
 74
     0
 75
     0
 76
     0
 77
     3
 78
     8
170
     0
171
     2
172
     1
173
     0
174
     0
175
     0
176
   256
177
   256
178
     4
  0
DIMSTYLE
  2
AM_JIS$3
 70
     0
  3

  4
"
  5

  6

  7

 40
1.0
 41
2.5
 42
1.0
 43
7.0
 44
1.0
 45
0.0
 46
0.0
 47
0.1
 48
0.1000000001
140
2.5
141
0.0
142
0.0
143
0.0393701
144
1.0
145
0.0
146
0.71
147
1.0
 71
     0
 72
     0
 73
     0
 74
     1
 75
     0
 76
     0
 77
     3
 78
     8
170
     0
171
     2
172
     0
173
     0
174
     0
175
     0
176
   256
177
   256
178
     4
  0
DIMSTYLE
  2
AM_JIS$4
 70
     0
  3

  4
"
  5

  6

  7

 40
1.0
 41
2.5
 42
1.0
 43
7.0
 44
1.0
 45
0.0
 46
0.0
 47
0.1
 48
0.1000000001
140
2.5
141
0.0
142
0.0
143
0.0393701
144
1.0
145
0.0
146
0.71
147
1.0
 71
     0
 72
     0
 73
     0
 74
     0
 75
     0
 76
     0
 77
     3
 78
     8
170
     0
171
     2
172
     0
173
     0
174
     0
175
     0
176
   256
177
   256
178
     4
  0
DIMSTYLE
  2
AM_JIS$6
 70
     0
  3

  4
"
  5

  6

  7

 40
1.0
 41
2.5
 42
1.0
 43
7.0
 44
1.0
 45
0.0
 46
0.0
 47
0.1
 48
0.1000000001
140
2.5
141
0.0
142
0.0
143
0.0393701
144
1.0
145
0.0
146
0.71
147
1.0
 71
     0
 72
     0
 73
     0
 74
     0
 75
     0
 76
     0
 77
     0
 78
     8
170
     0
171
     2
172
     1
173
     0
174
     0
175
     0
176
   256
177
   256
178
     4
  0
DIMSTYLE
  2
AM_JIS$7
 70
     0
  3

  4
"
  5

  6

  7

 40
1.0
 41
2.5
 42
1.0
 43
7.0
 44
1.0
 45
0.0
 46
0.0
 47
0.1
 48
0.1000000001
140
2.5
141
0.0
142
0.0
143
0.0393701
144
1.0
145
0.0
146
0.71
147
1.0
 71
     0
 72
     0
 73
     0
 74
     0
 75
     0
 76
     0
 77
     3
 78
     8
170
     0
171
     2
172
     1
173
     0
174
     0
175
     0
176
   256
177
   256
178
     4
  0
DIMSTYLE
  2
AM_JIS$SF
 70
     0
  3

  4
"
  5
OPEN30
  6
OPEN30
  7
OPEN30
 40
1.0
 41
2.5
 42
1.0
 43
10.0
 44
1.0
 45
0.0
 46
0.0
 47
0.1
 48
0.1
140
3.5
141
0.0
142
0.0
143
0.0393701
144
1.0
145
0.0
146
0.71
147
1.5
 71
     0
 72
     0
 73
     0
 74
     0
 75
     1
 76
     1
 77
     3
 78
     8
170
     0
171
     2
172
     1
173
     0
174
     0
175
     0
176
   256
177
   256
178
     4
  0
DIMSTYLE
  2
AM_JIS$SH
 70
     0
  3

  4
"
  5

  6
NONE
  7

 40
1.0
 41
2.5
 42
1.0
 43
10.0
 44
1.0
 45
0.0
 46
0.0
 47
0.1
 48
0.1
140
3.5
141
0.0
142
0.0
143
0.0393701
144
1.0
145
0.0
146
0.71
147
1.5
 71
     0
 72
     0
 73
     0
 74
     0
 75
     1
 76
     0
 77
     3
 78
     8
170
     0
171
     2
172
     1
173
     1
174
     0
175
     0
176
   256
177
   256
178
     4
  0
DIMSTYLE
  2
AM_ISO
 70
     0
  3

  4
"
  5

  6

  7

 40
1.0
 41
2.5
 42
1.0
 43
8.0
 44
0.6
 45
0.0
 46
0.0
 47
0.1
 48
0.1
140
2.5
141
0.0
142
0.0
143
0.0393701
144
1.0
145
0.0
146
0.71
147
0.8
 71
     0
 72
     0
 73
     0
 74
     0
 75
     0
 76
     0
 77
     1
 78
     8
170
     0
171
     2
172
     1
173
     0
174
     0
175
     0
176
   256
177
   256
178
     4
  0
DIMSTYLE
  2
AM_ISO$3
 70
     0
  3

  4
"
  5

  6

  7

 40
1.0
 41
2.5
 42
1.0
 43
8.0
 44
0.6
 45
0.0
 46
0.0
 47
0.1
 48
0.1
140
2.5
141
0.0
142
0.0
143
0.0393701
144
1.0
145
0.0
146
0.71
147
0.8
 71
     0
 72
     0
 73
     0
 74
     1
 75
     0
 76
     0
 77
     1
 78
     8
170
     0
171
     2
172
     0
173
     0
174
     0
175
     0
176
   256
177
   256
178
     4
  0
DIMSTYLE
  2
AM_ISO$4
 70
     0
  3

  4
"
  5

  6

  7

 40
1.0
 41
2.5
 42
1.0
 43
8.0
 44
0.6
 45
0.0
 46
0.0
 47
0.1
 48
0.1
140
2.5
141
0.0
142
0.0
143
0.0393701
144
1.0
145
0.0
146
0.71
147
0.8
 71
     0
 72
     0
 73
     0
 74
     1
 75
     0
 76
     0
 77
     1
 78
     8
170
     0
171
     2
172
     0
173
     0
174
     0
175
     0
176
   256
177
   256
178
     4
  0
DIMSTYLE
  2
AM_ISO$6
 70
     0
  3

  4
"
  5

  6

  7

 40
1.0
 41
2.5
 42
1.0
 43
8.0
 44
0.6
 45
0.0
 46
0.0
 47
0.1
 48
0.1
140
2.5
141
0.0
142
0.0
143
0.0393701
144
1.0
145
0.0
146
0.71
147
0.8
 71
     0
 72
     0
 73
     0
 74
     0
 75
     0
 76
     0
 77
     0
 78
     8
170
     0
171
     2
172
     1
173
     0
174
     0
175
     0
176
   256
177
   256
178
     4
  0
DIMSTYLE
  2
AM_ISO$7
 70
     0
  3

  4
"
  5

  6

  7

 40
1.0
 41
2.5
 42
1.0
 43
8.0
 44
0.6
 45
0.0
 46
0.0
 47
0.1
 48
0.1
140
2.5
141
0.0
142
0.0
143
0.0393701
144
1.0
145
0.0
146
0.71
147
0.8
 71
     0
 72
     0
 73
     0
 74
     0
 75
     0
 76
     0
 77
     1
 78
     8
170
     0
171
     2
172
     1
173
     0
174
     0
175
     0
176
   256
177
   256
178
     4
  0
DIMSTYLE
  2
AM_ISO$SF
 70
     0
  3

  4
"
  5

  6

  7

 40
1.0
 41
2.5
 42
1.0
 43
10.0
 44
1.0
 45
0.0
 46
0.0
 47
0.1
 48
0.1
140
3.5
141
0.0
142
0.0
143
0.0393701
144
1.0
145
0.0
146
0.71
147
1.5
 71
     0
 72
     0
 73
     0
 74
     0
 75
     1
 76
     1
 77
     1
 78
     8
170
     0
171
     2
172
     1
173
     0
174
     0
175
     0
176
   256
177
   256
178
     2
  0
DIMSTYLE
  2
AM_ISO$SH
 70
     0
  3

  4
"
  5

  6
GENAXEH
  7

 40
1.0
 41
2.5
 42
1.0
 43
10.0
 44
1.0
 45
0.0
 46
0.0
 47
0.1
 48
0.1
140
3.5
141
0.0
142
0.0
143
0.0393701
144
2.0
145
0.0
146
0.71
147
1.5
 71
     0
 72
     0
 73
     0
 74
     0
 75
     1
 76
     1
 77
     1
 78
     8
170
     0
171
     2
172
     1
173
     1
174
     0
175
     0
176
   256
177
   256
178
     2
  0
DIMSTYLE
  2
AM_ISO$0
 70
     0
  3

  4
"
  5

  6

  7

 40
1.0
 41
2.5
 42
1.0
 43
8.0
 44
0.6
 45
0.0
 46
0.0
 47
0.1
 48
0.1
140
2.5
141
0.0
142
0.0
143
0.0393701
144
1.0
145
0.0
146
0.71
147
0.8
 71
     0
 72
     0
 73
     0
 74
     0
 75
     0
 76
     0
 77
     1
 78
     8
170
     0
171
     2
172
     1
173
     0
174
     0
175
     0
176
   256
177
   256
178
     4
  0
DIMSTYLE
  2
AM_JIS$0
 70
     0
  3

  4
"
  5

  6

  7

 40
1.0
 41
2.5
 42
1.0
 43
7.0
 44
1.0
 45
0.0
 46
0.0
 47
0.1
 48
0.1000000001
140
2.5
141
0.0
142
0.0
143
0.0393701
144
1.0
145
0.0
146
0.71
147
1.0
 71
     0
 72
     0
 73
     0
 74
     0
 75
     0
 76
     0
 77
     3
 78
     8
170
     0
171
     2
172
     1
173
     0
174
     0
175
     0
176
   256
177
   256
178
     4
  0
ENDTAB
  0
ENDSEC
  0
SECTION
  2
BLOCKS
  0
BLOCK
  8
0
  2
$MODEL_SPACE
 70
     0
 10
0.0
 20
0.0
 30
0.0
  3
$MODEL_SPACE
  1

  0
ENDBLK
  5
1A
  8
0
  0
BLOCK
 67
     1
  8
0
  2
$PAPER_SPACE
 70
     0
 10
0.0
 20
0.0
 30
0.0
  3
$PAPER_SPACE
  1

  0
ENDBLK
  5
17
 67
     1
  8
0
  0
BLOCK
  8
0
  2
_OPEN30
 70
     0
 10
0.0
 20
0.0
 30
0.0
  3
_OPEN30
  1

  0
LINE
  5
21C5
  8
0
 62
     0
 10
-1.0
 20
0.26794919
 30
0.0
 11
0.0
 21
0.0
 31
0.0
  0
LINE
  5
21C6
  8
0
 62
     0
 10
0.0
 20
0.0
 30
0.0
 11
-1.0
 21
-0.26794919
 31
0.0
  0
LINE
  5
21C7
  8
0
 62
     0
 10
0.0
 20
0.0
 30
0.0
 11
-1.0
 21
0.0
 31
0.0
  0
ENDBLK
  5
21C9
  8
0
  0
BLOCK
  8
0
  2
GENAXEH
 70
     0
 10
0.0
 20
0.0
 30
0.0
  3
GENAXEH
  1

  0
LINE
  5
21D0
  8
0
 10
-1.0
 20
0.0
 30
0.0
 11
1.0
 21
0.0
 31
0.0
  0
ENDBLK
  5
21D2
  8
0
  0
BLOCK
  8
0
  2
_NONE
 70
     0
 10
0.0
 20
0.0
 30
0.0
  3
_NONE
  1

  0
ENDBLK
  5
8193
  8
0
  0
BLOCK
  8
0
  2
NEW_BLOCK
 70
     0
 10
0.0
 20
0.0
 30
0.0
  3
NEW_BLOCK
  1

  0
LINE
  5
EC4C
  8
AM_0
 10
-0.899999999999977
 20
37.800000000000011
 30
0.0
 11
-0.899999999999977
 21
28.800000000000011
 31
0.0
  0
LINE
  5
EC4D
  8
AM_0
 10
-6.2999999999999527
 20
27.900000000000009
 30
0.0
 11
-6.2999999999999527
 21
38.700000000000031
 31
0.0
  0
LINE
  5
EC4E
  8
AM_0
 10
-0.899999999999977
 20
28.800000000000011
 30
0.0
 11
-6.2999999999999527
 21
28.800000000000011
 31
0.0
  0
LINE
  5
EC4F
  8
AM_0
 10
0.0
 20
27.900000000000009
 30
0.0
 11
-6.2999999999999527
 21
27.900000000000009
 31
0.0
  0
LINE
  5
EC50
  8
AM_0
 10
-6.2999999999999527
 20
37.800000000000011
 30
0.0
 11
-0.899999999999977
 21
37.800000000000011
 31
0.0
  0
LINE
  5
EC51
  8
AM_0
 10
0.0
 20
38.700000000000031
 30
0.0
 11
-6.2999999999999527
 21
38.700000000000031
 31
0.0
  0
LINE
  5
EC52
  8
AM_0
 10
-6.2999999999999527
 20
-27.900000000000009
 30
0.0
 11
-6.2999999999999527
 21
-38.700000000000031
 31
0.0
  0
LINE
  5
EC53
  8
AM_0
 10
-0.899999999999977
 20
-37.800000000000011
 30
0.0
 11
-0.899999999999977
 21
-28.800000000000011
 31
0.0
  0
LINE
  5
EC54
  8
AM_0
 10
0.0
 20
-38.700000000000031
 30
0.0
 11
-6.2999999999999527
 21
-38.700000000000031
 31
0.0
  0
LINE
  5
EC55
  8
AM_0
 10
-6.2999999999999527
 20
-37.800000000000011
 30
0.0
 11
-0.899999999999977
 21
-37.800000000000011
 31
0.0
  0
LINE
  5
EC56
  8
AM_0
 10
0.0
 20
-27.900000000000009
 30
0.0
 11
-6.2999999999999527
 21
-27.900000000000009
 31
0.0
  0
LINE
  5
EC57
  8
AM_0
 10
-0.899999999999977
 20
-28.800000000000011
 30
0.0
 11
-6.2999999999999527
 21
-28.800000000000011
 31
0.0
  0
ENDBLK
  5
EC58
  8
0
  0
ENDSEC
  0
SECTION
  2
ENTITIES
  0
POINT
  5
1B94
  8
0
 10
0.0
 20
0.0
 30
0.0
1001
GENIUS_GENODEF_13
1002
{
1000
HIER
1070
     1
1002
}
1002
{
1000
MANEDIT
1070
     0
1002
}
1002
{
1000
NOSEL
1070
     0
1002
}
1002
{
1000
BEHIND
1070
     0
1002
}
1002
{
1000
REACTOR
1002
}
1001
GENIUS_GENOBJ-N-SDF_13
1002
{
1000
OWNER
1000
GEN
1002
}
1001
GENIUS_GENOENT_13
1002
{
1000
MYREF
1005
1B94
1002
}
1002
{
1000
GRP
1005
0
1002
}
1001
GENIUS_GENOLIS_13
1002
{
1000
ENT
1005
89
1002
}
  0
CIRCLE
  5
F134
  8
AM_0
 10
386.5125030190801
 20
267.4535961522102
 30
0.0
 40
37.500001117587097
  0
LINE
  5
F135
  8
AM_0
 10
289.51246961067551
 20
203.45359424486159
 30
0.0
 11
437.51250453899809
 21
203.45359424486159
 31
0.0
  0
LINE
  5
F136
  8
AM_0
 10
289.51246961067551
 20
331.45359805955877
 30
0.0
 11
437.51250453899809
 21
331.45359805955877
 31
0.0
  0
LINE
  5
F137
  8
ﾁｭｳｼﾝｾﾝ
 10
70.268569253047872
 20
267.4535961522102
 30
0.0
 11
455.76250489662613
 21
267.45359615220991
 31
0.0
  0
LINE
  5
F138
  8
AM_0
 10
386.51250301908021
 20
209.4535944236755
 30
0.0
 11
420.54194180105679
 21
209.4535944236755
 31
0.0
  0
LINE
  5
F139
  8
AM_0
 10
386.51250301908021
 20
325.45359788074472
 30
0.0
 11
420.54194180105679
 21
325.45359788074472
 31
0.0
  0
ARC
  5
F13F
  8
AM_0
 10
386.5125030190801
 20
267.4535961522102
 30
0.0
 40
15.00000044703487
 50
105.4660096534905
 51
74.533984882808682
  0
LINE
  5
F141
  8
AM_0
 10
283.51246943186158
 20
302.4830349639895
 30
0.0
 11
283.51246943186158
 21
232.4241573404307
 31
0.0
  0
LINE
  5
F148
  8
AM_0
 10
277.51246925304781
 20
319.45359770193102
 30
0.0
 11
277.51246925304781
 21
215.45359460248929
 31
0.0
  0
LINE
  5
F149
  8
AM_0
 10
240.0124692530479
 20
203.45359615221
 30
0.0
 11
240.0124692530479
 21
331.45358615220982
 31
0.0
  0
LINE
  5
F14A
  8
AM_0
 10
251.01246925304781
 20
328.95358615221039
 30
0.0
 11
251.01246925304781
 21
205.95360615221011
 31
0.0
  0
LINE
  5
F14C
  8
AM_0
 10
269.42299242729769
 20
313.18231479030419
 30
0.0
 11
269.42299242729911
 21
221.7248775141162
 31
0.0
  0
ARC
  5
F14D
  8
AM_0
 10
663.67099577905071
 20
267.45359615220451
 30
0.0
 40
397.24800335175252
 50
173.33928567968309
 51
186.6607143203168
  0
LINE
  5
F14E
  8
ﾁｭｳｼﾝｾﾝ
 10
386.5125030190801
 20
337.70359805955849
 30
0.0
 11
386.51250301907999
 21
197.20359424486131
 31
0.0
  0
LINE
  5
F1FA
  8
AM_0
 10
254.0124692530477
 20
205.95360615221011
 30
0.0
 11
281.22089220161132
 21
205.95360615221051
 31
0.0
  0
ARC
  5
F1FB
  8
AM_0
 10
289.51246961067551
 20
215.45359460248929
 30
0.0
 40
12.00000035762791
 50
180.00000500895689
 51
270.000000683243
  0
LINE
  5
F1FC
  8
AM_0
 10
272.0840036067342
 20
218.7248775141162
 30
0.0
 11
276.51246925304781
 21
218.7248775141162
 31
0.0
  0
LINE
  5
F21E
  8
AM_0
 10
240.0124114308305
 20
215.41359615224181
 30
0.0
 11
250.01241143082439
 21
215.41358504113049
 31
0.0
  0
LINE
  5
F21F
  8
AM_0
 10
240.0124279863974
 20
230.31360615223269
 30
0.0
 11
250.0124279863912
 21
230.3135950411214
 31
0.0
  0
LINE
  5
F220
  8
AM_0
 10
240.0124692530479
 20
215.41360615221021
 30
0.0
 11
250.01246925304781
 21
215.41360615221021
 31
0.0
  0
LINE
  5
F221
  8
AM_0
 10
240.0124692530479
 20
230.3136161522103
 30
0.0
 11
250.01246925304781
 21
230.3136161522103
 31
0.0
  0
LINE
  5
F222
  8
AM_0
 10
240.0124692530479
 20
203.45360615221011
 30
0.0
 11
249.13907208064319
 21
203.45360615221011
 31
0.0
  0
LINE
  5
F22C
  8
AM_0
 10
240.0124692530479
 20
203.4535661522099
 30
0.0
 11
240.0124692530479
 21
207.45356615220999
 31
0.0
  0
ARC
  5
F23D
  8
AM_0
 10
249.13907208064319
 20
206.45360615221011
 30
0.0
 40
2.9999999999999978
 50
270.0
 51
324.31466528734541
1001
GENIUS_GENOBJ-N-FIL_13
1002
{
1000
OWNER
1000
GEN
1002
}
1001
GENIUS_GENODEF_13
1002
{
1000
HIER
1070
     0
1002
}
1002
{
1000
MANEDIT
1070
     0
1002
}
1002
{
1000
NOSEL
1070
     0
1002
}
1002
{
1000
BEHIND
1070
     0
1002
}
1002
{
1000
OTHER
1070
     0
1002
}
1002
{
1000
REACTOR
1002
}
  0
ARC
  5
F23E
  8
AM_0
 10
254.0124692530477
 20
202.95360615221011
 30
0.0
 40
2.9999999999999978
 50
90.0
 51
144.31466528734541
1001
GENIUS_GENOBJ-N-FIL_13
1002
{
1000
OWNER
1000
GEN
1002
}
1001
GENIUS_GENODEF_13
1002
{
1000
HIER
1070
     0
1002
}
1002
{
1000
MANEDIT
1070
     0
1002
}
1002
{
1000
NOSEL
1070
     0
1002
}
1002
{
1000
BEHIND
1070
     0
1002
}
1002
{
1000
OTHER
1070
     0
1002
}
1002
{
1000
REACTOR
1002
}
  0
ARC
  5
F23F
  8
AM_0
 10
272.0840036067342
 20
221.7248775141162
 30
0.0
 40
2.9999999999999978
 50
186.6607143203168
 51
270.0
1001
GENIUS_GENOBJ-N-FIL_13
1002
{
1000
OWNER
1000
GEN
1002
}
1001
GENIUS_GENODEF_13
1002
{
1000
HIER
1070
     0
1002
}
1002
{
1000
MANEDIT
1070
     0
1002
}
1002
{
1000
NOSEL
1070
     0
1002
}
1002
{
1000
BEHIND
1070
     0
1002
}
1002
{
1000
OTHER
1070
     0
1002
}
1002
{
1000
REACTOR
1002
}
  0
LINE
  5
F24E
  8
AM_0
 10
306.4830323486168
 20
209.4535944236755
 30
0.0
 11
386.51250301908021
 21
209.4535944236755
 31
0.0
  0
ARC
  5
F24F
  8
AM_0
 10
288.51246943186158
 20
232.4241573404307
 30
0.0
 40
5.0
 50
180.0
 51
273.37228728714382
1001
GENIUS_GENODEF_13
1002
{
1000
HIER
1070
     0
1002
}
1002
{
1000
MANEDIT
1070
     0
1002
}
1002
{
1000
NOSEL
1070
     0
1002
}
1002
{
1000
BEHIND
1070
     0
1002
}
1002
{
1000
OTHER
1070
     0
1002
}
1002
{
1000
REACTOR
1002
}
1001
GENIUS_GENOBJ-N-FIL_13
1002
{
1000
OWNER
1000
GEN
1002
}
  0
LINE
  5
F250
  8
ﾁｭｳｼﾝｾﾝ1
 10
289.51246961067551
 20
223.95359485580909
 30
0.0
 11
289.51246961067551
 21
206.95359434916969
 31
0.0
  0
ARC
  5
F251
  8
AM_0
 10
306.4830323486168
 20
214.45359442367561
 30
0.0
 40
5.0
 50
176.62771271285609
 51
270.0
1001
GENIUS_GENOBJ-N-FIL_13
1002
{
1000
OWNER
1000
GEN
1002
}
1001
GENIUS_GENODEF_13
1002
{
1000
HIER
1070
     0
1002
}
1002
{
1000
MANEDIT
1070
     0
1002
}
1002
{
1000
NOSEL
1070
     0
1002
}
1002
{
1000
BEHIND
1070
     0
1002
}
1002
{
1000
OTHER
1070
     0
1002
}
1002
{
1000
REACTOR
1002
}
  0
ARC
  5
F252
  8
AM_0
 10
281.22089220161138
 20
202.9536061522106
 30
0.0
 40
2.9999999999999978
 50
56.442621136830091
 51
90.0
1001
GENIUS_GENOBJ-N-FIL_13
1002
{
1000
OWNER
1000
GEN
1002
}
1001
GENIUS_GENODEF_13
1002
{
1000
HIER
1070
     0
1002
}
1002
{
1000
MANEDIT
1070
     0
1002
}
1002
{
1000
NOSEL
1070
     0
1002
}
1002
{
1000
BEHIND
1070
     0
1002
}
1002
{
1000
OTHER
1070
     0
1002
}
1002
{
1000
REACTOR
1002
}
  0
CIRCLE
  5
F253
  8
AM_0
 10
289.51246961067551
 20
215.45359460248929
 30
0.0
 40
5.5000001639127731
  0
ARC
  5
F254
  8
AM_0
 10
289.51246961067551
 20
215.45359460248929
 30
0.0
 40
12.0
 50
356.62771271285618
 51
93.37228728714382
  0
LINE
  5
F255
  8
ﾁｭｳｼﾝｾﾝ1
 10
281.01246935735583
 20
215.45359460248929
 30
0.0
 11
298.01250038157451
 21
215.45359460248929
 31
0.0
  0
LINE
  5
F2D1
  8
AM_0
 10
254.0124692530477
 20
328.95358615221028
 30
0.0
 11
281.22089220161138
 21
328.95358615220982
 31
0.0
  0
ARC
  5
F2D2
  8
AM_0
 10
289.51246961067551
 20
319.45359770193102
 30
0.0
 40
12.000000357627879
 50
90.000002504475205
 51
180.00000500895689
  0
LINE
  5
F2D3
  8
AM_0
 10
272.08400360673539
 20
316.1823147903043
 30
0.0
 11
276.51246925304781
 21
316.18231479030408
 31
0.0
  0
LINE
  5
F2E5
  8
AM_0
 10
240.0124692530479
 20
304.59357615221001
 30
0.0
 11
250.01246925304781
 21
304.59357615221001
 31
0.0
  0
ARC
  5
F2FD
  8
AM_0
 10
272.08400360673539
 20
313.1823147903043
 30
0.0
 40
2.9999999999999978
 50
90.0
 51
173.33928567968309
1001
GENIUS_GENODEF_13
1002
{
1000
HIER
1070
     0
1002
}
1002
{
1000
MANEDIT
1070
     0
1002
}
1002
{
1000
NOSEL
1070
     0
1002
}
1002
{
1000
BEHIND
1070
     0
1002
}
1002
{
1000
OTHER
1070
     0
1002
}
1002
{
1000
REACTOR
1002
}
1001
GENIUS_GENOBJ-N-FIL_13
1002
{
1000
OWNER
1000
GEN
1002
}
  0
LINE
  5
F2FE
  8
AM_0
 10
240.0124692530479
 20
331.45358615221028
 30
0.0
 11
249.13907208064319
 21
331.45358615221028
 31
0.0
  0
LINE
  5
F2FF
  8
AM_0
 10
240.0124692530479
 20
319.49358615221013
 30
0.0
 11
250.01246925304781
 21
319.49358615221013
 31
0.0
  0
ARC
  5
F315
  8
AM_0
 10
249.13907208064319
 20
328.45358615221028
 30
0.0
 40
2.9999999999999978
 50
35.68533471265463
 51
90.0
1001
GENIUS_GENOBJ-N-FIL_13
1002
{
1000
OWNER
1000
GEN
1002
}
1001
GENIUS_GENODEF_13
1002
{
1000
HIER
1070
     0
1002
}
1002
{
1000
MANEDIT
1070
     0
1002
}
1002
{
1000
NOSEL
1070
     0
1002
}
1002
{
1000
BEHIND
1070
     0
1002
}
1002
{
1000
OTHER
1070
     0
1002
}
1002
{
1000
REACTOR
1002
}
  0
ARC
  5
F316
  8
AM_0
 10
254.0124692530477
 20
331.95358615221022
 30
0.0
 40
2.9999999999999978
 50
215.68533471265459
 51
270.0
1001
GENIUS_GENOBJ-N-FIL_13
1002
{
1000
OWNER
1000
GEN
1002
}
1001
GENIUS_GENODEF_13
1002
{
1000
HIER
1070
     0
1002
}
1002
{
1000
MANEDIT
1070
     0
1002
}
1002
{
1000
NOSEL
1070
     0
1002
}
1002
{
1000
BEHIND
1070
     0
1002
}
1002
{
1000
OTHER
1070
     0
1002
}
1002
{
1000
REACTOR
1002
}
  0
LINE
  5
F319
  8
AM_0
 10
306.4830323486168
 20
325.45359788074472
 30
0.0
 11
386.51250301908021
 21
325.45359788074472
 31
0.0
  0
ARC
  5
F31A
  8
AM_0
 10
289.51246961067551
 20
319.45359770193102
 30
0.0
 40
12.0
 50
266.62771271285618
 51
3.3722872871438159
  0
CIRCLE
  5
F31B
  8
AM_0
 10
289.51246961067551
 20
319.45359770193102
 30
0.0
 40
5.5000001639127731
  0
LINE
  5
F31C
  8
ﾁｭｳｼﾝｾﾝ1
 10
289.51246961067551
 20
327.95359795525047
 30
0.0
 11
289.51246961067551
 21
310.95359744861128
 31
0.0
  0
ARC
  5
F31D
  8
AM_0
 10
288.51246943186169
 20
302.4830349639895
 30
0.0
 40
5.0
 50
86.627712712856194
 51
180.0
1001
GENIUS_GENOBJ-N-FIL_13
1002
{
1000
OWNER
1000
GEN
1002
}
1001
GENIUS_GENODEF_13
1002
{
1000
HIER
1070
     0
1002
}
1002
{
1000
MANEDIT
1070
     0
1002
}
1002
{
1000
NOSEL
1070
     0
1002
}
1002
{
1000
BEHIND
1070
     0
1002
}
1002
{
1000
OTHER
1070
     0
1002
}
1002
{
1000
REACTOR
1002
}
  0
LINE
  5
F31E
  8
ﾁｭｳｼﾝｾﾝ1
 10
281.01246935735583
 20
319.45359770193102
 30
0.0
 11
298.01250038157451
 21
319.45359770193102
 31
0.0
  0
ARC
  5
F31F
  8
AM_0
 10
281.22089220161138
 20
331.95358615220982
 30
0.0
 40
2.9999999999999978
 50
270.0
 51
303.55737886317002
1001
GENIUS_GENOBJ-N-FIL_13
1002
{
1000
OWNER
1000
GEN
1002
}
1001
GENIUS_GENODEF_13
1002
{
1000
HIER
1070
     0
1002
}
1002
{
1000
MANEDIT
1070
     0
1002
}
1002
{
1000
NOSEL
1070
     0
1002
}
1002
{
1000
BEHIND
1070
     0
1002
}
1002
{
1000
OTHER
1070
     0
1002
}
1002
{
1000
REACTOR
1002
}
  0
ARC
  5
F320
  8
AM_0
 10
306.4830323486168
 20
320.45359788074472
 30
0.0
 40
5.0
 50
90.0
 51
183.37228728714379
1001
GENIUS_GENOBJ-N-FIL_13
1002
{
1000
OWNER
1000
GEN
1002
}
1001
GENIUS_GENODEF_13
1002
{
1000
HIER
1070
     0
1002
}
1002
{
1000
MANEDIT
1070
     0
1002
}
1002
{
1000
NOSEL
1070
     0
1002
}
1002
{
1000
BEHIND
1070
     0
1002
}
1002
{
1000
OTHER
1070
     0
1002
}
1002
{
1000
REACTOR
1002
}
  0
LINE
  5
F321
  8
AM_0
 10
390.51250313828922
 20
281.91041421001012
 30
0.0
 11
390.51250313828922
 21
285.7535844905608
 31
0.0
  0
LINE
  5
F322
  8
AM_0
 10
382.51250289987058
 20
281.91041421001012
 30
0.0
 11
382.51250289987058
 21
285.7535844905608
 31
0.0
  0
LINE
  5
F323
  8
AM_0
 10
382.51250289987058
 20
285.7535844905608
 30
0.0
 11
390.51250313828922
 21
285.7535844905608
 31
0.0
  0
ARC
  5
F325
  8
AM_0
 10
618.32626120840496
 20
267.44359615221009
 30
0.0
 40
64.003665999999996
 50
325.87476838391558
 51
327.50490798788178
  0
ARC
  5
F326
  8
AM_0
 10
618.32626120840496
 20
267.44359615221009
 30
0.0
 40
64.014987999999974
 50
145.91379204812259
 51
147.54536596871469
  0
LINE
  5
F328
  8
AM_0
 10
443.51250471781219
 20
302.48303496398972
 30
0.0
 11
443.51250471781219
 21
232.42415734043061
 31
0.0
  0
LINE
  5
F32D
  8
AM_0
 10
449.51250489662613
 20
319.45359770193102
 30
0.0
 11
449.51250489662613
 21
215.45359460248929
 31
0.0
  0
LINE
  5
F32E
  8
AM_0
 10
667.30935266871859
 20
203.80268483143709
 30
0.0
 11
667.30935266871859
 21
331.1045074729833
 31
0.0
  0
LINE
  5
F32F
  8
AM_0
 10
565.30934962888193
 20
229.95359503462311
 30
0.0
 11
565.30934962888193
 21
304.95359726979729
 31
0.0
  0
LINE
  5
F330
  8
ﾁｭｳｼﾝｾﾝ
 10
618.30935120840513
 20
140.67475485504329
 30
0.0
 11
618.30935120840513
 21
337.70359636477559
 31
0.0
  0
LINE
  5
F331
  8
AM_0
 10
647.30935207267225
 20
203.45359424486159
 30
0.0
 11
647.30935207267225
 21
331.45359805955877
 31
0.0
  0
LINE
  5
F332
  8
AM_0
 10
569.30934211869624
 20
204.81510551590651
 30
0.0
 11
569.30934211869624
 21
330.0921173060928
 31
0.0
  0
LINE
  5
F333
  8
AM_0
 10
671.30936041732298
 20
229.95359503462311
 30
0.0
 11
671.30936041732298
 21
304.95359726979729
 31
0.0
  0
INSERT
  5
F334
  8
AM_0
  2
NEW_BLOCK
 10
667.30935266871859
 20
267.4535961522102
 30
0.0
 41
1.1111111111110841
 42
1.1111111111110841
 43
1.1111111111110841
  0
LINE
  5
F336
  8
ﾁｭｳｼﾝｾﾝ
 10
548.06127398947194
 20
267.4535961522102
 30
0.0
 11
688.57992642719955
 21
267.4535961522102
 31
0.0
  0
LINE
  5
F337
  8
ｶｸﾚｾﾝ2
 10
569.30934974809122
 20
209.9535944385766
 30
0.0
 11
667.30936029811357
 21
209.9535944385766
 31
0.0
  0
LINE
  5
F338
  8
ｶｸﾚｾﾝ2
 10
569.30934974809122
 20
220.95359476640229
 30
0.0
 11
667.30936029811357
 21
220.95359476640229
 31
0.0
  0
LINE
  5
F339
  8
ﾁｭｳｼﾝｾﾝ
 10
565.55934593339407
 20
215.45359460248929
 30
0.0
 11
671.05935648341642
 21
215.45359460248929
 31
0.0
  0
LINE
  5
F33A
  8
AM_0
 10
609.12593160149163
 20
204.1200906647714
 30
0.0
 11
625.22375068875454
 21
203.8391020001543
 31
0.0
  0
LINE
  5
F33C
  8
AM_0
 10
647.30935207267225
 20
203.45359424486159
 30
0.0
 11
569.30934211869624
 21
204.81510551590651
 31
0.0
  0
ARC
  5
F342
  8
AM_0
 10
618.28274120840524
 20
267.45110615221017
 30
0.0
 40
63.989566999999987
 50
270.02382639558652
 51
276.22718035921889
  0
ARC
  5
F346
  8
AM_0
 10
438.51250471781242
 20
232.42415734043061
 30
0.0
 40
5.0
 50
266.62771271285618
 51
0.0
1001
GENIUS_GENODEF_13
1002
{
1000
HIER
1070
     0
1002
}
1002
{
1000
MANEDIT
1070
     0
1002
}
1002
{
1000
NOSEL
1070
     0
1002
}
1002
{
1000
BEHIND
1070
     0
1002
}
1002
{
1000
OTHER
1070
     0
1002
}
1002
{
1000
REACTOR
1002
}
1001
GENIUS_GENOBJ-N-FIL_13
1002
{
1000
OWNER
1000
GEN
1002
}
  0
CIRCLE
  5
F347
  8
AM_0
 10
437.51250453899809
 20
215.45359460248929
 30
0.0
 40
5.5000001639127731
  0
LINE
  5
F348
  8
ﾁｭｳｼﾝｾﾝ1
 10
429.0125042856784
 20
215.45359460248929
 30
0.0
 11
446.01250479231811
 21
215.45359460248929
 31
0.0
  0
ARC
  5
F349
  8
AM_0
 10
437.51250453899809
 20
215.45359460248929
 30
0.0
 40
12.000000357627879
 50
269.99999749551819
 51
0.0
  0
LINE
  5
F34A
  8
ﾁｭｳｼﾝｾﾝ1
 10
437.51250453899809
 20
223.95359485580909
 30
0.0
 11
437.51250453899809
 21
206.95359434916969
 31
0.0
  0
ARC
  5
F34B
  8
AM_0
 10
420.54194180105679
 20
214.45359442367561
 30
0.0
 40
5.0
 50
270.0
 51
3.3722872871438159
1001
GENIUS_GENODEF_13
1002
{
1000
HIER
1070
     0
1002
}
1002
{
1000
MANEDIT
1070
     0
1002
}
1002
{
1000
NOSEL
1070
     0
1002
}
1002
{
1000
BEHIND
1070
     0
1002
}
1002
{
1000
OTHER
1070
     0
1002
}
1002
{
1000
REACTOR
1002
}
1001
GENIUS_GENOBJ-N-FIL_13
1002
{
1000
OWNER
1000
GEN
1002
}
  0
ARC
  5
F34C
  8
AM_0
 10
437.51250453899809
 20
215.45359460248929
 30
0.0
 40
12.0
 50
86.627712712856194
 51
183.37228728714379
  0
ARC
  5
F355
  8
AM_0
 10
553.41026120840479
 20
262.4540161522101
 30
0.0
 40
1.000418199999999
 50
92.342590000002119
 51
269.94893999999681
  0
ARC
  5
F356
  8
AM_0
 10
553.41009120840476
 20
272.45318615221032
 30
0.0
 40
1.0004146999999981
 50
90.041480000001087
 51
267.66698999999528
  0
ARC
  5
F357
  8
AM_0
 10
586.14056120840519
 20
201.5312461522102
 30
0.0
 40
2.0097484999999988
 50
1.7779099999986701
 51
157.0903460000016
  0
LINE
  5
F358
  8
AM_0
 10
584.36874536066739
 20
204.552229246015
 30
0.0
 11
584.28936120840513
 21
202.31359615221029
 31
0.0
  0
LINE
  5
F359
  8
AM_0
 10
582.23615155522771
 20
204.58945383416039
 30
0.0
 11
582.30935120840513
 21
202.53358615221021
 31
0.0
  0
ARC
  5
F35A
  8
AM_0
 10
583.30947120840494
 20
202.5608261522103
 30
0.0
 40
1.000226099999999
 50
179.26866700000079
 51
358.43981999999937
  0
ARC
  5
F35B
  8
AM_0
 10
571.81991120840485
 20
220.9641441522102
 30
0.0
 40
5.010561899999999
 50
180.12064999999691
 51
239.93027090092261
  0
LINE
  5
F35C
  8
AM_0
 10
566.80936120840488
 20
220.95359315221009
 30
0.0
 11
566.80936120840488
 21
228.47032029515461
 31
0.0
  0
LINE
  5
F35D
  8
AM_0
 10
565.30934962888193
 20
229.95359503462311
 30
0.0
 11
569.30934974809122
 21
229.95359503462311
 31
0.0
  0
ARC
  5
F35E
  8
AM_0
 10
563.80936120840465
 20
228.47032029515469
 30
0.0
 40
2.9999999999999978
 50
0.0
 51
29.631860164017262
1001
GENIUS_GENOBJ-N-FIL_13
1002
{
1000
OWNER
1000
GEN
1002
}
1001
GENIUS_GENODEF_13
1002
{
1000
HIER
1070
     0
1002
}
1002
{
1000
MANEDIT
1070
     0
1002
}
1002
{
1000
NOSEL
1070
     0
1002
}
1002
{
1000
BEHIND
1070
     0
1002
}
1002
{
1000
OTHER
1070
     0
1002
}
1002
{
1000
REACTOR
1002
}
  0
ARC
  5
F361
  8
AM_0
 10
618.28274120840524
 20
267.45110615221017
 30
0.0
 40
63.989566999999987
 50
261.77281830828679
 51
270.02382639558652
  0
ARC
  5
F362
  8
AM_0
 10
554.08315120840484
 20
252.45382615221021
 30
0.0
 40
1.000333199999998
 50
91.936239999999614
 51
269.20963000000029
  0
ARC
  5
F365
  8
AM_0
 10
555.43853120840504
 20
242.4541811522102
 30
0.0
 40
1.000625599999998
 50
92.817069999998395
 51
269.4744600000011
  0
LINE
  5
F36F
  8
AM_0
 10
557.30935120840513
 20
241.37246936962009
 30
0.0
 11
555.3893712084049
 21
241.4535931522102
 31
0.0
  0
LINE
  5
F371
  8
AM_0
 10
564.30935120840513
 20
244.95359548165791
 30
0.0
 11
565.30934962888193
 21
244.953595481658
 31
0.0
  0
LINE
  5
F372
  8
AM_0
 10
557.30935120840513
 20
243.51947471161429
 30
0.0
 11
555.38935120840517
 21
243.4535931522102
 31
0.0
  0
LINE
  5
F373
  8
AM_0
 10
556.32957051211974
 20
251.37330674010741
 30
0.0
 11
554.04935120840469
 21
251.45359615221011
 31
0.0
  0
LINE
  5
F374
  8
AM_0
 10
555.81368465221794
 20
253.51443497424319
 30
0.0
 11
554.04935120840469
 21
253.4535961522102
 31
0.0
  0
LINE
  5
F375
  8
AM_0
 10
554.56575222288279
 20
261.41234105254352
 30
0.0
 11
553.36936120840483
 21
261.4535961522102
 31
0.0
  0
LINE
  5
F376
  8
AM_0
 10
554.56992875084939
 20
273.49499490196411
 30
0.0
 11
553.36935120840485
 21
273.4535961522102
 31
0.0
  0
LINE
  5
F377
  8
AM_0
 10
554.40608172857037
 20
271.41423358005522
 30
0.0
 11
553.36936120840483
 21
271.4535961522102
 31
0.0
  0
LINE
  5
F378
  8
AM_0
 10
554.40417269265572
 20
263.47979391130508
 30
0.0
 11
553.36936120840483
 21
263.4535961522102
 31
0.0
  0
LINE
  5
F381
  8
AM_0
 10
667.30935266871859
 20
203.80268483143709
 30
0.0
 11
647.30935207267225
 21
203.45359424486159
 31
0.0
  0
ARC
  5
F382
  8
AM_0
 10
653.30920120840494
 20
202.56150615221031
 30
0.0
 40
1.000231299999998
 50
181.598942999999
 51
0.6925799999989849
  0
LINE
  5
F383
  8
AM_0
 10
647.30935120840513
 20
203.4535961522102
 30
0.0
 11
625.22375068875385
 21
203.8391020001543
 31
0.0
  0
LINE
  5
F386
  8
AM_0
 10
652.26582879119428
 20
203.5401129804676
 30
0.0
 11
652.30932120840509
 21
202.31359615221029
 31
0.0
  0
ARC
  5
F387
  8
AM_0
 10
650.46771120840503
 20
201.53561615221039
 30
0.0
 40
1.9992131999999989
 50
22.90132999999647
 51
178.3379780000044
  0
LINE
  5
F388
  8
AM_0
 10
654.34483474284832
 20
203.57640266358641
 30
0.0
 11
654.30932120840475
 21
202.53359615221029
 31
0.0
  0
ARC
  5
F389
  8
AM_0
 10
664.81570120840502
 20
220.94724515221009
 30
0.0
 40
4.9936542999999984
 50
299.95791578702313
 51
0.0728599999961059
  0
LINE
  5
F38A
  8
AM_0
 10
671.30936041732298
 20
229.95359503462311
 30
0.0
 11
667.30936029811357
 21
229.95359503462311
 31
0.0
  0
LINE
  5
F38B
  8
AM_0
 10
669.80935120840479
 20
228.4425171736554
 30
0.0
 11
669.80935120840479
 21
220.95359315221009
 31
0.0
  0
ARC
  5
F38C
  8
AM_0
 10
672.80935120840479
 20
228.4425171736554
 30
0.0
 40
2.9999999999999978
 50
149.75537130699439
 51
180.0
1001
GENIUS_GENOBJ-N-FIL_13
1002
{
1000
OWNER
1000
GEN
1002
}
1001
GENIUS_GENODEF_13
1002
{
1000
HIER
1070
     0
1002
}
1002
{
1000
MANEDIT
1070
     0
1002
}
1002
{
1000
NOSEL
1070
     0
1002
}
1002
{
1000
BEHIND
1070
     0
1002
}
1002
{
1000
OTHER
1070
     0
1002
}
1002
{
1000
REACTOR
1002
}
  0
ARC
  5
F38D
  8
AM_0
 10
682.5693912084048
 20
252.4536961522102
 30
0.0
 40
1.000099699999998
 50
269.99821999999642
 51
88.855909999997095
  0
ARC
  5
F390
  8
AM_0
 10
681.21401120840471
 20
242.45390615221029
 30
0.0
 40
1.000317799999999
 50
269.73379000000142
 51
87.974690000002326
  0
LINE
  5
F394
  8
AM_0
 10
679.30935120840547
 20
241.3727597355435
 30
0.0
 11
681.24935120840485
 21
241.45360115221021
 31
0.0
  0
LINE
  5
F39C
  8
AM_0
 10
679.30935120840536
 20
243.520162170416
 30
0.0
 11
681.24938120840466
 21
243.4535931522102
 31
0.0
  0
LINE
  5
F39D
  8
AM_0
 10
672.30935120840502
 20
244.953595481658
 30
0.0
 11
671.30936041732298
 21
244.953595481658
 31
0.0
  0
LINE
  5
F39E
  8
AM_0
 10
680.22316693636083
 20
251.3702789244916
 30
0.0
 11
682.58935120840465
 21
251.45359615221011
 31
0.0
  0
ARC
  5
F39F
  8
AM_0
 10
683.24227120840465
 20
262.4537361522103
 30
0.0
 40
1.000225199999998
 50
269.26081999999792
 51
88.44765000000109
  0
LINE
  5
F3A0
  8
AM_0
 10
680.74048736790496
 20
253.5173508374227
 30
0.0
 11
682.58938120840503
 21
253.4535961522102
 31
0.0
  0
LINE
  5
F3A1
  8
AM_0
 10
681.98749171085842
 20
261.4093941913639
 30
0.0
 11
683.26934120840485
 21
261.4535961522102
 31
0.0
  0
ARC
  5
F3A2
  8
AM_0
 10
683.24242120840483
 20
272.45345615221009
 30
0.0
 40
1.000223999999998
 50
271.54276079999562
 51
90.748769999995517
  0
LINE
  5
F3A3
  8
AM_0
 10
681.9833137914045
 20
273.49793478906781
 30
0.0
 11
683.26934120840485
 21
273.4535961522102
 31
0.0
  0
LINE
  5
F3A4
  8
AM_0
 10
682.14764227047647
 20
271.4109993899695
 30
0.0
 11
683.26937120840489
 21
271.4535961522102
 31
0.0
  0
LINE
  5
F3A5
  8
AM_0
 10
682.14948291198004
 20
263.48194717459461
 30
0.0
 11
683.26934120840485
 21
263.4535961522102
 31
0.0
  0
LINE
  5
F3A9
  8
ｶｸﾚｾﾝ2
 10
569.30934974809122
 20
313.95359753801807
 30
0.0
 11
667.30936029811357
 21
313.95359753801807
 31
0.0
  0
LINE
  5
F3AA
  8
ｶｸﾚｾﾝ2
 10
569.30934974809122
 20
324.95359786584368
 30
0.0
 11
667.30936029811357
 21
324.95359786584368
 31
0.0
  0
LINE
  5
F3AB
  8
ﾁｭｳｼﾝｾﾝ
 10
565.55934593339339
 20
319.45359770193107
 30
0.0
 11
671.05935648341608
 21
319.45359770193107
 31
0.0
  0
LINE
  5
F3AC
  8
AM_0
 10
647.30935207267225
 20
331.45359805955877
 30
0.0
 11
569.30934211869624
 21
330.0921173060928
 31
0.0
  0
ARC
  5
F3AD
  8
AM_0
 10
618.29931120840502
 20
267.44724615220991
 30
0.0
 40
64.006351000000123
 50
83.71945637507504
 51
89.991012616410785
  0
ARC
  5
F3B2
  8
AM_0
 10
437.51250453899809
 20
319.45359770193102
 30
0.0
 40
12.0
 50
176.62771271285609
 51
273.37228728714382
  0
CIRCLE
  5
F3B3
  8
AM_0
 10
437.51250453899809
 20
319.45359770193102
 30
0.0
 40
5.5000001639127731
  0
LINE
  5
F3B4
  8
ﾁｭｳｼﾝｾﾝ1
 10
437.51250453899809
 20
327.95359795525047
 30
0.0
 11
437.51250453899809
 21
310.95359744861128
 31
0.0
  0
ARC
  5
F3B5
  8
AM_0
 10
438.51250471781242
 20
302.48303496398972
 30
0.0
 40
5.0
 50
0.0
 51
93.37228728714382
1001
GENIUS_GENODEF_13
1002
{
1000
HIER
1070
     0
1002
}
1002
{
1000
MANEDIT
1070
     0
1002
}
1002
{
1000
NOSEL
1070
     0
1002
}
1002
{
1000
BEHIND
1070
     0
1002
}
1002
{
1000
OTHER
1070
     0
1002
}
1002
{
1000
REACTOR
1002
}
1001
GENIUS_GENOBJ-N-FIL_13
1002
{
1000
OWNER
1000
GEN
1002
}
  0
LINE
  5
F3B6
  8
ﾁｭｳｼﾝｾﾝ1
 10
429.0125042856784
 20
319.45359770193102
 30
0.0
 11
446.01250479231811
 21
319.45359770193102
 31
0.0
  0
ARC
  5
F3B7
  8
AM_0
 10
437.51250453899809
 20
319.45359770193102
 30
0.0
 40
12.00000035762787
 50
0.0
 51
90.000002504475205
  0
ARC
  5
F3B8
  8
AM_0
 10
420.54194180105679
 20
320.45359788074478
 30
0.0
 40
5.0
 50
356.62771271285618
 51
90.0
1001
GENIUS_GENOBJ-N-FIL_13
1002
{
1000
OWNER
1000
GEN
1002
}
1001
GENIUS_GENODEF_13
1002
{
1000
HIER
1070
     0
1002
}
1002
{
1000
MANEDIT
1070
     0
1002
}
1002
{
1000
NOSEL
1070
     0
1002
}
1002
{
1000
BEHIND
1070
     0
1002
}
1002
{
1000
OTHER
1070
     0
1002
}
1002
{
1000
REACTOR
1002
}
  0
ARC
  5
F3BC
  8
AM_0
 10
571.81573120840505
 20
313.9472161522101
 30
0.0
 40
5.0063781999999977
 50
120.04217682435279
 51
179.92705000000001
  0
ARC
  5
F3BF
  8
AM_0
 10
554.08308120840502
 20
282.45336615221021
 30
0.0
 40
1.000331199999998
 50
90.785589999996503
 51
268.0685399999997
  0
LINE
  5
F3C0
  8
AM_0
 10
555.82340713109943
 20
281.39242207372962
 30
0.0
 11
554.04935120840469
 21
281.45359615221008
 31
0.0
  0
LINE
  5
F3C1
  8
AM_0
 10
556.34107229383596
 20
283.53428998836029
 30
0.0
 11
554.04935120840469
 21
283.45359615221031
 31
0.0
  0
LINE
  5
F3C2
  8
AM_0
 10
564.30935120840513
 20
289.95359682276239
 30
0.0
 11
565.30934962888193
 21
289.95359682276239
 31
0.0
  0
LINE
  5
F3C4
  8
AM_0
 10
557.30935120840479
 20
291.38771416259272
 30
0.0
 11
555.3893712084049
 21
291.45359615221031
 31
0.0
  0
ARC
  5
F3C6
  8
AM_0
 10
555.43836120840501
 20
292.45301615221013
 30
0.0
 40
1.0006207999999981
 50
90.515970000001047
 51
267.19250000000471
  0
LINE
  5
F3C9
  8
AM_0
 10
556.80936120840477
 20
293.49360615221019
 30
0.0
 11
555.3893712084049
 21
293.45359615221008
 31
0.0
  0
LINE
  5
F3CA
  8
AM_0
 10
566.80936120840488
 20
306.41687200926572
 30
0.0
 11
566.80936120840488
 21
313.95359615221031
 31
0.0
  0
LINE
  5
F3D1
  8
AM_0
 10
565.30934962888193
 20
304.95359726979729
 30
0.0
 11
569.30934974809122
 21
304.95359726979729
 31
0.0
  0
ARC
  5
F3D2
  8
AM_0
 10
563.80936120840465
 20
306.41687200926572
 30
0.0
 40
2.9999999999999978
 50
330.80663173194722
 51
0.0
1001
GENIUS_GENOBJ-N-FIL_13
1002
{
1000
OWNER
1000
GEN
1002
}
1001
GENIUS_GENODEF_13
1002
{
1000
HIER
1070
     0
1002
}
1002
{
1000
MANEDIT
1070
     0
1002
}
1002
{
1000
NOSEL
1070
     0
1002
}
1002
{
1000
BEHIND
1070
     0
1002
}
1002
{
1000
OTHER
1070
     0
1002
}
1002
{
1000
REACTOR
1002
}
  0
ARC
  5
F3D3
  8
AM_0
 10
603.30975120840526
 20
331.69290615221018
 30
0.0
 40
1.000413999999999
 50
2.3310499999979029
 51
179.96048300000029
  0
ARC
  5
F3D4
  8
AM_0
 10
593.30959120840521
 20
330.33738415221012
 30
0.0
 40
1.000393499999999
 50
10.99352963525819
 51
179.0714379999965
  0
LINE
  5
F3D5
  8
AM_0
 10
602.27180711678454
 20
330.66745356152461
 30
0.0
 11
602.30935120840513
 21
331.7336021522101
 31
0.0
  0
ARC
  5
F3D6
  8
AM_0
 10
618.29931120840502
 20
267.44724615220991
 30
0.0
 40
64.006351000000123
 50
89.991012616410785
 51
98.280567367618843
  0
LINE
  5
F3D7
  8
AM_0
 10
604.34484585836185
 20
330.70363901700989
 30
0.0
 11
604.30932120840475
 21
331.73359815221022
 31
0.0
  0
ARC
  5
F3D8
  8
AM_0
 10
613.30990120840511
 20
332.36585315221009
 30
0.0
 40
1.0005847999999991
 50
2.7350400000042838
 51
179.5564910000007
  0
LINE
  5
F3D9
  8
AM_0
 10
612.26685697187884
 20
331.18126058471063
 30
0.0
 11
612.30935120840513
 21
332.41359415221029
 31
0.0
  0
LINE
  5
F3DA
  8
AM_0
 10
614.33639607951034
 20
331.34478998722489
 30
0.0
 11
614.30935120840479
 21
332.41359815221023
 31
0.0
  0
ARC
  5
F42E
  8
AM_0
 10
664.81991120840473
 20
313.9641361522103
 30
0.0
 40
4.9894699999999981
 50
359.87895100000162
 51
60.070185938252052
  0
LINE
  5
F431
  8
AM_0
 10
680.21166285830839
 20
283.53731774494338
 30
0.0
 11
682.58938120840503
 21
283.45359615221031
 31
0.0
  0
ARC
  5
F432
  8
AM_0
 10
682.5694812084048
 20
282.4535061522102
 30
0.0
 40
1.0000987999999991
 50
271.1393037999992
 51
90.006579999999261
  0
LINE
  5
F433
  8
AM_0
 10
680.73076700778051
 20
281.38950628361061
 30
0.0
 11
682.58938120840503
 21
281.45359615221008
 31
0.0
  0
LINE
  5
F434
  8
AM_0
 10
679.30935120840513
 20
291.38702719844082
 30
0.0
 11
681.24935120840485
 21
291.45359615221031
 31
0.0
  0
LINE
  5
F436
  8
AM_0
 10
672.30935120840502
 20
289.95359682276239
 30
0.0
 11
671.30936041732298
 21
289.95359682276239
 31
0.0
  0
ARC
  5
F438
  8
AM_0
 10
681.21417120840465
 20
292.45328615221013
 30
0.0
 40
1.000315299999998
 50
272.01573779999671
 51
90.275789999997585
  0
LINE
  5
F439
  8
AM_0
 10
679.30935120840513
 20
293.50747156887701
 30
0.0
 11
681.24935120840485
 21
293.45359615221008
 31
0.0
  0
LINE
  5
F43C
  8
AM_0
 10
671.30936041732298
 20
304.95359726979729
 30
0.0
 11
667.30936029811357
 21
304.95359726979729
 31
0.0
  0
LINE
  5
F43D
  8
AM_0
 10
669.80935120840479
 20
313.95359615221031
 30
0.0
 11
669.80935120840479
 21
306.44467513076501
 31
0.0
  0
ARC
  5
F440
  8
AM_0
 10
672.80935120840479
 20
306.44467513076501
 30
0.0
 40
2.9999999999999978
 50
180.0
 51
209.80345756372549
1001
GENIUS_GENODEF_13
1002
{
1000
HIER
1070
     0
1002
}
1002
{
1000
MANEDIT
1070
     0
1002
}
1002
{
1000
NOSEL
1070
     0
1002
}
1002
{
1000
BEHIND
1070
     0
1002
}
1002
{
1000
OTHER
1070
     0
1002
}
1002
{
1000
REACTOR
1002
}
1001
GENIUS_GENOBJ-N-FIL_13
1002
{
1000
OWNER
1000
GEN
1002
}
  0
LINE
  5
F445
  8
AM_0
 10
667.30935266871859
 20
331.1045074729833
 30
0.0
 11
647.30935207267225
 21
331.45359805955877
 31
0.0
  0
ARC
  5
F446
  8
AM_0
 10
623.30877120840478
 20
332.36517415221022
 30
0.0
 40
1.000603799999999
 50
0.4821899999981916
 51
177.22628299999681
  0
LINE
  5
F447
  8
AM_0
 10
624.35163164907874
 20
331.18746278201701
 30
0.0
 11
624.30935120840479
 21
332.41359415221029
 31
0.0
  0
LINE
  5
F448
  8
AM_0
 10
622.26894885935269
 20
331.3496669739136
 30
0.0
 11
622.30935120840513
 21
332.41359415221029
 31
0.0
  0
ARC
  5
F449
  8
AM_0
 10
633.30892120840497
 20
331.69223115221018
 30
0.0
 40
1.000428199999998
 50
0.0782199999979826
 51
177.63024800000289
  0
LINE
  5
F44A
  8
AM_0
 10
632.29065849582366
 20
331.19144078304163
 30
0.0
 11
632.30935120840513
 21
331.73359815221022
 31
0.0
  0
LINE
  5
F44B
  8
AM_0
 10
634.32719134202932
 20
331.22698901818683
 30
0.0
 11
634.30935120840468
 21
331.73359815221022
 31
0.0
  0
LINE
  5
FE1F
  8
AM_0
 10
81.012469253047882
 20
217.9535911522099
 30
0.0
 11
81.012469253047882
 21
218.48362115220999
 31
0.0
  0
LINE
  5
FE20
  8
AM_0
 10
81.012469253047882
 20
220.05356115220991
 30
0.0
 11
81.012469253047882
 21
220.60361115220999
 31
0.0
  0
LINE
  5
FE21
  8
AM_0
 10
81.012469253047882
 20
224.62363115221009
 30
0.0
 11
81.012469253047882
 21
225.09360115221
 31
0.0
  0
LINE
  5
FE22
  8
AM_0
 10
80.792439253047689
 20
221.0735811522101
 30
0.0
 11
79.542439253047903
 21
221.73355115221
 31
0.0
  0
LINE
  5
FE23
  8
AM_0
 10
80.802449253047868
 20
218.96357115220999
 30
0.0
 11
79.562459253047834
 21
219.59357115220999
 31
0.0
  0
LINE
  5
FE24
  8
AM_0
 10
80.782429253047823
 20
225.60355115221
 30
0.0
 11
79.502459253048016
 21
226.35355115221009
 31
0.0
  0
LINE
  5
FE25
  8
AM_0
 10
81.252459253048016
 20
218.85361115220999
 30
0.0
 11
83.512469253048096
 21
218.85361115220999
 31
0.0
  0
LINE
  5
FE26
  8
AM_0
 10
81.262469253048096
 20
220.9535911522099
 30
0.0
 11
83.012469253047854
 21
220.9535911522099
 31
0.0
  0
LINE
  5
FE27
  8
AM_0
 10
81.282489253047927
 20
225.47361115221
 30
0.0
 11
83.012469253047854
 21
225.47361115221
 31
0.0
  0
LINE
  5
FE28
  8
AM_0
 10
81.312459253047848
 20
224.33359115221
 30
0.0
 11
84.012469253048096
 21
224.33359115221
 31
0.0
  0
LINE
  5
FE29
  8
AM_0
 10
81.292499253048106
 20
219.8135711522099
 30
0.0
 11
84.012469253048096
 21
219.8135711522099
 31
0.0
  0
LINE
  5
FE2A
  8
AM_0
 10
80.762469253047854
 20
224.49356115220991
 30
0.0
 11
79.462479253047874
 21
225.3435711522099
 31
0.0
  0
LINE
  5
FE2B
  8
AM_0
 10
80.772479253047834
 20
219.95356115221
 30
0.0
 11
79.492449253048051
 21
220.7235711522101
 31
0.0
  0
LINE
  5
FE2C
  8
AM_0
 10
80.782489253047885
 20
217.84357115220999
 30
0.0
 11
79.51252925304783
 21
218.57355115221
 31
0.0
  0
LINE
  5
FE2D
  8
AM_0
 10
81.282489253047927
 20
217.7035911522099
 30
0.0
 11
83.512469253048096
 21
217.7035911522099
 31
0.0
  0
LINE
  5
FE2E
  8
AM_0
 10
79.012469253048096
 20
219.43357115220999
 30
0.0
 11
79.012469253048096
 21
262.45359115220998
 31
0.0
  0
LINE
  5
FE2F
  8
AM_0
 10
79.502459253048016
 20
226.3535811522099
 30
0.0
 11
79.482439253047971
 21
226.36356115221
 31
0.0
  0
LINE
  5
FE30
  8
AM_0
 10
77.512469253047882
 20
250.17356115220991
 30
0.0
 11
79.012469253048096
 21
250.17356115220991
 31
0.0
  0
LINE
  5
FE31
  8
AM_0
 10
77.512469253047882
 20
252.30356115220999
 30
0.0
 11
79.012469253048096
 21
252.30356115220999
 31
0.0
  0
LINE
  5
FE32
  8
AM_0
 10
77.512469253047882
 20
247.45362115220991
 30
0.0
 11
79.012469253048096
 21
247.32361115221011
 31
0.0
  0
LINE
  5
FE33
  8
AM_0
 10
77.512469253047882
 20
247.45359115221001
 30
0.0
 11
77.512469253047882
 21
267.45359115221009
 31
0.0
  0
LINE
  5
FE34
  8
AM_0
 10
81.012469253047882
 20
232.0635711522099
 30
0.0
 11
81.012469253047882
 21
233.12363115221001
 31
0.0
  0
LINE
  5
FE35
  8
AM_0
 10
81.012469253047882
 20
241.8235811522101
 30
0.0
 11
81.012469253047882
 21
243.1935811522101
 31
0.0
  0
LINE
  5
FE36
  8
AM_0
 10
81.012469253047882
 20
261.84360115221011
 30
0.0
 11
81.012469253047882
 21
263.00363115221012
 31
0.0
  0
LINE
  5
FE37
  8
AM_0
 10
81.012469253047882
 20
251.84360115221011
 30
0.0
 11
81.012469253047882
 21
253.06357115220999
 31
0.0
  0
LINE
  5
FE38
  8
AM_0
 10
83.012469253047854
 20
263.45359115220998
 30
0.0
 11
80.012469253047982
 21
263.45359115220998
 31
0.0
  0
LINE
  5
FE39
  8
AM_0
 10
83.012469253047854
 20
261.45359115220998
 30
0.0
 11
80.012469253047982
 21
261.45359115220998
 31
0.0
  0
LINE
  5
FE3A
  8
AM_0
 10
83.012469253047854
 20
253.45359115221001
 30
0.0
 11
80.012469253047982
 21
253.45359115221001
 31
0.0
  0
LINE
  5
FE3B
  8
AM_0
 10
83.012469253047854
 20
251.45359115221001
 30
0.0
 11
80.012469253047982
 21
251.45359115221001
 31
0.0
  0
LINE
  5
FE3C
  8
AM_0
 10
83.012469253047854
 20
243.45359115221001
 30
0.0
 11
80.012469253047982
 21
243.45359115221001
 31
0.0
  0
LINE
  5
FE3D
  8
AM_0
 10
83.012469253047854
 20
241.45359115221001
 30
0.0
 11
80.012469253047982
 21
241.45359115221001
 31
0.0
  0
LINE
  5
FE3E
  8
AM_0
 10
80.872459253048021
 20
233.75360115221019
 30
0.0
 11
79.722489253047854
 21
234.11359115221009
 31
0.0
  0
LINE
  5
FE3F
  8
AM_0
 10
81.162499253047883
 20
233.7136011522098
 30
0.0
 11
83.012469253047854
 21
233.7136011522098
 31
0.0
  0
LINE
  5
FE40
  8
AM_0
 10
80.822409253047866
 20
231.8435711522099
 30
0.0
 11
79.622459253048021
 21
232.36356115220991
 31
0.0
  0
LINE
  5
FE41
  8
AM_0
 10
81.212479253047889
 20
231.76364115221
 30
0.0
 11
83.312459253047834
 21
231.76364115221
 31
0.0
  0
LINE
  5
FE42
  8
AM_0
 10
77.512469253047882
 20
284.73362115220988
 30
0.0
 11
79.012469253048096
 21
284.73362115220988
 31
0.0
  0
LINE
  5
FE43
  8
AM_0
 10
77.512469253047882
 20
282.60361115221002
 30
0.0
 11
79.012469253048096
 21
282.60361115221002
 31
0.0
  0
LINE
  5
FE44
  8
AM_0
 10
77.51252925304783
 20
287.45362115221002
 30
0.0
 11
79.012469253048096
 21
287.58362115221013
 31
0.0
  0
LINE
  5
FE45
  8
AM_0
 10
77.512469253047882
 20
287.45359115220998
 30
0.0
 11
77.512469253047882
 21
267.45359115221009
 31
0.0
  0
LINE
  5
FE46
  8
AM_0
 10
81.012469253047882
 20
316.95359115220998
 30
0.0
 11
81.012469253047882
 21
316.42356115220991
 31
0.0
  0
LINE
  5
FE47
  8
AM_0
 10
81.012469253047882
 20
314.85361115221008
 30
0.0
 11
81.012469253047882
 21
314.30356115221002
 31
0.0
  0
LINE
  5
FE48
  8
AM_0
 10
81.012469253047882
 20
310.28354115221009
 30
0.0
 11
81.012469253047882
 21
309.81357115220999
 31
0.0
  0
LINE
  5
FE49
  8
AM_0
 10
81.012469253047882
 20
302.84360115221
 30
0.0
 11
81.012469253047882
 21
301.78354115220998
 31
0.0
  0
LINE
  5
FE4A
  8
AM_0
 10
81.012469253047882
 20
293.08359115220992
 30
0.0
 11
81.012469253047882
 21
291.71360115221
 31
0.0
  0
LINE
  5
FE4B
  8
AM_0
 10
81.012469253047882
 20
273.06357115220999
 30
0.0
 11
81.012469253047882
 21
271.90354115220998
 31
0.0
  0
LINE
  5
FE4C
  8
AM_0
 10
81.012469253047882
 20
283.06357115220999
 30
0.0
 11
81.012469253047882
 21
281.85361115220991
 31
0.0
  0
LINE
  5
FE4D
  8
AM_0
 10
83.012469253047854
 20
271.45359115221009
 30
0.0
 11
80.012469253047982
 21
271.45359115221009
 31
0.0
  0
LINE
  5
FE4E
  8
AM_0
 10
83.012469253047854
 20
273.45359115221009
 30
0.0
 11
80.012469253047982
 21
273.45359115221009
 31
0.0
  0
LINE
  5
FE4F
  8
AM_0
 10
83.012469253047854
 20
281.45359115220998
 30
0.0
 11
80.012469253047982
 21
281.45359115220998
 31
0.0
  0
LINE
  5
FE50
  8
AM_0
 10
83.012469253047854
 20
283.45359115220998
 30
0.0
 11
80.012469253047982
 21
283.45359115220998
 31
0.0
  0
LINE
  5
FE51
  8
AM_0
 10
83.012469253047854
 20
291.45359115220998
 30
0.0
 11
80.012469253047982
 21
291.45359115220998
 31
0.0
  0
LINE
  5
FE52
  8
AM_0
 10
83.012469253047854
 20
293.45359115220998
 30
0.0
 11
80.012469253047982
 21
293.45359115220998
 31
0.0
  0
LINE
  5
FE53
  8
AM_0
 10
80.792439253047689
 20
313.84360115221011
 30
0.0
 11
79.542499253048106
 21
313.17362115220999
 31
0.0
  0
LINE
  5
FE54
  8
AM_0
 10
80.802509253047845
 20
315.95356115221
 30
0.0
 11
79.562459253047834
 21
315.32355115220997
 31
0.0
  0
LINE
  5
FE55
  8
AM_0
 10
80.872459253048021
 20
301.15357115220991
 30
0.0
 11
79.722429253048105
 21
300.80356115221002
 31
0.0
  0
LINE
  5
FE56
  8
AM_0
 10
80.782489253047885
 20
309.3035311522101
 30
0.0
 11
79.502459253048016
 21
308.55353115220998
 31
0.0
  0
LINE
  5
FE57
  8
AM_0
 10
81.252459253048016
 20
316.05356115221002
 30
0.0
 11
83.512469253048096
 21
316.05356115221002
 31
0.0
  0
LINE
  5
FE58
  8
AM_0
 10
81.262469253048096
 20
313.95359115220998
 30
0.0
 11
83.012469253047854
 21
313.95359115220998
 31
0.0
  0
LINE
  5
FE59
  8
AM_0
 10
81.282489253047927
 20
309.44358115221007
 30
0.0
 11
83.012469253047854
 21
309.44358115221007
 31
0.0
  0
LINE
  5
FE5A
  8
AM_0
 10
81.162499253047883
 20
301.19358115221007
 30
0.0
 11
83.012469253047854
 21
301.19358115221007
 31
0.0
  0
LINE
  5
FE5B
  8
AM_0
 10
81.312459253047848
 20
310.58359115220992
 30
0.0
 11
84.012469253048096
 21
310.58359115220992
 31
0.0
  0
LINE
  5
FE5C
  8
AM_0
 10
81.292499253048106
 20
315.09360115221011
 30
0.0
 11
84.012469253048096
 21
315.09360115221011
 31
0.0
  0
LINE
  5
FE5D
  8
AM_0
 10
80.82252925304789
 20
303.06360115221003
 30
0.0
 11
79.622519253047869
 21
302.55359115221
 31
0.0
  0
LINE
  5
FE5E
  8
AM_0
 10
80.762469253047854
 20
310.41355115220978
 30
0.0
 11
79.462479253047874
 21
309.56357115220999
 31
0.0
  0
LINE
  5
FE5F
  8
AM_0
 10
80.772419253047886
 20
314.95356115221
 30
0.0
 11
79.492449253048051
 21
314.18360115220997
 31
0.0
  0
LINE
  5
FE60
  8
AM_0
 10
80.782429253047823
 20
317.07358115220978
 30
0.0
 11
79.512409253048006
 21
316.33359115220992
 31
0.0
  0
LINE
  5
FE61
  8
AM_0
 10
81.212479253047889
 20
303.14353115221002
 30
0.0
 11
83.312459253047834
 21
303.14353115221002
 31
0.0
  0
LINE
  5
FE62
  8
AM_0
 10
81.282489253047927
 20
317.20359115221009
 30
0.0
 11
83.512469253048096
 21
317.20359115221009
 31
0.0
  0
LINE
  5
FE63
  8
AM_0
 10
79.012469253048096
 20
315.47361115221003
 30
0.0
 11
79.012469253048096
 21
272.45359115220998
 31
0.0
  0
LINE
  5
FE64
  8
AM_0
 10
231.01246925304781
 20
304.60361115221008
 30
0.0
 11
240.0124692530479
 21
304.60361115221008
 31
0.0
  0
LINE
  5
FE65
  8
AM_0
 10
232.0124692530479
 20
215.41355115221009
 30
0.0
 11
240.0124692530479
 21
215.41355115221009
 31
0.0
  0
LINE
  5
FE66
  8
AM_0
 10
231.01246925304781
 20
230.30356115220999
 30
0.0
 11
240.0124692530479
 21
230.30356115220999
 31
0.0
  0
LINE
  5
FE67
  8
AM_0
 10
232.0124692530479
 20
203.95359115221001
 30
0.0
 11
240.0124692530479
 21
203.95359115221009
 31
0.0
  0
LINE
  5
FE68
  8
AM_0
 10
232.0124692530479
 20
319.49362115220993
 30
0.0
 11
240.0124692530479
 21
319.49362115220993
 31
0.0
  0
LINE
  5
FE69
  8
AM_0
 10
232.0124692530479
 20
330.95359115220998
 30
0.0
 11
240.0124692530479
 21
330.95359115220998
 31
0.0
  0
LINE
  5
FE6A
  8
AM_0
 10
84.012469253048096
 20
210.0235311522101
 30
0.0
 11
86.832419253047675
 21
209.96353115221009
 31
0.0
  0
LINE
  5
FE6B
  8
AM_0
 10
125.0124692530481
 20
221.10361115220999
 30
0.0
 11
231.01246925304781
 21
221.10361115220999
 31
0.0
  0
LINE
  5
FE6C
  8
AM_0
 10
225.72242925304801
 20
206.9535911522099
 30
0.0
 11
231.01246925304781
 21
206.9535911522099
 31
0.0
  0
LINE
  5
FE6D
  8
AM_0
 10
97.682459253047966
 20
234.09360115220991
 30
0.0
 11
192.03242925304789
 21
234.09360115220991
 31
0.0
  0
LINE
  5
FE6E
  8
AM_0
 10
180.01246925304801
 20
231.4535911522099
 30
0.0
 11
98.548179253048076
 21
231.4535911522099
 31
0.0
  0
LINE
  5
FE6F
  8
AM_0
 10
180.01246925304801
 20
230.73362115220991
 30
0.0
 11
227.83247925304789
 21
230.73362115220991
 31
0.0
  0
LINE
  5
FE70
  8
AM_0
 10
97.682459253047966
 20
230.73362115220991
 30
0.0
 11
180.01246925304801
 21
230.73362115220991
 31
0.0
  0
LINE
  5
FE71
  8
AM_0
 10
97.710099253047886
 20
209.1935811522101
 30
0.0
 11
103.5124692530478
 21
209.1935811522101
 31
0.0
  0
LINE
  5
FE72
  8
AM_0
 10
107.0124692530479
 20
205.59360115221011
 30
0.0
 11
223.82246925304781
 21
205.59360115221011
 31
0.0
  0
LINE
  5
FE73
  8
AM_0
 10
97.772359253048023
 20
214.47361115220991
 30
0.0
 11
103.5124692530478
 21
214.47361115220991
 31
0.0
  0
LINE
  5
FE74
  8
AM_0
 10
94.012469253047868
 20
219.10361115220991
 30
0.0
 11
94.012469253047868
 21
233.15354115221001
 31
0.0
  0
LINE
  5
FE75
  8
AM_0
 10
84.012469253048096
 20
219.10361115220991
 30
0.0
 11
94.012469253047868
 21
219.10361115220991
 31
0.0
  0
LINE
  5
FE76
  8
AM_0
 10
225.75245925304779
 20
207.08350115221
 30
0.0
 11
229.21247925304789
 21
219.99362115221001
 31
0.0
  0
LINE
  5
FE77
  8
AM_0
 10
87.773759253047999
 20
207.2945911522099
 30
0.0
 11
87.292499253047964
 21
209.2035911522099
 31
0.0
  0
LINE
  5
FE78
  8
AM_0
 10
88.202479253048025
 20
207.32352115220991
 30
0.0
 11
87.282429253047809
 21
211.20362115220999
 31
0.0
  0
LINE
  5
FE79
  8
AM_0
 10
105.012469253048
 20
205.5645511522101
 30
0.0
 11
105.012469253048
 21
212.97361115221
 31
0.0
  0
LINE
  5
FE7A
  8
AM_0
 10
85.842489253047859
 20
210.33359115221
 30
0.0
 11
87.492449253048065
 21
210.33359115221
 31
0.0
  0
LINE
  5
FE7B
  8
AM_0
 10
125.0124692530481
 20
313.80356115221002
 30
0.0
 11
231.01246925304781
 21
313.80356115221002
 31
0.0
  0
LINE
  5
FE7C
  8
AM_0
 10
231.01246925304781
 20
204.9535911522099
 30
0.0
 11
231.01246925304781
 21
329.95359115221009
 31
0.0
  0
LINE
  5
FE7D
  8
AM_0
 10
84.012469253048096
 20
324.88358115221013
 30
0.0
 11
86.832479253048135
 21
324.95359115220998
 31
0.0
  0
LINE
  5
FE7E
  8
AM_0
 10
84.012469253048096
 20
210.0235311522101
 30
0.0
 11
84.012469253048096
 21
267.45359115221009
 31
0.0
  0
LINE
  5
FE7F
  8
AM_0
 10
224.35243925304789
 20
231.4535911522099
 30
0.0
 11
180.01246925304801
 21
231.4535911522099
 31
0.0
  0
LINE
  5
FE80
  8
AM_0
 10
94.012469253047868
 20
315.80356115220991
 30
0.0
 11
94.012469253047868
 21
301.76364115221003
 31
0.0
  0
LINE
  5
FE81
  8
AM_0
 10
84.012469253048096
 20
301.76364115221003
 30
0.0
 11
94.012469253047868
 21
301.76364115221003
 31
0.0
  0
LINE
  5
FE82
  8
AM_0
 10
84.012469253048096
 20
310.14353115221002
 30
0.0
 11
94.012469253047868
 21
310.14353115221002
 31
0.0
  0
LINE
  5
FE83
  8
AM_0
 10
84.012469253048096
 20
315.80356115220991
 30
0.0
 11
94.012469253047868
 21
315.80356115220991
 31
0.0
  0
LINE
  5
FE84
  8
AM_0
 10
159.4545492530479
 20
253.45359115221001
 30
0.0
 11
89.562459253047834
 21
253.45359115221001
 31
0.0
  0
LINE
  5
FE85
  8
AM_0
 10
107.0124692530479
 20
329.31357115220999
 30
0.0
 11
223.82246925304781
 21
329.31357115220999
 31
0.0
  0
LINE
  5
FE86
  8
AM_0
 10
97.966759253047869
 20
320.44358115221007
 30
0.0
 11
103.5124692530478
 21
320.44358115221007
 31
0.0
  0
LINE
  5
FE87
  8
AM_0
 10
95.221759253047864
 20
314.44690115220999
 30
0.0
 11
96.006739253048025
 21
318.79358115220998
 31
0.0
  0
LINE
  5
FE88
  8
AM_0
 10
97.902909253047881
 20
325.72361115221003
 30
0.0
 11
103.5124692530478
 21
325.72361115221003
 31
0.0
  0
LINE
  5
FE89
  8
AM_0
 10
90.142479253047838
 20
329.12363115221001
 30
0.0
 11
103.5124692530478
 21
329.12363115221001
 31
0.0
  0
LINE
  5
FE8A
  8
AM_0
 10
90.122459253048007
 20
330.75363115221012
 30
0.0
 11
103.62245925304801
 21
330.75363115221012
 31
0.0
  0
LINE
  5
FE8B
  8
AM_0
 10
107.0124692530479
 20
333.37363115220978
 30
0.0
 11
225.09608925304781
 21
333.37363115220978
 31
0.0
  0
LINE
  5
FE8C
  8
AM_0
 10
107.0124692530479
 20
332.70359115220998
 30
0.0
 11
225.24012925304791
 21
332.70359115220998
 31
0.0
  0
LINE
  5
FE8D
  8
AM_0
 10
107.0124692530479
 20
331.34360115221011
 30
0.0
 11
225.53242925304801
 21
331.34360115221011
 31
0.0
  0
LINE
  5
FE8E
  8
AM_0
 10
93.526749253047868
 20
318.49362115220993
 30
0.0
 11
95.946739253047852
 21
318.49362115220993
 31
0.0
  0
LINE
  5
FE8F
  8
AM_0
 10
95.956689253047827
 20
324.14362115221002
 30
0.0
 11
94.996659253048094
 21
319.67353115220999
 31
0.0
  0
LINE
  5
FE90
  8
AM_0
 10
85.822469253047714
 20
322.55356115221002
 30
0.0
 11
95.615259253047896
 21
322.55356115221002
 31
0.0
  0
LINE
  5
FE91
  8
AM_0
 10
224.35243925304789
 20
303.45359115220998
 30
0.0
 11
98.562459253048075
 21
303.45359115220998
 31
0.0
  0
LINE
  5
FE92
  8
AM_0
 10
224.35243925304789
 20
301.45359115220998
 30
0.0
 11
210.01246925304781
 21
301.45359115220998
 31
0.0
  0
LINE
  5
FE93
  8
AM_0
 10
224.35957925304811
 20
293.45359115220998
 30
0.0
 11
210.01246925304781
 21
293.45359115220998
 31
0.0
  0
LINE
  5
FE94
  8
AM_0
 10
88.202479253048025
 20
327.58362115221013
 30
0.0
 11
87.282429253047809
 21
323.71357115221008
 31
0.0
  0
LINE
  5
FE95
  8
AM_0
 10
224.3452992530479
 20
291.45359115220998
 30
0.0
 11
98.562459253048075
 21
291.45359115220998
 31
0.0
  0
LINE
  5
FE96
  8
AM_0
 10
85.842489253047859
 20
324.57358115221012
 30
0.0
 11
87.492449253048065
 21
324.57358115221012
 31
0.0
  0
LINE
  5
FE97
  8
AM_0
 10
88.182459253047838
 20
329.24353115220998
 30
0.0
 11
87.292499253047964
 21
325.71363115220993
 31
0.0
  0
LINE
  5
FE98
  8
AM_0
 10
159.45118925304811
 20
283.45359115220998
 30
0.0
 11
89.562459253047834
 21
283.45359115220998
 31
0.0
  0
LINE
  5
FE99
  8
AM_0
 10
105.012469253048
 20
329.34360115221011
 30
0.0
 11
105.012469253048
 21
321.94358115221007
 31
0.0
  0
LINE
  5
FE9A
  8
AM_0
 10
159.45118925304811
 20
281.45359115220998
 30
0.0
 11
89.562459253047834
 21
281.45359115220998
 31
0.0
  0
LINE
  5
FE9B
  8
AM_0
 10
159.4545492530479
 20
273.45359115221009
 30
0.0
 11
89.562459253047834
 21
273.45359115221009
 31
0.0
  0
LINE
  5
FE9C
  8
AM_0
 10
159.4545492530479
 20
271.45359115221009
 30
0.0
 11
89.562459253047834
 21
271.45359115221009
 31
0.0
  0
LINE
  5
FE9D
  8
AM_0
 10
225.75245925304779
 20
327.83362115221001
 30
0.0
 11
229.21247925304789
 21
314.91355115221
 31
0.0
  0
LINE
  5
FE9E
  8
AM_0
 10
227.47285925304789
 20
327.95359115220998
 30
0.0
 11
231.01246925304781
 21
327.95359115220998
 31
0.0
  0
LINE
  5
FE9F
  8
AM_0
 10
230.72242925304801
 20
318.49362115220993
 30
0.0
 11
228.30244925304791
 21
318.49362115220993
 31
0.0
  0
LINE
  5
FEA0
  8
AM_0
 10
226.56266925304789
 20
332.18875115220999
 30
0.0
 11
229.25248925304791
 21
319.67353115220999
 31
0.0
  0
LINE
  5
FEA1
  8
AM_0
 10
84.012469253048096
 20
324.88364115220998
 30
0.0
 11
84.012469253048096
 21
267.45359115221009
 31
0.0
  0
LINE
  5
FEA2
  8
AM_0
 10
84.012469253048096
 20
233.15354115221001
 30
0.0
 11
94.012469253047868
 21
233.15354115221001
 31
0.0
  0
LINE
  5
FEA3
  8
AM_0
 10
89.713099253047915
 20
205.78354115221001
 30
0.0
 11
103.75520925304821
 21
205.78354115221001
 31
0.0
  0
LINE
  5
FEA4
  8
AM_0
 10
84.012469253048096
 20
224.76364115221
 30
0.0
 11
94.012469253047868
 21
224.76364115221
 31
0.0
  0
LINE
  5
FEA5
  8
AM_0
 10
85.822469253047714
 20
212.35361115220999
 30
0.0
 11
95.615259253047896
 21
212.35361115220999
 31
0.0
  0
LINE
  5
FEA6
  8
AM_0
 10
107.0124692530479
 20
203.56357115220999
 30
0.0
 11
148.33882925304789
 21
203.56357115220999
 31
0.0
  0
LINE
  5
FEA7
  8
AM_0
 10
97.472489253047883
 20
240.97361115221
 30
0.0
 11
192.01246925304781
 21
240.97361115221
 31
0.0
  0
LINE
  5
FEA8
  8
AM_0
 10
192.01246925304781
 20
233.4535911522099
 30
0.0
 11
98.548179253048076
 21
233.4535911522099
 31
0.0
  0
LINE
  5
FEA9
  8
AM_0
 10
97.682459253047966
 20
304.18357115220999
 30
0.0
 11
227.83247925304789
 21
304.18357115220999
 31
0.0
  0
LINE
  5
FEAA
  8
AM_0
 10
97.682459253047966
 20
300.82358115221012
 30
0.0
 11
192.03242925304789
 21
300.82358115221012
 31
0.0
  0
LINE
  5
FEAB
  8
AM_0
 10
97.472489253047883
 20
293.94358115221002
 30
0.0
 11
192.01246925304781
 21
293.94358115221002
 31
0.0
  0
LINE
  5
FEAC
  8
AM_0
 10
97.472489253047883
 20
291.0235311522099
 30
0.0
 11
228.04670925304791
 21
291.0235311522099
 31
0.0
  0
LINE
  5
FEAD
  8
AM_0
 10
88.342489253048115
 20
283.80356115221002
 30
0.0
 11
160.68373925304789
 21
283.80356115221002
 31
0.0
  0
LINE
  5
FEAE
  8
AM_0
 10
88.342489253048115
 20
281.13364115220998
 30
0.0
 11
160.67115925304779
 21
281.13364115220998
 31
0.0
  0
LINE
  5
FEAF
  8
AM_0
 10
88.2824892530477
 20
273.73362115220988
 30
0.0
 11
160.7475792530478
 21
273.73362115220988
 31
0.0
  0
LINE
  5
FEB0
  8
AM_0
 10
88.2824892530477
 20
271.19358115221007
 30
0.0
 11
160.7475792530478
 21
271.19358115221007
 31
0.0
  0
LINE
  5
FEB1
  8
AM_0
 10
88.2824892530477
 20
263.72361115221003
 30
0.0
 11
160.7475792530478
 21
263.72361115221003
 31
0.0
  0
LINE
  5
FEB2
  8
AM_0
 10
159.4545492530479
 20
261.45359115220998
 30
0.0
 11
89.562459253047834
 21
261.45359115220998
 31
0.0
  0
LINE
  5
FEB3
  8
AM_0
 10
159.4545492530479
 20
263.45359115220998
 30
0.0
 11
89.562459253047834
 21
263.45359115220998
 31
0.0
  0
LINE
  5
FEB4
  8
AM_0
 10
88.342489253048115
 20
253.7735311522101
 30
0.0
 11
160.68373925304789
 21
253.7735311522101
 31
0.0
  0
LINE
  5
FEB5
  8
AM_0
 10
159.4545492530479
 20
251.45359115221001
 30
0.0
 11
89.562459253047834
 21
251.45359115221001
 31
0.0
  0
LINE
  5
FEB6
  8
AM_0
 10
88.342489253048115
 20
251.11362115220999
 30
0.0
 11
160.68373925304789
 21
251.11362115220999
 31
0.0
  0
LINE
  5
FEB7
  8
AM_0
 10
224.3452992530479
 20
243.45359115221001
 30
0.0
 11
98.548179253048076
 21
243.45359115221001
 31
0.0
  0
LINE
  5
FEB8
  8
AM_0
 10
97.472489253047883
 20
243.89353115220999
 30
0.0
 11
228.04670925304791
 21
243.89353115220999
 31
0.0
  0
LINE
  5
FEB9
  8
AM_0
 10
224.3452992530479
 20
241.45359115221001
 30
0.0
 11
210.01246925304781
 21
241.45359115221001
 31
0.0
  0
LINE
  5
FEBA
  8
AM_0
 10
224.35243925304789
 20
233.4535911522099
 30
0.0
 11
210.01246925304781
 21
233.4535911522099
 31
0.0
  0
LINE
  5
FEBB
  8
AM_0
 10
88.2824892530477
 20
261.18357115221011
 30
0.0
 11
160.7475792530478
 21
261.18357115221011
 31
0.0
  0
LINE
  5
FEBC
  8
AM_0
 10
95.221699253047916
 20
220.46021115221001
 30
0.0
 11
96.006739253048025
 21
216.11353115220999
 31
0.0
  0
LINE
  5
FEBD
  8
AM_0
 10
93.526749253047868
 20
216.41355115221009
 30
0.0
 11
95.946739253047852
 21
216.41355115221009
 31
0.0
  0
LINE
  5
FEBE
  8
AM_0
 10
95.956749253047903
 20
210.76358115221009
 30
0.0
 11
94.996729253047704
 21
215.23355115221011
 31
0.0
  0
LINE
  5
FEBF
  8
AM_0
 10
211.52607925304801
 20
197.45359115221001
 30
0.0
 11
223.02864925304789
 21
197.45359115221001
 31
0.0
  0
LINE
  5
FEC0
  8
AM_0
 10
230.01249925304811
 20
206.95356115220989
 30
0.0
 11
224.28669925304811
 21
198.13660115221001
 31
0.0
  0
LINE
  5
FEC1
  8
AM_0
 10
193.51246925304781
 20
239.9535911522099
 30
0.0
 11
193.51246925304781
 21
234.95359115221001
 31
0.0
  0
LINE
  5
FEC2
  8
AM_0
 10
208.51246925304781
 20
239.9535911522099
 30
0.0
 11
208.51246925304781
 21
234.95359115221001
 31
0.0
  0
LINE
  5
FEC3
  8
AM_0
 10
192.01246925304781
 20
241.45359115221001
 30
0.0
 11
98.548179253048076
 21
241.45359115221001
 31
0.0
  0
LINE
  5
FEC4
  8
AM_0
 10
193.03242925304801
 20
239.9535911522099
 30
0.0
 11
193.03242925304801
 21
235.09360115221011
 31
0.0
  0
LINE
  5
FEC5
  8
AM_0
 10
208.99244925304791
 20
239.9535911522099
 30
0.0
 11
208.99244925304791
 21
235.09360115221011
 31
0.0
  0
LINE
  5
FEC6
  8
AM_0
 10
210.01246925304781
 20
240.97361115221
 30
0.0
 11
228.04670925304791
 21
240.97361115221
 31
0.0
  0
LINE
  5
FEC7
  8
AM_0
 10
209.99244925304791
 20
234.09360115220991
 30
0.0
 11
227.83247925304789
 21
234.09360115220991
 31
0.0
  0
LINE
  5
FEC8
  8
AM_0
 10
208.99244925304791
 20
294.95359115221009
 30
0.0
 11
208.99244925304791
 21
299.81357115220999
 31
0.0
  0
LINE
  5
FEC9
  8
AM_0
 10
193.03242925304801
 20
294.95359115221009
 30
0.0
 11
193.03242925304801
 21
299.81357115220999
 31
0.0
  0
LINE
  5
FECA
  8
AM_0
 10
208.51246925304781
 20
294.95359115221009
 30
0.0
 11
208.51246925304781
 21
299.95359115220998
 31
0.0
  0
LINE
  5
FECB
  8
AM_0
 10
193.51246925304781
 20
294.95359115221009
 30
0.0
 11
193.51246925304781
 21
299.95359115220998
 31
0.0
  0
LINE
  5
FECC
  8
AM_0
 10
192.01246925304781
 20
301.45359115220998
 30
0.0
 11
98.562459253048075
 21
301.45359115220998
 31
0.0
  0
LINE
  5
FECD
  8
AM_0
 10
209.99244925304791
 20
300.82358115221012
 30
0.0
 11
227.83247925304789
 21
300.82358115221012
 31
0.0
  0
LINE
  5
FECE
  8
AM_0
 10
210.01246925304781
 20
293.94358115221002
 30
0.0
 11
228.05818925304791
 21
293.94358115221002
 31
0.0
  0
LINE
  5
FECF
  8
AM_0
 10
192.01246925304781
 20
293.45359115220998
 30
0.0
 11
98.562459253048075
 21
293.45359115220998
 31
0.0
  0
LINE
  5
FED0
  8
AM_0
 10
165.01246925304781
 20
287.95359115221009
 30
0.0
 11
165.01246925304781
 21
246.95359115221001
 31
0.0
  0
LINE
  5
FED1
  8
AM_0
 10
228.0124692530479
 20
287.95359115221009
 30
0.0
 11
228.0124692530479
 21
246.95359115221001
 31
0.0
  0
LINE
  5
FED2
  8
AM_0
 10
165.01246925304781
 20
287.95359115221009
 30
0.0
 11
228.0124692530479
 21
287.95359115221009
 31
0.0
  0
LINE
  5
FED3
  8
AM_0
 10
165.01246925304781
 20
246.95359115221001
 30
0.0
 11
228.0124692530479
 21
246.95359115221001
 31
0.0
  0
LINE
  5
FED4
  8
AM_0
 10
165.01246925304781
 20
280.45359115220998
 30
0.0
 11
228.0124692530479
 21
280.45359115220998
 31
0.0
  0
LINE
  5
FED5
  8
AM_0
 10
125.0124692530481
 20
313.80350115221
 30
0.0
 11
94.012469253047868
 21
311.77350115220997
 31
0.0
  0
LINE
  5
FED6
  8
AM_0
 10
125.0124692530481
 20
221.10355115221
 30
0.0
 11
94.012469253047868
 21
223.13355115221
 31
0.0
  0
ARC
  5
FED7
  8
AM_0
 10
83.512959253047867
 20
217.20407115220999
 30
0.0
 40
0.49952301
 50
359.9452300000014
 51
90.054773999999625
  0
ARC
  5
FED8
  8
AM_0
 10
83.509119253047899
 20
219.35703115221
 30
0.0
 40
0.5033929900000002
 50
270.38491000000062
 51
359.61509999999811
  0
ARC
  5
FED9
  8
AM_0
 10
83.008379253047849
 20
221.9577411522101
 30
0.0
 40
1.004119999999999
 50
270.23460999999998
 51
359.76539000000002
  0
ARC
  5
FEDA
  8
AM_0
 10
83.010029253048117
 20
226.47605115221009
 30
0.0
 40
1.002470999999999
 50
270.14107000000013
 51
359.85892999999987
  0
ARC
  5
FEDB
  8
AM_0
 10
80.011249253047879
 20
221.57712115221
 30
0.0
 40
0.9987969999999998
 50
179.62728000000101
 51
238.70795000000021
  0
ARC
  5
FEDC
  8
AM_0
 10
80.01020925304789
 20
222.61484115221
 30
0.0
 40
0.9977070099999998
 50
180.074020000004
 51
242.04481000000081
  0
ARC
  5
FEDD
  8
AM_0
 10
80.011559253048134
 20
226.17832115221009
 30
0.0
 40
0.9990889999999998
 50
179.6950899999965
 51
236.66209000000279
  0
ARC
  5
FEDE
  8
AM_0
 10
80.010949253048068
 20
227.21286115221
 30
0.0
 40
0.9984580299999999
 50
179.95957999999851
 51
239.38657000000219
  0
ARC
  5
FEDF
  8
AM_0
 10
81.275839253048105
 20
226.47458115221011
 30
0.0
 40
1.001044999999998
 50
240.47186999999951
 51
270.37970999999948
  0
ARC
  5
FEE0
  8
AM_0
 10
81.305259253047865
 20
225.33408115220999
 30
0.0
 40
1.000521999999999
 50
237.1461799999995
 51
270.41344000000038
  0
ARC
  5
FEE1
  8
AM_0
 10
81.267659253047853
 20
221.95420115221
 30
0.0
 40
1.0006820000000001
 50
241.65062000000049
 51
269.70392999999888
  0
ARC
  5
FEE2
  8
AM_0
 10
81.283829253048054
 20
220.8172311522101
 30
0.0
 40
1.003743999999998
 50
239.3711300000019
 51
270.49190000000061
  0
ARC
  5
FEE3
  8
AM_0
 10
81.258319253047986
 20
219.8528811522099
 30
0.0
 40
0.9993420200000001
 50
242.86200000000241
 51
269.6654599999984
  0
ARC
  5
FEE4
  8
AM_0
 10
81.293169253047694
 20
218.70468115220999
 30
0.0
 40
1.001123999999999
 50
239.3278200000014
 51
269.38767999999868
  0
ARC
  5
FEE5
  8
AM_0
 10
80.008139253048085
 20
220.48398115220999
 30
0.0
 40
0.9956849800000001
 50
180.02113
 51
243.4091400000006
  0
ARC
  5
FEE6
  8
AM_0
 10
80.010089253047866
 20
219.4382011522101
 30
0.0
 40
0.9976310099999999
 50
180.2678099999986
 51
240.0792399999994
  0
ARC
  5
FEE7
  8
AM_0
 10
80.010949253048068
 20
227.21286115221
 30
0.0
 40
0.9984580299999999
 50
179.95957999999851
 51
239.38657000000219
  0
ARC
  5
FEE8
  8
AM_0
 10
83.009239253047838
 20
226.48032115220991
 30
0.0
 40
1.0032760000000001
 50
334.19810000000479
 51
359.6181099999983
  0
ARC
  5
FEE9
  8
AM_0
 10
83.012659253047843
 20
250.45371115220999
 30
0.0
 40
0.9998210099999999
 50
359.98971999999799
 51
90.010282000001538
  0
ARC
  5
FEEA
  8
AM_0
 10
83.007529253047835
 20
254.45847115221
 30
0.0
 40
1.004939
 50
270.2809399999997
 51
359.71907000000078
  0
ARC
  5
FEEB
  8
AM_0
 10
83.012659253047843
 20
260.45371115221002
 30
0.0
 40
0.9998279799999998
 50
359.9901599999971
 51
90.009838000000173
  0
ARC
  5
FEEC
  8
AM_0
 10
83.007529253047835
 20
264.45847115221
 30
0.0
 40
1.004942999999999
 50
270.28113999999943
 51
359.71886999999822
  0
ARC
  5
FEED
  8
AM_0
 10
80.007529253047849
 20
262.45847115221
 30
0.0
 40
0.9950770099999999
 50
89.715859999999495
 51
180.28414000000049
  0
ARC
  5
FEEE
  8
AM_0
 10
80.012659253047829
 20
262.45383115221011
 30
0.0
 40
1.0002040000000001
 50
180.01165999999679
 51
269.98832000000073
  0
ARC
  5
FEEF
  8
AM_0
 10
80.007529253047849
 20
252.45847115221
 30
0.0
 40
0.9950810099999999
 50
89.716072000000082
 51
180.2839200000044
  0
ARC
  5
FEF0
  8
AM_0
 10
80.012659253047829
 20
252.45383115221
 30
0.0
 40
1.000199999999998
 50
180.01145999999861
 51
269.98854000000142
  0
ARC
  5
FEF1
  8
AM_0
 10
80.007529253047849
 20
242.45847115220971
 30
0.0
 40
0.9950849999999999
 50
89.716282999999422
 51
180.28371999999919
  0
ARC
  5
FEF2
  8
AM_0
 10
80.012659253047829
 20
242.45383115220989
 30
0.0
 40
1.000195999999997
 50
180.01124999999939
 51
269.98875000000061
  0
ARC
  5
FEF3
  8
AM_0
 10
80.008989253048014
 20
233.28208115220991
 30
0.0
 40
0.9965090199999998
 50
179.9137499999965
 51
247.17844999999909
  0
ARC
  5
FEF4
  8
AM_0
 10
80.008869253047862
 20
235.06797115220999
 30
0.0
 40
0.99638802
 50
180.24990999999889
 51
253.29664000000031
  0
ARC
  5
FEF5
  8
AM_0
 10
81.153039253048135
 20
234.71628115221009
 30
0.0
 40
1.002699
 50
253.75271999999791
 51
270.54064000000108
  0
ARC
  5
FEF6
  8
AM_0
 10
81.215479253047704
 20
232.76877115221009
 30
0.0
 40
1.005233
 50
246.98639000000031
 51
269.82924999999938
  0
ARC
  5
FEF7
  8
AM_0
 10
83.313009253047795
 20
231.0641811522099
 30
0.0
 40
0.6994530000000001
 50
359.95517000000092
 51
90.044829000000746
  0
ARC
  5
FEF8
  8
AM_0
 10
83.012659253047843
 20
240.45371115220991
 30
0.0
 40
0.9998239899999999
 50
359.98991999999532
 51
90.010077000000464
  0
ARC
  5
FEF9
  8
AM_0
 10
83.007529253047835
 20
244.45847115220971
 30
0.0
 40
1.0049469
 50
270.28136999999919
 51
359.71863000000081
  0
ARC
  5
FEFA
  8
AM_0
 10
83.009119253047686
 20
234.71689115221011
 30
0.0
 40
1.003352
 50
270.19111000000021
 51
359.80890000000107
  0
ARC
  5
FEFB
  8
AM_0
 10
83.507889253047836
 20
317.70822115220989
 30
0.0
 40
0.50463498
 50
270.52383000000037
 51
359.47616999999963
  0
ARC
  5
FEFC
  8
AM_0
 10
83.514179253048098
 20
315.55527115221003
 30
0.0
 40
0.4983060100000002
 50
359.80488999999778
 51
90.195107000000036
  0
ARC
  5
FEFD
  8
AM_0
 10
83.013449253048236
 20
312.9545611522102
 30
0.0
 40
0.9990100299999999
 50
359.94319000000132
 51
90.056809000000058
  0
ARC
  5
FEFE
  8
AM_0
 10
83.307939253048119
 20
303.84812115221013
 30
0.0
 40
0.704566
 50
270.37010000000009
 51
359.62990999999778
  0
ARC
  5
FEFF
  8
AM_0
 10
83.0101492530477
 20
308.44126115221002
 30
0.0
 40
1.002353
 50
0.1343268199984526
 51
89.865672999999376
  0
ARC
  5
FF00
  8
AM_0
 10
83.014179253048084
 20
300.19528115220999
 30
0.0
 40
0.9982839799999999
 50
359.90142000000009
 51
90.098576000001358
  0
ARC
  5
FF01
  8
AM_0
 10
83.007529253047835
 20
294.45847115221
 30
0.0
 40
1.004942999999999
 50
270.28111000000013
 51
359.71888999999987
  0
ARC
  5
FF02
  8
AM_0
 10
83.012659253047843
 20
290.45371115220991
 30
0.0
 40
0.9998289899999999
 50
359.99019000000038
 51
90.009811000000937
  0
ARC
  5
FF03
  8
AM_0
 10
83.007529253047835
 20
284.45847115221
 30
0.0
 40
1.004939
 50
270.2809100000008
 51
359.71909999999991
  0
ARC
  5
FF04
  8
AM_0
 10
83.012659253047843
 20
280.45371115221002
 30
0.0
 40
0.9998210099999999
 50
359.98975000000149
 51
90.010254999999034
  0
ARC
  5
FF05
  8
AM_0
 10
83.007529253047835
 20
274.45847115221
 30
0.0
 40
1.0049469
 50
270.28135000000037
 51
359.71866000000068
  0
ARC
  5
FF06
  8
AM_0
 10
83.012659253047843
 20
270.45371115221002
 30
0.0
 40
0.9998249999999999
 50
359.98994999999871
 51
90.010050000001243
  0
ARC
  5
FF07
  8
AM_0
 10
80.012659253047829
 20
272.45383115221
 30
0.0
 40
1.000195999999997
 50
180.0112199999958
 51
269.98878000000087
  0
ARC
  5
FF08
  8
AM_0
 10
80.007529253047849
 20
272.45847115221
 30
0.0
 40
0.9950849999999999
 50
89.716311000000914
 51
180.28368999999969
  0
ARC
  5
FF09
  8
AM_0
 10
80.012659253047829
 20
282.45383115221011
 30
0.0
 40
1.000199999999998
 50
180.01143000000161
 51
269.98856999999839
  0
ARC
  5
FF0A
  8
AM_0
 10
80.007529253047849
 20
282.45847115221
 30
0.0
 40
0.99508202
 50
89.716099000001435
 51
180.2839099999978
  0
ARC
  5
FF0B
  8
AM_0
 10
80.012659253047829
 20
292.45383115221
 30
0.0
 40
1.000203
 50
180.01164999999551
 51
269.98835000000122
  0
ARC
  5
FF0C
  8
AM_0
 10
80.007529253047849
 20
292.45847115221
 30
0.0
 40
0.99507803
 50
89.715887000001331
 51
180.28410999999991
  0
ARC
  5
FF0D
  8
AM_0
 10
80.008869253047862
 20
301.63510115220998
 30
0.0
 40
0.9963999999999998
 50
112.8173600000008
 51
180.0904199999996
  0
ARC
  5
FF0E
  8
AM_0
 10
80.008749253048038
 20
299.84934115220989
 30
0.0
 40
0.9962710099999999
 50
106.6979199999999
 51
180.33004999999989
  0
ARC
  5
FF0F
  8
AM_0
 10
81.151629253047716
 20
300.20090115221001
 30
0.0
 40
0.9927430199999999
 50
89.374554999998765
 51
106.33207000000171
  0
ARC
  5
FF10
  8
AM_0
 10
81.213459253047915
 20
302.14817115221013
 30
0.0
 40
0.9954450099999999
 50
90.056904999999659
 51
113.1274500000013
  0
ARC
  5
FF11
  8
AM_0
 10
80.00691925304767
 20
313.33261115220989
 30
0.0
 40
0.9944329899999999
 50
121.1521299999998
 51
179.94050999999911
  0
ARC
  5
FF12
  8
AM_0
 10
80.005699253048022
 20
312.29502115220998
 30
0.0
 40
0.9932109699999999
 50
117.79932000000061
 51
180.08187000000001
  0
ARC
  5
FF13
  8
AM_0
 10
80.007279253048026
 20
308.73117115220998
 30
0.0
 40
0.9948369899999999
 50
123.20496000000099
 51
180.43785999999801
  0
ARC
  5
FF14
  8
AM_0
 10
80.006489253047846
 20
307.69675115221003
 30
0.0
 40
0.99404597
 50
120.4681999999988
 51
180.18564000000029
  0
ARC
  5
FF15
  8
AM_0
 10
81.291889253047827
 20
308.44712115221012
 30
0.0
 40
0.99648702
 50
90.540720999998641
 51
120.74377000000069
  0
ARC
  5
FF16
  8
AM_0
 10
81.319109253047856
 20
309.58737115220998
 30
0.0
 40
0.99617702
 50
90.381317999999226
 51
123.9704899999999
  0
ARC
  5
FF17
  8
AM_0
 10
81.247579253047803
 20
312.95822115221011
 30
0.0
 40
0.99545902
 50
89.141290999999939
 51
117.2038199999995
  0
ARC
  5
FF18
  8
AM_0
 10
81.281329253047886
 20
314.09934115221012
 30
0.0
 40
0.99427301
 50
89.356066000000013
 51
120.7809100000017
  0
ARC
  5
FF19
  8
AM_0
 10
81.237269253047828
 20
315.05954115220987
 30
0.0
 40
0.99411702
 50
89.122643999998516
 51
115.9349799999988
  0
ARC
  5
FF1A
  8
AM_0
 10
81.274499253048063
 20
316.20774115221002
 30
0.0
 40
0.9959030199999999
 50
89.541266999999124
 51
119.6071699999994
  0
ARC
  5
FF1B
  8
AM_0
 10
80.008079253047669
 20
314.43332115221011
 30
0.0
 40
0.995579
 50
116.5870900000007
 51
179.98263999999989
  0
ARC
  5
FF1C
  8
AM_0
 10
80.005699253048022
 20
315.47153115220999
 30
0.0
 40
0.99319202
 50
119.77338000000169
 51
179.87958999999799
  0
ARC
  5
FF1D
  8
AM_0
 10
97.153279253047842
 20
226.2432611522099
 30
0.0
 40
1.0032491999999991
 50
314.98118999999758
 51
5.167643400001003
  0
ARC
  5
FF1E
  8
AM_0
 10
232.0122892530479
 20
329.95383115221
 30
0.0
 40
0.99980682
 50
89.98893100000069
 51
180.0110699999974
  0
ARC
  5
FF1F
  8
AM_0
 10
223.81373925304791
 20
207.5998311522101
 30
0.0
 40
2.0062942999999991
 50
270.24932999999891
 51
345.08844000000403
  0
ARC
  5
FF20
  8
AM_0
 10
232.01155925304789
 20
318.49448115221003
 30
0.0
 40
0.9990923399999999
 50
89.947921999999295
 51
180.05208000000431
  0
ARC
  5
FF21
  8
AM_0
 10
106.0052692530478
 20
272.45359115220998
 30
0.0
 40
1.0000259
 50
89.587534000000247
 51
270.4124599999987
  0
ARC
  5
FF22
  8
AM_0
 10
97.971949253047853
 20
318.44834115220999
 30
0.0
 40
1.9952742999999991
 50
90.148580000000095
 51
170.03521999999899
  0
ARC
  5
FF23
  8
AM_0
 10
97.909809253047854
 20
323.72653115220999
 30
0.0
 40
1.997119399999999
 50
89.801366999998493
 51
167.94475999999821
  0
ARC
  5
FF24
  8
AM_0
 10
93.529319253047845
 20
319.99594115220998
 30
0.0
 40
1.502416299999999
 50
269.90137999999882
 51
347.60813000000081
  0
ARC
  5
FF25
  8
AM_0
 10
90.142719253047929
 20
327.13132115220992
 30
0.0
 40
1.9922863
 50
90.007721000000544
 51
166.8783899999971
  0
ARC
  5
FF26
  8
AM_0
 10
85.817709253048235
 20
324.05844115220998
 30
0.0
 40
1.5048382
 50
270.18264000000067
 51
346.75308000000138
  0
ARC
  5
FF27
  8
AM_0
 10
85.832049253048069
 20
326.0789511522101
 30
0.0
 40
1.505448699999999
 50
270.39686999999992
 51
345.95247000000018
  0
ARC
  5
FF28
  8
AM_0
 10
90.117329253047998
 20
328.75901115220978
 30
0.0
 40
1.994612099999999
 50
89.851991999999015
 51
165.93885999999711
  0
ARC
  5
FF29
  8
AM_0
 10
107.0057592530478
 20
327.32028115220999
 30
0.0
 40
1.9933081999999991
 50
89.807323000000935
 51
180.19266999999849
  0
ARC
  5
FF2A
  8
AM_0
 10
107.0066092530479
 20
329.34946115220998
 30
0.0
 40
1.994130499999996
 50
89.831105999999224
 51
180.16889000000049
  0
ARC
  5
FF2B
  8
AM_0
 10
107.008989253048
 20
330.70713115221002
 30
0.0
 40
1.996488899999999
 50
89.899147999998391
 51
180.1008499999989
  0
ARC
  5
FF2C
  8
AM_0
 10
107.0062492530481
 20
331.37705115221002
 30
0.0
 40
1.9964978999999961
 50
89.821482000000245
 51
165.6006099999997
  0
ARC
  5
FF2D
  8
AM_0
 10
103.50874925304799
 20
321.94736115221002
 30
0.0
 40
1.5037541000000001
 50
270.14287000000098
 51
359.85713999999871
  0
ARC
  5
FF2E
  8
AM_0
 10
103.5075892530479
 20
327.22849115220993
 30
0.0
 40
1.504891299999997
 50
270.1859300000005
 51
359.81406999999621
  0
ARC
  5
FF2F
  8
AM_0
 10
103.5055792530478
 20
330.63047115221002
 30
0.0
 40
1.506942899999999
 50
270.26336999999921
 51
359.73663000000079
  0
ARC
  5
FF30
  8
AM_0
 10
103.6173892530481
 20
332.2587611522099
 30
0.0
 40
1.505230099999999
 50
270.19421
 51
345.17177999999871
  0
ARC
  5
FF31
  8
AM_0
 10
230.66261925304781
 20
315.30588115221008
 30
0.0
 40
1.5022733999999991
 50
195.1365099999966
 51
269.99412000000041
  0
ARC
  5
FF32
  8
AM_0
 10
223.82191925304789
 20
327.3144311522102
 30
0.0
 40
1.9991226
 50
15.05079100000003
 51
89.984388999999666
  0
ARC
  5
FF33
  8
AM_0
 10
232.0054492530478
 20
204.94663115220999
 30
0.0
 40
0.99304521
 50
179.5973099999994
 51
270.40268000000009
  0
ARC
  5
FF34
  8
AM_0
 10
232.00477925304779
 20
216.4059811522101
 30
0.0
 40
0.99237448
 50
179.55801999999801
 51
270.4419699999998
  0
ARC
  5
FF35
  8
AM_0
 10
230.7181592530479
 20
319.99387115220998
 30
0.0
 40
1.500286
 50
192.32631000000171
 51
270.16416999999848
  0
ARC
  5
FF36
  8
AM_0
 10
93.168049253047855
 20
309.04782115221008
 30
0.0
 40
5.0059714
 50
279.71098000000109
 51
354.67888000000482
  0
ARC
  5
FF37
  8
AM_0
 10
93.633439253047698
 20
305.12107115221011
 30
0.0
 40
6.0044340999999992
 50
45.225578000001072
 51
86.380821999999185
  0
ARC
  5
FF38
  8
AM_0
 10
97.154439253047869
 20
308.67429115221
 30
0.0
 40
1.002184699999999
 50
354.8038600000034
 51
45.047306999998277
  0
ARC
  5
FF39
  8
AM_0
 10
93.632159253047845
 20
229.79892115220991
 30
0.0
 40
6.0073843
 50
273.6297400000006
 51
314.76385000000192
  0
ARC
  5
FF3A
  8
AM_0
 10
93.175309253047857
 20
225.86508115221
 30
0.0
 40
4.9991421999999961
 50
5.3780268999992682
 51
80.360064999998514
  0
ARC
  5
FF3B
  8
AM_0
 10
90.149309253048102
 20
207.78415115221
 30
0.0
 40
2.0005671999999981
 50
193.3095900000024
 51
269.80430999999942
  0
ARC
  5
FF3C
  8
AM_0
 10
85.825709253047705
 20
210.8559311522101
 30
0.0
 40
1.497715799999999
 50
13.424378999996071
 51
90.122645000001114
  0
ARC
  5
FF3D
  8
AM_0
 10
85.840169253047918
 20
208.83530115221001
 30
0.0
 40
1.4982997
 50
14.229739999998021
 51
89.910950000001193
  0
ARC
  5
FF3E
  8
AM_0
 10
107.0125292530478
 20
207.59360115221011
 30
0.0
 40
2.0000371999999991
 50
180.0010599999959
 51
269.99892999999969
  0
ARC
  5
FF3F
  8
AM_0
 10
107.01338925304771
 20
205.5645511522101
 30
0.0
 40
2.0009109999999981
 50
180.00001000000091
 51
269.97390999999982
  0
ARC
  5
FF40
  8
AM_0
 10
103.5105192530479
 20
212.97165115221
 30
0.0
 40
1.501982699999999
 50
0.0755872020005832
 51
89.924413000001564
  0
ARC
  5
FF41
  8
AM_0
 10
103.5093592530481
 20
207.69040115221
 30
0.0
 40
1.503128599999999
 50
0.1191296500022061
 51
89.880869999998822
  0
ARC
  5
FF42
  8
AM_0
 10
230.6560892530479
 20
219.6098411522099
 30
0.0
 40
1.4937901
 50
89.756423999998475
 51
165.1129200000008
  0
ARC
  5
FF43
  8
AM_0
 10
106.0052692530478
 20
282.45359115221009
 30
0.0
 40
1.0000259
 50
89.587534000000247
 51
270.4124599999987
  0
ARC
  5
FF44
  8
AM_0
 10
106.0052692530478
 20
292.45359115221009
 30
0.0
 40
1.0000259
 50
89.587534000000247
 51
270.4124599999987
  0
ARC
  5
FF45
  8
AM_0
 10
106.0052692530478
 20
302.45359115221009
 30
0.0
 40
1.0000259
 50
89.587534000000247
 51
270.4124599999987
  0
ARC
  5
FF46
  8
AM_0
 10
88.274249253047884
 20
272.46360115221
 30
0.0
 40
1.2700266
 50
89.629327999999489
 51
270.37065999999959
  0
ARC
  5
FF47
  8
AM_0
 10
88.336199253048036
 20
282.46860115221011
 30
0.0
 40
1.3350147999999991
 50
89.730435000000355
 51
270.2695700000001
  0
ARC
  5
FF48
  8
AM_0
 10
97.466759253047869
 20
292.48362115221011
 30
0.0
 40
1.460011199999999
 50
89.775248000001255
 51
270.22474000000028
  0
ARC
  5
FF49
  8
AM_0
 10
97.682459253047966
 20
302.50363115220989
 30
0.0
 40
1.6800002000000001
 50
90.000003000000945
 51
270.0
  0
ARC
  5
FF4A
  8
AM_0
 10
89.562459253047834
 20
272.45359115220998
 30
0.0
 40
1.000005699999998
 50
90.000003000000945
 51
270.0
  0
ARC
  5
FF4B
  8
AM_0
 10
89.562459253047834
 20
282.45359115221009
 30
0.0
 40
1.000005699999998
 50
90.000003000000945
 51
270.0
  0
ARC
  5
FF4C
  8
AM_0
 10
98.555319253047699
 20
302.45359115221009
 30
0.0
 40
1.000025599999997
 50
89.589474000000749
 51
270.41051999999962
  0
ARC
  5
FF4D
  8
AM_0
 10
98.555319253047699
 20
292.45359115221009
 30
0.0
 40
1.000025599999997
 50
89.589474000000749
 51
270.41051999999962
  0
ARC
  5
FF4E
  8
AM_0
 10
227.83247925304789
 20
302.50363115220989
 30
0.0
 40
1.6800077
 50
269.999989999999
 51
90.000003000000945
  0
ARC
  5
FF4F
  8
AM_0
 10
224.35243925304789
 20
302.45359115221009
 30
0.0
 40
1.0000040999999991
 50
269.999989999999
 51
90.000003000000945
  0
ARC
  5
FF50
  8
AM_0
 10
224.35243925304789
 20
232.4535911522099
 30
0.0
 40
1.0000040999999991
 50
269.999989999999
 51
90.000003000000945
  0
ARC
  5
FF51
  8
AM_0
 10
227.83247925304789
 20
232.41355115221009
 30
0.0
 40
1.6800077
 50
269.999989999999
 51
90.000003000000945
  0
ARC
  5
FF52
  8
AM_0
 10
89.562459253047834
 20
262.45359115220998
 30
0.0
 40
1.000005699999998
 50
90.000003000000945
 51
270.0
  0
ARC
  5
FF53
  8
AM_0
 10
106.0052692530478
 20
252.45359115221001
 30
0.0
 40
1.0000259
 50
89.587534000000247
 51
270.4124599999987
  0
ARC
  5
FF54
  8
AM_0
 10
106.0052692530478
 20
242.4535911522099
 30
0.0
 40
1.0000259
 50
89.587534000000247
 51
270.4124599999987
  0
ARC
  5
FF55
  8
AM_0
 10
88.336199253048036
 20
252.4435811522101
 30
0.0
 40
1.3300148000000001
 50
89.729417999999555
 51
270.27058999999991
  0
ARC
  5
FF56
  8
AM_0
 10
106.0052692530478
 20
262.45359115220998
 30
0.0
 40
1.0000259
 50
89.587534000000247
 51
270.4124599999987
  0
ARC
  5
FF57
  8
AM_0
 10
106.0052692530478
 20
232.4535911522099
 30
0.0
 40
1.0000259
 50
89.587534000000247
 51
270.4124599999987
  0
ARC
  5
FF58
  8
AM_0
 10
88.274249253047884
 20
262.45359115220998
 30
0.0
 40
1.2700266
 50
89.629320999999507
 51
270.3706899999986
  0
ARC
  5
FF59
  8
AM_0
 10
89.562459253047834
 20
252.45359115221001
 30
0.0
 40
1.000005699999998
 50
90.000003000000945
 51
270.0
  0
ARC
  5
FF5A
  8
AM_0
 10
93.745629253047866
 20
314.71360115221
 30
0.0
 40
1.5
 50
280.24789000000129
 51
349.76261999999929
  0
ARC
  5
FF5B
  8
AM_0
 10
93.745629253047866
 20
220.1935811522101
 30
0.0
 40
1.5
 50
10.237378999998549
 51
79.752109999998709
  0
ARC
  5
FF5C
  8
AM_0
 10
97.971949253047853
 20
216.45883115221011
 30
0.0
 40
1.9952742999999991
 50
189.9647800000009
 51
269.85141999999991
  0
ARC
  5
FF5D
  8
AM_0
 10
93.529319253047845
 20
214.91123115221009
 30
0.0
 40
1.502416299999999
 50
12.391887000000411
 51
90.098616999999123
  0
ARC
  5
FF5E
  8
AM_0
 10
97.909809253047854
 20
211.18064115221
 30
0.0
 40
1.997119399999999
 50
192.05524000000179
 51
270.1986299999989
  0
ARC
  5
FF5F
  8
AM_0
 10
97.682459253047966
 20
232.40354115221001
 30
0.0
 40
1.6800002000000001
 50
90.000003000000945
 51
270.0
  0
ARC
  5
FF60
  8
AM_0
 10
98.555319253047699
 20
232.4535911522099
 30
0.0
 40
1.000025599999997
 50
89.589474000000749
 51
270.41051999999962
  0
ARC
  5
FF61
  8
AM_0
 10
98.555319253047699
 20
242.4535911522099
 30
0.0
 40
1.000025599999997
 50
89.589474000000749
 51
270.41051999999962
  0
ARC
  5
FF62
  8
AM_0
 10
97.466759253047869
 20
242.42356115220991
 30
0.0
 40
1.460011199999999
 50
89.775248000001255
 51
270.22474000000028
  0
ARC
  5
FF63
  8
AM_0
 10
148.33882925304789
 20
202.06357115220999
 30
0.0
 40
1.5
 50
1.5000027000022329
 51
90.000003000000945
  0
ARC
  5
FF64
  8
AM_0
 10
223.02864925304789
 20
198.95359115220981
 30
0.0
 40
1.5
 50
269.999989999999
 51
326.99999999999892
  0
ARC
  5
FF65
  8
AM_0
 10
211.52607925304801
 20
195.9535911522099
 30
0.0
 40
1.5
 50
90.000003000000945
 51
178.4999999999973
  0
ARC
  5
FF66
  8
AM_0
 10
225.53242925304801
 20
329.84360115221011
 30
0.0
 40
1.5
 50
12.12979199999535
 51
90.000003000000945
  0
ARC
  5
FF67
  8
AM_0
 10
225.24012925304791
 20
331.20359115220998
 30
0.0
 40
1.5
 50
12.12979199999535
 51
90.000003000000945
  0
ARC
  5
FF68
  8
AM_0
 10
225.09608925304781
 20
331.87363115221001
 30
0.0
 40
1.5
 50
12.12979199999535
 51
90.000003000000945
  0
ARC
  5
FF69
  8
AM_0
 10
228.05244925304791
 20
242.42356115220991
 30
0.0
 40
1.460011199999999
 50
269.77524999999991
 51
90.224750000000114
  0
ARC
  5
FF6A
  8
AM_0
 10
224.35243925304789
 20
242.4535911522099
 30
0.0
 40
1.000025599999997
 50
269.58947000000001
 51
90.410531000001029
  0
ARC
  5
FF6B
  8
AM_0
 10
228.05244925304791
 20
292.48362115221011
 30
0.0
 40
1.460011199999999
 50
269.77524999999991
 51
90.224750000000114
  0
ARC
  5
FF6C
  8
AM_0
 10
224.35243925304789
 20
292.45359115221009
 30
0.0
 40
1.000025599999997
 50
269.58947000000001
 51
90.410531000001029
  0
ARC
  5
FF6D
  8
AM_0
 10
160.67744925304791
 20
282.46860115221011
 30
0.0
 40
1.3350147999999991
 50
269.7304299999999
 51
90.269556000001415
  0
ARC
  5
FF6E
  8
AM_0
 10
159.45118925304811
 20
282.45359115221009
 30
0.0
 40
1.000005699999998
 50
269.999989999999
 51
90.000003000000945
  0
ARC
  5
FF6F
  8
AM_0
 10
159.45118925304811
 20
272.45359115220998
 30
0.0
 40
1.000005699999998
 50
269.999989999999
 51
90.000003000000945
  0
ARC
  5
FF70
  8
AM_0
 10
160.73939925304791
 20
272.46360115221
 30
0.0
 40
1.2700266
 50
269.62932000000001
 51
90.370670000001425
  0
ARC
  5
FF71
  8
AM_0
 10
159.45118925304811
 20
262.45359115220998
 30
0.0
 40
1.000005699999998
 50
269.999989999999
 51
90.000003000000945
  0
ARC
  5
FF72
  8
AM_0
 10
160.73939925304791
 20
262.45359115220998
 30
0.0
 40
1.2700266
 50
269.62932000000001
 51
90.370670000001425
  0
ARC
  5
FF73
  8
AM_0
 10
159.45118925304811
 20
252.45359115221001
 30
0.0
 40
1.000005699999998
 50
269.999989999999
 51
90.000003000000945
  0
ARC
  5
FF74
  8
AM_0
 10
160.67744925304791
 20
252.4435811522101
 30
0.0
 40
1.3300148000000001
 50
269.7294199999987
 51
90.270567000000995
  0
ARC
  5
FF75
  8
AM_0
 10
210.01246925304781
 20
239.9535911522099
 30
0.0
 40
1.5
 50
90.000003000000945
 51
180.00001000000091
  0
ARC
  5
FF76
  8
AM_0
 10
210.01246925304781
 20
234.95359115221001
 30
0.0
 40
1.5
 50
179.999989999999
 51
270.0
  0
ARC
  5
FF77
  8
AM_0
 10
192.01246925304781
 20
239.9535911522099
 30
0.0
 40
1.5
 50
0.0
 51
90.000003000000945
  0
ARC
  5
FF78
  8
AM_0
 10
192.01246925304781
 20
234.95359115221001
 30
0.0
 40
1.5
 50
269.999989999999
 51
0.0000006832495047
  0
ARC
  5
FF79
  8
AM_0
 10
210.01246925304781
 20
239.9535911522099
 30
0.0
 40
1.02
 50
90.000003000000945
 51
180.00001000000091
  0
ARC
  5
FF7A
  8
AM_0
 10
192.01246925304781
 20
239.9535911522099
 30
0.0
 40
1.02
 50
0.0
 51
90.000003000000945
  0
ARC
  5
FF7B
  8
AM_0
 10
192.03242925304789
 20
235.09360115221011
 30
0.0
 40
1.0
 50
269.999989999999
 51
0.0000006832495047
  0
ARC
  5
FF7C
  8
AM_0
 10
209.99244925304791
 20
235.09360115221011
 30
0.0
 40
1.0
 50
179.999989999999
 51
270.0
  0
CIRCLE
  5
FF7D
  8
AM_0
 10
198.51246925304781
 20
238.95359115221001
 30
0.0
 40
1.1000000000000001
  0
CIRCLE
  5
FF7E
  8
AM_0
 10
198.51246925304781
 20
238.95359115221001
 30
0.0
 40
1.149999999999999
  0
CIRCLE
  5
FF7F
  8
AM_0
 10
203.51246925304781
 20
238.95359115221001
 30
0.0
 40
1.0
  0
ARC
  5
FF80
  8
AM_0
 10
210.01246925304781
 20
294.95359115221009
 30
0.0
 40
1.5
 50
179.999989999999
 51
270.0
  0
ARC
  5
FF81
  8
AM_0
 10
210.01246925304781
 20
299.95359115220998
 30
0.0
 40
1.5
 50
90.000003000000945
 51
180.00001000000091
  0
ARC
  5
FF82
  8
AM_0
 10
192.01246925304781
 20
294.95359115221009
 30
0.0
 40
1.5
 50
269.999989999999
 51
0.0000006832495047
  0
ARC
  5
FF83
  8
AM_0
 10
192.01246925304781
 20
299.95359115220998
 30
0.0
 40
1.5
 50
0.0
 51
90.000003000000945
  0
ARC
  5
FF84
  8
AM_0
 10
210.01246925304781
 20
294.95359115221009
 30
0.0
 40
1.02
 50
179.999989999999
 51
270.0
  0
ARC
  5
FF85
  8
AM_0
 10
192.01246925304781
 20
294.95359115221009
 30
0.0
 40
1.02
 50
269.999989999999
 51
0.0000006832429909
  0
ARC
  5
FF86
  8
AM_0
 10
192.03242925304789
 20
299.81357115220999
 30
0.0
 40
1.0
 50
0.0
 51
90.000003000000945
  0
ARC
  5
FF87
  8
AM_0
 10
209.99244925304791
 20
299.81357115220999
 30
0.0
 40
1.0
 50
90.000003000000945
 51
180.00001000000091
  0
CIRCLE
  5
FF88
  8
AM_0
 10
203.51246925304781
 20
295.95359115220998
 30
0.0
 40
1.0
  0
CIRCLE
  5
FF89
  8
AM_0
 10
198.51246925304781
 20
295.95359115220998
 30
0.0
 40
1.149999999999999
  0
CIRCLE
  5
FF8A
  8
AM_0
 10
198.51246925304781
 20
295.95359115220998
 30
0.0
 40
1.1000000000000001
  0
ARC
  5
FF8B
  8
AM_0
 10
89.713099253047915
 20
207.78354115221001
 30
0.0
 40
2.0
 50
194.15074999999919
 51
269.999989999999
  0
ARC
  5
FF8C
  8
AM_0
 10
103.75520925304821
 20
204.28354115221001
 30
0.0
 40
1.5
 50
21.46170899999715
 51
90.000003000000945
  0
LINE
  5
FF8D
  8
AM_0
 10
210.0386191020886
 20
193.45359115221009
 30
0.0
 11
210.3565450557829
 21
205.59360115221011
 31
0.0
  0
LINE
  5
FF8E
  8
AM_0
 10
149.98618710684801
 20
193.45359115221009
 30
0.0
 11
149.66834512541749
 21
205.59360115221011
 31
0.0
  0
LINE
  5
FF8F
  8
AM_0
 10
146.51242925304811
 20
191.45359115221009
 30
0.0
 11
213.5124292530482
 21
191.45359115221009
 31
0.0
  0
LINE
  5
FF90
  8
AM_0
 10
146.51242925304811
 20
190.45359115221009
 30
0.0
 11
146.51242925304811
 21
191.45359115221009
 31
0.0
  0
LINE
  5
FF91
  8
AM_0
 10
213.5124292530482
 20
190.45359115221009
 30
0.0
 11
213.5124292530482
 21
191.45359115221009
 31
0.0
  0
LINE
  5
FF92
  8
AM_0
 10
132.01242925304811
 20
152.4535911522099
 30
0.0
 11
133.27201438931041
 21
188.523390145615
 31
0.0
  0
LINE
  5
FF93
  8
AM_0
 10
135.2707960433487
 20
190.45359115221009
 30
0.0
 11
224.75406246274781
 21
190.45359115221009
 31
0.0
  0
ARC
  5
FF94
  8
AM_0
 10
135.2707960433487
 20
188.45359115221009
 30
0.0
 40
2.0
 50
90.0
 51
178.0000000000029
1001
GENIUS_GENODEF_13
1002
{
1000
HIER
1070
     0
1002
}
1002
{
1000
MANEDIT
1070
     0
1002
}
1002
{
1000
NOSEL
1070
     0
1002
}
1002
{
1000
BEHIND
1070
     0
1002
}
1002
{
1000
OTHER
1070
     0
1002
}
1002
{
1000
REACTOR
1002
}
1001
GENIUS_GENOBJ-N-FIL_13
1002
{
1000
OWNER
1000
GEN
1002
}
  0
LINE
  5
FF95
  8
AM_0
 10
226.75284411678601
 20
188.523390145615
 30
0.0
 11
228.0124292530484
 21
152.45359115221009
 31
0.0
  0
ARC
  5
FF96
  8
AM_0
 10
224.75406246274781
 20
188.45359115221009
 30
0.0
 40
2.0
 50
1.999999999997101
 51
90.0
1001
GENIUS_GENOBJ-N-FIL_13
1002
{
1000
OWNER
1000
GEN
1002
}
1001
GENIUS_GENODEF_13
1002
{
1000
HIER
1070
     0
1002
}
1002
{
1000
MANEDIT
1070
     0
1002
}
1002
{
1000
NOSEL
1070
     0
1002
}
1002
{
1000
BEHIND
1070
     0
1002
}
1002
{
1000
OTHER
1070
     0
1002
}
1002
{
1000
REACTOR
1002
}
  0
LINE
  5
FF97
  8
AM_0
 10
228.0124292530484
 20
152.45359115221009
 30
0.0
 11
132.0124292530478
 21
152.4535911522099
 31
0.0
  0
LINE
  5
FF98
  8
AM_0
 10
132.11719156152341
 20
155.45359115220981
 30
0.0
 11
131.01242925304811
 21
155.45359115220981
 31
0.0
  0
LINE
  5
FF99
  8
AM_0
 10
133.2346561852593
 20
187.45359115220981
 30
0.0
 11
131.01242925304811
 21
187.45359115220981
 31
0.0
  0
LINE
  5
FF9A
  8
ﾁｭｳｼﾝｾﾝ1
 10
137.01242925304871
 20
142.18888365221
 30
0.0
 11
137.01242925304891
 21
155.18888365221
 31
0.0
  0
LINE
  5
FF9B
  8
ﾁｭｳｼﾝｾﾝ
 10
180.01242925304811
 20
197.745621825439
 30
0.0
 11
180.01242925304811
 21
140.0030685114007
 31
0.0
  0
LINE
  5
FF9C
  8
AM_0
 10
128.51242925304811
 20
157.95359115220981
 30
0.0
 11
131.01242925304811
 21
157.95359115220961
 31
0.0
  0
LINE
  5
FF9D
  8
AM_0
 10
131.01242925304811
 20
184.95359115220961
 30
0.0
 11
128.51242925304811
 21
184.95359115220981
 31
0.0
  0
LINE
  5
FF9E
  8
AM_0
 10
117.6137581567022
 20
181.95359115220981
 30
0.0
 11
117.6137581567022
 21
160.95359115220981
 31
0.0
  0
LINE
  5
FF9F
  8
AM_0
 10
102.6137581567022
 20
163.4219660981947
 30
0.0
 11
102.6137581567022
 21
179.48521620622569
 31
0.0
  0
LINE
  5
FFA0
  8
AM_0
 10
115.6137581567022
 20
183.4535911522099
 30
0.0
 11
115.6137581567022
 21
159.45359115220981
 31
0.0
  0
LINE
  5
FFA1
  8
AM_0
 10
106.1137581567022
 20
171.45359115220981
 30
0.0
 11
106.6137581567022
 21
171.95359115220981
 31
0.0
  0
LINE
  5
FFA2
  8
AM_0
 10
113.1137581567022
 20
159.75359115220979
 30
0.0
 11
113.1137581567022
 21
183.15359115220971
 31
0.0
  0
LINE
  5
FFA3
  8
AM_0
 10
123.0124292530481
 20
159.95359115220981
 30
0.0
 11
123.0124292530481
 21
182.95359115220981
 31
0.0
  0
LINE
  5
FFA4
  8
AM_0
 10
117.1137581567022
 20
172.15359115221159
 30
0.0
 11
117.1137581567022
 21
170.75359115220871
 31
0.0
  0
LINE
  5
FFA5
  8
AM_0
 10
119.213393883273
 20
180.55359115220969
 30
0.0
 11
118.46339388327409
 21
162.3535911522097
 31
0.0
  0
LINE
  5
FFA6
  8
AM_0
 10
118.2624292530481
 20
180.55359115220969
 30
0.0
 11
117.6137581567022
 21
164.8125058808937
 31
0.0
  0
LINE
  5
FFA7
  8
AM_0
 10
119.0111218436201
 20
181.26924986457379
 30
0.0
 11
118.2638618002122
 21
161.6412193910428
 31
0.0
  0
LINE
  5
FFA8
  8
AM_0
 10
118.46196133610999
 20
181.26596291337779
 30
0.0
 11
117.71339388327409
 21
161.6035911522097
 31
0.0
  0
LINE
  5
FFA9
  8
AM_0
 10
115.6137581567022
 20
159.45359115220981
 30
0.0
 11
113.4137581567021
 21
159.45359115220981
 31
0.0
  0
ARC
  5
FFAA
  8
AM_0
 10
127.5124292530482
 20
158.95359115220981
 30
0.0
 40
0.5
 50
0.0
 51
90.000000000013031
  0
ARC
  5
FFAB
  8
AM_0
 10
128.5124292530482
 20
158.45359115220981
 30
0.0
 40
0.5
 50
180.0
 51
270.0
  0
LINE
  5
FFAC
  8
AM_0
 10
128.012429253048
 20
158.95359115220981
 30
0.0
 11
128.012429253048
 21
158.45359115220981
 31
0.0
  0
LINE
  5
FFAD
  8
AM_0
 10
119.0124292530481
 20
162.3535911522097
 30
0.0
 11
122.5124292530481
 21
162.3535911522097
 31
0.0
  0
LINE
  5
FFAE
  8
AM_0
 10
128.012429253048
 20
160.5975198308029
 30
0.0
 11
128.012429253048
 21
170.30966247361769
 31
0.0
  0
LINE
  5
FFAF
  8
AM_0
 10
123.5124292530481
 20
159.45359115220981
 30
0.0
 11
127.5124292530481
 21
159.45359115220981
 31
0.0
  0
LINE
  5
FFB0
  8
AM_0
 10
127.5124292530481
 20
160.0975198308029
 30
0.0
 11
123.0124292530481
 21
160.0975198308029
 31
0.0
  0
ARC
  5
FFB1
  8
AM_0
 10
127.5124292530482
 20
160.5975198308029
 30
0.0
 40
0.5
 50
270.0
 51
0.0
  0
ARC
  5
FFB2
  8
AM_0
 10
122.5124292530481
 20
161.8535911522099
 30
0.0
 40
0.5
 50
0.0
 51
90.0
  0
ARC
  5
FFB3
  8
AM_0
 10
123.5124292530481
 20
159.95359115220981
 30
0.0
 40
0.5
 50
180.0
 51
270.0
  0
LINE
  5
FFB4
  8
AM_0
 10
127.5124292530481
 20
170.80966247361769
 30
0.0
 11
123.0124292530481
 21
170.80966247361769
 31
0.0
  0
ARC
  5
FFB5
  8
AM_0
 10
127.5124292530481
 20
170.30966247361789
 30
0.0
 40
0.5
 50
0.0
 51
90.0
  0
LINE
  5
FFB6
  8
AM_0
 10
117.1137581567022
 20
165.30842039991771
 30
0.0
 11
117.1137581567022
 21
166.4806635863506
 31
0.0
  0
LINE
  5
FFB7
  8
AM_0
 10
118.5401263116991
 20
162.3535911522097
 30
0.0
 11
119.0124292530481
 21
162.3535911522097
 31
0.0
  0
LINE
  5
FFB8
  8
AM_0
 10
118.4435338171599
 20
162.27947338547301
 30
0.0
 11
118.46339388327409
 21
162.3535911522097
 31
0.0
  0
ARC
  5
FFB9
  8
AM_0
 10
118.5401263116991
 20
162.25359115220979
 30
0.0
 40
0.1000000000000346
 50
90.0
 51
164.99980499355539
  0
ARC
  5
FFBA
  8
AM_0
 10
116.81375815670209
 20
162.16675817170179
 30
0.0
 40
0.3000000000000043
 50
0.0
 51
90.0
  0
LINE
  5
FFBB
  8
AM_0
 10
115.6137581567022
 20
160.0535911522098
 30
0.0
 11
116.8337138598592
 21
160.1349215324208
 31
0.0
  0
LINE
  5
FFBC
  8
AM_0
 10
115.6137581567022
 20
161.2098431880498
 30
0.0
 11
116.81375815670199
 21
161.2098431880498
 31
0.0
  0
LINE
  5
FFBD
  8
AM_0
 10
117.1137581567022
 20
160.45359115220981
 30
0.0
 11
115.6137581567022
 21
160.45359115220981
 31
0.0
  0
ARC
  5
FFBE
  8
AM_0
 10
117.1137581567022
 20
160.95359115220981
 30
0.0
 40
0.5
 50
270.0
 51
0.0
  0
LINE
  5
FFBF
  8
AM_0
 10
117.1137581567022
 20
160.43425707977781
 30
0.0
 11
117.1137581567022
 21
160.45359115220981
 31
0.0
  0
LINE
  5
FFC0
  8
AM_0
 10
117.1137581567022
 20
160.15359115220991
 30
0.0
 11
117.1137581567022
 21
160.43425707977781
 31
0.0
  0
LINE
  5
FFC1
  8
AM_0
 10
116.8337138598592
 20
160.1349215324208
 30
0.0
 11
117.1137581567022
 21
160.15359115220991
 31
0.0
  0
ARC
  5
FFC2
  8
AM_0
 10
116.81375815670209
 20
160.43425707977781
 30
0.0
 40
0.3000000000000007
 50
273.81407483428148
 51
0.0
  0
LINE
  5
FFC3
  8
AM_0
 10
118.18569682462309
 20
161.6035911522097
 30
0.0
 11
118.26242925304901
 21
161.6035911522097
 31
0.0
  0
LINE
  5
FFC4
  8
AM_0
 10
118.26242925304901
 20
161.6035911522097
 30
0.0
 11
118.2822893191621
 21
161.67770891894611
 31
0.0
  0
LINE
  5
FFC5
  8
AM_0
 10
117.6935338171599
 20
161.67770891894611
 30
0.0
 11
117.71339388327409
 21
161.6035911522097
 31
0.0
  0
LINE
  5
FFC6
  8
AM_0
 10
117.71339388327409
 20
161.6035911522097
 30
0.0
 11
117.7901263116991
 21
161.6035911522097
 31
0.0
  0
LINE
  5
FFC7
  8
AM_0
 10
118.2822893191621
 20
161.67770891894611
 30
0.0
 11
118.4435338171599
 21
162.27947338547301
 31
0.0
  0
LINE
  5
FFC8
  8
AM_0
 10
117.7901263116991
 20
161.6035911522097
 30
0.0
 11
118.18569682462309
 21
161.6035911522097
 31
0.0
  0
LINE
  5
FFC9
  8
AM_0
 10
117.6137581567031
 20
161.97543168377069
 30
0.0
 11
117.6935338171599
 21
161.67770891894611
 31
0.0
  0
ARC
  5
FFCA
  8
AM_0
 10
118.18569682462309
 20
161.70359115220981
 30
0.0
 40
0.0999999999999866
 50
270.0
 51
344.99980499343371
  0
ARC
  5
FFCB
  8
AM_0
 10
117.7901263116991
 20
161.70359115220981
 30
0.0
 40
0.1000000000000014
 50
195.00019500656629
 51
270.0
  0
LINE
  5
FFCC
  8
AM_0
 10
117.1137581567022
 20
161.5098431880497
 30
0.0
 11
117.1137581567022
 21
162.16675817170179
 31
0.0
  0
ARC
  5
FFCD
  8
AM_0
 10
116.81375815670209
 20
161.5098431880499
 30
0.0
 40
0.3000000000000007
 50
270.0
 51
0.0
  0
LINE
  5
FFCE
  8
AM_0
 10
115.6137581567022
 20
165.0084203999177
 30
0.0
 11
116.81375815670199
 21
165.0084203999177
 31
0.0
  0
LINE
  5
FFCF
  8
AM_0
 10
116.81375815670199
 20
162.4667581717018
 30
0.0
 11
115.6137581567022
 21
162.4667581717018
 31
0.0
  0
LINE
  5
FFD0
  8
AM_0
 10
118.46339388327409
 20
162.3535911522097
 30
0.0
 11
118.5401263116991
 21
162.3535911522097
 31
0.0
  0
ARC
  5
FFD1
  8
AM_0
 10
116.81375815670209
 20
165.30842039991791
 30
0.0
 40
0.3000000000000007
 50
270.0
 51
0.0
  0
LINE
  5
FFD2
  8
AM_0
 10
116.81375815670199
 20
166.78066358635081
 30
0.0
 11
115.6137581567022
 21
166.78066358635081
 31
0.0
  0
ARC
  5
FFD3
  8
AM_0
 10
116.81375815670209
 20
166.48066358635089
 30
0.0
 40
0.3000000000000043
 50
0.0
 51
90.0
  0
LINE
  5
FFD4
  8
AM_0
 10
116.81375815670199
 20
170.4535911522087
 30
0.0
 11
115.6137581567022
 21
170.4535911522087
 31
0.0
  0
ARC
  5
FFD5
  8
AM_0
 10
116.81375815670209
 20
170.75359115220891
 30
0.0
 40
0.3000000000000007
 50
270.0
 51
0.0
  0
LINE
  5
FFD6
  8
AM_0
 10
106.6137581567022
 20
161.32031132356269
 30
0.0
 11
113.1137581567022
 21
161.32031132356269
 31
0.0
  0
LINE
  5
FFD7
  8
AM_0
 10
106.6137581567022
 20
160.82031132356269
 30
0.0
 11
113.1137581567022
 21
160.82031132356269
 31
0.0
  0
LINE
  5
FFD8
  8
AM_0
 10
113.1137581567022
 20
170.95359115220981
 30
0.0
 11
106.6137581567022
 21
170.95359115220981
 31
0.0
  0
LINE
  5
FFD9
  8
AM_0
 10
106.1137581567022
 20
170.45359115220981
 30
0.0
 11
113.1137581567022
 21
170.45359115220981
 31
0.0
  0
LINE
  5
FFDA
  8
AM_0
 10
112.81375815670199
 20
160.45359115220981
 30
0.0
 11
105.97580809188401
 21
160.45359115220981
 31
0.0
  0
LINE
  5
FFDB
  8
AM_0
 10
113.1137581567022
 20
170.10690308366861
 30
0.0
 11
106.6137581567022
 21
170.10690308366861
 31
0.0
  0
LINE
  5
FFDC
  8
AM_0
 10
113.1137581567022
 20
161.80027922075081
 30
0.0
 11
106.6137581567022
 21
161.80027922075081
 31
0.0
  0
ARC
  5
FFDD
  8
AM_0
 10
113.4137581567021
 20
159.75359115220979
 30
0.0
 40
0.2999999999999971
 50
180.0
 51
270.0
  0
ARC
  5
FFDE
  8
AM_0
 10
112.81375815670209
 20
160.15359115220991
 30
0.0
 40
0.2999999999999971
 50
0.0
 51
90.0
  0
ARC
  5
FFDF
  8
AM_0
 10
114.7387581567022
 20
165.95359115220981
 30
0.0
 40
9.124999999999984
 50
152.92493329271929
 51
207.07506670728071
  0
LINE
  5
FFE0
  8
AM_0
 10
105.3356236922197
 20
160.68536987261231
 30
0.0
 11
102.9735737570376
 21
162.65374481859729
 31
0.0
  0
LINE
  5
FFE1
  8
AM_0
 10
106.1137581567022
 20
161.03202373571779
 30
0.0
 11
106.6137581567022
 21
160.45359115220981
 31
0.0
  0
ARC
  5
FFE2
  8
AM_0
 10
105.97580809188401
 20
161.45359115220981
 30
0.0
 40
1.0
 50
230.19442890774391
 51
270.0
  0
LINE
  5
FFE3
  8
AM_0
 10
106.6137581567022
 20
160.82031132356269
 30
0.0
 11
106.1137581567022
 21
161.03202373571779
 31
0.0
  0
LINE
  5
FFE4
  8
AM_0
 10
106.1137581567022
 20
161.4942990086889
 30
0.0
 11
106.6137581567022
 21
160.82031132356269
 31
0.0
  0
LINE
  5
FFE5
  8
AM_0
 10
106.6137581567022
 20
161.32031132356269
 30
0.0
 11
106.1137581567022
 21
161.4942990086889
 31
0.0
  0
LINE
  5
FFE6
  8
AM_0
 10
106.1137581567022
 20
162.03202373571779
 30
0.0
 11
106.6137581567022
 21
161.32031132356269
 31
0.0
  0
LINE
  5
FFE7
  8
AM_0
 10
106.6137581567022
 20
161.80027922075081
 30
0.0
 11
106.1137581567022
 21
162.03202373571779
 31
0.0
  0
ARC
  5
FFE8
  8
AM_0
 10
103.6137581567022
 20
163.4219660981949
 30
0.0
 40
1.0000000000000291
 50
180.0
 51
230.19442890773479
  0
LINE
  5
FFE9
  8
AM_0
 10
106.6137581567022
 20
170.95359115220981
 30
0.0
 11
106.1137581567022
 21
171.45359115220981
 31
0.0
  0
LINE
  5
FFEA
  8
AM_0
 10
106.1137581567022
 20
170.45359115220981
 30
0.0
 11
106.6137581567022
 21
170.95359115220981
 31
0.0
  0
LINE
  5
FFEB
  8
AM_0
 10
106.6137581567022
 20
170.10690308366861
 30
0.0
 11
106.1137581567022
 21
170.45359115220981
 31
0.0
  0
LINE
  5
FFEC
  8
AM_0
 10
113.4137581567021
 20
183.4535911522099
 30
0.0
 11
115.6137581567022
 21
183.4535911522099
 31
0.0
  0
ARC
  5
FFED
  8
AM_0
 10
127.5124292530481
 20
183.95359115220981
 30
0.0
 40
0.5
 50
269.99999999998698
 51
0.0
  0
LINE
  5
FFEE
  8
AM_0
 10
122.5124292530481
 20
180.55359115220969
 30
0.0
 11
119.2901263116991
 21
180.55359115220969
 31
0.0
  0
LINE
  5
FFEF
  8
AM_0
 10
128.012429253048
 20
172.5975198308029
 30
0.0
 11
128.012429253048
 21
182.30966247361789
 31
0.0
  0
LINE
  5
FFF0
  8
AM_0
 10
123.0124292530481
 20
172.0975198308029
 30
0.0
 11
127.5124292530481
 21
172.0975198308029
 31
0.0
  0
ARC
  5
FFF1
  8
AM_0
 10
127.5124292530481
 20
172.5975198308029
 30
0.0
 40
0.5
 50
270.0
 51
0.0
  0
LINE
  5
FFF2
  8
AM_0
 10
123.0124292530481
 20
182.80966247361789
 30
0.0
 11
127.5124292530481
 21
182.80966247361789
 31
0.0
  0
LINE
  5
FFF3
  8
AM_0
 10
127.5124292530481
 20
183.4535911522099
 30
0.0
 11
123.5124292530481
 21
183.4535911522099
 31
0.0
  0
ARC
  5
FFF4
  8
AM_0
 10
127.5124292530481
 20
182.30966247361789
 30
0.0
 40
0.5
 50
0.0
 51
90.0
  0
ARC
  5
FFF5
  8
AM_0
 10
122.5124292530481
 20
181.0535911522098
 30
0.0
 40
0.5
 50
270.0
 51
0.0
  0
ARC
  5
FFF6
  8
AM_0
 10
123.5124292530481
 20
182.95359115220981
 30
0.0
 40
0.5
 50
90.0
 51
180.0
  0
ARC
  5
FFF7
  8
AM_0
 10
116.81375815670209
 20
177.5987619045018
 30
0.0
 40
0.3000000000000114
 50
0.0
 51
90.0
  0
LINE
  5
FFF8
  8
AM_0
 10
115.6137581567022
 20
172.45359115221169
 30
0.0
 11
116.81375815670199
 21
172.45359115221169
 31
0.0
  0
ARC
  5
FFF9
  8
AM_0
 10
116.81375815670209
 20
172.1535911522119
 30
0.0
 40
0.2999999999999971
 50
0.0
 51
90.0
  0
LINE
  5
FFFA
  8
AM_0
 10
115.6137581567022
 20
176.12651871806861
 30
0.0
 11
116.81375815670199
 21
176.12651871806861
 31
0.0
  0
ARC
  5
FFFB
  8
AM_0
 10
116.81375815670209
 20
176.42651871806879
 30
0.0
 40
0.3000000000000007
 50
270.0
 51
0.0
  0
LINE
  5
FFFC
  8
AM_0
 10
117.1137581567022
 20
176.42651871806879
 30
0.0
 11
117.1137581567022
 21
177.5987619045018
 31
0.0
  0
LINE
  5
FFFD
  8
AM_0
 10
118.5401263116991
 20
181.30359115220969
 30
0.0
 11
118.93569682462309
 21
181.30359115220969
 31
0.0
  0
LINE
  5
FFFE
  8
AM_0
 10
118.5401263116991
 20
181.30359115220969
 30
0.0
 11
118.93569682462309
 21
181.30359115220969
 31
0.0
  0
LINE
  5
FFFF
  8
AM_0
 10
119.0322893191621
 20
181.22947338547331
 30
0.0
 11
119.1935338171599
 21
180.62770891894621
 31
0.0
  0
LINE
  5
10000
  8
AM_0
 10
119.0322893191621
 20
181.22947338547331
 30
0.0
 11
119.1935338171599
 21
180.62770891894621
 31
0.0
  0
ARC
  5
10001
  8
AM_0
 10
119.2901263116991
 20
180.65359115220991
 30
0.0
 40
0.0999999999999943
 50
195.00019500651879
 51
270.0
  0
ARC
  5
10002
  8
AM_0
 10
118.93569682462309
 20
181.20359115220981
 30
0.0
 40
0.0999999999999943
 50
15.000195006505431
 51
90.0
  0
LINE
  5
10003
  8
AM_0
 10
117.612911568161
 20
180.92859115221
 30
0.0
 11
117.6935338171599
 21
180.62770891894621
 31
0.0
  0
LINE
  5
10004
  8
AM_0
 10
118.265139905254
 20
180.5928556853078
 30
0.0
 11
118.4435338171599
 21
181.22947338547331
 31
0.0
  0
LINE
  5
10005
  8
AM_0
 10
118.2822893191621
 20
180.62770891894621
 30
0.0
 11
118.4435338171599
 21
181.22947338547331
 31
0.0
  0
LINE
  5
10006
  8
AM_0
 10
117.1137581567022
 20
180.7404241327188
 30
0.0
 11
117.1137581567022
 21
181.39733911636969
 31
0.0
  0
LINE
  5
10007
  8
AM_0
 10
117.6137581567022
 20
180.92543168377171
 30
0.0
 11
117.6935338171599
 21
180.62770891894621
 31
0.0
  0
LINE
  5
10008
  8
AM_0
 10
115.6137581567022
 20
180.4404241327189
 30
0.0
 11
116.81375815670199
 21
180.4404241327189
 31
0.0
  0
LINE
  5
10009
  8
AM_0
 10
116.81375815670199
 20
177.8987619045017
 30
0.0
 11
115.6137581567022
 21
177.89876190450269
 31
0.0
  0
LINE
  5
1000A
  8
AM_0
 10
118.2183290901382
 20
180.55359115220969
 30
0.0
 11
118.265139905254
 21
180.5928556853078
 31
0.0
  0
LINE
  5
1000B
  8
AM_0
 10
117.7901263116991
 20
180.55359115220969
 30
0.0
 11
118.2183290901382
 21
180.55359115220969
 31
0.0
  0
LINE
  5
1000C
  8
AM_0
 10
117.7901263116991
 20
180.55359115220969
 30
0.0
 11
118.18569682462309
 21
180.55359115220969
 31
0.0
  0
ARC
  5
1000D
  8
AM_0
 10
117.7901263116991
 20
180.65359115220991
 30
0.0
 40
0.0999999999999943
 50
195.00019500651879
 51
270.0
  0
ARC
  5
1000E
  8
AM_0
 10
118.18569682462309
 20
180.65359115220991
 30
0.0
 40
0.0999999999999608
 50
270.0
 51
344.99980499348112
  0
ARC
  5
1000F
  8
AM_0
 10
116.81375815670209
 20
180.7404241327188
 30
0.0
 40
0.3000000000000007
 50
270.0
 51
0.0
  0
LINE
  5
10010
  8
AM_0
 10
115.6137581567022
 20
182.45359115220981
 30
0.0
 11
117.1137581567022
 21
182.45359115220981
 31
0.0
  0
LINE
  5
10011
  8
AM_0
 10
116.81375815670199
 20
181.6973391163697
 30
0.0
 11
115.6137581567022
 21
181.6973391163697
 31
0.0
  0
LINE
  5
10012
  8
AM_0
 10
116.8337138598592
 20
182.77226077199981
 30
0.0
 11
115.6137581567022
 21
182.8535911522097
 31
0.0
  0
ARC
  5
10013
  8
AM_0
 10
117.1137581567022
 20
181.95359115220981
 30
0.0
 40
0.5
 50
0.0
 51
90.0
  0
ARC
  5
10014
  8
AM_0
 10
118.5401263116991
 20
181.20359115220981
 30
0.0
 40
0.0999999999999606
 50
90.0
 51
164.99980499349451
  0
ARC
  5
10015
  8
AM_0
 10
116.81375815670209
 20
181.39733911636969
 30
0.0
 40
0.2999999999999971
 50
0.0
 51
90.0
  0
LINE
  5
10016
  8
AM_0
 10
117.1137581567022
 20
182.45359115220981
 30
0.0
 11
117.1137581567022
 21
182.47292522464261
 31
0.0
  0
ARC
  5
10017
  8
AM_0
 10
116.81375815670209
 20
182.47292522464261
 30
0.0
 40
0.3000000000000043
 50
0.0
 51
86.18592516571853
  0
ARC
  5
10018
  8
AM_0
 10
128.51242925304811
 20
184.45359115220981
 30
0.0
 40
0.5
 50
90.0
 51
180.0
  0
LINE
  5
10019
  8
AM_0
 10
128.012429253048
 20
184.45359115220981
 30
0.0
 11
128.012429253048
 21
183.95359115220981
 31
0.0
  0
LINE
  5
1001A
  8
AM_0
 10
106.6137581567022
 20
181.10690308366861
 30
0.0
 11
113.1137581567022
 21
181.10690308366861
 31
0.0
  0
LINE
  5
1001B
  8
AM_0
 10
106.6137581567022
 20
172.80027922075081
 30
0.0
 11
113.1137581567022
 21
172.80027922075081
 31
0.0
  0
LINE
  5
1001C
  8
AM_0
 10
105.97580809188401
 20
182.45359115220981
 30
0.0
 11
112.81375815670199
 21
182.45359115220981
 31
0.0
  0
LINE
  5
1001D
  8
AM_0
 10
113.1137581567022
 20
172.45359115220981
 30
0.0
 11
106.1137581567022
 21
172.45359115220981
 31
0.0
  0
LINE
  5
1001E
  8
AM_0
 10
106.6137581567022
 20
171.95359115220981
 30
0.0
 11
113.1137581567022
 21
171.95359115220981
 31
0.0
  0
LINE
  5
1001F
  8
AM_0
 10
113.1137581567022
 20
182.0868709808577
 30
0.0
 11
106.6137581567022
 21
182.0868709808577
 31
0.0
  0
LINE
  5
10020
  8
AM_0
 10
113.1137581567022
 20
181.58687098085761
 30
0.0
 11
106.6137581567022
 21
181.58687098085761
 31
0.0
  0
ARC
  5
10021
  8
AM_0
 10
112.81375815670209
 20
182.75359115220979
 30
0.0
 40
0.3000000000000043
 50
270.0
 51
0.0
  0
ARC
  5
10022
  8
AM_0
 10
113.4137581567021
 20
183.15359115220991
 30
0.0
 40
0.2999999999999971
 50
90.0
 51
180.0
  0
ARC
  5
10023
  8
AM_0
 10
114.7387581567022
 20
176.95359115220981
 30
0.0
 40
9.124999999999984
 50
152.92493329271929
 51
207.07506670728071
  0
LINE
  5
10024
  8
AM_0
 10
106.1137581567022
 20
172.45359115220981
 30
0.0
 11
106.6137581567022
 21
172.80027922075081
 31
0.0
  0
LINE
  5
10025
  8
AM_0
 10
106.6137581567022
 20
171.95359115220981
 30
0.0
 11
106.1137581567022
 21
172.45359115220981
 31
0.0
  0
LINE
  5
10026
  8
AM_0
 10
102.9735737570376
 20
180.2534374858231
 30
0.0
 11
105.3356236922197
 21
182.22181243180711
 31
0.0
  0
LINE
  5
10027
  8
AM_0
 10
106.6137581567022
 20
182.45359115220981
 30
0.0
 11
106.1137581567022
 21
181.8751585687028
 31
0.0
  0
ARC
  5
10028
  8
AM_0
 10
105.97580809188401
 20
181.45359115220981
 30
0.0
 40
1.00000000000004
 50
90.0
 51
129.805571092256
  0
LINE
  5
10029
  8
AM_0
 10
106.1137581567022
 20
180.8751585687028
 30
0.0
 11
106.6137581567022
 21
181.10690308366861
 31
0.0
  0
LINE
  5
1002A
  8
AM_0
 10
106.6137581567022
 20
181.58687098085761
 30
0.0
 11
106.1137581567022
 21
180.8751585687028
 31
0.0
  0
LINE
  5
1002B
  8
AM_0
 10
106.1137581567022
 20
181.41288329573081
 30
0.0
 11
106.6137581567022
 21
181.58687098085761
 31
0.0
  0
LINE
  5
1002C
  8
AM_0
 10
106.6137581567022
 20
182.0868709808577
 30
0.0
 11
106.1137581567022
 21
181.41288329573081
 31
0.0
  0
LINE
  5
1002D
  8
AM_0
 10
106.1137581567022
 20
181.8751585687028
 30
0.0
 11
106.6137581567022
 21
182.0868709808577
 31
0.0
  0
ARC
  5
1002E
  8
AM_0
 10
103.6137581567022
 20
179.48521620622569
 30
0.0
 40
1.0
 50
129.80557109226521
 51
180.0
  0
LINE
  5
1002F
  8
AM_0
 10
228.0124292530482
 20
148.45359115221009
 30
0.0
 11
207.19792435351579
 21
148.45359115221009
 31
0.0
  0
LINE
  5
10030
  8
AM_0
 10
152.82693415258049
 20
148.45359115221009
 30
0.0
 11
132.01242925304871
 21
148.45359115221009
 31
0.0
  0
LINE
  5
10031
  8
AM_0
 10
221.87664758388721
 20
144.45359115221009
 30
0.0
 11
138.14821092220899
 21
144.45359115221009
 31
0.0
  0
LINE
  5
10032
  8
AM_0
 10
140.9197842253551
 20
146.3946536400822
 30
0.0
 11
141.01242925304871
 21
147.45359115221009
 31
0.0
  0
LINE
  5
10033
  8
AM_0
 10
133.10507428074209
 20
146.3946536400822
 30
0.0
 11
133.01242925304871
 21
147.45359115221009
 31
0.0
  0
ARC
  5
10034
  8
AM_0
 10
137.01242925304871
 20
150.85359115220999
 30
0.0
 40
6.5
 50
241.82726586813479
 51
298.17273413186518
  0
ARC
  5
10035
  8
AM_0
 10
134.69898579768909
 20
146.5341028284785
 30
0.0
 40
1.6000000000000001
 50
184.99999999999969
 51
241.82726586813479
  0
LINE
  5
10036
  8
AM_0
 10
139.31242925304869
 20
144.77411749078169
 30
0.0
 11
137.01242925304871
 21
147.0636771695772
 31
0.0
  0
LINE
  5
10037
  8
AM_0
 10
137.32392925304879
 20
146.75359115220999
 30
0.0
 11
136.70092925304871
 21
146.75359115220999
 31
0.0
  0
LINE
  5
10038
  8
AM_0
 10
134.71242925304881
 20
144.77411749078169
 30
0.0
 11
137.01242925304871
 21
147.0636771695772
 31
0.0
  0
LINE
  5
10039
  8
AM_0
 10
137.32392925304879
 20
144.36105946187541
 30
0.0
 11
137.32392925304879
 21
146.75359115220999
 31
0.0
  0
LINE
  5
1003A
  8
AM_0
 10
136.70092925304871
 20
144.36105946187541
 30
0.0
 11
136.70092925304871
 21
146.75359115220999
 31
0.0
  0
ARC
  5
1003B
  8
AM_0
 10
139.32587270840841
 20
146.5341028284785
 30
0.0
 40
1.6000000000000001
 50
298.17273413186518
 51
355.00000000000028
  0
LINE
  5
1003C
  8
AM_0
 10
228.0124292530484
 20
148.45359115221009
 30
0.0
 11
228.0124292530484
 21
152.45359115221009
 31
0.0
  0
LINE
  5
1003D
  8
AM_0
 10
132.0124292530478
 20
152.4535911522099
 30
0.0
 11
132.01242925304899
 21
148.45359115221009
 31
0.0
  0
LINE
  5
1003E
  8
AM_0N
 10
140.81242925304869
 20
148.45359115221009
 30
0.0
 11
140.81242925304869
 21
147.45359115221009
 31
0.0
  0
LINE
  5
1003F
  8
AM_0N
 10
137.21242925304881
 20
147.45359115221009
 30
0.0
 11
137.57639948731489
 21
148.45359115221009
 31
0.0
  0
LINE
  5
10040
  8
AM_0N
 10
136.81242925304869
 20
147.45359115221009
 30
0.0
 11
137.17639948731491
 21
148.45359115221009
 31
0.0
  0
LINE
  5
10041
  8
AM_0N
 10
133.01242925304871
 20
147.45359115221009
 30
0.0
 11
141.01242925304871
 21
147.45359115221009
 31
0.0
  0
LINE
  5
10042
  8
AM_0N
 10
133.21242925304881
 20
147.45359115221009
 30
0.0
 11
133.21242925304881
 21
148.45359115221009
 31
0.0
  0
LINE
  5
10043
  8
AM_0
 10
152.82693415258029
 20
144.45359115221009
 30
0.0
 11
152.82693415258029
 21
148.45359115221009
 31
0.0
  0
LINE
  5
10044
  8
AM_0
 10
151.1700799030879
 20
148.45359115221009
 30
0.0
 11
152.82693415258029
 21
144.45359115221009
 31
0.0
  0
LINE
  5
10045
  8
AM_0
 10
207.19792435351579
 20
144.45359115221009
 30
0.0
 11
207.19792435351579
 21
148.45359115221009
 31
0.0
  0
LINE
  5
10046
  8
AM_0
 10
208.8547786030083
 20
148.45359115221009
 30
0.0
 11
207.19792435351579
 21
144.45359115221009
 31
0.0
  0
LINE
  5
10047
  8
AM_0
 10
146.51242925304811
 20
193.45359115221009
 30
0.0
 11
213.5124292530482
 21
193.45359115221009
 31
0.0
  0
LINE
  5
10048
  8
AM_0
 10
146.51242925304811
 20
193.45359115221009
 30
0.0
 11
146.51242925304811
 21
191.45359115221009
 31
0.0
  0
LINE
  5
10049
  8
AM_0
 10
213.5124292530482
 20
193.45359115221009
 30
0.0
 11
213.5124292530482
 21
191.45359115221009
 31
0.0
  0
LINE
  5
1004A
  8
ﾁｭｳｼﾝｾﾝ1
 10
223.01242925304749
 20
142.18888365221
 30
0.0
 11
223.01242925304749
 21
155.18888365221
 31
0.0
  0
LINE
  5
1004B
  8
AM_0
 10
219.10507428074109
 20
146.3946536400822
 30
0.0
 11
219.0124292530476
 21
147.45359115221009
 31
0.0
  0
LINE
  5
1004C
  8
AM_0
 10
226.91978422535411
 20
146.3946536400822
 30
0.0
 11
227.01242925304749
 21
147.45359115221009
 31
0.0
  0
ARC
  5
1004D
  8
AM_0
 10
223.0124292530478
 20
150.8535911522099
 30
0.0
 40
6.5
 50
241.82726586813479
 51
298.17273413186518
  0
ARC
  5
1004E
  8
AM_0
 10
225.32587270840739
 20
146.53410282847841
 30
0.0
 40
1.6000000000000001
 50
298.17273413186518
 51
355.00000000000028
  0
LINE
  5
1004F
  8
AM_0
 10
220.7124292530477
 20
144.77411749078169
 30
0.0
 11
223.0124292530476
 21
147.0636771695772
 31
0.0
  0
LINE
  5
10050
  8
AM_0
 10
222.7009292530476
 20
146.75359115220999
 30
0.0
 11
223.3239292530476
 21
146.75359115220999
 31
0.0
  0
LINE
  5
10051
  8
AM_0
 10
225.31242925304761
 20
144.77411749078169
 30
0.0
 11
223.0124292530476
 21
147.0636771695772
 31
0.0
  0
LINE
  5
10052
  8
AM_0
 10
222.7009292530476
 20
144.36105946187541
 30
0.0
 11
222.7009292530476
 21
146.75359115220999
 31
0.0
  0
LINE
  5
10053
  8
AM_0
 10
223.3239292530476
 20
144.36105946187541
 30
0.0
 11
223.3239292530476
 21
146.75359115220999
 31
0.0
  0
ARC
  5
10054
  8
AM_0
 10
220.6989857976881
 20
146.53410282847841
 30
0.0
 40
1.6000000000000001
 50
184.99999999999969
 51
241.82726586813479
  0
LINE
  5
10055
  8
AM_0N
 10
219.21242925304759
 20
148.45359115221009
 30
0.0
 11
219.21242925304759
 21
147.45359115221009
 31
0.0
  0
LINE
  5
10056
  8
AM_0N
 10
222.81242925304761
 20
147.45359115221009
 30
0.0
 11
222.44845901878139
 21
148.45359115221009
 31
0.0
  0
LINE
  5
10057
  8
AM_0N
 10
223.21242925304759
 20
147.45359115221009
 30
0.0
 11
222.8484590187814
 21
148.45359115221009
 31
0.0
  0
LINE
  5
10058
  8
AM_0N
 10
227.0124292530476
 20
147.45359115221009
 30
0.0
 11
219.0124292530476
 21
147.45359115221009
 31
0.0
  0
LINE
  5
10059
  8
AM_0N
 10
226.81242925304761
 20
147.45359115221009
 30
0.0
 11
226.81242925304761
 21
148.45359115221009
 31
0.0
  0
LINE
  5
1005A
  8
AM_0
 10
131.01242925304811
 20
155.45359115220981
 30
0.0
 11
131.01242925304811
 21
187.45359115220981
 31
0.0
  0
LINE
  5
100B6
  8
AM_0
 10
651.81122063599253
 20
191.4535961522102
 30
0.0
 11
584.81122063599264
 21
191.4535961522102
 31
0.0
  0
LINE
  5
100B7
  8
AM_0
 10
584.81122063599264
 20
190.4535961522102
 30
0.0
 11
584.81122063599264
 21
193.4535961522102
 31
0.0
  0
LINE
  5
100B8
  8
AM_0
 10
664.31122063599253
 20
152.45359615221
 30
0.0
 11
663.05163549973008
 21
188.52339514561501
 31
0.0
  0
LINE
  5
100B9
  8
AM_0
 10
661.05285384569186
 20
190.4535961522102
 30
0.0
 11
575.56958742629297
 21
190.4535961522102
 31
0.0
  0
ARC
  5
100BA
  8
AM_0
 10
661.05285384569186
 20
188.45359615221011
 30
0.0
 40
2.0
 50
1.999999999997115
 51
90.0
1001
GENIUS_GENODEF_13
1002
{
1000
HIER
1070
     0
1002
}
1002
{
1000
MANEDIT
1070
     0
1002
}
1002
{
1000
NOSEL
1070
     0
1002
}
1002
{
1000
BEHIND
1070
     0
1002
}
1002
{
1000
OTHER
1070
     0
1002
}
1002
{
1000
REACTOR
1002
}
1001
GENIUS_GENOBJ-N-FIL_13
1002
{
1000
OWNER
1000
GEN
1002
}
  0
LINE
  5
100BB
  8
AM_0
 10
573.57080577225497
 20
188.52339514561501
 30
0.0
 11
572.31122063599264
 21
152.45359615221011
 31
0.0
  0
ARC
  5
100BC
  8
AM_0
 10
575.56958742629286
 20
188.45359615221039
 30
0.0
 40
2.0
 50
90.0
 51
178.0000000000029
1001
GENIUS_GENOBJ-N-FIL_13
1002
{
1000
OWNER
1000
GEN
1002
}
1001
GENIUS_GENODEF_13
1002
{
1000
HIER
1070
     0
1002
}
1002
{
1000
MANEDIT
1070
     0
1002
}
1002
{
1000
NOSEL
1070
     0
1002
}
1002
{
1000
BEHIND
1070
     0
1002
}
1002
{
1000
OTHER
1070
     0
1002
}
1002
{
1000
REACTOR
1002
}
  0
LINE
  5
100BD
  8
AM_0
 10
572.31122063599264
 20
152.45359615221011
 30
0.0
 11
664.31122063599275
 21
152.45359615221
 31
0.0
  0
LINE
  5
100BE
  8
ﾁｭｳｼﾝｾﾝ1
 10
659.31122063599184
 20
141.45359615221
 30
0.0
 11
659.31122063599184
 21
157.28111916474691
 31
0.0
  0
LINE
  5
100BF
  8
AM_0
 10
572.31122063599264
 20
148.45359615221011
 30
0.0
 11
593.12572553552513
 21
148.45359615221011
 31
0.0
  0
LINE
  5
100C0
  8
AM_0
 10
643.49671573646015
 20
148.45359615221
 30
0.0
 11
664.31122063599173
 21
148.45359615221
 31
0.0
  0
LINE
  5
100C1
  8
AM_0
 10
578.44700230515321
 20
144.45359615221011
 30
0.0
 11
658.17543896683185
 21
144.45359615221
 31
0.0
  0
LINE
  5
100C2
  8
AM_0
 10
655.40386566368534
 20
146.39465864008221
 30
0.0
 11
655.31122063599184
 21
147.45359615221
 31
0.0
  0
LINE
  5
100C3
  8
AM_0
 10
663.21857560829824
 20
146.39465864008221
 30
0.0
 11
663.31122063599184
 21
147.45359615221
 31
0.0
  0
ARC
  5
100C4
  8
AM_0
 10
659.31122063599184
 20
150.85359615221009
 30
0.0
 40
6.5
 50
241.82726586813479
 51
298.17273413186518
  0
ARC
  5
100C5
  8
AM_0
 10
661.62466409135163
 20
146.53410782847871
 30
0.0
 40
1.6000000000000001
 50
298.17273413186518
 51
355.00000000000028
  0
LINE
  5
100C6
  8
AM_0
 10
657.011220635992
 20
144.77412249078191
 30
0.0
 11
659.31122063599184
 21
147.06368216957739
 31
0.0
  0
LINE
  5
100C7
  8
AM_0
 10
658.99972063599193
 20
146.75359615220989
 30
0.0
 11
659.62272063599198
 21
146.75359615220989
 31
0.0
  0
LINE
  5
100C8
  8
AM_0
 10
661.61122063599191
 20
144.77412249078191
 30
0.0
 11
659.31122063599184
 21
147.06368216957739
 31
0.0
  0
LINE
  5
100C9
  8
AM_0
 10
658.99972063599193
 20
144.36106446187529
 30
0.0
 11
658.99972063599193
 21
146.75359615220989
 31
0.0
  0
LINE
  5
100CA
  8
AM_0
 10
659.62272063599198
 20
144.36106446187529
 30
0.0
 11
659.62272063599198
 21
146.75359615220989
 31
0.0
  0
ARC
  5
100CB
  8
AM_0
 10
656.99777718063217
 20
146.53410782847871
 30
0.0
 40
1.6000000000000001
 50
184.99999999999969
 51
241.82726586813479
  0
LINE
  5
100CC
  8
AM_0
 10
572.31122063599264
 20
148.45359615221011
 30
0.0
 11
572.31122063599264
 21
152.45359615221011
 31
0.0
  0
LINE
  5
100CD
  8
AM_0
 10
573.31122063599275
 20
147.45359615221
 30
0.0
 11
572.31122063599264
 21
148.45359615221011
 31
0.0
  0
LINE
  5
100CE
  8
AM_0
 10
664.31122063599275
 20
152.45359615221
 30
0.0
 11
664.31122063599173
 21
148.45359615221
 31
0.0
  0
LINE
  5
100CF
  8
AM_0N
 10
655.51122063599166
 20
148.45359615221
 30
0.0
 11
655.51122063599166
 21
147.45359615221
 31
0.0
  0
LINE
  5
100D0
  8
AM_0N
 10
659.11122063599191
 20
147.45359615221
 30
0.0
 11
658.74725040172575
 21
148.45359615221
 31
0.0
  0
LINE
  5
100D1
  8
AM_0N
 10
659.51122063599166
 20
147.45359615221
 30
0.0
 11
659.14725040172573
 21
148.45359615221
 31
0.0
  0
LINE
  5
100D2
  8
AM_0N
 10
663.31122063599184
 20
147.45359615221
 30
0.0
 11
655.31122063599184
 21
147.45359615221
 31
0.0
  0
LINE
  5
100D3
  8
AM_0N
 10
663.11122063599191
 20
147.45359615221
 30
0.0
 11
663.11122063599191
 21
148.45359615221
 31
0.0
  0
LINE
  5
100D4
  8
AM_0
 10
643.49671573646015
 20
144.45359615221
 30
0.0
 11
643.49671573646015
 21
148.45359615221
 31
0.0
  0
LINE
  5
100D5
  8
AM_0
 10
645.15356998595246
 20
148.45359615221
 30
0.0
 11
643.49671573646015
 21
144.45359615221
 31
0.0
  0
LINE
  5
100D6
  8
AM_0
 10
593.12572553552513
 20
144.45359615221011
 30
0.0
 11
593.12572553552513
 21
148.45359615221011
 31
0.0
  0
LINE
  5
100D7
  8
AM_0
 10
591.46887128603225
 20
148.45359615221011
 30
0.0
 11
593.12572553552513
 21
144.45359615221011
 31
0.0
  0
LINE
  5
100D8
  8
ﾁｭｳｼﾝｾﾝ1
 10
577.31122063599321
 20
141.45359615221011
 30
0.0
 11
577.31122063599321
 21
157.28111916474691
 31
0.0
  0
LINE
  5
100D9
  8
AM_0
 10
581.21857560829972
 20
146.39465864008221
 30
0.0
 11
581.31122063599321
 21
147.45359615221
 31
0.0
  0
LINE
  5
100DA
  8
AM_0
 10
573.40386566368693
 20
146.39465864008221
 30
0.0
 11
573.31122063599321
 21
147.45359615221
 31
0.0
  0
ARC
  5
100DB
  8
AM_0
 10
577.3112206359931
 20
150.85359615221029
 30
0.0
 40
6.5
 50
241.82726586813479
 51
298.17273413186518
  0
ARC
  5
100DC
  8
AM_0
 10
574.99777718063342
 20
146.5341078284788
 30
0.0
 40
1.6000000000000001
 50
184.99999999999969
 51
241.82726586813479
  0
LINE
  5
100DD
  8
AM_0
 10
579.61122063599316
 20
144.77412249078191
 30
0.0
 11
577.31122063599321
 21
147.06368216957739
 31
0.0
  0
LINE
  5
100DE
  8
AM_0
 10
577.62272063599323
 20
146.75359615220989
 30
0.0
 11
576.99972063599319
 21
146.75359615220989
 31
0.0
  0
LINE
  5
100DF
  8
AM_0
 10
575.01122063599337
 20
144.77412249078191
 30
0.0
 11
577.31122063599321
 21
147.06368216957739
 31
0.0
  0
LINE
  5
100E0
  8
AM_0
 10
577.62272063599323
 20
144.36106446187529
 30
0.0
 11
577.62272063599323
 21
146.75359615220989
 31
0.0
  0
LINE
  5
100E1
  8
AM_0
 10
576.99972063599319
 20
144.36106446187529
 30
0.0
 11
576.99972063599319
 21
146.75359615220989
 31
0.0
  0
ARC
  5
100E2
  8
AM_0
 10
579.62466409135266
 20
146.5341078284788
 30
0.0
 40
1.6000000000000001
 50
298.17273413186518
 51
355.00000000000028
  0
LINE
  5
100E3
  8
AM_0N
 10
581.11122063599328
 20
148.45359615221
 30
0.0
 11
581.11122063599328
 21
147.45359615221
 31
0.0
  0
LINE
  5
100E4
  8
AM_0N
 10
577.51122063599325
 20
147.45359615221
 30
0.0
 11
577.87519087025953
 21
148.45359615221
 31
0.0
  0
LINE
  5
100E5
  8
AM_0N
 10
577.11122063599328
 20
147.45359615221
 30
0.0
 11
577.47519087025944
 21
148.45359615221
 31
0.0
  0
LINE
  5
100E6
  8
AM_0N
 10
573.31122063599321
 20
147.45359615221
 30
0.0
 11
581.31122063599321
 21
147.45359615221
 31
0.0
  0
LINE
  5
100E7
  8
AM_0N
 10
573.51122063599325
 20
147.45359615221
 30
0.0
 11
573.51122063599325
 21
148.45359615221
 31
0.0
  0
LINE
  5
100E8
  8
AM_0
 10
588.05521245281034
 20
204.48789127887619
 30
0.0
 11
588.35040550860015
 21
193.4535961522102
 31
0.0
  0
LINE
  5
100E9
  8
AM_0
 10
648.52736211741228
 20
203.4748540362767
 30
0.0
 11
648.27203550860008
 21
193.45358615221031
 31
0.0
  0
LINE
  5
100EA
  8
AM_0
 10
651.8112206359923
 20
193.45359615221
 30
0.0
 11
584.81122063599264
 21
193.4535961522102
 31
0.0
  0
LINE
  5
100EB
  8
AM_0
 10
651.8112206359923
 20
190.4535961522102
 30
0.0
 11
651.8112206359923
 21
193.45359615221
 31
0.0
  0
LINE
  5
10289
  8
AM_0
 10
558.30935120840513
 20
303.95359615221048
 30
0.0
 11
564.30935120840513
 21
303.95359615221048
 31
0.0
  0
LINE
  5
1028A
  8
AM_0
 10
557.30935120840513
 20
231.95356563463241
 30
0.0
 11
557.30935120840513
 21
302.95359615221048
 31
0.0
  0
LINE
  5
1028B
  8
AM_0
 10
556.80935120840513
 20
246.95356563462971
 30
0.0
 11
556.80935120840513
 21
287.95359615220752
 31
0.0
  0
LINE
  5
1028C
  8
AM_0
 10
558.30935120840513
 20
230.9535656346325
 30
0.0
 11
564.30935120840513
 21
230.9535656346323
 31
0.0
  0
LINE
  5
1028D
  8
AM_0
 10
564.30935120840513
 20
303.95359615221048
 30
0.0
 11
564.30935120840513
 21
230.9535656346323
 31
0.0
  0
LINE
  5
10290
  8
AM_0
 10
678.30935120840513
 20
303.9535961522115
 30
0.0
 11
672.30935120840479
 21
303.95359615221122
 31
0.0
  0
LINE
  5
10291
  8
AM_0
 10
679.30935120840547
 20
231.95356563463341
 30
0.0
 11
679.30935120840513
 21
302.9535961522115
 31
0.0
  0
LINE
  5
10292
  8
AM_0
 10
679.80935120840525
 20
246.95356563463329
 30
0.0
 11
679.80935120840468
 21
287.95359615221099
 31
0.0
  0
LINE
  5
10293
  8
AM_0
 10
678.30935120840559
 20
230.95356563463341
 30
0.0
 11
672.30935120840581
 21
230.95356563463301
 31
0.0
  0
LINE
  5
10296
  8
AM_0
 10
558.30935120840513
 20
230.9535656346325
 30
0.0
 11
557.30935120840513
 21
231.95356563463241
 31
0.0
1001
GENIUS_GENFIL_13
1070
     0
1040
1.0
1040
1.0
1040
20.0
1040
0.0
1002
{
1002
}
1001
GENIUS_GENOBJ-N-CHA_13
1002
{
1000
OWNER
1000
GEN
1002
}
1001
GENIUS_GENODEF_13
1002
{
1000
HIER
1070
     0
1002
}
1002
{
1000
MANEDIT
1070
     0
1002
}
1002
{
1000
NOSEL
1070
     0
1002
}
1002
{
1000
BEHIND
1070
     0
1002
}
1002
{
1000
OTHER
1070
     0
1002
}
1002
{
1000
REACTOR
1002
}
  0
LINE
  5
10298
  8
AM_0
 10
557.30935120840513
 20
302.95359615221048
 30
0.0
 11
558.30935120840513
 21
303.95359615221048
 31
0.0
1001
GENIUS_GENFIL_13
1070
     0
1040
1.0
1040
1.0
1040
20.0
1040
0.0
1002
{
1002
}
1001
GENIUS_GENOBJ-N-CHA_13
1002
{
1000
OWNER
1000
GEN
1002
}
1001
GENIUS_GENODEF_13
1002
{
1000
HIER
1070
     0
1002
}
1002
{
1000
MANEDIT
1070
     0
1002
}
1002
{
1000
NOSEL
1070
     0
1002
}
1002
{
1000
BEHIND
1070
     0
1002
}
1002
{
1000
OTHER
1070
     0
1002
}
1002
{
1000
REACTOR
1002
}
  0
LINE
  5
1029A
  8
AM_0
 10
679.30935120840547
 20
231.95356563463341
 30
0.0
 11
678.30935120840559
 21
230.95356563463341
 31
0.0
1001
GENIUS_GENFIL_13
1070
     0
1040
1.0
1040
1.0
1040
20.0
1040
0.0
1002
{
1002
}
1001
GENIUS_GENODEF_13
1002
{
1000
HIER
1070
     0
1002
}
1002
{
1000
MANEDIT
1070
     0
1002
}
1002
{
1000
NOSEL
1070
     0
1002
}
1002
{
1000
BEHIND
1070
     0
1002
}
1002
{
1000
OTHER
1070
     0
1002
}
1002
{
1000
REACTOR
1002
}
1001
GENIUS_GENOBJ-N-CHA_13
1002
{
1000
OWNER
1000
GEN
1002
}
  0
LINE
  5
1029C
  8
AM_0
 10
679.30935120840513
 20
302.9535961522115
 30
0.0
 11
678.30935120840513
 21
303.9535961522115
 31
0.0
1001
GENIUS_GENFIL_13
1070
     0
1040
1.0
1040
1.0
1040
20.0
1040
0.0
1002
{
1002
}
1001
GENIUS_GENODEF_13
1002
{
1000
HIER
1070
     0
1002
}
1002
{
1000
MANEDIT
1070
     0
1002
}
1002
{
1000
NOSEL
1070
     0
1002
}
1002
{
1000
BEHIND
1070
     0
1002
}
1002
{
1000
OTHER
1070
     0
1002
}
1002
{
1000
REACTOR
1002
}
1001
GENIUS_GENOBJ-N-CHA_13
1002
{
1000
OWNER
1000
GEN
1002
}
  0
LINE
  5
1029F
  8
AM_0
 10
679.80935120840525
 20
246.95356563463329
 30
0.0
 11
679.30935120840536
 21
246.45356563463321
 31
0.0
1001
GENIUS_GENFIL_13
1070
     0
1040
0.5
1040
0.5
1040
20.0
1040
0.0
1002
{
1002
}
1001
GENIUS_GENOBJ-N-CHA_13
1002
{
1000
OWNER
1000
GEN
1002
}
1001
GENIUS_GENODEF_13
1002
{
1000
HIER
1070
     0
1002
}
1002
{
1000
MANEDIT
1070
     0
1002
}
1002
{
1000
NOSEL
1070
     0
1002
}
1002
{
1000
BEHIND
1070
     0
1002
}
1002
{
1000
OTHER
1070
     0
1002
}
1002
{
1000
REACTOR
1002
}
  0
LINE
  5
102A1
  8
AM_0
 10
557.30935120840513
 20
246.45356563462971
 30
0.0
 11
556.80935120840513
 21
246.95356563462971
 31
0.0
1001
GENIUS_GENFIL_13
1070
     0
1040
0.5
1040
0.5
1040
20.0
1040
0.0
1002
{
1002
}
1001
GENIUS_GENOBJ-N-CHA_13
1002
{
1000
OWNER
1000
GEN
1002
}
1001
GENIUS_GENODEF_13
1002
{
1000
HIER
1070
     0
1002
}
1002
{
1000
MANEDIT
1070
     0
1002
}
1002
{
1000
NOSEL
1070
     0
1002
}
1002
{
1000
BEHIND
1070
     0
1002
}
1002
{
1000
OTHER
1070
     0
1002
}
1002
{
1000
REACTOR
1002
}
  0
LINE
  5
102A3
  8
AM_0
 10
679.80935120840468
 20
287.95359615221099
 30
0.0
 11
679.30935120840468
 21
288.45359615221099
 31
0.0
1001
GENIUS_GENFIL_13
1070
     0
1040
0.5
1040
0.5
1040
20.0
1040
0.0
1002
{
1002
}
1001
GENIUS_GENOBJ-N-CHA_13
1002
{
1000
OWNER
1000
GEN
1002
}
1001
GENIUS_GENODEF_13
1002
{
1000
HIER
1070
     0
1002
}
1002
{
1000
MANEDIT
1070
     0
1002
}
1002
{
1000
NOSEL
1070
     0
1002
}
1002
{
1000
BEHIND
1070
     0
1002
}
1002
{
1000
OTHER
1070
     0
1002
}
1002
{
1000
REACTOR
1002
}
  0
LINE
  5
102A5
  8
AM_0
 10
557.30935120840513
 20
288.45359615220752
 30
0.0
 11
556.80935120840513
 21
287.95359615220752
 31
0.0
1001
GENIUS_GENFIL_13
1070
     0
1040
0.5
1040
0.5
1040
20.0
1040
0.0
1002
{
1002
}
1001
GENIUS_GENODEF_13
1002
{
1000
HIER
1070
     0
1002
}
1002
{
1000
MANEDIT
1070
     0
1002
}
1002
{
1000
NOSEL
1070
     0
1002
}
1002
{
1000
BEHIND
1070
     0
1002
}
1002
{
1000
OTHER
1070
     0
1002
}
1002
{
1000
REACTOR
1002
}
1001
GENIUS_GENOBJ-N-CHA_13
1002
{
1000
OWNER
1000
GEN
1002
}
  0
LINE
  5
102A6
  8
AM_0
 10
672.30935120840502
 20
303.95359615221048
 30
0.0
 11
672.30935120840502
 21
230.9535656346323
 31
0.0
  0
ARC
  5
102A8
  8
AM_0
 10
618.32626120840496
 20
267.44359615221009
 30
0.0
 40
64.014987999999974
 50
212.45463403128531
 51
214.08620795187741
  0
ARC
  5
102A9
  8
AM_0
 10
618.32626120840496
 20
267.44359615221009
 30
0.0
 40
64.014987999999974
 50
163.94085908878611
 51
196.05914091121369
  0
ARC
  5
102CA
  8
AM_0
 10
618.32626120840496
 20
267.44359615221009
 30
0.0
 40
64.003665999999996
 50
343.86679025732309
 51
16.133209742678481
  0
ARC
  5
102CB
  8
AM_0
 10
618.32626120840496
 20
267.44359615221009
 30
0.0
 40
64.003665999999996
 50
32.495092012118199
 51
34.125231616084442
  0
CIRCLE
  5
106D5
  8
AM_0
 10
386.5125030190801
 20
267.4535961522102
 30
0.0
 40
36.500001117587097
  0
CIRCLE
  5
106DF
  8
AM_0
 10
386.5125030190801
 20
267.4535961522102
 30
0.0
 40
21.00000067055225
  0
LINE
  5
10A3E
  8
AM_0
 10
349.51250301907999
 20
557.90071623006145
 30
0.0
 11
357.51250301908033
 21
557.90071623006168
 31
0.0
  0
LINE
  5
10A3F
  8
AM_0
 10
359.51250301908033
 20
551.90071623006145
 30
0.0
 11
347.51250301907987
 21
551.90071623006145
 31
0.0
  0
LINE
  5
10A42
  8
AM_0
 10
278.87398052409281
 20
460.90070568003921
 30
0.0
 11
448.1510241431601
 21
460.90070568003921
 31
0.0
  0
LINE
  5
10A43
  8
AM_0
 10
277.86155983962351
 20
558.90071623006168
 30
0.0
 11
449.1634143100506
 21
558.90071623006168
 31
0.0
  0
LINE
  5
10A44
  8
AM_0
 10
277.51246925304793
 20
538.900715634015
 30
0.0
 11
449.51250489662613
 21
538.90071563401523
 31
0.0
  0
LINE
  5
10A45
  8
ﾁｭｳｼﾝｾﾝ
 10
70.268569253047872
 20
509.90071476974799
 30
0.0
 11
455.76250489662618
 21
509.90071476974799
 31
0.0
1001
GENIUS_GENODEF_13
1002
{
1000
HIER
1070
     0
1002
}
1002
{
1000
MANEDIT
1070
     0
1002
}
1002
{
1000
NOSEL
1070
     0
1002
}
1002
{
1000
BEHIND
1070
     0
1002
}
1002
{
1000
REACTOR
1002
}
1001
GENIUS_GENOBJ-N-CEN_13
1002
{
1000
OWNER
1000
GEN
1002
}
  0
LINE
  5
10A46
  8
AM_0
 10
251.01246925304781
 20
448.40071976974741
 30
0.0
 11
251.01246925304781
 21
571.40069976974769
 31
0.0
  0
LINE
  5
10A47
  8
AM_0
 10
277.51246925312381
 20
538.900715634015
 30
0.0
 11
278.87398052409281
 21
460.90070568003921
 31
0.0
  0
LINE
  5
10A48
  8
ｶｸﾚｾﾝ2
 10
295.01246977458828
 20
460.90071330943408
 30
0.0
 11
295.01246977458828
 21
558.90072385945643
 31
0.0
  0
LINE
  5
10A49
  8
ﾁｭｳｼﾝｾﾝ
 10
289.51246961067551
 20
457.15070949473682
 30
0.0
 11
289.51246961067551
 21
562.65072004475917
 31
0.0
  0
LINE
  5
10A4A
  8
ｶｸﾚｾﾝ2
 10
284.01246944676279
 20
460.90071330943408
 30
0.0
 11
284.01246944676279
 21
558.90072385945643
 31
0.0
  0
LINE
  5
10A4B
  8
AM_0
 10
240.0124692530479
 20
445.90068476974761
 30
0.0
 11
240.0124692530479
 21
573.9006997697478
 31
0.0
  0
LINE
  5
10A4C
  8
AM_0
 10
240.0124692530479
 20
547.04068976974759
 30
0.0
 11
250.0124692530479
 21
547.04068976974759
 31
0.0
  0
LINE
  5
10A4D
  8
AM_0
 10
240.0124279863974
 20
547.04069976972505
 30
0.0
 11
250.0124279863912
 21
547.04071088083651
 31
0.0
  0
LINE
  5
10A4E
  8
AM_0
 10
240.0124692530479
 20
561.94069976974765
 30
0.0
 11
250.0124692530479
 21
561.94069976974765
 31
0.0
  0
LINE
  5
10A4F
  8
AM_0
 10
240.01241143083061
 20
561.94070976971614
 30
0.0
 11
250.01241143082439
 21
561.94072088082726
 31
0.0
  0
LINE
  5
10A50
  8
AM_0
 10
240.0124692530479
 20
573.9006997697478
 30
0.0
 11
249.13907208064339
 21
573.9006997697478
 31
0.0
  0
LINE
  5
10A51
  8
AM_0
 10
269.87109970860001
 20
538.7264041485198
 30
0.0
 11
267.17219630119649
 21
569.57501125524288
 31
0.0
  0
LINE
  5
10A52
  8
AM_0
 10
254.01246925304781
 20
571.40069976974769
 30
0.0
 11
265.17980690501309
 21
571.40069976974758
 31
0.0
  0
ARC
  5
10A53
  8
AM_0
 10
254.01246925304781
 20
574.4006997697478
 30
0.0
 40
2.9999999999999978
 50
215.68533471265459
 51
270.0
1001
GENIUS_GENOBJ-N-FIL_13
1002
{
1000
OWNER
1000
GEN
1002
}
1001
GENIUS_GENODEF_13
1002
{
1000
HIER
1070
     0
1002
}
1002
{
1000
MANEDIT
1070
     0
1002
}
1002
{
1000
NOSEL
1070
     0
1002
}
1002
{
1000
BEHIND
1070
     0
1002
}
1002
{
1000
OTHER
1070
     0
1002
}
1002
{
1000
REACTOR
1002
}
  0
ARC
  5
10A54
  8
AM_0
 10
249.13907208064339
 20
570.90069976974769
 30
0.0
 40
2.9999999999999978
 50
35.68533471265463
 51
90.0
1001
GENIUS_GENOBJ-N-FIL_13
1002
{
1000
OWNER
1000
GEN
1002
}
1001
GENIUS_GENODEF_13
1002
{
1000
HIER
1070
     0
1002
}
1002
{
1000
MANEDIT
1070
     0
1002
}
1002
{
1000
NOSEL
1070
     0
1002
}
1002
{
1000
BEHIND
1070
     0
1002
}
1002
{
1000
OTHER
1070
     0
1002
}
1002
{
1000
REACTOR
1002
}
  0
ARC
  5
10A55
  8
AM_0
 10
265.17980690501298
 20
569.4006997697478
 30
0.0
 40
2.0
 50
4.9999999999997433
 51
90.0
1001
GENIUS_GENOBJ-N-FIL_13
1002
{
1000
OWNER
1000
GEN
1002
}
1001
GENIUS_GENODEF_13
1002
{
1000
HIER
1070
     0
1002
}
1002
{
1000
MANEDIT
1070
     0
1002
}
1002
{
1000
NOSEL
1070
     0
1002
}
1002
{
1000
BEHIND
1070
     0
1002
}
1002
{
1000
OTHER
1070
     0
1002
}
1002
{
1000
REACTOR
1002
}
  0
ARC
  5
10A56
  8
AM_0
 10
271.86348910478353
 20
538.900715634015
 30
0.0
 40
2.0
 50
184.99999999999969
 51
270.0
1001
GENIUS_GENOBJ-N-FIL_13
1002
{
1000
OWNER
1000
GEN
1002
}
1001
GENIUS_GENODEF_13
1002
{
1000
HIER
1070
     0
1002
}
1002
{
1000
MANEDIT
1070
     0
1002
}
1002
{
1000
NOSEL
1070
     0
1002
}
1002
{
1000
BEHIND
1070
     0
1002
}
1002
{
1000
OTHER
1070
     0
1002
}
1002
{
1000
REACTOR
1002
}
  0
LINE
  5
10A57
  8
AM_0
 10
277.86155983962351
 20
558.90071623006168
 30
0.0
 11
277.51246925304793
 21
538.90071563401523
 31
0.0
  0
ARC
  5
10A58
  8
AM_0
 10
276.5297721919697
 20
537.90071563401511
 30
0.0
 40
1.0
 50
270.0
 51
1.0000117734974221
1001
GENIUS_GENOBJ-N-FIL_13
1002
{
1000
OWNER
1000
GEN
1002
}
1001
GENIUS_GENODEF_13
1002
{
1000
HIER
1070
     0
1002
}
1002
{
1000
MANEDIT
1070
     0
1002
}
1002
{
1000
NOSEL
1070
     0
1002
}
1002
{
1000
BEHIND
1070
     0
1002
}
1002
{
1000
OTHER
1070
     0
1002
}
1002
{
1000
REACTOR
1002
}
  0
LINE
  5
10A59
  8
AM_0
 10
271.86348910478353
 20
536.90071563401511
 30
0.0
 11
276.5297721919697
 21
536.90071563401511
 31
0.0
  0
LINE
  5
10A5A
  8
AM_0
 10
348.51250301907999
 20
551.90071623006145
 30
0.0
 11
348.51250301907999
 21
556.90071623006145
 31
0.0
  0
LINE
  5
10A5B
  8
AM_0
 10
347.51250301907987
 20
558.90071623006168
 30
0.0
 11
347.51250301907987
 21
551.90071623006145
 31
0.0
  0
ARC
  5
10A5C
  8
AM_0
 10
349.51250301907999
 20
556.90071623006145
 30
0.0
 40
1.0
 50
90.0
 51
180.0
1001
GENIUS_GENOBJ-N-FIL_13
1002
{
1000
OWNER
1000
GEN
1002
}
1001
GENIUS_GENODEF_13
1002
{
1000
HIER
1070
     0
1002
}
1002
{
1000
MANEDIT
1070
     0
1002
}
1002
{
1000
NOSEL
1070
     0
1002
}
1002
{
1000
BEHIND
1070
     0
1002
}
1002
{
1000
OTHER
1070
     0
1002
}
1002
{
1000
REACTOR
1002
}
  0
LINE
  5
10A5E
  8
AM_0
 10
240.0124692530479
 20
445.90071976974758
 30
0.0
 11
249.13907208064339
 21
445.90071976974758
 31
0.0
  0
LINE
  5
10A5F
  8
AM_0
 10
240.0124692530479
 20
457.86071976974762
 30
0.0
 11
250.0124692530479
 21
457.86071976974762
 31
0.0
  0
LINE
  5
10A60
  8
AM_0
 10
240.0124692530479
 20
472.76072976974791
 30
0.0
 11
250.0124692530479
 21
472.76072976974791
 31
0.0
  0
LINE
  5
10A61
  8
AM_0
 10
263.84516536711487
 20
462.9007056800391
 30
0.0
 11
276.8736758608303
 21
462.9007056800391
 31
0.0
  0
LINE
  5
10A62
  8
AM_0
 10
260.90364567879271
 20
450.22640828425239
 30
0.0
 11
261.85277597093142
 21
461.07501716553452
 31
0.0
  0
ARC
  5
10A63
  8
AM_0
 10
263.84516536711487
 20
460.90070568003921
 30
0.0
 40
2.0
 50
90.0
 51
175.0000000000002
1001
GENIUS_GENOBJ-N-FIL_13
1002
{
1000
OWNER
1000
GEN
1002
}
1001
GENIUS_GENODEF_13
1002
{
1000
HIER
1070
     0
1002
}
1002
{
1000
MANEDIT
1070
     0
1002
}
1002
{
1000
NOSEL
1070
     0
1002
}
1002
{
1000
BEHIND
1070
     0
1002
}
1002
{
1000
OTHER
1070
     0
1002
}
1002
{
1000
REACTOR
1002
}
  0
LINE
  5
10A64
  8
AM_0
 10
254.01246925304781
 20
448.40071976974758
 30
0.0
 11
258.9112562826092
 21
448.4007197697477
 31
0.0
  0
ARC
  5
10A65
  8
AM_0
 10
249.13907208064339
 20
448.90071976974758
 30
0.0
 40
2.9999999999999978
 50
270.0
 51
324.31466528734541
1001
GENIUS_GENOBJ-N-FIL_13
1002
{
1000
OWNER
1000
GEN
1002
}
1001
GENIUS_GENODEF_13
1002
{
1000
HIER
1070
     0
1002
}
1002
{
1000
MANEDIT
1070
     0
1002
}
1002
{
1000
NOSEL
1070
     0
1002
}
1002
{
1000
BEHIND
1070
     0
1002
}
1002
{
1000
OTHER
1070
     0
1002
}
1002
{
1000
REACTOR
1002
}
  0
ARC
  5
10A66
  8
AM_0
 10
254.01246925304781
 20
445.40071976974758
 30
0.0
 40
2.9999999999999978
 50
90.0
 51
144.31466528734541
1001
GENIUS_GENOBJ-N-FIL_13
1002
{
1000
OWNER
1000
GEN
1002
}
1001
GENIUS_GENODEF_13
1002
{
1000
HIER
1070
     0
1002
}
1002
{
1000
MANEDIT
1070
     0
1002
}
1002
{
1000
NOSEL
1070
     0
1002
}
1002
{
1000
BEHIND
1070
     0
1002
}
1002
{
1000
OTHER
1070
     0
1002
}
1002
{
1000
REACTOR
1002
}
  0
ARC
  5
10A67
  8
AM_0
 10
258.9112562826092
 20
450.40071976974758
 30
0.0
 40
2.0
 50
270.0
 51
355.00000000000028
1001
GENIUS_GENOBJ-N-FIL_13
1002
{
1000
OWNER
1000
GEN
1002
}
1001
GENIUS_GENODEF_13
1002
{
1000
HIER
1070
     0
1002
}
1002
{
1000
MANEDIT
1070
     0
1002
}
1002
{
1000
NOSEL
1070
     0
1002
}
1002
{
1000
BEHIND
1070
     0
1002
}
1002
{
1000
OTHER
1070
     0
1002
}
1002
{
1000
REACTOR
1002
}
  0
ARC
  5
10A68
  8
AM_0
 10
276.8736758608303
 20
460.90070568003921
 30
0.0
 40
2.0
 50
1.0000117735560941
 51
90.0
1001
GENIUS_GENOBJ-N-FIL_13
1002
{
1000
OWNER
1000
GEN
1002
}
1001
GENIUS_GENODEF_13
1002
{
1000
HIER
1070
     0
1002
}
1002
{
1000
MANEDIT
1070
     0
1002
}
1002
{
1000
NOSEL
1070
     0
1002
}
1002
{
1000
BEHIND
1070
     0
1002
}
1002
{
1000
OTHER
1070
     0
1002
}
1002
{
1000
REACTOR
1002
}
  0
LINE
  5
10A6A
  8
ﾁｭｳｼﾝｾﾝ
 10
386.5125030190801
 20
442.90070925631812
 30
0.0
 11
386.5125030190801
 21
576.90072028317786
 31
0.0
  0
LINE
  5
10A6B
  8
ｶｸﾚｾﾝ2
 10
432.01250437508509
 20
460.90071330943408
 30
0.0
 11
432.01250437508509
 21
558.90072385945643
 31
0.0
  0
LINE
  5
10A6C
  8
ﾁｭｳｼﾝｾﾝ
 10
437.51250453899831
 20
457.15070949473647
 30
0.0
 11
437.51250453899831
 21
562.65072004475917
 31
0.0
  0
LINE
  5
10A6D
  8
ｶｸﾚｾﾝ2
 10
443.0125047029108
 20
460.90071330943408
 30
0.0
 11
443.0125047029108
 21
558.90072385945643
 31
0.0
  0
LINE
  5
10A6E
  8
AM_0
 10
449.51250489662613
 20
538.90071563401523
 30
0.0
 11
448.1510241431601
 21
460.90070568003921
 31
0.0
  0
LINE
  5
10A72
  8
AM_0
 10
358.51250301908033
 20
556.90071623006156
 30
0.0
 11
358.51250301908033
 21
551.90071623006145
 31
0.0
  0
LINE
  5
10A73
  8
AM_0
 10
359.51250301908033
 20
558.90071623006168
 30
0.0
 11
359.51250301908033
 21
551.90071623006145
 31
0.0
  0
ARC
  5
10A74
  8
AM_0
 10
357.51250301908033
 20
556.90071623006156
 30
0.0
 40
1.0
 50
0.0
 51
90.0
1001
GENIUS_GENOBJ-N-FIL_13
1002
{
1000
OWNER
1000
GEN
1002
}
1001
GENIUS_GENODEF_13
1002
{
1000
HIER
1070
     0
1002
}
1002
{
1000
MANEDIT
1070
     0
1002
}
1002
{
1000
NOSEL
1070
     0
1002
}
1002
{
1000
BEHIND
1070
     0
1002
}
1002
{
1000
OTHER
1070
     0
1002
}
1002
{
1000
REACTOR
1002
}
  0
LINE
  5
10A76
  8
AM_0
 10
449.1634143100506
 20
558.90071623006168
 30
0.0
 11
449.51250489662613
 21
538.90071563401523
 31
0.0
  0
LINE
  5
10A83
  8
AM_0
 10
107.0124392530479
 20
446.01073476974778
 30
0.0
 11
160.01243925304789
 21
446.01073476974778
 31
0.0
  0
LINE
  5
10A84
  8
AM_0
 10
107.0124392530479
 20
444.66072476974801
 30
0.0
 11
160.01243925304789
 21
444.66072476974801
 31
0.0
  0
LINE
  5
10A85
  8
AM_0
 10
107.0124392530479
 20
443.98073476974781
 30
0.0
 11
160.01243925304789
 21
443.98073476974781
 31
0.0
  0
LINE
  5
10A86
  8
AM_0
 10
107.0124392530479
 20
573.79072576974806
 30
0.0
 11
160.01243925304789
 21
573.79072576974806
 31
0.0
  0
LINE
  5
10A87
  8
AM_0
 10
107.0124392530479
 20
575.14073976974771
 30
0.0
 11
160.01243925304789
 21
575.14073976974771
 31
0.0
  0
LINE
  5
10A88
  8
AM_0
 10
107.0124392530479
 20
575.81072176974806
 30
0.0
 11
160.01243925304789
 21
575.81072176974806
 31
0.0
  0
LINE
  5
10A89
  8
AM_0
 10
129.01243925304789
 20
556.25073476974785
 30
0.0
 11
231.01243925304789
 21
556.25073476974785
 31
0.0
  0
LINE
  5
10A8A
  8
AM_0
 10
129.01243925304789
 20
463.55072476974777
 30
0.0
 11
231.01243925304789
 21
463.55072476974777
 31
0.0
  0
LINE
  5
10A8B
  8
AM_0
 10
224.36246925304781
 20
545.90071476974811
 30
0.0
 11
89.562489253047943
 21
545.90071476974811
 31
0.0
  0
LINE
  5
10A8C
  8
AM_0
 10
107.0124392530479
 20
448.04073476974781
 30
0.0
 11
223.82242925304789
 21
448.04073476974781
 31
0.0
  0
LINE
  5
10A8D
  8
AM_0
 10
107.0124392530479
 20
571.76072676974798
 30
0.0
 11
223.82242925304789
 21
571.76072676974798
 31
0.0
  0
LINE
  5
10A8E
  8
AM_0
 10
97.692429253047877
 20
473.18073476974803
 30
0.0
 11
227.8324392530478
 21
473.18073476974803
 31
0.0
  0
LINE
  5
10A8F
  8
AM_0
 10
224.36246925304781
 20
473.90071476974788
 30
0.0
 11
98.562489253047971
 21
473.90071476974788
 31
0.0
  0
LINE
  5
10A90
  8
AM_0
 10
224.36246925304781
 20
543.90072476974819
 30
0.0
 11
89.562489253047943
 21
543.90072476974819
 31
0.0
  0
LINE
  5
10A91
  8
AM_0
 10
227.8324392530478
 20
543.27072476974797
 30
0.0
 11
88.692429253047877
 21
543.27072476974797
 31
0.0
  0
LINE
  5
10A92
  8
AM_0
 10
88.692429253047877
 20
546.6207347697482
 30
0.0
 11
227.8324392530478
 21
546.6207347697482
 31
0.0
  0
LINE
  5
10A93
  8
AM_0
 10
227.8324392530478
 20
476.53073476974782
 30
0.0
 11
97.692429253047877
 21
476.53073476974782
 31
0.0
  0
LINE
  5
10A94
  8
AM_0
 10
226.95740925304781
 20
535.90072886974815
 30
0.0
 11
89.562489253047943
 21
535.90073476974806
 31
0.0
  0
LINE
  5
10A95
  8
AM_0
 10
226.95740930540791
 20
533.90072066974801
 30
0.0
 11
89.562489253047943
 21
533.90071476974811
 31
0.0
  0
LINE
  5
10A96
  8
AM_0
 10
88.472459253047873
 20
536.38072476974787
 30
0.0
 11
228.04743925304791
 21
536.38073476974807
 31
0.0
  0
LINE
  5
10A97
  8
AM_0
 10
88.472459253047873
 20
533.46071476974805
 30
0.0
 11
228.0474393294933
 21
533.46073476974777
 31
0.0
  0
LINE
  5
10A98
  8
AM_0
 10
88.342449253047903
 20
526.24073476974797
 30
0.0
 11
228.1774492530478
 21
526.24071476974802
 31
0.0
  0
LINE
  5
10A99
  8
AM_0
 10
226.94741479520681
 20
525.90071279950621
 30
0.0
 11
89.572429253047886
 21
525.90071476974811
 31
0.0
  0
LINE
  5
10A9A
  8
AM_0
 10
226.94741489992629
 20
523.90071673907721
 30
0.0
 11
89.572429253047886
 21
523.90073476974806
 31
0.0
  0
LINE
  5
10A9B
  8
AM_0
 10
88.342449253047903
 20
523.58072476974814
 30
0.0
 11
228.1774493226865
 21
523.58071476974817
 31
0.0
  0
LINE
  5
10A9C
  8
AM_0
 10
88.282459253047946
 20
516.17072476974806
 30
0.0
 11
228.2374392530478
 21
516.17073876974803
 31
0.0
  0
LINE
  5
10A9D
  8
AM_0
 10
226.94741479520681
 20
515.90073279950627
 30
0.0
 11
89.572429253047886
 21
515.90071476974788
 31
0.0
  0
LINE
  5
10A9E
  8
AM_0
 10
226.94741489992629
 20
513.90073673907705
 30
0.0
 11
89.572429253047886
 21
513.90071476974811
 31
0.0
  0
LINE
  5
10A9F
  8
AM_0
 10
88.282459253047946
 20
513.63072476974787
 30
0.0
 11
228.23743931954499
 21
513.6307307697482
 31
0.0
  0
LINE
  5
10AA0
  8
AM_0
 10
88.282459253047946
 20
506.1607247697479
 30
0.0
 11
228.2374392530478
 21
506.16074876974801
 31
0.0
  0
LINE
  5
10AA1
  8
AM_0
 10
226.94741479520681
 20
505.90073279950622
 30
0.0
 11
89.572429253047886
 21
505.90073476974788
 31
0.0
  0
LINE
  5
10AA2
  8
AM_0
 10
226.94741489992629
 20
503.9007367390771
 30
0.0
 11
89.572429253047886
 21
503.90071476974811
 31
0.0
  0
LINE
  5
10AA3
  8
AM_0
 10
88.282459253047946
 20
503.6307247697481
 30
0.0
 11
228.23743931928311
 21
503.630740769748
 31
0.0
  0
LINE
  5
10AA4
  8
AM_0
 10
88.342449253047903
 20
496.22072476974802
 30
0.0
 11
228.1774492530478
 21
496.22072476974802
 31
0.0
  0
LINE
  5
10AA5
  8
AM_0
 10
226.94741479520681
 20
495.90071279950632
 30
0.0
 11
89.572429253047886
 21
495.900734769748
 31
0.0
  0
LINE
  5
10AA6
  8
AM_0
 10
226.94741489992629
 20
493.90071673907721
 30
0.0
 11
89.572429253047886
 21
493.90073476974788
 31
0.0
  0
LINE
  5
10AA7
  8
AM_0
 10
88.342449253047903
 20
493.56073476974808
 30
0.0
 11
228.1774493226865
 21
493.56072476974822
 31
0.0
  0
LINE
  5
10AA8
  8
AM_0
 10
97.472459253047873
 20
486.34072476974808
 30
0.0
 11
228.04244925304781
 21
486.34072476974808
 31
0.0
  0
LINE
  5
10AA9
  8
AM_0
 10
226.95241925304779
 20
485.90073886974818
 30
0.0
 11
98.562489253047971
 21
485.90071476974799
 31
0.0
  0
LINE
  5
10AAA
  8
AM_0
 10
226.9524193054078
 20
483.90073066974799
 30
0.0
 11
98.562489253047971
 21
483.90073476974811
 31
0.0
  0
LINE
  5
10AAB
  8
AM_0
 10
97.472459253047873
 20
483.41074476974802
 30
0.0
 11
228.0424493297549
 21
483.41072476974801
 31
0.0
  0
LINE
  5
10AAC
  8
AM_0
 10
224.36245025292561
 20
475.90073312401603
 30
0.0
 11
98.562489253047971
 21
475.90073476974811
 31
0.0
  0
LINE
  5
10AAD
  8
AM_0
 10
79.012469253047811
 20
558.49072476974777
 30
0.0
 11
79.012469253047811
 21
514.90070476974779
 31
0.0
  0
LINE
  5
10AAE
  8
AM_0
 10
84.012409253047849
 20
567.33071376974794
 30
0.0
 11
84.012409253047849
 21
509.90071476974799
 31
0.0
  0
LINE
  5
10AAF
  8
AM_0
 10
77.512469253047811
 20
489.90072476974808
 30
0.0
 11
77.512469253047811
 21
529.90070476974802
 31
0.0
  0
LINE
  5
10AB1
  8
AM_0
 10
87.732469253047938
 20
461.55072476974777
 30
0.0
 11
88.272509253047929
 21
458.56072476974782
 31
0.0
  0
LINE
  5
10AB2
  8
AM_0
 10
81.012409253047835
 20
460.40071476974799
 30
0.0
 11
81.012409253047835
 21
460.93071476974808
 31
0.0
  0
LINE
  5
10AB3
  8
AM_0
 10
80.782429253047781
 20
460.28071476974799
 30
0.0
 11
79.512409253047849
 21
461.02072476974803
 31
0.0
  0
LINE
  5
10AB4
  8
AM_0
 10
84.012409253047849
 20
452.47072476974802
 30
0.0
 11
84.012409253047849
 21
509.90071476974799
 31
0.0
  0
ARC
  5
10AB5
  8
AM_0
 10
107.00699925304779
 20
446.65529476974808
 30
0.0
 40
1.9945760999999991
 50
179.84400999999721
 51
270.15599200000003
  0
ARC
  5
10AB6
  8
AM_0
 10
107.0149392530479
 20
445.97557476974799
 30
0.0
 40
1.994844099999999
 50
194.3627999999992
 51
269.92834200000209
  0
LINE
  5
10AB7
  8
AM_0
 10
90.122419253047966
 20
446.60073476974787
 30
0.0
 11
103.62241925304789
 21
446.60073476974787
 31
0.0
  0
LINE
  5
10AB8
  8
AM_0
 10
90.152449253047834
 20
448.23073476974798
 30
0.0
 11
103.5124392530479
 21
448.23073476974798
 31
0.0
  0
LINE
  5
10AB9
  8
AM_0
 10
90.182479253047873
 20
451.6307247697481
 30
0.0
 11
103.5124392530479
 21
451.6307247697481
 31
0.0
  0
LINE
  5
10ABA
  8
AM_0
 10
90.242419253047828
 20
456.92073476974798
 30
0.0
 11
103.5124392530479
 21
456.92073476974798
 31
0.0
  0
ARC
  5
10ABB
  8
AM_0
 10
90.1841292530479
 20
453.62612476974789
 30
0.0
 40
1.9953879999999991
 50
192.01538000000019
 51
269.9519330000021
  0
LINE
  5
10ABC
  8
AM_0
 10
88.202439253047942
 20
449.7707247697478
 30
0.0
 11
87.282399253047842
 21
453.65071476974822
 31
0.0
  0
ARC
  5
10ABD
  8
AM_0
 10
85.840739253047914
 20
451.27362476974781
 30
0.0
 40
1.5070961
 50
14.09782000000339
 51
89.935179999998283
  0
LINE
  5
10ABE
  8
AM_0
 10
85.842449253047903
 20
452.78072476974779
 30
0.0
 11
87.492479253047904
 21
452.78072476974779
 31
0.0
  0
LINE
  5
10ABF
  8
AM_0
 10
84.012379253047925
 20
452.47072476974802
 30
0.0
 11
86.832439253047923
 21
452.40073476974788
 31
0.0
  0
ARC
  5
10AC0
  8
AM_0
 10
90.119739253047925
 20
448.59850476974799
 30
0.0
 40
1.9977800999999991
 50
194.13223000000309
 51
270.07691900000231
  0
LINE
  5
10AC1
  8
AM_0
 10
88.182419253047868
 20
448.11071476974809
 30
0.0
 11
87.302409253047941
 21
451.64070476974808
 31
0.0
  0
ARC
  5
10AC2
  8
AM_0
 10
90.145249253047965
 20
450.22618476974799
 30
0.0
 40
1.9954841000000001
 50
193.19407999999811
 51
270.20654200000092
  0
LINE
  5
10AC3
  8
AM_0
 10
85.802409253047927
 20
458.86074476974801
 30
0.0
 11
88.222459253047873
 21
458.86074476974801
 31
0.0
  0
ARC
  5
10AC4
  8
AM_0
 10
85.803639253047891
 20
457.35659476974803
 30
0.0
 40
1.50414
 50
12.44475000000339
 51
90.045750000001433
  0
LINE
  5
10AC5
  8
AM_0
 10
85.822429253047858
 20
454.80074476974801
 30
0.0
 11
87.882429253047917
 21
454.80074476974801
 31
0.0
  0
ARC
  5
10AC6
  8
AM_0
 10
85.82163925304792
 20
453.29792476974779
 30
0.0
 40
1.5028081
 50
13.577820000002809
 51
89.969209999998441
  0
ARC
  5
10AC7
  8
AM_0
 10
81.274439253047831
 20
461.14659476974799
 30
0.0
 40
0.9959119600000002
 50
240.3930099999983
 51
270.45855599999942
  0
ARC
  5
10AC8
  8
AM_0
 10
83.507829253047817
 20
459.64609476974778
 30
0.0
 40
0.5046359900000002
 50
0.5237599999994802
 51
89.476240000000516
  0
LINE
  5
10AC9
  8
AM_0
 10
81.282429253047781
 20
460.15071476974782
 30
0.0
 11
83.512469253047811
 21
460.15071476974782
 31
0.0
  0
ARC
  5
10ACA
  8
AM_0
 10
90.234299253047865
 20
458.91416476974803
 30
0.0
 40
1.993431999999999
 50
190.21196999999981
 51
270.23411600000071
  0
LINE
  5
10ACB
  8
AM_0
 10
88.232469253047967
 20
453.210734769748
 30
0.0
 11
87.272449253047867
 21
457.68073476974803
 31
0.0
  0
LINE
  5
10ACC
  8
AM_0
 10
105.0124392530479
 20
448.01073476974778
 30
0.0
 11
105.0124392530479
 21
455.42073476974792
 31
0.0
  0
ARC
  5
10ACD
  8
AM_0
 10
107.0096892530479
 20
448.00794476974778
 30
0.0
 40
1.9972080000000001
 50
179.91986000000111
 51
270.08014299999962
  0
ARC
  5
10ACE
  8
AM_0
 10
107.0088392530479
 20
450.0371147697478
 30
0.0
 40
1.996383999999999
 50
179.89615999999739
 51
270.103837
  0
ARC
  5
10ACF
  8
AM_0
 10
103.62607925304791
 20
445.09383476974801
 30
0.0
 40
1.506888
 50
14.87693000000551
 51
90.137770000000501
  0
ARC
  5
10AD0
  8
AM_0
 10
103.5085892530479
 20
446.72689476974813
 30
0.0
 40
1.503848099999999
 50
0.1464000000030106
 51
89.853599999996987
  0
ARC
  5
10AD1
  8
AM_0
 10
103.51066925304789
 20
450.12894476974787
 30
0.0
 40
1.5017959999999979
 50
0.0685499999989591
 51
89.931450000001036
  0
ARC
  5
10AD2
  8
AM_0
 10
103.5067592530479
 20
455.41506476974803
 30
0.0
 40
1.505676
 50
0.2155299999989793
 51
89.784480000001125
  0
LINE
  5
10AD3
  8
AM_0
 10
77.512469253047811
 20
494.75070476974793
 30
0.0
 11
79.012469253047811
 21
494.75070476974793
 31
0.0
  0
LINE
  5
10AD4
  8
AM_0
 10
83.012409253047849
 20
493.90071476974799
 30
0.0
 11
80.012409253047835
 21
493.90071476974799
 31
0.0
  0
LINE
  5
10AD5
  8
AM_0
 10
83.012409253047849
 20
495.90072476974802
 30
0.0
 11
80.012409253047835
 21
495.90072476974802
 31
0.0
  0
LINE
  5
10AD6
  8
AM_0
 10
83.012409253047849
 20
483.90072476974791
 30
0.0
 11
80.012409253047835
 21
483.90072476974791
 31
0.0
  0
LINE
  5
10AD7
  8
AM_0
 10
83.012409253047849
 20
485.90071476974799
 30
0.0
 11
80.012409253047835
 21
485.90071476974799
 31
0.0
  0
LINE
  5
10AD8
  8
AM_0
 10
80.822409253047795
 20
474.29069476974797
 30
0.0
 11
79.622399253047888
 21
474.80069476974802
 31
0.0
  0
LINE
  5
10AD9
  8
AM_0
 10
80.87245925304785
 20
476.200714769748
 30
0.0
 11
79.722429253047835
 21
476.55072476974789
 31
0.0
  0
LINE
  5
10ADA
  8
AM_0
 10
80.772419253047815
 20
462.40071476974782
 30
0.0
 11
79.492389253047804
 21
463.170704769748
 31
0.0
  0
LINE
  5
10ADB
  8
AM_0
 10
80.762409253047849
 20
466.94075476974791
 30
0.0
 11
79.462419253047756
 21
467.79074476974802
 31
0.0
  0
LINE
  5
10ADC
  8
AM_0
 10
80.782429253047781
 20
468.05073476974798
 30
0.0
 11
79.502399253047884
 21
468.80073476974792
 31
0.0
  0
LINE
  5
10ADD
  8
AM_0
 10
80.802449253047797
 20
461.40068476974801
 30
0.0
 11
79.562459253047805
 21
462.03068476974801
 31
0.0
  0
LINE
  5
10ADE
  8
AM_0
 10
80.792439253047732
 20
463.51069476974789
 30
0.0
 11
79.542379253047784
 21
464.18069476974802
 31
0.0
  0
LINE
  5
10ADF
  8
AM_0
 10
83.012409253047849
 20
515.90071476974788
 30
0.0
 11
80.012409253047835
 21
515.90071476974788
 31
0.0
  0
LINE
  5
10AE0
  8
AM_0
 10
83.012409253047849
 20
513.90072476974785
 30
0.0
 11
80.012409253047835
 21
513.90072476974785
 31
0.0
  0
LINE
  5
10AE1
  8
AM_0
 10
83.012409253047849
 20
503.90071476974782
 30
0.0
 11
80.012409253047835
 21
503.90071476974782
 31
0.0
  0
LINE
  5
10AE2
  8
AM_0
 10
83.012409253047849
 20
505.90071476974799
 30
0.0
 11
80.012409253047835
 21
505.90071476974799
 31
0.0
  0
LINE
  5
10AE3
  8
AM_0
 10
79.012469253047811
 20
461.88070476974798
 30
0.0
 11
79.012469253047811
 21
504.90072476974802
 31
0.0
  0
ARC
  5
10AE4
  8
AM_0
 10
80.007219253047765
 20
468.62311476974799
 30
0.0
 40
0.9948279899999999
 50
179.56186999999991
 51
236.79531000000051
  0
ARC
  5
10AE5
  8
AM_0
 10
80.005639253047775
 20
461.88279476974799
 30
0.0
 40
0.99319202
 50
180.1204399999996
 51
240.2266000000005
  0
ARC
  5
10AE6
  8
AM_0
 10
80.008019253047806
 20
462.92102476974787
 30
0.0
 40
0.99558806
 50
180.0177499999989
 51
243.41250999999849
  0
ARC
  5
10AE7
  8
AM_0
 10
80.006859253047764
 20
464.02174476974778
 30
0.0
 40
0.9944360299999999
 50
180.0595100000007
 51
238.8478299999995
  0
ARC
  5
10AE8
  8
AM_0
 10
80.005639253047775
 20
465.05928476974788
 30
0.0
 40
0.9932120399999999
 50
179.91816999999921
 51
242.20065999999841
  0
ARC
  5
10AE9
  8
AM_0
 10
80.006489253047775
 20
469.65751476974799
 30
0.0
 40
0.99407601
 50
179.8153599999992
 51
239.5307999999998
  0
ARC
  5
10AEA
  8
AM_0
 10
80.008809253047843
 20
475.719134769748
 30
0.0
 40
0.99640006
 50
179.90960000000121
 51
247.18261000000129
  0
ARC
  5
10AEB
  8
AM_0
 10
80.008689253047805
 20
477.5049647697478
 30
0.0
 40
0.9962600499999998
 50
179.6695099999998
 51
253.30251000000089
  0
ARC
  5
10AEC
  8
AM_0
 10
80.007469253047816
 20
484.89578476974788
 30
0.0
 40
0.9950800499999999
 50
179.71593000000081
 51
270.28407899999871
  0
ARC
  5
10AED
  8
AM_0
 10
80.012589253047736
 20
484.90049476974781
 30
0.0
 40
1.0002040000000001
 50
90.011679999999231
 51
179.98832999999539
  0
LINE
  5
10AEE
  8
AM_0
 10
77.512409253047835
 20
489.90069476974787
 30
0.0
 11
79.012409253047849
 21
489.77069476974788
 31
0.0
  0
ARC
  5
10AEF
  8
AM_0
 10
80.007469253047816
 20
494.89580476974783
 30
0.0
 40
0.99508399
 50
179.71613000000201
 51
270.2838669999993
  0
LINE
  5
10AF0
  8
AM_0
 10
77.512469253047811
 20
492.62071476974802
 30
0.0
 11
79.012469253047811
 21
492.62071476974802
 31
0.0
  0
ARC
  5
10AF3
  8
AM_0
 10
80.012589253047736
 20
494.90051476974787
 30
0.0
 40
1.000199999999998
 50
90.011469999999875
 51
179.98853000000011
  0
ARC
  5
10AF4
  8
AM_0
 10
80.007469253047816
 20
504.89578476974788
 30
0.0
 40
0.9950879799999999
 50
179.71634999999941
 51
270.28365500000041
  0
ARC
  5
10AF5
  8
AM_0
 10
80.012589253047736
 20
504.90051476974799
 30
0.0
 40
1.0001959999999981
 50
90.011260000000647
 51
179.98875000000049
  0
ARC
  5
10AF6
  8
AM_0
 10
80.007469253047816
 20
514.89578476974805
 30
0.0
 40
0.9950800499999999
 50
179.7159000000002
 51
270.28410600000052
  0
ARC
  5
10AF8
  8
AM_0
 10
80.012589253047736
 20
514.90049476974798
 30
0.0
 40
1.0002040000000001
 50
90.011700000001682
 51
179.9882999999983
  0
LINE
  5
10AF9
  8
AM_0
 10
129.01243925304789
 20
463.55074476974818
 30
0.0
 11
94.012439253047873
 21
465.58074476974821
 31
0.0
  0
ARC
  5
10AFA
  8
AM_0
 10
106.0124392530479
 20
474.900734769748
 30
0.0
 40
1.0000040999999991
 50
90.0
 51
269.99999700000228
  0
ARC
  5
10AFB
  8
AM_0
 10
98.562489253047971
 20
474.900734769748
 30
0.0
 40
1.0000040999999991
 50
90.0
 51
269.99999700000228
  0
ARC
  5
10AFC
  8
AM_0
 10
97.692429253047877
 20
474.85573476974781
 30
0.0
 40
1.6750081000000001
 50
90.0
 51
269.99999700000228
  0
LINE
  5
10AFD
  8
AM_0
 10
84.012439253047873
 20
475.59073476974822
 30
0.0
 11
94.012439253047873
 21
475.59073476974822
 31
0.0
  0
LINE
  5
10AFE
  8
AM_0
 10
84.012439253047873
 20
461.55074476974801
 30
0.0
 11
94.012439253047873
 21
461.55074476974801
 31
0.0
  0
LINE
  5
10AFF
  8
AM_0
 10
84.012439253047873
 20
467.210734769748
 30
0.0
 11
94.012439253047873
 21
467.210734769748
 31
0.0
  0
ARC
  5
10B00
  8
AM_0
 10
83.010029253047847
 20
468.91308476974802
 30
0.0
 40
1.002375999999999
 50
270.1355900000006
 51
359.86440800999611
  0
ARC
  5
10B01
  8
AM_0
 10
81.237199253047834
 20
462.29474476974792
 30
0.0
 40
0.9941280500000002
 50
244.0651900000021
 51
270.8771919999981
  0
ARC
  5
10B02
  8
AM_0
 10
81.281269253047739
 20
463.25491476974798
 30
0.0
 40
0.9942600099999999
 50
239.21890999999769
 51
270.64411800000079
  0
ARC
  5
10B03
  8
AM_0
 10
81.247519253047813
 20
464.39607476974783
 30
0.0
 40
0.99546796
 50
242.79633999999999
 51
270.85855199999838
  0
ARC
  5
10B04
  8
AM_0
 10
83.013449253047852
 20
464.39972476974799
 30
0.0
 40
0.9990080599999998
 50
269.94315700000072
 51
0.0568500000028607
  0
ARC
  5
10B05
  8
AM_0
 10
83.514059253047776
 20
461.79907476974802
 30
0.0
 40
0.4983640000000002
 50
269.81140200000237
 51
0.1885899999984164
  0
LINE
  5
10B06
  8
AM_0
 10
81.292439253047746
 20
462.26072476974781
 30
0.0
 11
84.012409253047849
 21
462.26072476974781
 31
0.0
  0
LINE
  5
10B07
  8
AM_0
 10
81.262469253047826
 20
463.40071476974799
 30
0.0
 11
83.012409253047849
 21
463.40071476974799
 31
0.0
  0
LINE
  5
10B08
  8
AM_0
 10
81.252399253047884
 20
461.30072476974789
 30
0.0
 11
83.512469253047811
 21
461.30072476974789
 31
0.0
  0
LINE
  5
10B09
  8
AM_0
 10
81.012409253047835
 20
462.50070476974793
 30
0.0
 11
81.012409253047835
 21
463.05070476974799
 31
0.0
  0
ARC
  5
10B0A
  8
AM_0
 10
81.319049253047865
 20
467.76690476974801
 30
0.0
 40
0.9962120099999999
 50
236.03009999999909
 51
269.61809400000141
  0
ARC
  5
10B0B
  8
AM_0
 10
81.291829253047794
 20
468.90719476974778
 30
0.0
 40
0.9965200400000001
 50
239.2567200000006
 51
269.45878700000048
  0
LINE
  5
10B0C
  8
AM_0
 10
81.312459253047805
 20
466.77070476974802
 30
0.0
 11
84.012409253047849
 21
466.77070476974802
 31
0.0
  0
LINE
  5
10B0D
  8
AM_0
 10
81.282429253047781
 20
467.91072476974801
 30
0.0
 11
83.012409253047849
 21
467.91072476974801
 31
0.0
  0
LINE
  5
10B0E
  8
AM_0
 10
81.012409253047835
 20
467.07072476974793
 30
0.0
 11
81.012409253047835
 21
467.54071476974792
 31
0.0
  0
ARC
  5
10B0F
  8
AM_0
 10
81.213399253047882
 20
475.20619476974792
 30
0.0
 40
0.99548006
 50
246.8729699999983
 51
269.94267899999801
  0
ARC
  5
10B10
  8
AM_0
 10
83.307879253047886
 20
473.50616476974801
 30
0.0
 40
0.7045519900000002
 50
0.3691099999995231
 51
89.630890000000463
  0
LINE
  5
10B11
  8
AM_0
 10
81.212419253047756
 20
474.21071476974788
 30
0.0
 11
83.312399253047829
 21
474.21071476974788
 31
0.0
  0
LINE
  5
10B12
  8
AM_0
 10
81.012409253047835
 20
474.51071476974778
 30
0.0
 11
81.012409253047835
 21
475.57071476974778
 31
0.0
  0
ARC
  5
10B13
  8
AM_0
 10
97.162339253047904
 20
468.6905747697478
 30
0.0
 40
1.004135999999999
 50
314.20256400000051
 51
5.1511600000042383
  0
LINE
  5
10B14
  8
AM_0
 10
94.012439253047873
 20
461.55074476974801
 30
0.0
 11
94.012439253047873
 21
475.59073476974822
 31
0.0
  0
ARC
  5
10B15
  8
AM_0
 10
93.633649253047906
 20
472.23267476974792
 30
0.0
 40
6.0039081999999979
 50
273.61728599999782
 51
314.7763070000006
  0
ARC
  5
10B16
  8
AM_0
 10
93.177349253047851
 20
468.30295476974783
 30
0.0
 40
5.0078917000000001
 50
5.4746799999994851
 51
80.401279999998295
  0
ARC
  5
10B17
  8
AM_0
 10
83.007529253047764
 20
482.89580476974783
 30
0.0
 40
1.0049318999999981
 50
0.2804200000034381
 51
89.719579999999837
  0
ARC
  5
10B18
  8
AM_0
 10
81.151569253047796
 20
477.15342476974809
 30
0.0
 40
0.99277198
 50
253.6681800000014
 51
270.62519199999991
  0
ARC
  5
10B19
  8
AM_0
 10
83.014119253047738
 20
477.1590147697479
 30
0.0
 40
0.99829602
 50
269.90203899999779
 51
0.097959999996099
  0
LINE
  5
10B1A
  8
AM_0
 10
81.162439253047751
 20
476.16072476974801
 30
0.0
 11
83.012409253047849
 21
476.16072476974801
 31
0.0
  0
ARC
  5
10B1B
  8
AM_0
 10
83.012589253047736
 20
486.90056476974797
 30
0.0
 40
0.99985206
 50
269.99145300000112
 51
0.0085499999998415
  0
LINE
  5
10B1C
  8
AM_0
 10
81.012409253047835
 20
484.27070476974802
 30
0.0
 11
81.012409253047835
 21
485.64070476974803
 31
0.0
  0
ARC
  5
10B1D
  8
AM_0
 10
97.472459253047873
 20
484.87572476974799
 30
0.0
 40
1.4650000000000001
 50
90.0
 51
269.99999700000228
  0
ARC
  5
10B1E
  8
AM_0
 10
98.562489253047971
 20
484.90073476974788
 30
0.0
 40
1.0000040999999991
 50
90.0
 51
269.99999700000228
  0
ARC
  5
10B1F
  8
AM_0
 10
106.0124392530479
 20
484.90073476974788
 30
0.0
 40
1.0000040999999991
 50
90.0
 51
269.99999700000228
  0
ARC
  5
10B20
  8
AM_0
 10
83.012589253047736
 20
506.90056476974792
 30
0.0
 40
0.99984801
 50
269.99122099999857
 51
0.0087799999995646
  0
ARC
  5
10B21
  8
AM_0
 10
88.342449253047903
 20
494.89072476974809
 30
0.0
 40
1.3300000000000001
 50
90.0
 51
269.99999700000228
  0
ARC
  5
10B22
  8
AM_0
 10
83.007529253047764
 20
492.895804769748
 30
0.0
 40
1.004928
 50
0.2802199999997394
 51
89.719780000000256
  0
ARC
  5
10B23
  8
AM_0
 10
83.012589253047736
 20
496.900574769748
 30
0.0
 40
0.9998440099999999
 50
269.99100899999809
 51
0.0089900000036835
  0
LINE
  5
10B24
  8
AM_0
 10
81.012409253047835
 20
494.29072476974778
 30
0.0
 11
81.012409253047835
 21
495.50070476974793
 31
0.0
  0
ARC
  5
10B25
  8
AM_0
 10
89.56376925304788
 20
494.90071476974788
 30
0.0
 40
1.000035999999999
 50
89.500709999998364
 51
270.49928399999988
  0
ARC
  5
10B26
  8
AM_0
 10
88.282459253047946
 20
504.89574476974781
 30
0.0
 40
1.265004
 50
90.0
 51
269.99999700000228
  0
LINE
  5
10B27
  8
AM_0
 10
81.012409253047835
 20
504.29071476974781
 30
0.0
 11
81.012409253047835
 21
505.45073476974778
 31
0.0
  0
ARC
  5
10B28
  8
AM_0
 10
83.007529253047764
 20
502.8958147697478
 30
0.0
 40
1.0049238999999981
 50
0.2800100000028081
 51
89.719990000000479
  0
ARC
  5
10B29
  8
AM_0
 10
89.56376925304788
 20
504.90073476974811
 30
0.0
 40
1.000035999999999
 50
89.500709999998364
 51
270.49928399999988
  0
ARC
  5
10B2A
  8
AM_0
 10
106.0124392530479
 20
494.90071476974788
 30
0.0
 40
1.0000040999999991
 50
90.0
 51
269.99999700000228
  0
ARC
  5
10B2B
  8
AM_0
 10
106.0124392530479
 20
504.90073476974811
 30
0.0
 40
1.0000040999999991
 50
90.0
 51
269.99999700000228
  0
ARC
  5
10B2C
  8
AM_0
 10
89.56376925304788
 20
514.90073476974806
 30
0.0
 40
1.000035999999999
 50
89.500709999998364
 51
270.49928399999988
  0
ARC
  5
10B2D
  8
AM_0
 10
88.282459253047946
 20
514.90073476974806
 30
0.0
 40
1.270003999999999
 50
90.0
 51
269.99999700000228
  0
ARC
  5
10B2E
  8
AM_0
 10
83.007469253047816
 20
512.89579476974802
 30
0.0
 40
1.0049318999999981
 50
0.2804500000010229
 51
89.719550000002215
  0
ARC
  5
10B2F
  8
AM_0
 10
83.012589253047736
 20
516.90056476974803
 30
0.0
 40
0.99985206
 50
269.9914259999988
 51
0.0085700000020774
  0
LINE
  5
10B30
  8
AM_0
 10
81.012409253047835
 20
515.51072476974775
 30
0.0
 11
81.012409253047835
 21
514.35070476974818
 31
0.0
  0
ARC
  5
10B31
  8
AM_0
 10
106.0124392530479
 20
514.90073476974806
 30
0.0
 40
1.0000040999999991
 50
90.0
 51
269.99999700000228
  0
LINE
  5
10B32
  8
AM_0
 10
80.782429253047781
 20
559.51068376974786
 30
0.0
 11
79.512409253047849
 21
558.78068776974806
 31
0.0
  0
LINE
  5
10B33
  8
AM_0
 10
80.802389253047735
 20
558.39068876974795
 30
0.0
 11
79.562399253047829
 21
557.76069076974807
 31
0.0
  0
LINE
  5
10B34
  8
AM_0
 10
80.762409253047849
 20
552.86070476974805
 30
0.0
 11
79.462419253047756
 21
552.01069876974805
 31
0.0
  0
LINE
  5
10B35
  8
AM_0
 10
80.772419253047815
 20
557.40068276974796
 30
0.0
 11
79.492389253047804
 21
556.63067076974801
 31
0.0
  0
LINE
  5
10B36
  8
AM_0
 10
80.782429253047781
 20
551.75069676974795
 30
0.0
 11
79.502459253047846
 21
551.00071176974802
 31
0.0
  0
LINE
  5
10B37
  8
AM_0
 10
80.792439253047732
 20
556.28071776974798
 30
0.0
 11
79.542439253047732
 21
555.62072976974775
 31
0.0
  0
LINE
  5
10B38
  8
AM_0
 10
80.822409253047795
 20
545.51069076974795
 30
0.0
 11
79.62245925304785
 21
544.99072476974789
 31
0.0
  0
LINE
  5
10B39
  8
AM_0
 10
80.87245925304785
 20
543.60069476974775
 30
0.0
 11
79.722429253047835
 21
543.24069476974785
 31
0.0
  0
LINE
  5
10B3A
  8
AM_0
 10
77.512469253047811
 20
525.05072476974806
 30
0.0
 11
79.012469253047811
 21
525.05072476974806
 31
0.0
  0
LINE
  5
10B3B
  8
AM_0
 10
83.012409253047849
 20
535.90070476974802
 30
0.0
 11
80.012409253047835
 21
535.90070476974802
 31
0.0
  0
LINE
  5
10B3C
  8
AM_0
 10
83.012409253047849
 20
533.90071476974776
 30
0.0
 11
80.012409253047835
 21
533.90071476974776
 31
0.0
  0
LINE
  5
10B3D
  8
AM_0
 10
83.012409253047849
 20
525.90072476974785
 30
0.0
 11
80.012409253047835
 21
525.90072476974785
 31
0.0
  0
LINE
  5
10B3E
  8
AM_0
 10
83.012409253047849
 20
523.90070476974802
 30
0.0
 11
80.012409253047835
 21
523.90070476974802
 31
0.0
  0
ARC
  5
10B3F
  8
AM_0
 10
80.007469253047816
 20
524.89579476974802
 30
0.0
 40
0.99508399
 50
179.7161099999955
 51
270.2838940000006
  0
LINE
  5
10B40
  8
AM_0
 10
77.512469253047811
 20
527.18071476974785
 30
0.0
 11
79.012469253047811
 21
527.18071476974785
 31
0.0
  0
ARC
  5
10B42
  8
AM_0
 10
80.012589253047736
 20
524.90050476974795
 30
0.0
 40
1.000199999999998
 50
90.011489999999029
 51
179.98849999999649
  0
LINE
  5
10B44
  8
AM_0
 10
77.512469253047811
 20
529.90071476974776
 30
0.0
 11
79.012409253047849
 21
530.03071476974799
 31
0.0
  0
ARC
  5
10B45
  8
AM_0
 10
80.012589253047736
 20
534.90051476974804
 30
0.0
 40
1.0001959999999981
 50
90.011279999999786
 51
179.9887199999969
  0
ARC
  5
10B46
  8
AM_0
 10
80.007469253047816
 20
534.89577476974819
 30
0.0
 40
0.99508399
 50
179.71632000000011
 51
270.2836760000007
  0
ARC
  5
10B47
  8
AM_0
 10
80.008929253047867
 20
544.07224476974795
 30
0.0
 40
0.9964760499999998
 50
112.8203400000012
 51
180.08741999999921
  0
ARC
  5
10B48
  8
AM_0
 10
80.008809253047843
 20
542.28637176974803
 30
0.0
 40
0.9963800299999999
 50
106.7029300000017
 51
179.75050999999979
  0
ARC
  5
10B49
  8
AM_0
 10
80.011499253047873
 20
551.17602776974786
 30
0.0
 40
0.9991000299999999
 50
123.3382299999985
 51
180.30457999999891
  0
ARC
  5
10B4A
  8
AM_0
 10
80.010889253047836
 20
550.14141276974794
 30
0.0
 40
0.9984599899999999
 50
120.613450000001
 51
180.04038000000051
  0
ARC
  5
10B4B
  8
AM_0
 10
80.010149253047871
 20
554.73942076974799
 30
0.0
 40
0.99770796
 50
117.9552399999974
 51
179.92595000000051
  0
ARC
  5
10B4C
  8
AM_0
 10
80.008079253047896
 20
556.87035576974802
 30
0.0
 40
0.99566799
 50
116.59017000000139
 51
179.9795699999992
  0
ARC
  5
10B4D
  8
AM_0
 10
80.010029253047833
 20
557.91604876974804
 30
0.0
 40
0.9976240400000001
 50
119.92045999999741
 51
179.73248999999609
  0
ARC
  5
10B4E
  8
AM_0
 10
80.011189253047732
 20
555.77721676974795
 30
0.0
 40
0.9987800700000001
 50
121.2914499999994
 51
180.37332999999981
  0
ARC
  5
10B4F
  8
AM_0
 10
93.642689253047905
 20
547.55422476974798
 30
0.0
 40
6.007896399999999
 50
45.382730000005701
 51
86.471550000001656
  0
LINE
  5
10B50
  8
AM_0
 10
94.012439253047873
 20
558.25072476974788
 30
0.0
 11
94.012439253047873
 21
546.56072438187925
 31
0.0
  0
ARC
  5
10B51
  8
AM_0
 10
83.012589253047736
 20
536.90055476974806
 30
0.0
 40
0.99984801
 50
269.99119299999802
 51
0.0088100000029374
  0
ARC
  5
10B52
  8
AM_0
 10
88.342449253047903
 20
524.91071476974821
 30
0.0
 40
1.3300000000000001
 50
90.0
 51
269.99999700000228
  0
ARC
  5
10B53
  8
AM_0
 10
83.007529253047764
 20
522.895804769748
 30
0.0
 40
1.004928
 50
0.2802399999999659
 51
89.719760000000036
  0
LINE
  5
10B54
  8
AM_0
 10
81.012409253047835
 20
525.51070476974803
 30
0.0
 11
81.012409253047835
 21
524.29072476974795
 31
0.0
  0
ARC
  5
10B55
  8
AM_0
 10
83.012589253047736
 20
526.90056476974803
 30
0.0
 40
0.9998440099999999
 50
269.9909820000023
 51
0.0090200000005597
  0
ARC
  5
10B56
  8
AM_0
 10
89.56376925304788
 20
524.90071476974811
 30
0.0
 40
1.000035999999999
 50
89.500709999998364
 51
270.49928399999988
  0
ARC
  5
10B57
  8
AM_0
 10
88.472459253047873
 20
534.92073476974804
 30
0.0
 40
1.4599999999999991
 50
90.0
 51
269.99999700000228
  0
LINE
  5
10B58
  8
AM_0
 10
81.012409253047835
 20
535.53071476974776
 30
0.0
 11
81.012409253047835
 21
534.16072476974796
 31
0.0
  0
ARC
  5
10B59
  8
AM_0
 10
83.007529253047764
 20
532.89580476974777
 30
0.0
 40
1.0049238999999981
 50
0.2800300000026683
 51
89.719960000000654
  0
ARC
  5
10B5A
  8
AM_0
 10
89.562489253047943
 20
534.90072476974785
 30
0.0
 40
1.0000040999999991
 50
90.0
 51
269.99999700000228
  0
ARC
  5
10B5B
  8
AM_0
 10
106.0124392530479
 20
524.90071476974811
 30
0.0
 40
1.0000040999999991
 50
90.0
 51
269.99999700000228
  0
ARC
  5
10B5C
  8
AM_0
 10
106.0124392530479
 20
534.90072476974785
 30
0.0
 40
1.0000040999999991
 50
90.0
 51
269.99999700000228
  0
ARC
  5
10B5D
  8
AM_0
 10
89.562491882969553
 20
544.90073181974788
 30
0.0
 40
1.000007050003423
 50
90.000150682346145
 51
269.99984931765061
  0
ARC
  5
10B5E
  8
AM_0
 10
88.692429253047877
 20
544.94573476974813
 30
0.0
 40
1.6750081000000001
 50
90.0
 51
269.99999700000228
  0
LINE
  5
10B5F
  8
AM_0
 10
81.012409253047835
 20
545.29072076974785
 30
0.0
 11
81.012409253047835
 21
544.2307227697479
 31
0.0
  0
LINE
  5
10B60
  8
AM_0
 10
84.012439253047873
 20
544.20072476974804
 30
0.0
 11
87.182479253047845
 21
544.20072476974804
 31
0.0
  0
ARC
  5
10B61
  8
AM_0
 10
83.009119253047714
 20
542.63736176974805
 30
0.0
 40
1.003363999999999
 50
0.1917199999970875
 51
89.808290000001264
  0
ARC
  5
10B62
  8
AM_0
 10
81.152979253047874
 20
542.63802576974797
 30
0.0
 40
1.0027280000000001
 50
89.459600000000535
 51
106.24703000000051
  0
LINE
  5
10B63
  8
AM_0
 10
81.162439253047751
 20
543.64071076974801
 30
0.0
 11
83.012409253047849
 21
543.64071076974801
 31
0.0
  0
ARC
  5
10B64
  8
AM_0
 10
83.313009253047767
 20
546.29015576974803
 30
0.0
 40
0.69944
 50
269.95415999999977
 51
0.045840000000191
  0
ARC
  5
10B65
  8
AM_0
 10
81.215409253047824
 20
544.58548976974805
 30
0.0
 40
1.005223999999999
 50
90.170639999999636
 51
113.0137099999986
  0
LINE
  5
10B66
  8
AM_0
 10
81.212419253047756
 20
545.59071576974804
 30
0.0
 11
83.312399253047829
 21
545.59071576974804
 31
0.0
  0
ARC
  5
10B67
  8
AM_0
 10
81.275779253047858
 20
550.87971676974803
 30
0.0
 40
1.001012
 50
89.619799999999586
 51
119.5286400000026
  0
ARC
  5
10B68
  8
AM_0
 10
83.009969253047757
 20
550.87825276974775
 30
0.0
 40
1.0024599999999999
 50
0.1403799999989609
 51
89.859620000001044
  0
LINE
  5
10B69
  8
AM_0
 10
81.282429253047781
 20
551.88070876974803
 30
0.0
 11
83.012409253047849
 21
551.88070876974803
 31
0.0
  0
ARC
  5
10B6A
  8
AM_0
 10
106.0124392530479
 20
544.90073476974806
 30
0.0
 40
1.0000040999999991
 50
90.0
 51
269.99999700000228
  0
ARC
  5
10B6B
  8
AM_0
 10
97.158979253047846
 20
551.10963476974814
 30
0.0
 40
1.007376
 50
354.93659510000271
 51
45.709679999997569
  0
ARC
  5
10B6C
  8
AM_0
 10
93.182659253047845
 20
551.493604769748
 30
0.0
 40
5.0021839000000003
 50
279.54857499999889
 51
354.57547400000232
  0
LINE
  5
10B6D
  8
AM_0
 10
129.01249925304779
 20
556.25072476974799
 30
0.0
 11
94.012499253047849
 21
554.22072476974802
 31
0.0
  0
ARC
  5
10B6E
  8
AM_0
 10
90.184369253047862
 20
566.16502376974802
 30
0.0
 40
1.995695899999999
 50
90.05521999999722
 51
167.97747000000001
  0
LINE
  5
10B6F
  8
AM_0
 10
84.012439253047873
 20
567.33073376974801
 30
0.0
 11
86.832439253047923
 21
567.40073376974783
 31
0.0
  0
ARC
  5
10B70
  8
AM_0
 10
85.847399253047911
 20
568.52250676974802
 30
0.0
 40
1.501779999999999
 50
269.81061700000078
 51
345.66716400000013
  0
LINE
  5
10B71
  8
AM_0
 10
105.0124392530479
 20
571.79073276974782
 30
0.0
 11
105.0124392530479
 21
564.38072976974775
 31
0.0
  0
LINE
  5
10B72
  8
AM_0
 10
88.202439253047942
 20
570.03073876974781
 30
0.0
 11
87.282399253047842
 21
566.15074176974815
 31
0.0
  0
LINE
  5
10B73
  8
AM_0
 10
84.012439253047873
 20
558.25072476974788
 30
0.0
 11
94.012439253047873
 21
558.25072476974788
 31
0.0
  0
LINE
  5
10B74
  8
AM_0
 10
90.242419253047828
 20
562.88072976974797
 30
0.0
 11
103.5124392530479
 21
562.88072976974797
 31
0.0
  0
LINE
  5
10B75
  8
AM_0
 10
84.012439253047873
 20
552.59072476974814
 30
0.0
 11
94.012439253047873
 21
552.59072476974814
 31
0.0
  0
LINE
  5
10B76
  8
AM_0
 10
87.732469253047938
 20
558.25072476974788
 30
0.0
 11
88.272509253047929
 21
561.24074576974795
 31
0.0
  0
ARC
  5
10B77
  8
AM_0
 10
83.512839253047801
 20
560.15027876974796
 30
0.0
 40
0.49955601
 50
269.94910599999918
 51
0.0508899999968759
  0
ARC
  5
10B78
  8
AM_0
 10
81.305199253047789
 20
552.02021276974801
 30
0.0
 40
1.0005360000000001
 50
89.586780000001141
 51
122.8536000000007
  0
LINE
  5
10B79
  8
AM_0
 10
81.312459253047805
 20
553.02072376974797
 30
0.0
 11
84.012409253047849
 21
553.02072376974797
 31
0.0
  0
LINE
  5
10B7A
  8
AM_0
 10
81.012409253047835
 20
552.73070776974805
 30
0.0
 11
81.012409253047835
 21
552.26072176974799
 31
0.0
  0
ARC
  5
10B7B
  8
AM_0
 10
81.293109253047774
 20
558.64963776974776
 30
0.0
 40
1.001135899999998
 50
90.612490000000719
 51
120.6719999999964
  0
ARC
  5
10B7C
  8
AM_0
 10
81.258259253047754
 20
557.50145176974786
 30
0.0
 40
0.99928796
 50
90.333809999998678
 51
117.13873000000299
  0
ARC
  5
10B7D
  8
AM_0
 10
83.508989253047844
 20
557.99732476974805
 30
0.0
 40
0.50340396
 50
0.3861299999981976
 51
89.613870000001796
  0
LINE
  5
10B7E
  8
AM_0
 10
81.282429253047781
 20
559.65072076974775
 30
0.0
 11
83.512469253047811
 21
559.65072076974775
 31
0.0
  0
LINE
  5
10B7F
  8
AM_0
 10
81.252399253047884
 20
558.50070376974804
 30
0.0
 11
83.512469253047811
 21
558.50070376974804
 31
0.0
  0
LINE
  5
10B80
  8
AM_0
 10
81.012409253047835
 20
559.40071376974799
 30
0.0
 11
81.012409253047835
 21
558.87071476974802
 31
0.0
  0
ARC
  5
10B81
  8
AM_0
 10
81.283769253047808
 20
556.53705776974778
 30
0.0
 40
1.003687999999999
 50
89.507249999999203
 51
120.62973000000081
  0
LINE
  5
10B82
  8
AM_0
 10
81.292439253047746
 20
557.54070476974789
 30
0.0
 11
84.012409253047849
 21
557.54070476974789
 31
0.0
  0
LINE
  5
10B83
  8
AM_0
 10
81.262469253047826
 20
556.40071376974799
 30
0.0
 11
83.012409253047849
 21
556.40071376974799
 31
0.0
  0
LINE
  5
10B84
  8
AM_0
 10
81.012409253047835
 20
557.30072276974795
 30
0.0
 11
81.012409253047835
 21
556.75071976974777
 31
0.0
  0
ARC
  5
10B85
  8
AM_0
 10
81.267599253047806
 20
555.40008776974798
 30
0.0
 40
1.0006280000000001
 50
90.295290000000691
 51
118.3501400000022
  0
ARC
  5
10B86
  8
AM_0
 10
83.008379253047806
 20
555.39663176974796
 30
0.0
 40
1.004083999999998
 50
0.2326300000036288
 51
89.767369999999616
  0
LINE
  5
10B87
  8
AM_0
 10
85.842449253047903
 20
567.02072176974798
 30
0.0
 11
87.492479253047904
 21
567.02072176974798
 31
0.0
  0
LINE
  5
10B88
  8
AM_0
 10
85.822429253047858
 20
565.00072476974776
 30
0.0
 11
87.882429253047917
 21
565.00072476974776
 31
0.0
  0
ARC
  5
10B89
  8
AM_0
 10
85.826769253047928
 20
566.49706276974814
 30
0.0
 40
1.4963319999999991
 50
269.83540999999917
 51
346.617561999999
  0
LINE
  5
10B8A
  8
AM_0
 10
85.802409253047927
 20
560.93072476974805
 30
0.0
 11
88.222459253047873
 21
560.93072476974805
 31
0.0
  0
ARC
  5
10B8B
  8
AM_0
 10
85.802599253047902
 20
562.43351776974782
 30
0.0
 40
1.5027881000000001
 50
269.9953320000032
 51
347.98665799999787
  0
ARC
  5
10B8C
  8
AM_0
 10
90.239429253047874
 20
560.88110376974782
 30
0.0
 40
1.9996280999999989
 50
89.914670000000115
 51
169.63923999999781
  0
LINE
  5
10B8D
  8
AM_0
 10
88.232469253047967
 20
566.58073376974778
 30
0.0
 11
87.272449253047867
 21
562.12071976974778
 31
0.0
  0
ARC
  5
10B8E
  8
AM_0
 10
103.5120692530479
 20
564.38109576974784
 30
0.0
 40
1.5003600999999991
 50
270.01381500000002
 51
359.98618399999862
  0
LINE
  5
10B8F
  8
AM_0
 10
90.152449253047834
 20
571.57073176974779
 30
0.0
 11
103.5124392530479
 21
571.57073176974779
 31
0.0
  0
LINE
  5
10B90
  8
AM_0
 10
90.122419253047966
 20
573.20073676974778
 30
0.0
 11
103.62241925304789
 21
573.20073676974778
 31
0.0
  0
LINE
  5
10B91
  8
AM_0
 10
90.182479253047873
 20
568.16073576974782
 30
0.0
 11
103.5124392530479
 21
568.16073576974782
 31
0.0
  0
ARC
  5
10B92
  8
AM_0
 10
90.150379253047845
 20
569.56879376974814
 30
0.0
 40
2.001947899999998
 50
89.940519999998955
 51
166.65886000000151
  0
ARC
  5
10B93
  8
AM_0
 10
90.124859253047916
 20
571.19641876974777
 30
0.0
 40
2.0043239999999991
 50
90.068910000001068
 51
165.72194999999999
  0
LINE
  5
10B94
  8
AM_0
 10
88.182479253047859
 20
571.69071976974783
 30
0.0
 11
87.302479253047849
 21
568.15071876974821
 31
0.0
  0
ARC
  5
10B95
  8
AM_0
 10
107.0135392530479
 20
573.81430076974789
 30
0.0
 40
1.996427999999999
 50
90.032390000001968
 51
165.30536999999919
  0
ARC
  5
10B96
  8
AM_0
 10
107.0122492530479
 20
573.14090676974786
 30
0.0
 40
1.999824
 50
89.994939999998735
 51
180.00506000000121
  0
ARC
  5
10B97
  8
AM_0
 10
107.0140792530478
 20
569.75908676974802
 30
0.0
 40
2.001640099999999
 50
90.046959999998165
 51
179.9530399999953
  0
ARC
  5
10B98
  8
AM_0
 10
103.51383925304781
 20
573.06928976974802
 30
0.0
 40
1.498559999999999
 50
269.94488499999687
 51
0.055119999999415
  0
ARC
  5
10B99
  8
AM_0
 10
103.5109092530479
 20
569.66224676974821
 30
0.0
 40
1.5015080999999979
 50
270.05754899999692
 51
359.94245300200021
  0
ARC
  5
10B9A
  8
AM_0
 10
107.0149392530479
 20
571.78821576974804
 30
0.0
 40
2.0025157999999981
 50
90.071899999999786
 51
179.9281000000002
  0
ARC
  5
10B9B
  8
AM_0
 10
103.63114925304779
 20
574.70101176974811
 30
0.0
 40
1.5003120000000001
 50
269.66833699999898
 51
345.31696600000072
  0
LINE
  5
10B9C
  8
AM_0
 10
231.01243925304789
 20
446.9007197697477
 30
0.0
 11
231.0124392692407
 21
572.90068874558267
 31
0.0
  0
LINE
  5
10B9E
  8
AM_0
 10
225.75245925304779
 20
449.52072476974803
 30
0.0
 11
229.21244925304791
 21
462.44074476974771
 31
0.0
  0
ARC
  5
10B9F
  8
AM_0
 10
160.01182925304789
 20
445.98134476974792
 30
0.0
 40
2.000623899999999
 50
270.01782400000212
 51
359.9821759990013
  0
ARC
  5
10BA0
  8
AM_0
 10
160.01536925304791
 20
446.65781476974809
 30
0.0
 40
1.9970881
 50
269.91637499999922
 51
0.0836200000014677
  0
ARC
  5
10BA1
  8
AM_0
 10
160.01267925304779
 20
448.01046476974778
 30
0.0
 40
1.9997199999999991
 50
269.99193799999972
 51
0.0080600000040013
  0
LINE
  5
10BA2
  8
AM_0
 10
162.01243925304789
 20
445.98073476974798
 30
0.0
 11
162.01243925304789
 21
448.04073476974781
 31
0.0
  0
LINE
  5
10BA3
  8
AM_0
 10
230.7224592530479
 20
458.86074476974801
 30
0.0
 11
228.3124592530479
 21
458.86074476974801
 31
0.0
  0
LINE
  5
10BA4
  8
AM_0
 10
225.72242925304781
 20
449.400734769748
 30
0.0
 11
231.01243925304789
 21
449.400734769748
 31
0.0
  0
ARC
  5
10BA5
  8
AM_0
 10
230.71827925304791
 20
457.36025476974783
 30
0.0
 40
1.500475999999999
 50
89.841720000000251
 51
167.6677700000013
  0
LINE
  5
10BA6
  8
AM_0
 10
227.82242925304789
 20
450.98069476974803
 30
0.0
 11
229.26243925304789
 21
457.68068476974781
 31
0.0
  0
ARC
  5
10BA7
  8
AM_0
 10
225.8668992530479
 20
451.40090476974808
 30
0.0
 40
2.0001799999999981
 50
269.87248500000197
 51
347.87364800000222
  0
ARC
  5
10BA8
  8
AM_0
 10
223.8228892530478
 20
450.03853476974803
 30
0.0
 40
1.997795899999999
 50
269.9864190000028
 51
344.9784029999978
  0
LINE
  5
10BA9
  8
AM_0
 10
232.01243925304789
 20
445.90071976974758
 30
0.0
 11
240.0124692530479
 21
445.90071976974758
 31
0.0
  0
ARC
  5
10BAA
  8
AM_0
 10
232.00748925304791
 20
446.8957597697476
 30
0.0
 40
0.9950640200000001
 50
179.714940000002
 51
270.28506199999953
  0
LINE
  5
10BAB
  8
AM_0
 10
232.01243925304789
 20
457.86072476974812
 30
0.0
 11
240.0124692530479
 21
457.86072476974812
 31
0.0
  0
ARC
  5
10BAC
  8
AM_0
 10
232.0068492530479
 20
458.85511476974779
 30
0.0
 40
0.9944000200000001
 50
179.6764900000021
 51
270.323509
  0
ARC
  5
10BAD
  8
AM_0
 10
224.3542592530479
 20
474.900734769748
 30
0.0
 40
1.000031899999998
 50
270.46929999999787
 51
89.530700000002156
  0
ARC
  5
10BAE
  8
AM_0
 10
227.8324392530478
 20
474.85573476974781
 30
0.0
 40
1.675
 50
269.99999700000228
 51
90.0
  0
ARC
  5
10BAF
  8
AM_0
 10
230.66270925304789
 20
462.0483347697479
 30
0.0
 40
1.502391899999999
 50
90.009360000000058
 51
164.8599899999985
  0
LINE
  5
10BB0
  8
AM_0
 10
231.01243925304789
 20
472.75072476974799
 30
0.0
 11
240.0124692530479
 21
472.75072476974799
 31
0.0
  0
ARC
  5
10BB1
  8
AM_0
 10
228.04244925304781
 20
484.87572476974799
 30
0.0
 40
1.4650000000000001
 50
270.00000299999761
 51
90.0
  0
ARC
  5
10BB2
  8
AM_0
 10
226.95241925304779
 20
484.90073476974788
 30
0.0
 40
1.0000040999999991
 50
270.00000299999761
 51
90.0
  0
ARC
  5
10BB3
  8
AM_0
 10
228.1774492530478
 20
494.89072476974809
 30
0.0
 40
1.3300000000000001
 50
270.00000299999761
 51
90.0
  0
ARC
  5
10BB4
  8
AM_0
 10
226.95612925304781
 20
494.90071476974788
 30
0.0
 40
1.000035999999999
 50
269.50071600000012
 51
90.499290000001622
  0
ARC
  5
10BB5
  8
AM_0
 10
226.95612925304781
 20
504.90073476974811
 30
0.0
 40
1.000035999999999
 50
269.50071600000012
 51
90.499290000001622
  0
ARC
  5
10BB6
  8
AM_0
 10
228.2374392530478
 20
504.89574476974781
 30
0.0
 40
1.265004
 50
270.00000299999761
 51
90.0
  0
ARC
  5
10BB7
  8
AM_0
 10
228.2374392530478
 20
514.90073476974806
 30
0.0
 40
1.270003999999999
 50
270.00000299999761
 51
90.0
  0
ARC
  5
10BB8
  8
AM_0
 10
226.95612925304781
 20
514.90073476974806
 30
0.0
 40
1.000035999999999
 50
269.50071600000012
 51
90.499290000001622
  0
ARC
  5
10BB9
  8
AM_0
 10
160.0115792530479
 20
573.80985976974785
 30
0.0
 40
2.0008759
 50
0.0251100000023943
 51
89.9748899999976
  0
ARC
  5
10BBA
  8
AM_0
 10
160.01011925304789
 20
573.13838976974796
 30
0.0
 40
2.002332
 50
0.0667400000013121
 51
89.933259999998697
  0
ARC
  5
10BBB
  8
AM_0
 10
160.00742925304789
 20
571.78572076974797
 30
0.0
 40
2.0050240000000001
 50
0.1434100000013002
 51
89.856589999998704
  0
LINE
  5
10BBC
  8
AM_0
 10
162.01243925304789
 20
573.81072976974804
 30
0.0
 11
162.01243925304789
 21
571.76072676974798
 31
0.0
  0
ARC
  5
10BBD
  8
AM_0
 10
228.1774492530478
 20
524.91071476974821
 30
0.0
 40
1.3300000000000001
 50
270.00000299999761
 51
90.0
  0
ARC
  5
10BBE
  8
AM_0
 10
226.95612925304781
 20
524.90071476974811
 30
0.0
 40
1.000035999999999
 50
269.50071600000012
 51
90.499290000001622
  0
ARC
  5
10BBF
  8
AM_0
 10
226.95740925304781
 20
534.90072476974785
 30
0.0
 40
1.0000040999999991
 50
270.00000299999761
 51
90.0
  0
ARC
  5
10BC0
  8
AM_0
 10
228.04743925304791
 20
534.92073476974804
 30
0.0
 40
1.4599999999999991
 50
270.00000299999761
 51
90.0
  0
ARC
  5
10BC1
  8
AM_0
 10
224.3542592530479
 20
544.90073476974806
 30
0.0
 40
1.000031899999998
 50
270.46929999999787
 51
89.530700000002156
  0
ARC
  5
10BC2
  8
AM_0
 10
227.8324392530478
 20
544.94573476974813
 30
0.0
 40
1.675
 50
269.99999700000228
 51
90.0
  0
LINE
  5
10BC3
  8
AM_0
 10
231.01243925304789
 20
547.05073476974815
 30
0.0
 11
240.0124692530479
 21
547.05073476974815
 31
0.0
  0
LINE
  5
10BC4
  8
AM_0
 10
227.8224592530479
 20
568.820739769748
 30
0.0
 11
229.26246925304781
 21
562.12074276974806
 31
0.0
  0
LINE
  5
10BC5
  8
AM_0
 10
225.75245925304779
 20
570.28073876974781
 30
0.0
 11
229.21244925304791
 21
557.36073276974787
 31
0.0
  0
LINE
  5
10BC6
  8
AM_0
 10
230.7224592530479
 20
560.93072476974805
 30
0.0
 11
228.3124592530479
 21
560.93072476974805
 31
0.0
  0
ARC
  5
10BC7
  8
AM_0
 10
230.65775925304791
 20
557.74672676974785
 30
0.0
 40
1.495995999999999
 50
194.95233999999431
 51
270.17829300000022
  0
ARC
  5
10BC8
  8
AM_0
 10
230.71952925304791
 20
562.43006076974814
 30
0.0
 40
1.499328
 50
191.90615999999929
 51
270.11184899999989
  0
LINE
  5
10BC9
  8
AM_0
 10
232.01243925304789
 20
561.94073476974802
 30
0.0
 11
240.0124692530479
 21
561.94073476974802
 31
0.0
  0
ARC
  5
10BCA
  8
AM_0
 10
232.01191925304781
 20
560.94125376974785
 30
0.0
 40
0.9994760199999999
 50
89.970079999999669
 51
180.0299099999979
  0
LINE
  5
10BCB
  8
AM_0
 10
225.72242925304781
 20
570.40073376974783
 30
0.0
 11
231.01243925304789
 21
570.40073376974783
 31
0.0
  0
ARC
  5
10BCC
  8
AM_0
 10
223.81785925304791
 20
569.75631676974785
 30
0.0
 40
2.0044159999999991
 50
15.16665999999886
 51
89.868520000001183
  0
ARC
  5
10BCD
  8
AM_0
 10
225.8617692530479
 20
568.39419576974819
 30
0.0
 40
2.0065319999999991
 50
12.27313000000388
 51
89.980730000003206
  0
LINE
  5
10BCE
  8
AM_0
 10
232.01243925304789
 20
573.9006997697478
 30
0.0
 11
240.0124692530479
 21
573.9006997697478
 31
0.0
  0
ARC
  5
10BCF
  8
AM_0
 10
232.01261925304789
 20
572.90050876974783
 30
0.0
 40
1.000179999999999
 50
90.010320000000135
 51
179.98968999999451
  0
LINE
  5
10BEE
  8
AM_0
 10
424.01250413666708
 20
456.90071319022479
 30
0.0
 11
349.01250190149301
 21
456.90071319022479
 31
0.0
  0
LINE
  5
10BEF
  8
AM_0
 10
424.01250413666708
 20
562.90072397866584
 30
0.0
 11
349.01250190149301
 21
562.90072397866584
 31
0.0
  0
LINE
  5
10BF0
  8
AM_0
 10
424.01250413666708
 20
456.90071319022479
 30
0.0
 11
424.01250413666708
 21
460.90071330943408
 31
0.0
  0
LINE
  5
10BF1
  8
AM_0
 10
409.01250368963241
 20
455.90071476974799
 30
0.0
 11
409.0125036896323
 21
456.90071319022479
 31
0.0
  0
LINE
  5
10BF2
  8
AM_0
 10
424.01250413666708
 20
562.90072397866584
 30
0.0
 11
424.01250413666708
 21
558.90072385945643
 31
0.0
  0
LINE
  5
10BF3
  8
AM_0
 10
409.0125036896323
 20
563.90071476974765
 30
0.0
 11
409.0125036896323
 21
562.90072397866584
 31
0.0
  0
LINE
  5
10BF4
  8
AM_0
 10
364.01250234852779
 20
455.90071476974799
 30
0.0
 11
364.01250234852779
 21
456.90071319022479
 31
0.0
  0
LINE
  5
10BF5
  8
AM_0
 10
349.01250190149301
 20
456.90071319022479
 30
0.0
 11
349.01250190149301
 21
460.90071330943408
 31
0.0
  0
LINE
  5
10BF6
  8
AM_0
 10
364.01250234852779
 20
563.90071476974765
 30
0.0
 11
364.01250234852779
 21
562.90072397866584
 31
0.0
  0
LINE
  5
10BF7
  8
AM_0
 10
349.01250190149301
 20
562.90072397866584
 30
0.0
 11
349.01250190149301
 21
558.90072385945643
 31
0.0
  0
LINE
  5
10BF8
  8
AM_0
 10
350.01250301907987
 20
449.90071476974782
 30
0.0
 11
350.01250301907987
 21
455.90071476974799
 31
0.0
  0
LINE
  5
10BF9
  8
AM_0
 10
351.01250301907987
 20
448.90071476974782
 30
0.0
 11
350.01250301907987
 21
449.90071476974782
 31
0.0
1001
GENIUS_GENFIL_13
1070
     0
1040
1.0
1040
1.0
1040
20.0
1040
0.0
1002
{
1002
}
1001
GENIUS_GENOBJ-N-CHA_13
1002
{
1000
OWNER
1000
GEN
1002
}
1001
GENIUS_GENODEF_13
1002
{
1000
HIER
1070
     0
1002
}
1002
{
1000
MANEDIT
1070
     0
1002
}
1002
{
1000
NOSEL
1070
     0
1002
}
1002
{
1000
BEHIND
1070
     0
1002
}
1002
{
1000
OTHER
1070
     0
1002
}
1002
{
1000
REACTOR
1002
}
  0
LINE
  5
10BFA
  8
AM_0
 10
422.012533536658
 20
448.90071476974782
 30
0.0
 11
351.01250301907987
 21
448.90071476974782
 31
0.0
  0
LINE
  5
10BFB
  8
AM_0
 10
423.01253353665788
 20
449.90071476974782
 30
0.0
 11
422.012533536658
 21
448.90071476974782
 31
0.0
1001
GENIUS_GENFIL_13
1070
     0
1040
1.0
1040
1.0
1040
20.0
1040
0.0
1002
{
1002
}
1001
GENIUS_GENOBJ-N-CHA_13
1002
{
1000
OWNER
1000
GEN
1002
}
1001
GENIUS_GENODEF_13
1002
{
1000
HIER
1070
     0
1002
}
1002
{
1000
MANEDIT
1070
     0
1002
}
1002
{
1000
NOSEL
1070
     0
1002
}
1002
{
1000
BEHIND
1070
     0
1002
}
1002
{
1000
OTHER
1070
     0
1002
}
1002
{
1000
REACTOR
1002
}
  0
LINE
  5
10BFC
  8
AM_0
 10
407.01253353666061
 20
448.40071476974799
 30
0.0
 11
366.01250301908283
 21
448.40071476974799
 31
0.0
  0
LINE
  5
10BFD
  8
AM_0
 10
365.51250301908283
 20
448.90071476974782
 30
0.0
 11
366.01250301908283
 21
448.40071476974799
 31
0.0
1001
GENIUS_GENFIL_13
1070
     0
1040
0.5
1040
0.5
1040
20.0
1040
0.0
1002
{
1002
}
1001
GENIUS_GENODEF_13
1002
{
1000
HIER
1070
     0
1002
}
1002
{
1000
MANEDIT
1070
     0
1002
}
1002
{
1000
NOSEL
1070
     0
1002
}
1002
{
1000
BEHIND
1070
     0
1002
}
1002
{
1000
OTHER
1070
     0
1002
}
1002
{
1000
REACTOR
1002
}
1001
GENIUS_GENOBJ-N-CHA_13
1002
{
1000
OWNER
1000
GEN
1002
}
  0
LINE
  5
10BFE
  8
AM_0
 10
407.51253353666061
 20
448.90071476974782
 30
0.0
 11
407.01253353666061
 21
448.40071476974799
 31
0.0
1001
GENIUS_GENFIL_13
1070
     0
1040
0.5
1040
0.5
1040
20.0
1040
0.0
1002
{
1002
}
1001
GENIUS_GENOBJ-N-CHA_13
1002
{
1000
OWNER
1000
GEN
1002
}
1001
GENIUS_GENODEF_13
1002
{
1000
HIER
1070
     0
1002
}
1002
{
1000
MANEDIT
1070
     0
1002
}
1002
{
1000
NOSEL
1070
     0
1002
}
1002
{
1000
BEHIND
1070
     0
1002
}
1002
{
1000
OTHER
1070
     0
1002
}
1002
{
1000
REACTOR
1002
}
  0
LINE
  5
10BFF
  8
AM_0
 10
423.01253353665788
 20
449.90071476974782
 30
0.0
 11
423.01253353665788
 21
455.90071476974799
 31
0.0
  0
LINE
  5
10C00
  8
AM_0
 10
350.01250301907987
 20
455.90071476974799
 30
0.0
 11
423.01253353665788
 21
455.90071476974799
 31
0.0
  0
LINE
  5
10C01
  8
AM_0
 10
407.01253353665697
 20
571.40071476974822
 30
0.0
 11
407.51253353665692
 21
570.90071476974822
 31
0.0
1001
GENIUS_GENFIL_13
1070
     0
1040
0.5
1040
0.5
1040
20.0
1040
0.0
1002
{
1002
}
1001
GENIUS_GENOBJ-N-CHA_13
1002
{
1000
OWNER
1000
GEN
1002
}
1001
GENIUS_GENODEF_13
1002
{
1000
HIER
1070
     0
1002
}
1002
{
1000
MANEDIT
1070
     0
1002
}
1002
{
1000
NOSEL
1070
     0
1002
}
1002
{
1000
BEHIND
1070
     0
1002
}
1002
{
1000
OTHER
1070
     0
1002
}
1002
{
1000
REACTOR
1002
}
  0
LINE
  5
10C02
  8
AM_0
 10
366.0125030190793
 20
571.40071476974765
 30
0.0
 11
365.5125030190793
 21
570.90071476974765
 31
0.0
1001
GENIUS_GENFIL_13
1070
     0
1040
0.5
1040
0.5
1040
20.0
1040
0.0
1002
{
1002
}
1001
GENIUS_GENOBJ-N-CHA_13
1002
{
1000
OWNER
1000
GEN
1002
}
1001
GENIUS_GENODEF_13
1002
{
1000
HIER
1070
     0
1002
}
1002
{
1000
MANEDIT
1070
     0
1002
}
1002
{
1000
NOSEL
1070
     0
1002
}
1002
{
1000
BEHIND
1070
     0
1002
}
1002
{
1000
OTHER
1070
     0
1002
}
1002
{
1000
REACTOR
1002
}
  0
LINE
  5
10C03
  8
AM_0
 10
350.01250301907891
 20
569.90071476974788
 30
0.0
 11
350.01250301907919
 21
563.90071476974765
 31
0.0
  0
LINE
  5
10C04
  8
AM_0
 10
351.01250301907879
 20
570.90071476974776
 30
0.0
 11
350.01250301907891
 21
569.90071476974788
 31
0.0
1001
GENIUS_GENFIL_13
1070
     0
1040
1.0
1040
1.0
1040
20.0
1040
0.0
1002
{
1002
}
1001
GENIUS_GENODEF_13
1002
{
1000
HIER
1070
     0
1002
}
1002
{
1000
MANEDIT
1070
     0
1002
}
1002
{
1000
NOSEL
1070
     0
1002
}
1002
{
1000
BEHIND
1070
     0
1002
}
1002
{
1000
OTHER
1070
     0
1002
}
1002
{
1000
REACTOR
1002
}
1001
GENIUS_GENOBJ-N-CHA_13
1002
{
1000
OWNER
1000
GEN
1002
}
  0
LINE
  5
10C05
  8
AM_0
 10
422.01253353665709
 20
570.90071476974845
 30
0.0
 11
351.01250301907879
 21
570.90071476974776
 31
0.0
  0
LINE
  5
10C06
  8
AM_0
 10
407.01253353665697
 20
571.40071476974822
 30
0.0
 11
366.0125030190793
 21
571.40071476974765
 31
0.0
  0
LINE
  5
10C07
  8
AM_0
 10
423.01253353665709
 20
569.90071476974845
 30
0.0
 11
423.01253353665709
 21
563.90071476974845
 31
0.0
  0
LINE
  5
10C08
  8
AM_0
 10
422.01253353665709
 20
570.90071476974845
 30
0.0
 11
423.01253353665709
 21
569.90071476974845
 31
0.0
1001
GENIUS_GENFIL_13
1070
     0
1040
1.0
1040
1.0
1040
20.0
1040
0.0
1002
{
1002
}
1001
GENIUS_GENODEF_13
1002
{
1000
HIER
1070
     0
1002
}
1002
{
1000
MANEDIT
1070
     0
1002
}
1002
{
1000
NOSEL
1070
     0
1002
}
1002
{
1000
BEHIND
1070
     0
1002
}
1002
{
1000
OTHER
1070
     0
1002
}
1002
{
1000
REACTOR
1002
}
1001
GENIUS_GENOBJ-N-CHA_13
1002
{
1000
OWNER
1000
GEN
1002
}
  0
LINE
  5
10C09
  8
AM_0
 10
350.01250301907987
 20
563.90071476974765
 30
0.0
 11
423.01253353665788
 21
563.90071476974765
 31
0.0
  0
TEXT
  5
10DA1
  8
AM_0
 10
517.24252950155915
 20
481.65297321255622
 30
0.0
 40
10.0
  1
VC04-010MHW~VC04-060MHW
1001
ACAD
1000
MTEXTBEGIN
1070
    73
1070
     1
1070
    44
1040
1.0
1070
    74
1070
     0
1000
MTEXTEND
  0
VIEWPORT
  5
89
 67
     1
  8
0
 10
210.0
 20
148.5
 30
0.0
 40
420.0
 41
297.0
 68
     1
 69
     1
1001
ACAD
1000
MVIEW
1002
{
1070
    16
1010
0.0
1020
0.0
1030
0.0
1010
0.0
1020
0.0
1030
1.0
1040
0.0
1040
297.0
1040
221.70154043645701
1040
148.5
1040
50.0
1040
0.0
1040
0.0
1070
     0
1070
   100
1070
     1
1070
     1
1070
     0
1070
     0
1070
     0
1070
     0
1040
0.0
1040
0.0
1040
0.0
1040
10.0
1040
10.0
1040
10.0
1040
10.0
1070
     0
1002
{
1002
}
1002
}
1001
GENIUS_GENOREF_13
1005
1B94
1001
GENIUS_GENSCREG_15
1000
PF
1040
1.0
1000
DF
1040
1.0
1000
MIN
1011
0.0
1021
0.0
1031
0.0
1021
0.0
1031
0.0
1000
MAX
1011
420.0
1021
0.0
1031
0.0
1021
297.0
1031
0.0
1000
FLAGS
1070
     4
  0
ENDSEC
  0
EOF
