  0
SECTION
  2
HEADER
  9
$ACADVER
  1
AC1009
  9
$INSBASE
 10
0.0
 20
0.0
 30
0.0
  9
$EXTMIN
 10
137.37057709830171
 20
172.12894498778951
 30
-0.0015258207003583
  9
$EXTMAX
 10
719.64573852571846
 20
559.76711776551645
 30
0.0000000349246037
  9
$LIMMIN
 10
0.0
 20
0.0
  9
$LIMMAX
 10
853.5
 20
555.00000000000011
  9
$ORTHOMODE
 70
     0
  9
$REGENMODE
 70
     1
  9
$FILLMODE
 70
     1
  9
$QTEXTMODE
 70
     0
  9
$MIRRTEXT
 70
     1
  9
$DRAGMODE
 70
     2
  9
$LTSCALE
 40
3.0
  9
$OSMODE
 70
   551
  9
$ATTMODE
 70
     1
  9
$TEXTSIZE
 40
2.5
  9
$TRACEWID
 40
1.0
  9
$TEXTSTYLE
  7
STANDARD
  9
$CLAYER
  8
AM_0
  9
$CELTYPE
  6
BYLAYER
  9
$CECOLOR
 62
   256
  9
$DIMSCALE
 40
3.0
  9
$DIMASZ
 40
2.5
  9
$DIMEXO
 40
1.0
  9
$DIMDLI
 40
7.0
  9
$DIMRND
 40
0.0
  9
$DIMDLE
 40
0.0
  9
$DIMEXE
 40
1.0
  9
$DIMTP
 40
0.1
  9
$DIMTM
 40
0.1000000001
  9
$DIMTXT
 40
2.5
  9
$DIMCEN
 40
0.0
  9
$DIMTSZ
 40
0.0
  9
$DIMTOL
 70
     0
  9
$DIMLIM
 70
     0
  9
$DIMTIH
 70
     0
  9
$DIMTOH
 70
     0
  9
$DIMSE1
 70
     0
  9
$DIMSE2
 70
     0
  9
$DIMTAD
 70
     3
  9
$DIMZIN
 70
     8
  9
$DIMBLK
  1

  9
$DIMASO
 70
     1
  9
$DIMSHO
 70
     1
  9
$DIMPOST
  1

  9
$DIMAPOST
  1
"
  9
$DIMALT
 70
     0
  9
$DIMALTD
 70
     2
  9
$DIMALTF
 40
0.0393701
  9
$DIMLFAC
 40
1.0
  9
$DIMTOFL
 70
     1
  9
$DIMTVP
 40
0.0
  9
$DIMTIX
 70
     0
  9
$DIMSOXD
 70
     0
  9
$DIMSAH
 70
     0
  9
$DIMBLK1
  1

  9
$DIMBLK2
  1

  9
$DIMSTYLE
  2
AM_JIS
  9
$DIMCLRD
 70
   256
  9
$DIMCLRE
 70
   256
  9
$DIMCLRT
 70
     4
  9
$DIMTFAC
 40
0.71
  9
$DIMGAP
 40
1.0
  9
$LUNITS
 70
     2
  9
$LUPREC
 70
     2
  9
$SKETCHINC
 40
1.0
  9
$FILLETRAD
 40
5.0
  9
$AUNITS
 70
     0
  9
$AUPREC
 70
     3
  9
$MENU
  1
.
  9
$ELEVATION
 40
0.0
  9
$PELEVATION
 40
0.0
  9
$THICKNESS
 40
0.0
  9
$LIMCHECK
 70
     0
  9
$BLIPMODE
 70
     0
  9
$CHAMFERA
 40
7.5
  9
$CHAMFERB
 40
7.5
  9
$SKPOLY
 70
     0
  9
$TDCREATE
 40
2452753.643349607
  9
$TDUPDATE
 40
2458543.4222446182
  9
$TDINDWG
 40
0.4408219792
  9
$TDUSRTIMER
 40
0.4408217824
  9
$USRTIMER
 70
     1
  9
$ANGBASE
 50
0.0
  9
$ANGDIR
 70
     0
  9
$PDMODE
 70
     0
  9
$PDSIZE
 40
0.0
  9
$PLINEWID
 40
0.0
  9
$COORDS
 70
     1
  9
$SPLFRAME
 70
     0
  9
$SPLINETYPE
 70
     6
  9
$SPLINESEGS
 70
     8
  9
$ATTDIA
 70
     1
  9
$ATTREQ
 70
     1
  9
$HANDLING
 70
     1
  9
$HANDSEED
  5
17756
  9
$SURFTAB1
 70
     6
  9
$SURFTAB2
 70
     6
  9
$SURFTYPE
 70
     6
  9
$SURFU
 70
     6
  9
$SURFV
 70
     6
  9
$UCSNAME
  2

  9
$UCSORG
 10
0.0
 20
0.0
 30
0.0
  9
$UCSXDIR
 10
1.0
 20
0.0
 30
0.0
  9
$UCSYDIR
 10
0.0
 20
1.0
 30
0.0
  9
$PUCSNAME
  2

  9
$PUCSORG
 10
0.0
 20
0.0
 30
0.0
  9
$PUCSXDIR
 10
1.0
 20
0.0
 30
0.0
  9
$PUCSYDIR
 10
0.0
 20
1.0
 30
0.0
  9
$USERI1
 70
     0
  9
$USERI2
 70
     0
  9
$USERI3
 70
     0
  9
$USERI4
 70
     0
  9
$USERI5
 70
     0
  9
$USERR1
 40
0.0
  9
$USERR2
 40
0.0
  9
$USERR3
 40
0.0
  9
$USERR4
 40
0.0
  9
$USERR5
 40
0.0
  9
$WORLDVIEW
 70
     1
  9
$SHADEDGE
 70
     3
  9
$SHADEDIF
 70
    70
  9
$TILEMODE
 70
     1
  9
$MAXACTVP
 70
    48
  9
$PLIMCHECK
 70
     0
  9
$PEXTMIN
 10
1.0000000000000000E+020
 20
1.0000000000000000E+020
 30
1.0000000000000000E+020
  9
$PEXTMAX
 10
-1.0000000000000000E+020
 20
-1.0000000000000000E+020
 30
-1.0000000000000000E+020
  9
$PLIMMIN
 10
0.0
 20
0.0
  9
$PLIMMAX
 10
420.0
 20
297.0
  9
$UNITMODE
 70
     0
  9
$VISRETAIN
 70
     1
  9
$PLINEGEN
 70
     0
  9
$PSLTSCALE
 70
     1
  0
ENDSEC
  0
SECTION
  2
TABLES
  0
TABLE
  2
VPORT
 70
     1
  0
VPORT
  2
*ACTIVE
 70
     0
 10
0.0
 20
0.0
 11
1.0
 21
1.0
 12
428.5081578120101
 22
365.94803137665298
 13
0.0
 23
0.0
 14
7.5
 24
7.5
 15
30.0
 25
30.0
 16
0.0
 26
0.0
 36
1.0
 17
0.0
 27
0.0
 37
0.0
 40
390.29930439862682
 41
1.7571592210767459
 42
50.0
 43
0.0
 44
0.0
 50
0.0
 51
0.0
 71
    16
 72
   100
 73
     1
 74
     1
 75
     0
 76
     0
 77
     0
 78
     0
  0
ENDTAB
  0
TABLE
  2
LTYPE
 70
    21
  0
LTYPE
  2
CONTINUOUS
 70
     0
  3
Solid line
 72
    65
 73
     0
 40
0.0
  0
LTYPE
  2
PHANTOM2
 70
     0
  3
Phantom (.5x) ___ _ _ ___ _ _ ___ _ _ ___ _ _
 72
    65
 73
     6
 40
31.75
 49
15.875
 49
-3.174999999999998
 49
3.174999999999998
 49
-3.174999999999998
 49
3.174999999999998
 49
-3.174999999999998
  0
LTYPE
  2
CENTER
 70
     0
  3
Center ____ _ ____ _ ____ _ ____ _ ____ _ ____
 72
    65
 73
     4
 40
50.799999999999997
 49
31.75
 49
-6.3499999999999979
 49
6.3499999999999979
 49
-6.3499999999999979
  0
LTYPE
  2
ACANSTGBM
 70
     0
  3
__ . . __ . .
 72
    65
 73
     6
 40
9.0
 49
4.0
 49
-1.0
 49
1.0
 49
-1.0
 49
1.0
 49
-1.0
  0
LTYPE
  2
ACANSTGLM
 70
     0
  3
_ _ _ _ _
 72
    65
 73
     2
 40
3.0
 49
2.0
 49
-1.0
  0
LTYPE
  2
GEN3B
 70
     0
  3
 - - - - -
 72
    65
 73
     2
 40
1.0
 49
0.5
 49
-0.5
  0
LTYPE
  2
GEN7A
 70
     0
  3
__ . __ . __
 72
    65
 73
     4
 40
7.375
 49
4.75
 49
-0.875
 49
0.875
 49
-0.875
  0
LTYPE
  2
AM_ISO02W050
 70
     0
  3
__ __ __ __ __ __ __ __ __ __ __ __ __ __ __
 72
    65
 73
     2
 40
7.5
 49
6.0
 49
-1.5
  0
LTYPE
  2
AM_ISO08W050
 70
     0
  3
____ . ____ . ____ . ____ . ____ . ____ . ____
 72
    65
 73
     4
 40
18.0
 49
12.0
 49
-1.5
 49
3.0
 49
-1.5
  0
LTYPE
  2
AM_ISO09W050
 70
     0
  3
_____ . . _____ . . _____ . . ____ .. ____
 72
    65
 73
     6
 40
22.5
 49
12.0
 49
-1.5
 49
3.0
 49
-1.5
 49
3.0
 49
-1.5
  0
LTYPE
  2
AMCONSTR
 70
     0
  3
_______________________
 72
    65
 73
     2
 40
9999.0
 49
9999.0
 49
0.0
  0
LTYPE
  2
AM_ISO02W050X2
 70
     0
  3
 _ _ _ _ _ _ _ _ _ _ _ _
 72
    65
 73
     2
 40
3.75
 49
3.0
 49
-0.75
  0
LTYPE
  2
AM_ISO08W050X2
 70
     0
  3
__ . __ . __ . __ . __ . __
 72
    65
 73
     4
 40
9.0
 49
6.0
 49
-0.75
 49
1.5
 49
-0.75
  0
LTYPE
  2
AMZIGZAG
 70
     0
  3
/\/-/\/-/\/-/\/-/\/-/\/
 72
    65
 73
     2
 40
11.0001
 49
0.0001
 49
-11.0
  0
LTYPE
  2
ACJISTGB
 70
     0
  3
__ . . __ . .
 72
    65
 73
     6
 40
9.0
 49
4.0
 49
-1.0
 49
1.0
 49
-1.0
 49
1.0
 49
-1.0
  0
LTYPE
  2
ACJISTGL
 70
     0
  3
_ _ _ _ _
 72
    65
 73
     2
 40
3.0
 49
2.0
 49
-1.0
  0
LTYPE
  2
ACISOWELD
 70
     0
  3
_ _ _ _ _
 72
    65
 73
     2
 40
2.0
 49
2.0
 49
-1.0
  0
LTYPE
  2
ACISOTGB
 70
     0
  3
__ . . __ . .
 72
    65
 73
     6
 40
9.0
 49
4.0
 49
-1.0
 49
1.0
 49
-1.0
 49
1.0
 49
-1.0
  0
LTYPE
  2
ACISOTGL
 70
     0
  3
_ _ _ _ _
 72
    65
 73
     2
 40
3.0
 49
2.0
 49
-1.0
  0
LTYPE
  2
HIDDEN
 70
     0
  3
Hidden __ __ __ __ __ __ __ __ __ __ __ __ __ _
 72
    65
 73
     2
 40
9.5249999999999968
 49
6.3499999999999979
 49
-3.174999999999998
  0
ENDTAB
  0
TABLE
  2
LAYER
 70
     8
  0
LAYER
  2
0
 70
     0
 62
     7
  6
CONTINUOUS
  0
LAYER
  2
ｽﾝﾎﾟｳｾﾝ
 70
     0
 62
     2
  6
CONTINUOUS
  0
LAYER
  2
DEFPOINTS
 70
     0
 62
     7
  6
CONTINUOUS
  0
LAYER
  2
ｶｸﾚｾﾝ2
 70
     0
 62
     3
  6
GEN3B
  0
LAYER
  2
ﾁｭｳｼﾝｾﾝ1
 70
     0
 62
     1
  6
GEN7A
  0
LAYER
  2
AM_0
 70
     0
 62
     7
  6
CONTINUOUS
  0
LAYER
  2
AM_0N
 70
     0
 62
     7
  6
CONTINUOUS
  0
LAYER
  2
AM_5
 70
     0
 62
     2
  6
CONTINUOUS
  0
ENDTAB
  0
TABLE
  2
STYLE
 70
     8
  0
STYLE
  2
STANDARD
 70
     0
 40
0.0
 41
0.8299999999999999
 50
0.0
 71
     0
 42
2.5
  3
txt.shx
  4
bigfont.shx
  0
STYLE
  2
ACANSTS
 70
     0
 40
1.0
 41
1.0
 50
0.0
 71
     0
 42
2.5
  3
romans.shx
  4
bigfont.shx
  0
STYLE
  2
ACANSGDT
 70
     0
 40
0.0
 41
1.0
 50
0.0
 71
     0
 42
2.5
  3
amgdtans.shx
  4

  0
STYLE
  2

 70
     1
 40
0.0
 41
1.0
 50
0.0
 71
     0
 42
2.5
  3
ltypeshp.shx
  4

  0
STYLE
  2
ACJISTS
 70
     0
 40
1.0
 41
1.0
 50
0.0
 71
     0
 42
2.5
  3
isocp.shx
  4
bigfont.shx
  0
STYLE
  2
ACJISGDT
 70
     0
 40
0.0
 41
1.0
 50
0.0
 71
     0
 42
2.5
  3
amgdt.shx
  4

  0
STYLE
  2
ACISOTS
 70
     0
 40
3.0
 41
1.0
 50
0.0
 71
     0
 42
2.5
  3
isocp.shx
  4
extfont.shx
  0
STYLE
  2
ACISOGDT
 70
     0
 40
0.0
 41
1.0
 50
0.0
 71
     0
 42
2.5
  3
amgdt.shx
  4

  0
ENDTAB
  0
TABLE
  2
VIEW
 70
    12
  0
VIEW
  2
GEN1
 70
     0
 40
95.824742268041234
 10
71.5
 20
137.08762886597941
 41
143.0
 11
0.0
 21
0.0
 31
1.0
 12
0.0
 22
0.0
 32
0.0
 42
50.0
 43
0.0
 44
0.0
 50
0.0
 71
     0
  0
VIEW
  2
GEN2
 70
     0
 40
95.824742268041234
 10
214.5
 20
137.08762886597941
 41
143.0
 11
0.0
 21
0.0
 31
1.0
 12
0.0
 22
0.0
 32
0.0
 42
50.0
 43
0.0
 44
0.0
 50
0.0
 71
     0
  0
VIEW
  2
GEN3
 70
     0
 40
95.824742268041234
 10
71.5
 20
47.912371134020603
 41
143.0
 11
0.0
 21
0.0
 31
1.0
 12
0.0
 22
0.0
 32
0.0
 42
50.0
 43
0.0
 44
0.0
 50
0.0
 71
     0
  0
VIEW
  2
GEN4
 70
     0
 40
95.824742268041234
 10
214.5
 20
47.912371134020603
 41
143.0
 11
0.0
 21
0.0
 31
1.0
 12
0.0
 22
0.0
 32
0.0
 42
50.0
 43
0.0
 44
0.0
 50
0.0
 71
     0
  0
VIEW
  2
GEN5
 70
     0
 40
95.824742268041234
 10
143.0
 20
92.500000000000057
 41
143.0
 11
0.0
 21
0.0
 31
1.0
 12
0.0
 22
0.0
 32
0.0
 42
50.0
 43
0.0
 44
0.0
 50
0.0
 71
     0
  0
VIEW
  2
GEN6
 70
     0
 40
191.64756804123709
 10
143.0
 20
92.5
 41
285.99714
 11
0.0
 21
0.0
 31
1.0
 12
0.0
 22
0.0
 32
0.0
 42
50.0
 43
0.0
 44
0.0
 50
0.0
 71
     0
  0
VIEW
  2
AM_VIEW1
 70
     0
 40
277.50000000000011
 10
249.64779005524869
 20
416.25000000000011
 41
499.29558011049721
 11
0.0
 21
0.0
 31
1.0
 12
0.0
 22
0.0
 32
0.0
 42
50.0
 43
0.0
 44
0.0
 50
0.0
 71
    16
  0
VIEW
  2
AM_VIEW2
 70
     0
 40
277.50000000000011
 10
603.85220994475117
 20
416.25000000000011
 41
499.29558011049721
 11
0.0
 21
0.0
 31
1.0
 12
0.0
 22
0.0
 32
0.0
 42
50.0
 43
0.0
 44
0.0
 50
0.0
 71
    16
  0
VIEW
  2
AM_VIEW3
 70
     0
 40
277.50000000000011
 10
249.64779005524869
 20
138.75
 41
499.29558011049721
 11
0.0
 21
0.0
 31
1.0
 12
0.0
 22
0.0
 32
0.0
 42
50.0
 43
0.0
 44
0.0
 50
0.0
 71
    16
  0
VIEW
  2
AM_VIEW4
 70
     0
 40
277.50000000000011
 10
603.85220994475117
 20
138.75
 41
499.29558011049721
 11
0.0
 21
0.0
 31
1.0
 12
0.0
 22
0.0
 32
0.0
 42
50.0
 43
0.0
 44
0.0
 50
0.0
 71
    16
  0
VIEW
  2
AM_VIEW5
 70
     0
 40
277.50000000000011
 10
426.75
 20
277.50000000000011
 41
499.2955801104971
 11
0.0
 21
0.0
 31
1.0
 12
0.0
 22
0.0
 32
0.0
 42
50.0
 43
0.0
 44
0.0
 50
0.0
 71
    16
  0
VIEW
  2
AM_VIEW6
 70
     0
 40
554.99445000000014
 10
426.75
 20
277.5
 41
998.5811743093924
 11
0.0
 21
0.0
 31
1.0
 12
0.0
 22
0.0
 32
0.0
 42
50.0
 43
0.0
 44
0.0
 50
0.0
 71
    16
  0
ENDTAB
  0
TABLE
  2
UCS
 70
     0
  0
ENDTAB
  0
TABLE
  2
APPID
 70
    97
  0
APPID
  2
ACAD
 70
     0
  0
APPID
  2
MCAD_NO_VIS
 70
     0
  0
APPID
  2
ACAD_TEMP_GRAPHIC
 70
     0
  0
APPID
  2
AD_DRAW
 70
     0
  0
APPID
  2
DESIGNERASSEMBLIES
 70
     0
  0
APPID
  2
ASURF_PCURVE_APPNAME
 70
     0
  0
APPID
  2
GENIUS_GE3SECT_13
 70
     0
  0
APPID
  2
GENIUS_GENCFG_13
 70
     0
  0
APPID
  2
GENIUS_GE3CFG0_13
 70
     0
  0
APPID
  2
GENIUS_GENCFG0_13
 70
     0
  0
APPID
  2
GENIUS_GENCFG1_13
 70
     0
  0
APPID
  2
GENIUS_GENCFG2_13
 70
     0
  0
APPID
  2
GENIUS_GENCFG3_13
 70
     0
  0
APPID
  2
GENIUS_GENCFG4_13
 70
     0
  0
APPID
  2
GENIUS_GEVCFG0_13
 70
     0
  0
APPID
  2
GENIUS_GENOENT_13
 70
     0
  0
APPID
  2
GENIUS_GENREC_14
 70
     0
  0
APPID
  2
GENIUS_GENODEF_13
 70
     0
  0
APPID
  2
GENIUS_GENOBJ-N-REC_13
 70
     0
  0
APPID
  2
GENIUS_GENHINW_13
 70
     0
  0
APPID
  2
GENIUS_FIRSTVISTXT_14
 70
     0
  0
APPID
  2
GENIUS_GENOBJ-N-LEADER_13
 70
     0
  0
APPID
  2
GENIUS_GENOREF_13
 70
     0
  0
APPID
  2
GENIUS_GENOLIS_13
 70
     0
  0
APPID
  2
GEV_VCCNULL_SWITCH_OFF
 70
     0
  0
APPID
  2
GENIUS_GENDTOL_13
 70
     0
  0
APPID
  2
GENIUS_GEFCFG0_13
 70
     0
  0
APPID
  2
GENIUS_GENOBJ-N-TIT_13
 70
     0
  0
APPID
  2
GENIUS_GENTITLE_13
 70
     0
  0
APPID
  2
GENIUS_GENZVEED_13
 70
     0
  0
APPID
  2
GENIUS_GENOBJ-N-SDF_13
 70
     0
  0
APPID
  2
GENIUS_GENSCREG_13
 70
     0
  0
APPID
  2
GENIUS_DUMCFG0_13
 70
     0
  0
APPID
  2
GEVID936201362
 70
     0
  0
APPID
  2
GEVDC
 70
     0
  0
APPID
  2
GEVCON
 70
     0
  0
APPID
  2
VCC
 70
     0
  0
APPID
  2
GEVPT
 70
     0
  0
APPID
  2
GEVIT
 70
     0
  0
APPID
  2
GENBH
 70
     0
  0
APPID
  2
GEVMK
 70
     0
  0
APPID
  2
GENIUS_GENBH_13
 70
     0
  0
APPID
  2
GENIUS_GENOBJ-NBEHI-BHF_13
 70
     0
  0
APPID
  2
GENIUS_GENOBJ-NBEHI-BHB_13
 70
     0
  0
APPID
  2
GENIUS_GENOBJ-F-DESC_13
 70
     0
  0
APPID
  2
GENIUS_GEFDESC_14
 70
     0
  0
APPID
  2
GENIUS_GENOBJ-F-PART_13
 70
     0
  0
APPID
  2
GENIUS_GEFSTDP_13
 70
     0
  0
APPID
  2
GENIUS_GEFPARTINS_13
 70
     0
  0
APPID
  2
GENIUS_GENTRA_14
 70
     0
  0
APPID
  2
GENIUS_GENINF13_13
 70
     0
  0
APPID
  2
GENIUS_GENOBJ-N-INFOPT_13
 70
     0
  0
APPID
  2
GENIUS_GENOBJ-N-RSSYM_13
 70
     0
  0
APPID
  2
GENIUS_GENSYMENT_13
 70
     0
  0
APPID
  2
GENIUS_GENSCSYM_13
 70
     0
  0
APPID
  2
GENIUS_GEFINFNAM_13
 70
     0
  0
APPID
  2
GENIUS_GENSCREG_15
 70
     0
  0
APPID
  2
GENIUS_GENOBJ-N-CEN_13
 70
     0
  0
APPID
  2
GENIUS_GENOBJ-N-CRS_13
 70
     0
  0
APPID
  2
GENIUS_GENOBJ-N-CRC_13
 70
     0
  0
APPID
  2
GENIUS_GENCRC_14
 70
     0
  0
APPID
  2
GEVID942827039
 70
     0
  0
APPID
  2
GEVID942827040
 70
     0
  0
APPID
  2
GEVID942827041
 70
     0
  0
APPID
  2
GENIUS_GENOBJ-F-SCPASSM_13
 70
     0
  0
APPID
  2
GENIUS_GENDIMSH_14
 70
     0
  0
APPID
  2
GENIUS_GENFIL_13
 70
     0
  0
APPID
  2
GENIUS_GENOBJ-N-CHA_13
 70
     0
  0
APPID
  2
GENIUS_GENOBJ-N-FIL_13
 70
     0
  0
APPID
  2
GEVID942827042
 70
     0
  0
APPID
  2
GEVID946020473
 70
     0
  0
APPID
  2
GEVID946020474
 70
     0
  0
APPID
  2
GEVID946020475
 70
     0
  0
APPID
  2
GENIUS_GENOBJ-N-HTC_13
 70
     0
  0
APPID
  2
GENIUS_GENHATCH_13
 70
     0
  0
APPID
  2
GEVID948854295
 70
     0
  0
APPID
  2
GEVID939402019
 70
     0
  0
APPID
  2
GEVID952919491
 70
     0
  0
APPID
  2
GEVID952919492
 70
     0
  0
APPID
  2
GENIUS_GEFWELD_13
 70
     0
  0
APPID
  2
GENIUS_GENOBJ-F-WELS_13
 70
     0
  0
APPID
  2
GEVID952919493
 70
     0
  0
APPID
  2
GENIUS_GENOBJ-N-RSBK_13
 70
     0
  0
APPID
  2
GENIUS_GENOBJ-N-LIB_13
 70
     0
  0
APPID
  2
GENIUS_GENSCALE_13
 70
     0
  0
APPID
  2
GEVID986376691
 70
     0
  0
APPID
  2
ACATTRIBSERVICES
 70
     0
  0
APPID
  2
DCO15
 70
     0
  0
APPID
  2
GEVID1088155249
 70
     0
  0
APPID
  2
ACADM_DIM_EDIT
 70
     0
  0
APPID
  2
AMDT_DM_ADJ
 70
     0
  0
APPID
  2
ACAD_MLEADERVER
 70
     0
  0
APPID
  2
ACAD_DSTYLE_DIMBREAK
 70
     0
  0
APPID
  2
ACAD_DSTYLE_DIMJAG
 70
     0
  0
APPID
  2
ACAD_NAV_VCDISPLAY
 70
     0
  0
APPID
  2
ACADANNOPO
 70
     0
  0
APPID
  2
ACAD_EXEMPT_FROM_CAD_STANDARDS
 70
     0
  0
ENDTAB
  0
TABLE
  2
DIMSTYLE
 70
    16
  0
DIMSTYLE
  2
STANDARD
 70
     0
  3

  4

  5

  6

  7

 40
1.0
 41
0.18
 42
0.0625
 43
0.38
 44
0.18
 45
0.0
 46
0.0
 47
0.0
 48
0.0
140
0.18
141
0.09
142
0.0
143
25.399999999999999
144
1.0
145
0.0
146
1.0
147
0.09
 71
     0
 72
     0
 73
     1
 74
     1
 75
     0
 76
     0
 77
     0
 78
     0
170
     0
171
     2
172
     0
173
     0
174
     0
175
     0
176
     0
177
     0
178
     0
  0
DIMSTYLE
  2
AM_JIS
 70
     0
  3

  4
"
  5

  6

  7

 40
1.0
 41
2.5
 42
1.0
 43
7.0
 44
1.0
 45
0.0
 46
0.0
 47
0.1
 48
0.1000000001
140
2.5
141
0.0
142
0.0
143
0.0393701
144
1.0
145
0.0
146
0.71
147
1.0
 71
     0
 72
     0
 73
     0
 74
     0
 75
     0
 76
     0
 77
     3
 78
     8
170
     0
171
     2
172
     1
173
     0
174
     0
175
     0
176
   256
177
   256
178
     4
  0
DIMSTYLE
  2
AM_JIS$3
 70
     0
  3

  4
"
  5

  6

  7

 40
1.0
 41
2.5
 42
1.0
 43
7.0
 44
1.0
 45
0.0
 46
0.0
 47
0.1
 48
0.1000000001
140
2.5
141
0.0
142
0.0
143
0.0393701
144
1.0
145
0.0
146
0.71
147
1.0
 71
     0
 72
     0
 73
     0
 74
     1
 75
     0
 76
     0
 77
     3
 78
     8
170
     0
171
     2
172
     0
173
     0
174
     0
175
     0
176
   256
177
   256
178
     4
  0
DIMSTYLE
  2
AM_JIS$4
 70
     0
  3

  4
"
  5

  6

  7

 40
1.0
 41
2.5
 42
1.0
 43
7.0
 44
1.0
 45
0.0
 46
0.0
 47
0.1
 48
0.1000000001
140
2.5
141
0.0
142
0.0
143
0.0393701
144
1.0
145
0.0
146
0.71
147
1.0
 71
     0
 72
     0
 73
     0
 74
     0
 75
     0
 76
     0
 77
     3
 78
     8
170
     0
171
     2
172
     0
173
     0
174
     0
175
     0
176
   256
177
   256
178
     4
  0
DIMSTYLE
  2
AM_JIS$6
 70
     0
  3

  4
"
  5

  6

  7

 40
1.0
 41
2.5
 42
1.0
 43
7.0
 44
1.0
 45
0.0
 46
0.0
 47
0.1
 48
0.1000000001
140
2.5
141
0.0
142
0.0
143
0.0393701
144
1.0
145
0.0
146
0.71
147
1.0
 71
     0
 72
     0
 73
     0
 74
     0
 75
     0
 76
     0
 77
     0
 78
     8
170
     0
171
     2
172
     1
173
     0
174
     0
175
     0
176
   256
177
   256
178
     4
  0
DIMSTYLE
  2
AM_JIS$7
 70
     0
  3

  4
"
  5

  6

  7

 40
1.0
 41
2.5
 42
1.0
 43
7.0
 44
1.0
 45
0.0
 46
0.0
 47
0.1
 48
0.1000000001
140
2.5
141
0.0
142
0.0
143
0.0393701
144
1.0
145
0.0
146
0.71
147
1.0
 71
     0
 72
     0
 73
     0
 74
     0
 75
     0
 76
     0
 77
     3
 78
     8
170
     0
171
     2
172
     1
173
     0
174
     0
175
     0
176
   256
177
   256
178
     4
  0
DIMSTYLE
  2
AM_JIS$SF
 70
     0
  3

  4
"
  5
OPEN30
  6
OPEN30
  7
OPEN30
 40
1.0
 41
2.5
 42
1.0
 43
10.0
 44
1.0
 45
0.0
 46
0.0
 47
0.1
 48
0.1
140
3.5
141
0.0
142
0.0
143
0.0393701
144
1.0
145
0.0
146
0.71
147
1.5
 71
     0
 72
     0
 73
     0
 74
     0
 75
     1
 76
     1
 77
     3
 78
     8
170
     0
171
     2
172
     1
173
     0
174
     0
175
     0
176
   256
177
   256
178
     4
  0
DIMSTYLE
  2
AM_JIS$SH
 70
     0
  3

  4
"
  5

  6
NONE
  7

 40
1.0
 41
2.5
 42
1.0
 43
10.0
 44
1.0
 45
0.0
 46
0.0
 47
0.1
 48
0.1
140
3.5
141
0.0
142
0.0
143
0.0393701
144
1.0
145
0.0
146
0.71
147
1.5
 71
     0
 72
     0
 73
     0
 74
     0
 75
     1
 76
     0
 77
     3
 78
     8
170
     0
171
     2
172
     1
173
     1
174
     0
175
     0
176
   256
177
   256
178
     4
  0
DIMSTYLE
  2
AM_ISO
 70
     0
  3

  4
"
  5

  6

  7

 40
1.0
 41
2.5
 42
1.0
 43
10.0
 44
1.0
 45
0.0
 46
0.0
 47
0.0
 48
0.000000001
140
3.0
141
0.0
142
0.0
143
0.0393701
144
1.0
145
0.0
146
0.71
147
1.299999999999998
 71
     1
 72
     0
 73
     0
 74
     0
 75
     0
 76
     0
 77
     1
 78
     8
170
     0
171
     2
172
     1
173
     0
174
     0
175
     0
176
   256
177
   256
178
     4
  0
DIMSTYLE
  2
AM_ISO$3
 70
     0
  3

  4
"
  5

  6

  7

 40
1.0
 41
2.5
 42
1.0
 43
10.0
 44
1.0
 45
0.0
 46
0.0
 47
0.0
 48
0.000000001
140
2.5
141
0.0
142
0.0
143
0.0393701
144
1.0
145
0.0
146
0.71
147
1.299999999999998
 71
     1
 72
     0
 73
     0
 74
     1
 75
     0
 76
     0
 77
     1
 78
     8
170
     0
171
     2
172
     0
173
     0
174
     0
175
     0
176
   256
177
   256
178
     4
  0
DIMSTYLE
  2
AM_ISO$4
 70
     0
  3

  4
"
  5

  6

  7

 40
1.0
 41
2.5
 42
1.0
 43
10.0
 44
1.0
 45
0.0
 46
0.0
 47
0.0
 48
0.000000001
140
2.5
141
0.0
142
0.0
143
0.0393701
144
1.0
145
0.0
146
0.71
147
1.299999999999998
 71
     1
 72
     0
 73
     0
 74
     1
 75
     0
 76
     0
 77
     1
 78
     8
170
     0
171
     2
172
     0
173
     0
174
     0
175
     0
176
   256
177
   256
178
     4
  0
DIMSTYLE
  2
AM_ISO$6
 70
     0
  3

  4
"
  5

  6

  7

 40
1.0
 41
2.5
 42
1.0
 43
10.0
 44
1.0
 45
0.0
 46
0.0
 47
0.0
 48
0.000000001
140
2.5
141
0.0
142
0.0
143
0.0393701
144
1.0
145
0.0
146
0.71
147
1.299999999999998
 71
     1
 72
     0
 73
     0
 74
     0
 75
     0
 76
     0
 77
     0
 78
     8
170
     0
171
     2
172
     1
173
     0
174
     0
175
     0
176
   256
177
   256
178
     4
  0
DIMSTYLE
  2
AM_ISO$7
 70
     0
  3

  4
"
  5

  6

  7

 40
1.0
 41
2.5
 42
1.0
 43
10.0
 44
1.0
 45
0.0
 46
0.0
 47
0.0
 48
0.000000001
140
2.5
141
0.0
142
0.0
143
0.0393701
144
1.0
145
0.0
146
0.71
147
1.299999999999998
 71
     1
 72
     0
 73
     0
 74
     0
 75
     0
 76
     0
 77
     1
 78
     8
170
     0
171
     2
172
     1
173
     0
174
     0
175
     0
176
   256
177
   256
178
     4
  0
DIMSTYLE
  2
AM_ISO$SF
 70
     0
  3

  4
"
  5

  6

  7

 40
1.0
 41
2.5
 42
1.0
 43
10.0
 44
1.0
 45
0.0
 46
0.0
 47
0.1
 48
0.1
140
3.5
141
0.0
142
0.0
143
0.0393701
144
1.0
145
0.0
146
0.71
147
1.5
 71
     0
 72
     0
 73
     0
 74
     0
 75
     1
 76
     1
 77
     1
 78
     8
170
     0
171
     2
172
     1
173
     0
174
     0
175
     0
176
   256
177
   256
178
     4
  0
DIMSTYLE
  2
AM_ISO$SH
 70
     0
  3

  4
"
  5

  6
GENAXEH
  7

 40
1.0
 41
2.5
 42
1.0
 43
10.0
 44
1.0
 45
0.0
 46
0.0
 47
0.1
 48
0.1
140
3.5
141
0.0
142
0.0
143
0.0393701
144
2.0
145
0.0
146
0.71
147
1.5
 71
     0
 72
     0
 73
     0
 74
     0
 75
     1
 76
     1
 77
     1
 78
     8
170
     0
171
     2
172
     1
173
     1
174
     0
175
     0
176
   256
177
   256
178
     4
  0
DIMSTYLE
  2
AM_JIS$0
 70
     0
  3

  4
"
  5

  6

  7

 40
1.0
 41
2.5
 42
1.0
 43
7.0
 44
1.0
 45
0.0
 46
0.0
 47
0.1
 48
0.1000000001
140
2.5
141
0.0
142
0.0
143
0.0393701
144
1.0
145
0.0
146
0.71
147
1.0
 71
     0
 72
     0
 73
     0
 74
     0
 75
     0
 76
     0
 77
     3
 78
     8
170
     0
171
     2
172
     1
173
     0
174
     0
175
     0
176
   256
177
   256
178
     4
  0
ENDTAB
  0
ENDSEC
  0
SECTION
  2
BLOCKS
  0
BLOCK
  8
0
  2
$MODEL_SPACE
 70
     0
 10
0.0
 20
0.0
 30
0.0
  3
$MODEL_SPACE
  1

  0
ENDBLK
  5
1A
  8
0
  0
BLOCK
 67
     1
  8
0
  2
$PAPER_SPACE
 70
     0
 10
0.0
 20
0.0
 30
0.0
  3
$PAPER_SPACE
  1

  0
ENDBLK
  5
17
 67
     1
  8
0
  0
BLOCK
  8
0
  2
_OPEN30
 70
     0
 10
0.0
 20
0.0
 30
0.0
  3
_OPEN30
  1

  0
LINE
  5
21C5
  8
0
 62
     0
 10
-1.0
 20
0.26794919
 30
0.0
 11
0.0
 21
0.0
 31
0.0
  0
LINE
  5
21C6
  8
0
 62
     0
 10
0.0
 20
0.0
 30
0.0
 11
-1.0
 21
-0.26794919
 31
0.0
  0
LINE
  5
21C7
  8
0
 62
     0
 10
0.0
 20
0.0
 30
0.0
 11
-1.0
 21
0.0
 31
0.0
  0
ENDBLK
  5
21C9
  8
0
  0
BLOCK
  8
0
  2
GENAXEH
 70
     0
 10
0.0
 20
0.0
 30
0.0
  3
GENAXEH
  1

  0
LINE
  5
21D0
  8
0
 10
-1.0
 20
0.0
 30
0.0
 11
1.0
 21
0.0
 31
0.0
  0
ENDBLK
  5
21D2
  8
0
  0
BLOCK
  8
0
  2
_NONE
 70
     0
 10
0.0
 20
0.0
 30
0.0
  3
_NONE
  1

  0
ENDBLK
  5
8193
  8
0
  0
ENDSEC
  0
SECTION
  2
ENTITIES
  0
POINT
  5
1B94
  8
0
 10
0.0
 20
0.0
 30
0.0
1001
GENIUS_GENODEF_13
1002
{
1000
HIER
1070
     1
1002
}
1002
{
1000
MANEDIT
1070
     0
1002
}
1002
{
1000
NOSEL
1070
     0
1002
}
1002
{
1000
BEHIND
1070
     0
1002
}
1002
{
1000
REACTOR
1002
}
1001
GENIUS_GENOBJ-N-SDF_13
1002
{
1000
OWNER
1000
GEN
1002
}
1001
GENIUS_GENOENT_13
1002
{
1000
MYREF
1005
1B94
1002
}
1002
{
1000
GRP
1005
0
1002
}
1001
GENIUS_GENOLIS_13
1002
{
1000
ENT
1005
89
1002
}
  0
LINE
  5
15441
  8
AM_0
 10
273.225159717069
 20
284.65503343670201
 30
0.0
 11
273.225159717069
 21
254.6550325426324
 31
0.0
  0
LINE
  5
15443
  8
AM_0
 10
186.2251571242669
 20
297.15503380923099
 30
0.0
 11
186.2251571242669
 21
242.1550321701034
 31
0.0
  0
LINE
  5
15444
  8
AM_0
 10
270.22515962766198
 20
297.15503380923099
 30
0.0
 11
270.22515962766198
 21
242.1550321701034
 31
0.0
  0
ARC
  5
15445
  8
AM_0
 10
228.2251583759645
 20
269.65503298966718
 30
0.0
 40
56.5
 50
324.98137173791582
 51
345.88809158654232
  0
LINE
  5
15446
  8
AM_0
 10
190.22515724347619
 20
319.55536538633521
 30
0.0
 11
190.22515724347619
 21
219.75470059299931
 31
0.0
  0
LINE
  5
15447
  8
AM_0
 10
266.22515950845269
 20
320.42811865875609
 30
0.0
 11
266.22515950845269
 21
218.88194732057821
 31
0.0
  0
LINE
  5
15448
  8
AM_0
 10
253.22515912102261
 20
320.65503450958568
 30
0.0
 11
253.22515912102261
 21
218.65503146974879
 31
0.0
  0
ARC
  5
15449
  8
AM_0
 10
228.2251583759645
 20
269.65503298966718
 30
0.0
 40
56.5
 50
144.98137173791559
 51
215.01862826208421
  0
LINE
  5
1544A
  8
ﾁｭｳｼﾝｾﾝ1
 10
228.22515837596461
 20
172.15503298966701
 30
0.0
 11
228.22515837596461
 21
336.15503298966718
 31
0.0
  0
LINE
  5
1544C
  8
AM_0
 10
270.22515962766198
 20
242.1550321701034
 30
0.0
 11
266.22515950845269
 21
242.1550321701034
 31
0.0
  0
LINE
  5
1544D
  8
AM_0
 10
266.2251583759645
 20
223.65503298966721
 30
0.0
 11
269.2251583759645
 21
223.65503298966721
 31
0.0
  0
LINE
  5
1544E
  8
ﾁｭｳｼﾝｾﾝ1
 10
187.22515724347639
 20
229.6550317975744
 30
0.0
 11
269.2251595084528
 21
229.6550317975744
 31
0.0
  0
LINE
  5
1544F
  8
AM_0
 10
198.2251583759643
 20
196.65503298966721
 30
0.0
 11
198.2251583759643
 21
181.65503298966729
 31
0.0
  0
LINE
  5
15450
  8
AM_0
 10
258.22515837596433
 20
196.65503298966689
 30
0.0
 11
258.22515837596433
 21
181.65503298966689
 31
0.0
  0
LINE
  5
15451
  8
AM_0
 10
199.72515837596421
 20
180.15503298966729
 30
0.0
 11
256.72515837596433
 21
180.15503298966689
 31
0.0
  0
ARC
  5
15452
  8
AM_0
 10
199.7251583759645
 20
181.65503298966721
 30
0.0
 40
1.5
 50
180.0
 51
270.0
  0
LINE
  5
15453
  8
AM_0
 10
245.52895837596441
 20
177.15503298966689
 30
0.0
 11
210.92125837596441
 21
177.15503298966701
 31
0.0
  0
LINE
  5
15454
  8
AM_0
 10
210.92125837596441
 20
177.15503298966701
 30
0.0
 11
205.7251583759643
 21
180.15503298966701
 31
0.0
  0
LINE
  5
15455
  8
AM_0
 10
250.7280237965233
 20
180.15503298966689
 30
0.0
 11
245.52895837596441
 21
177.15503298966689
 31
0.0
  0
ARC
  5
15456
  8
AM_0
 10
256.7251583759645
 20
181.65503298966721
 30
0.0
 40
1.5
 50
270.0
 51
0.0
  0
LINE
  5
15457
  8
AM_0
 10
198.2251583759645
 20
207.15503298966721
 30
0.0
 11
258.2251583759645
 21
207.15503298966721
 31
0.0
  0
LINE
  5
15458
  8
AM_0
 10
259.72515837596433
 20
196.65503298966689
 30
0.0
 11
196.72515837596421
 21
196.65503298966721
 31
0.0
  0
LINE
  5
15459
  8
AM_0
 10
195.22515837596421
 20
200.15503298966721
 30
0.0
 11
261.2251583759645
 21
200.15503298966701
 31
0.0
  0
LINE
  5
1545A
  8
AM_0
 10
196.72515837596421
 20
203.65503298966721
 30
0.0
 11
259.72515837596433
 21
203.65503298966701
 31
0.0
  0
LINE
  5
1545B
  8
ｶｸﾚｾﾝ2
 10
190.22515724347619
 20
234.1550317975744
 30
0.0
 11
266.22515950845258
 21
234.1550317975744
 31
0.0
  0
LINE
  5
1545C
  8
ｶｸﾚｾﾝ2
 10
190.22515724347619
 20
225.1550317975744
 30
0.0
 11
266.22515950845258
 21
225.15503179757451
 31
0.0
  0
LINE
  5
1545D
  8
AM_0
 10
253.22515912102389
 20
218.65503146974879
 30
0.0
 11
190.2251572434761
 21
219.75470059299931
 31
0.0
  0
ARC
  5
1545E
  8
AM_0
 10
187.2251583759645
 20
228.65503298966721
 30
0.0
 40
5.0
 50
180.0
 51
270.0
1001
GENIUS_GENOBJ-N-CEN_13
1002
{
1000
OWNER
1000
GEN
1002
}
1001
GENIUS_GENODEF_13
1002
{
1000
HIER
1070
     0
1002
}
1002
{
1000
MANEDIT
1070
     0
1002
}
1002
{
1000
NOSEL
1070
     0
1002
}
1002
{
1000
BEHIND
1070
     0
1002
}
1002
{
1000
REACTOR
1002
}
1001
GENIUS_GENOBJ-N-FIL_13
1002
{
1000
OWNER
1000
GEN
1002
}
  0
LINE
  5
1545F
  8
AM_0
 10
198.2251583759645
 20
219.61506005380591
 30
0.0
 11
198.2251583759645
 21
203.65503298966721
 31
0.0
  0
LINE
  5
15460
  8
AM_0
 10
195.22515837596421
 20
185.15503298966729
 30
0.0
 11
195.22515837596421
 21
200.15503298966721
 31
0.0
  0
LINE
  5
15461
  8
AM_0
 10
196.72515837596421
 20
184.15503298966729
 30
0.0
 11
196.72515837596421
 21
203.65503298966721
 31
0.0
  0
LINE
  5
15462
  8
AM_0
 10
196.72515837596421
 20
185.15503298966729
 30
0.0
 11
195.22515837596421
 21
185.15503298966729
 31
0.0
  0
LINE
  5
15463
  8
AM_0
 10
198.2251583759643
 20
184.15503298966729
 30
0.0
 11
196.72515837596421
 21
184.15503298966729
 31
0.0
  0
LINE
  5
15464
  8
AM_0
 10
194.25886042817649
 20
212.62013349296481
 30
0.0
 11
194.5053960061648
 21
219.6799887474883
 31
0.0
  0
LINE
  5
15465
  8
AM_0
 10
192.1914563237525
 20
212.62013349296461
 30
0.0
 11
191.9433590707566
 21
219.72470926854439
 31
0.0
  0
ARC
  5
15466
  8
AM_0
 10
196.26260743198659
 20
213.6956688676764
 30
0.0
 40
1.9655366667591301
 50
3.1584702260748112
 51
179.35044678892791
  0
ARC
  5
15467
  8
AM_0
 10
193.19084715077139
 20
212.65503298966721
 30
0.0
 40
1.0
 50
181.9999999999971
 51
270.0
1001
GENIUS_GENODEF_13
1002
{
1000
HIER
1070
     0
1002
}
1002
{
1000
MANEDIT
1070
     0
1002
}
1002
{
1000
NOSEL
1070
     0
1002
}
1002
{
1000
BEHIND
1070
     0
1002
}
1002
{
1000
REACTOR
1002
}
1001
GENIUS_GENOBJ-N-FIL_13
1002
{
1000
OWNER
1000
GEN
1002
}
  0
LINE
  5
15468
  8
AM_0
 10
193.25946960115749
 20
211.65503298966721
 30
0.0
 11
193.19084715077139
 21
211.65503298966721
 31
0.0
  0
ARC
  5
15469
  8
AM_0
 10
193.25946960115749
 20
212.65503298966721
 30
0.0
 40
1.0
 50
269.99999999999352
 51
357.99999999999642
1001
GENIUS_GENODEF_13
1002
{
1000
HIER
1070
     0
1002
}
1002
{
1000
MANEDIT
1070
     0
1002
}
1002
{
1000
NOSEL
1070
     0
1002
}
1002
{
1000
BEHIND
1070
     0
1002
}
1002
{
1000
REACTOR
1002
}
1001
GENIUS_GENOBJ-N-FIL_13
1002
{
1000
OWNER
1000
GEN
1002
}
  0
LINE
  5
1546A
  8
AM_0
 10
187.2251583759645
 20
223.65503298966721
 30
0.0
 11
190.2251583759645
 21
223.65503298966721
 31
0.0
  0
LINE
  5
1546B
  8
AM_0
 10
167.30544524984779
 20
263.62297551076881
 30
0.0
 11
172.06617865485359
 21
263.45672703692088
 31
0.0
  0
LINE
  5
1546C
  8
AM_0
 10
167.30233507138729
 20
265.6901311989231
 30
0.0
 11
171.85349369916131
 21
265.84906116028372
 31
0.0
  0
ARC
  5
1546D
  8
AM_0
 10
168.25679868969479
 20
254.62517646062011
 30
0.0
 40
1.0
 50
187.853178088806
 51
268.0000000000029
1001
GENIUS_GENODEF_13
1002
{
1000
HIER
1070
     0
1002
}
1002
{
1000
MANEDIT
1070
     0
1002
}
1002
{
1000
NOSEL
1070
     0
1002
}
1002
{
1000
BEHIND
1070
     0
1002
}
1002
{
1000
REACTOR
1002
}
1001
GENIUS_GENOBJ-N-FIL_13
1002
{
1000
OWNER
1000
GEN
1002
}
  0
ARC
  5
1546E
  8
AM_0
 10
168.2473165373213
 20
254.6940842165547
 30
0.0
 40
1.0
 50
91.999999999997158
 51
187.81694783169451
1001
GENIUS_GENODEF_13
1002
{
1000
HIER
1070
     0
1002
}
1002
{
1000
MANEDIT
1070
     0
1002
}
1002
{
1000
NOSEL
1070
     0
1002
}
1002
{
1000
BEHIND
1070
     0
1002
}
1002
{
1000
REACTOR
1002
}
1001
GENIUS_GENOBJ-N-FIL_13
1002
{
1000
OWNER
1000
GEN
1002
}
  0
ARC
  5
1546F
  8
AM_0
 10
277.2251583759645
 20
269.65503298966718
 30
0.0
 40
111.0
 50
187.81694783169451
 51
187.85317808881271
  0
ARC
  5
15470
  8
AM_0
 10
277.2251583759645
 20
269.65503298966718
 30
0.0
 40
111.0
 50
182.58663322877331
 51
182.62228408795289
  0
ARC
  5
15471
  8
AM_0
 10
167.34034474655039
 20
264.6223663377877
 30
0.0
 40
1.0
 50
182.62228408795289
 51
268.0000000000029
1001
GENIUS_GENODEF_13
1002
{
1000
HIER
1070
     0
1002
}
1002
{
1000
MANEDIT
1070
     0
1002
}
1002
{
1000
NOSEL
1070
     0
1002
}
1002
{
1000
BEHIND
1070
     0
1002
}
1002
{
1000
REACTOR
1002
}
1001
GENIUS_GENOBJ-N-FIL_13
1002
{
1000
OWNER
1000
GEN
1002
}
  0
ARC
  5
15472
  8
AM_0
 10
167.33723456809011
 20
264.69074037190393
 30
0.0
 40
1.0
 50
92.000000000003666
 51
182.58663322877331
1001
GENIUS_GENODEF_13
1002
{
1000
HIER
1070
     0
1002
}
1002
{
1000
MANEDIT
1070
     0
1002
}
1002
{
1000
NOSEL
1070
     0
1002
}
1002
{
1000
BEHIND
1070
     0
1002
}
1002
{
1000
REACTOR
1002
}
1001
GENIUS_GENOBJ-N-FIL_13
1002
{
1000
OWNER
1000
GEN
1002
}
  0
ARC
  5
15473
  8
AM_0
 10
180.7251583759645
 20
236.37215450838221
 30
0.0
 40
1.5
 50
0.0
 51
35.01862826208653
1001
GENIUS_GENODEF_13
1002
{
1000
HIER
1070
     0
1002
}
1002
{
1000
MANEDIT
1070
     0
1002
}
1002
{
1000
NOSEL
1070
     0
1002
}
1002
{
1000
BEHIND
1070
     0
1002
}
1002
{
1000
REACTOR
1002
}
1001
GENIUS_GENOBJ-N-FIL_13
1002
{
1000
OWNER
1000
GEN
1002
}
  0
LINE
  5
15474
  8
AM_0
 10
174.22515837596461
 20
235.74808160081
 30
0.0
 11
174.2251583759645
 21
243.48350212850241
 31
0.0
  0
LINE
  5
15475
  8
AM_0
 10
172.89120309879411
 20
235.70149885606401
 30
0.0
 11
182.2251583759645
 21
236.02744775674449
 31
0.0
  0
LINE
  5
15476
  8
AM_0
 10
172.91528700313449
 20
233.6309331669583
 30
0.0
 11
182.2251583759645
 21
233.30582529474981
 31
0.0
  0
ARC
  5
15477
  8
AM_0
 10
277.2251583759645
 20
269.65503298966718
 30
0.0
 40
111.0
 50
198.52714231446819
 51
198.56658080189609
  0
ARC
  5
15478
  8
AM_0
 10
172.9501864998368
 20
234.6303239939775
 30
0.0
 40
1.0
 50
198.56658080190309
 51
267.99999999999642
1001
GENIUS_GENODEF_13
1002
{
1000
HIER
1070
     0
1002
}
1002
{
1000
MANEDIT
1070
     0
1002
}
1002
{
1000
NOSEL
1070
     0
1002
}
1002
{
1000
BEHIND
1070
     0
1002
}
1002
{
1000
REACTOR
1002
}
1001
GENIUS_GENOBJ-N-FIL_13
1002
{
1000
OWNER
1000
GEN
1002
}
  0
ARC
  5
15479
  8
AM_0
 10
172.9261025954969
 20
234.70210802904501
 30
0.0
 40
1.0
 50
92.000000000003666
 51
198.52714231446819
1001
GENIUS_GENODEF_13
1002
{
1000
HIER
1070
     0
1002
}
1002
{
1000
MANEDIT
1070
     0
1002
}
1002
{
1000
NOSEL
1070
     0
1002
}
1002
{
1000
BEHIND
1070
     0
1002
}
1002
{
1000
REACTOR
1002
}
1001
GENIUS_GENOBJ-N-FIL_13
1002
{
1000
OWNER
1000
GEN
1002
}
  0
LINE
  5
1547A
  8
AM_0
 10
182.2251583759645
 20
236.37215450838221
 30
0.0
 11
182.2251583759645
 21
228.65503298966721
 31
0.0
1001
GENIUS_GENODEF_13
1002
{
1000
HIER
1070
     0
1002
}
1002
{
1000
MANEDIT
1070
     0
1002
}
1002
{
1000
NOSEL
1070
     0
1002
}
1002
{
1000
BEHIND
1070
     0
1002
}
1002
{
1000
REACTOR
1002
}
1001
GENIUS_GENOBJ-N-CEN_13
1002
{
1000
OWNER
1000
GEN
1002
}
  0
LINE
  5
1547B
  8
AM_0
 10
170.0751886784256
 20
243.6284222637079
 30
0.0
 11
178.22546377853141
 21
243.3438083856428
 31
0.0
  0
LINE
  5
1547C
  8
AM_0
 10
170.05885394410291
 20
245.69721891271161
 30
0.0
 11
176.94420431784431
 21
245.9376606459829
 31
0.0
  0
ARC
  5
1547D
  8
AM_0
 10
170.1100881751282
 20
244.6278130907271
 30
0.0
 40
1.0
 50
193.15111826064839
 51
268.0000000000029
1001
GENIUS_GENODEF_13
1002
{
1000
HIER
1070
     0
1002
}
1002
{
1000
MANEDIT
1070
     0
1002
}
1002
{
1000
NOSEL
1070
     0
1002
}
1002
{
1000
BEHIND
1070
     0
1002
}
1002
{
1000
REACTOR
1002
}
1001
GENIUS_GENOBJ-N-FIL_13
1002
{
1000
OWNER
1000
GEN
1002
}
  0
ARC
  5
1547E
  8
AM_0
 10
170.0937534408055
 20
244.69782808569241
 30
0.0
 40
1.0
 50
92.000000000003666
 51
193.1136701432988
1001
GENIUS_GENODEF_13
1002
{
1000
HIER
1070
     0
1002
}
1002
{
1000
MANEDIT
1070
     0
1002
}
1002
{
1000
NOSEL
1070
     0
1002
}
1002
{
1000
BEHIND
1070
     0
1002
}
1002
{
1000
REACTOR
1002
}
1001
GENIUS_GENOBJ-N-FIL_13
1002
{
1000
OWNER
1000
GEN
1002
}
  0
ARC
  5
1547F
  8
AM_0
 10
277.2251583759645
 20
269.65503298966718
 30
0.0
 40
111.0
 50
193.1136701432988
 51
193.15111826064839
  0
LINE
  5
15480
  8
AM_0
 10
186.2251571242669
 20
242.15503217010331
 30
0.0
 11
190.22515724347619
 21
242.15503217010331
 31
0.0
  0
LINE
  5
15482
  8
AM_0
 10
168.21241704061879
 20
255.6934750435739
 30
0.0
 11
173.43117620654459
 21
255.87571812943989
 31
0.0
  0
LINE
  5
15483
  8
AM_0
 10
168.22189919299231
 20
253.625785633601
 30
0.0
 11
174.10786352994111
 21
253.42024322975379
 31
0.0
  0
ARC
  5
15484
  8
AM_0
 10
228.2251583759645
 20
269.65503298966718
 30
0.0
 40
56.5
 50
242.48212463479851
 51
295.51787536520061
  0
LINE
  5
15485
  8
AM_0
 10
258.22515837596461
 20
218.7423067813848
 30
0.0
 11
258.2251583759645
 21
203.65503298966701
 31
0.0
  0
LINE
  5
15486
  8
AM_0
 10
261.2251583759645
 20
185.15503298966689
 30
0.0
 11
261.2251583759645
 21
200.15503298966701
 31
0.0
  0
LINE
  5
15487
  8
AM_0
 10
259.72515837596433
 20
203.65503298966701
 30
0.0
 11
259.72515837596433
 21
184.15503298966689
 31
0.0
  0
LINE
  5
15488
  8
AM_0
 10
259.72515837596433
 20
184.15503298966689
 30
0.0
 11
258.22515837596433
 21
184.15503298966689
 31
0.0
  0
LINE
  5
15489
  8
AM_0
 10
259.7251583759645
 20
185.15503298966689
 30
0.0
 11
261.2251583759645
 21
185.15503298966689
 31
0.0
  0
LINE
  5
1548A
  8
AM_0
 10
264.25886042817649
 20
212.62013349296461
 30
0.0
 11
264.47646187677918
 21
218.85142368987749
 31
0.0
  0
LINE
  5
1548B
  8
AM_0
 10
262.1914563237525
 20
212.62013349296481
 30
0.0
 11
261.97537939571703
 21
218.80776713277979
 31
0.0
  0
ARC
  5
1548C
  8
AM_0
 10
260.18770931994243
 20
213.6956688676764
 30
0.0
 40
1.9655366667591301
 50
0.6495532110655964
 51
176.84152977392509
  0
LINE
  5
1548D
  8
AM_0
 10
263.19084715077139
 20
211.65503298966721
 30
0.0
 11
263.2594696011576
 21
211.65503298966721
 31
0.0
  0
ARC
  5
1548E
  8
AM_0
 10
263.19084715077139
 20
212.65503298966721
 30
0.0
 40
1.0
 50
181.9999999999971
 51
270.0
1001
GENIUS_GENODEF_13
1002
{
1000
HIER
1070
     0
1002
}
1002
{
1000
MANEDIT
1070
     0
1002
}
1002
{
1000
NOSEL
1070
     0
1002
}
1002
{
1000
BEHIND
1070
     0
1002
}
1002
{
1000
REACTOR
1002
}
1001
GENIUS_GENOBJ-N-FIL_13
1002
{
1000
OWNER
1000
GEN
1002
}
  0
ARC
  5
1548F
  8
AM_0
 10
263.2594696011576
 20
212.65503298966721
 30
0.0
 40
1.0
 50
269.99999999999352
 51
357.99999999999642
1001
GENIUS_GENODEF_13
1002
{
1000
HIER
1070
     0
1002
}
1002
{
1000
MANEDIT
1070
     0
1002
}
1002
{
1000
NOSEL
1070
     0
1002
}
1002
{
1000
BEHIND
1070
     0
1002
}
1002
{
1000
REACTOR
1002
}
1001
GENIUS_GENOBJ-N-FIL_13
1002
{
1000
OWNER
1000
GEN
1002
}
  0
LINE
  5
15490
  8
AM_0
 10
253.22515912102239
 20
218.65503146974879
 30
0.0
 11
266.22515950845258
 21
218.88194732057821
 31
0.0
  0
ARC
  5
15491
  8
AM_0
 10
269.2251583759645
 20
228.65503298966721
 30
0.0
 40
5.0
 50
270.0
 51
0.0
1001
GENIUS_GENODEF_13
1002
{
1000
HIER
1070
     0
1002
}
1002
{
1000
MANEDIT
1070
     0
1002
}
1002
{
1000
NOSEL
1070
     0
1002
}
1002
{
1000
BEHIND
1070
     0
1002
}
1002
{
1000
REACTOR
1002
}
1001
GENIUS_GENOBJ-N-FIL_13
1002
{
1000
OWNER
1000
GEN
1002
}
  0
LINE
  5
15492
  8
AM_0
 10
286.37512807350339
 20
243.6284222637079
 30
0.0
 11
278.22485297339762
 21
243.3438083856428
 31
0.0
  0
LINE
  5
15493
  8
AM_0
 10
286.3914628078262
 20
245.69721891271161
 30
0.0
 11
279.50611243408468
 21
245.9376606459829
 31
0.0
  0
ARC
  5
15494
  8
AM_0
 10
283.50013025209222
 20
234.6303239939775
 30
0.0
 40
1.0
 50
272.00000000000369
 51
341.43341919809677
1001
GENIUS_GENODEF_13
1002
{
1000
HIER
1070
     0
1002
}
1002
{
1000
MANEDIT
1070
     0
1002
}
1002
{
1000
NOSEL
1070
     0
1002
}
1002
{
1000
BEHIND
1070
     0
1002
}
1002
{
1000
REACTOR
1002
}
1001
GENIUS_GENOBJ-N-FIL_13
1002
{
1000
OWNER
1000
GEN
1002
}
  0
ARC
  5
15495
  8
AM_0
 10
283.52421415643209
 20
234.70210802904501
 30
0.0
 40
1.0
 50
341.47285768553172
 51
87.999999999996334
1001
GENIUS_GENODEF_13
1002
{
1000
HIER
1070
     0
1002
}
1002
{
1000
MANEDIT
1070
     0
1002
}
1002
{
1000
NOSEL
1070
     0
1002
}
1002
{
1000
BEHIND
1070
     0
1002
}
1002
{
1000
REACTOR
1002
}
1001
GENIUS_GENOBJ-N-FIL_13
1002
{
1000
OWNER
1000
GEN
1002
}
  0
LINE
  5
15496
  8
AM_0
 10
282.22515837596438
 20
235.74808160081
 30
0.0
 11
282.2251583759645
 21
243.48350212850241
 31
0.0
  0
ARC
  5
15497
  8
AM_0
 10
275.7251583759645
 20
236.37215450838221
 30
0.0
 40
1.5
 50
144.98137173791559
 51
180.0
1001
GENIUS_GENODEF_13
1002
{
1000
HIER
1070
     0
1002
}
1002
{
1000
MANEDIT
1070
     0
1002
}
1002
{
1000
NOSEL
1070
     0
1002
}
1002
{
1000
BEHIND
1070
     0
1002
}
1002
{
1000
REACTOR
1002
}
1001
GENIUS_GENOBJ-N-FIL_13
1002
{
1000
OWNER
1000
GEN
1002
}
  0
LINE
  5
15498
  8
AM_0
 10
283.55911365313489
 20
235.70149885606401
 30
0.0
 11
274.2251583759645
 21
236.02744775674449
 31
0.0
  0
LINE
  5
15499
  8
AM_0
 10
283.5350297487945
 20
233.6309331669583
 30
0.0
 11
274.2251583759645
 21
233.30582529474981
 31
0.0
  0
LINE
  5
1549A
  8
AM_0
 10
274.2251583759645
 20
236.37215450838221
 30
0.0
 11
274.2251583759645
 21
228.65503298966721
 31
0.0
1001
GENIUS_GENODEF_13
1002
{
1000
HIER
1070
     0
1002
}
1002
{
1000
MANEDIT
1070
     0
1002
}
1002
{
1000
NOSEL
1070
     0
1002
}
1002
{
1000
BEHIND
1070
     0
1002
}
1002
{
1000
REACTOR
1002
}
1001
GENIUS_GENOBJ-N-CEN_13
1002
{
1000
OWNER
1000
GEN
1002
}
  0
ARC
  5
1549B
  8
AM_0
 10
179.2251583759645
 20
269.65503298966718
 30
0.0
 40
111.0
 50
341.43341919810371
 51
341.47285768553172
  0
ARC
  5
1549C
  8
AM_0
 10
286.34022857680083
 20
244.6278130907271
 30
0.0
 40
1.0
 50
271.9999999999971
 51
346.84888173935173
1001
GENIUS_GENODEF_13
1002
{
1000
HIER
1070
     0
1002
}
1002
{
1000
MANEDIT
1070
     0
1002
}
1002
{
1000
NOSEL
1070
     0
1002
}
1002
{
1000
BEHIND
1070
     0
1002
}
1002
{
1000
REACTOR
1002
}
1001
GENIUS_GENOBJ-N-FIL_13
1002
{
1000
OWNER
1000
GEN
1002
}
  0
ARC
  5
1549D
  8
AM_0
 10
179.2251583759645
 20
269.65503298966718
 30
0.0
 40
111.0
 50
346.84888173935173
 51
346.88632985669432
  0
ARC
  5
1549E
  8
AM_0
 10
286.35656331112352
 20
244.69782808569241
 30
0.0
 40
1.0
 50
346.88632985670131
 51
87.999999999996334
1001
GENIUS_GENODEF_13
1002
{
1000
HIER
1070
     0
1002
}
1002
{
1000
MANEDIT
1070
     0
1002
}
1002
{
1000
NOSEL
1070
     0
1002
}
1002
{
1000
BEHIND
1070
     0
1002
}
1002
{
1000
REACTOR
1002
}
1001
GENIUS_GENOBJ-N-FIL_13
1002
{
1000
OWNER
1000
GEN
1002
}
  0
LINE
  5
1549F
  8
AM_0
 10
288.22841755893671
 20
253.625785633601
 30
0.0
 11
282.3424532219878
 21
253.42024322975379
 31
0.0
  0
LINE
  5
154A0
  8
AM_0
 10
288.23789971131021
 20
255.6934750435739
 30
0.0
 11
283.01914054538429
 21
255.87571812943989
 31
0.0
  0
LINE
  5
154A1
  8
AM_0
 10
273.225159717069
 20
254.6550325426324
 30
0.0
 11
270.22515962766198
 21
254.6550325426324
 31
0.0
  0
ARC
  5
154A2
  8
AM_0
 10
179.2251583759645
 20
269.65503298966718
 30
0.0
 40
111.0
 50
352.14682191118732
 51
352.18305216830549
  0
ARC
  5
154A3
  8
AM_0
 10
288.19351806223409
 20
254.62517646062011
 30
0.0
 40
1.0
 50
271.9999999999971
 51
352.1468219111938
1001
GENIUS_GENODEF_13
1002
{
1000
HIER
1070
     0
1002
}
1002
{
1000
MANEDIT
1070
     0
1002
}
1002
{
1000
NOSEL
1070
     0
1002
}
1002
{
1000
BEHIND
1070
     0
1002
}
1002
{
1000
REACTOR
1002
}
1001
GENIUS_GENOBJ-N-FIL_13
1002
{
1000
OWNER
1000
GEN
1002
}
  0
ARC
  5
154A4
  8
AM_0
 10
288.2030002146077
 20
254.6940842165547
 30
0.0
 40
1.0
 50
352.18305216830549
 51
88.000000000002842
1001
GENIUS_GENODEF_13
1002
{
1000
HIER
1070
     0
1002
}
1002
{
1000
MANEDIT
1070
     0
1002
}
1002
{
1000
NOSEL
1070
     0
1002
}
1002
{
1000
BEHIND
1070
     0
1002
}
1002
{
1000
REACTOR
1002
}
1001
GENIUS_GENOBJ-N-FIL_13
1002
{
1000
OWNER
1000
GEN
1002
}
  0
LINE
  5
154AD
  8
AM_0
 10
266.2251583759645
 20
315.65503298966718
 30
0.0
 11
269.2251583759645
 21
315.65503298966718
 31
0.0
  0
LINE
  5
154AE
  8
AM_0
 10
270.22515962766198
 20
297.15503380923099
 30
0.0
 11
266.22515950845269
 21
297.15503380923099
 31
0.0
  0
LINE
  5
154AF
  8
ﾁｭｳｼﾝｾﾝ1
 10
187.22515724347639
 20
309.65503418176007
 30
0.0
 11
269.2251595084528
 21
309.65503418176007
 31
0.0
  0
LINE
  5
154B0
  8
ﾁｭｳｼﾝｾﾝ1
 10
329.70857035097453
 20
269.65503298966718
 30
0.0
 11
161.7251583759645
 21
269.65503298966718
 31
0.0
  0
LINE
  5
154B6
  8
AM_0
 10
253.22515912102401
 20
320.65503450958562
 30
0.0
 11
190.22515724347619
 21
319.55536538633521
 31
0.0
  0
LINE
  5
154B7
  8
ｶｸﾚｾﾝ2
 10
190.22515724347619
 20
314.15503418176007
 30
0.0
 11
266.22515950845258
 21
314.15503418176007
 31
0.0
  0
LINE
  5
154B8
  8
ｶｸﾚｾﾝ2
 10
190.22515724347619
 20
305.15503418176007
 30
0.0
 11
266.22515950845258
 21
305.15503418176007
 31
0.0
  0
ARC
  5
154B9
  8
AM_0
 10
187.2251583759645
 20
310.65503298966729
 30
0.0
 40
5.0
 50
90.0
 51
180.0
1001
GENIUS_GENOBJ-N-CEN_13
1002
{
1000
OWNER
1000
GEN
1002
}
1001
GENIUS_GENODEF_13
1002
{
1000
HIER
1070
     0
1002
}
1002
{
1000
MANEDIT
1070
     0
1002
}
1002
{
1000
NOSEL
1070
     0
1002
}
1002
{
1000
BEHIND
1070
     0
1002
}
1002
{
1000
REACTOR
1002
}
1001
GENIUS_GENOBJ-N-FIL_13
1002
{
1000
OWNER
1000
GEN
1002
}
  0
ARC
  5
154BA
  8
AM_0
 10
168.25679868969479
 20
284.68488951871439
 30
0.0
 40
1.0
 50
91.999999999997158
 51
172.14682191119391
1001
GENIUS_GENODEF_13
1002
{
1000
HIER
1070
     0
1002
}
1002
{
1000
MANEDIT
1070
     0
1002
}
1002
{
1000
NOSEL
1070
     0
1002
}
1002
{
1000
BEHIND
1070
     0
1002
}
1002
{
1000
REACTOR
1002
}
1001
GENIUS_GENOBJ-N-FIL_13
1002
{
1000
OWNER
1000
GEN
1002
}
  0
ARC
  5
154BB
  8
AM_0
 10
168.2473165373213
 20
284.61598176277988
 30
0.0
 40
1.0
 50
172.18305216830549
 51
268.0000000000029
1001
GENIUS_GENODEF_13
1002
{
1000
HIER
1070
     0
1002
}
1002
{
1000
MANEDIT
1070
     0
1002
}
1002
{
1000
NOSEL
1070
     0
1002
}
1002
{
1000
BEHIND
1070
     0
1002
}
1002
{
1000
REACTOR
1002
}
1001
GENIUS_GENOBJ-N-FIL_13
1002
{
1000
OWNER
1000
GEN
1002
}
  0
LINE
  5
154BC
  8
AM_0
 10
167.30233507138729
 20
273.61993478041171
 30
0.0
 11
171.85349369916131
 21
273.46100481905057
 31
0.0
  0
LINE
  5
154BD
  8
AM_0
 10
167.30544524984779
 20
275.68709046856583
 30
0.0
 11
172.06617865485359
 21
275.8533389424137
 31
0.0
  0
ARC
  5
154BE
  8
AM_0
 10
277.2251583759645
 20
269.65503298966718
 30
0.0
 40
111.0
 50
177.37771591204699
 51
177.41336677122669
  0
ARC
  5
154BF
  8
AM_0
 10
167.33723456809011
 20
274.6193256074306
 30
0.0
 40
1.0
 50
177.41336677122669
 51
267.99999999999642
1001
GENIUS_GENODEF_13
1002
{
1000
HIER
1070
     0
1002
}
1002
{
1000
MANEDIT
1070
     0
1002
}
1002
{
1000
NOSEL
1070
     0
1002
}
1002
{
1000
BEHIND
1070
     0
1002
}
1002
{
1000
REACTOR
1002
}
1001
GENIUS_GENOBJ-N-FIL_13
1002
{
1000
OWNER
1000
GEN
1002
}
  0
ARC
  5
154C0
  8
AM_0
 10
167.34034474655039
 20
274.6876996415466
 30
0.0
 40
1.0
 50
91.999999999997158
 51
177.37771591204699
1001
GENIUS_GENODEF_13
1002
{
1000
HIER
1070
     0
1002
}
1002
{
1000
MANEDIT
1070
     0
1002
}
1002
{
1000
NOSEL
1070
     0
1002
}
1002
{
1000
BEHIND
1070
     0
1002
}
1002
{
1000
REACTOR
1002
}
1001
GENIUS_GENOBJ-N-FIL_13
1002
{
1000
OWNER
1000
GEN
1002
}
  0
ARC
  5
154C1
  8
AM_0
 10
277.2251583759645
 20
269.65503298966718
 30
0.0
 40
111.0
 50
172.14682191118709
 51
172.18305216830549
  0
LINE
  5
154C3
  8
AM_0
 10
168.22189919299231
 20
285.68428034573338
 30
0.0
 11
174.10786352994111
 21
285.88982274958079
 31
0.0
  0
LINE
  5
154C4
  8
AM_0
 10
168.21241704061879
 20
283.61659093576088
 30
0.0
 11
173.43117620654459
 21
283.43434784989438
 31
0.0
  0
LINE
  5
154C5
  8
AM_0
 10
174.22515837596461
 20
303.5619843785243
 30
0.0
 11
174.2251583759645
 21
295.82656385083197
 31
0.0
  0
LINE
  5
154C6
  8
AM_0
 10
170.0751886784256
 20
295.68164371562659
 30
0.0
 11
178.22546377853141
 21
295.96625759369169
 31
0.0
  0
LINE
  5
154C7
  8
AM_0
 10
170.05885394410291
 20
293.61284706662309
 30
0.0
 11
176.94420431784431
 21
293.37240533335159
 31
0.0
  0
ARC
  5
154C8
  8
AM_0
 10
170.0937534408055
 20
294.6122378936422
 30
0.0
 40
1.0
 50
166.8863298567012
 51
267.99999999999642
1001
GENIUS_GENODEF_13
1002
{
1000
HIER
1070
     0
1002
}
1002
{
1000
MANEDIT
1070
     0
1002
}
1002
{
1000
NOSEL
1070
     0
1002
}
1002
{
1000
BEHIND
1070
     0
1002
}
1002
{
1000
REACTOR
1002
}
1001
GENIUS_GENOBJ-N-FIL_13
1002
{
1000
OWNER
1000
GEN
1002
}
  0
ARC
  5
154C9
  8
AM_0
 10
277.2251583759645
 20
269.65503298966718
 30
0.0
 40
111.0
 50
166.84888173935161
 51
166.88632985669429
  0
ARC
  5
154CA
  8
AM_0
 10
170.1100881751282
 20
294.68225288860748
 30
0.0
 40
1.0
 50
91.999999999997158
 51
166.84888173935161
1001
GENIUS_GENODEF_13
1002
{
1000
HIER
1070
     0
1002
}
1002
{
1000
MANEDIT
1070
     0
1002
}
1002
{
1000
NOSEL
1070
     0
1002
}
1002
{
1000
BEHIND
1070
     0
1002
}
1002
{
1000
REACTOR
1002
}
1001
GENIUS_GENOBJ-N-FIL_13
1002
{
1000
OWNER
1000
GEN
1002
}
  0
LINE
  5
154CB
  8
AM_0
 10
172.91528700313449
 20
305.67913281237628
 30
0.0
 11
182.2251583759645
 21
306.00424068458477
 31
0.0
  0
LINE
  5
154CC
  8
AM_0
 10
172.89120309879411
 20
303.60856712327057
 30
0.0
 11
182.2251583759645
 21
303.28261822259032
 31
0.0
  0
ARC
  5
154CD
  8
AM_0
 10
172.9501864998368
 20
304.67974198535711
 30
0.0
 40
1.0
 50
92.000000000003666
 51
161.4334191980968
1001
GENIUS_GENODEF_13
1002
{
1000
HIER
1070
     0
1002
}
1002
{
1000
MANEDIT
1070
     0
1002
}
1002
{
1000
NOSEL
1070
     0
1002
}
1002
{
1000
BEHIND
1070
     0
1002
}
1002
{
1000
REACTOR
1002
}
1001
GENIUS_GENOBJ-N-FIL_13
1002
{
1000
OWNER
1000
GEN
1002
}
  0
ARC
  5
154CE
  8
AM_0
 10
277.2251583759645
 20
269.65503298966718
 30
0.0
 40
111.0
 50
161.43341919810371
 51
161.47285768553169
  0
ARC
  5
154CF
  8
AM_0
 10
172.9261025954969
 20
304.60795795028969
 30
0.0
 40
1.0
 50
161.47285768553169
 51
267.99999999999642
1001
GENIUS_GENODEF_13
1002
{
1000
HIER
1070
     0
1002
}
1002
{
1000
MANEDIT
1070
     0
1002
}
1002
{
1000
NOSEL
1070
     0
1002
}
1002
{
1000
BEHIND
1070
     0
1002
}
1002
{
1000
REACTOR
1002
}
1001
GENIUS_GENOBJ-N-FIL_13
1002
{
1000
OWNER
1000
GEN
1002
}
  0
LINE
  5
154D0
  8
AM_0
 10
182.2251583759645
 20
310.65503298966729
 30
0.0
 11
182.2251583759645
 21
302.93791147095271
 31
0.0
1001
GENIUS_GENODEF_13
1002
{
1000
HIER
1070
     0
1002
}
1002
{
1000
MANEDIT
1070
     0
1002
}
1002
{
1000
NOSEL
1070
     0
1002
}
1002
{
1000
BEHIND
1070
     0
1002
}
1002
{
1000
REACTOR
1002
}
1001
GENIUS_GENOBJ-N-CEN_13
1002
{
1000
OWNER
1000
GEN
1002
}
  0
ARC
  5
154D1
  8
AM_0
 10
180.7251583759645
 20
302.93791147095271
 30
0.0
 40
1.5
 50
324.98137173791582
 51
0.0
1001
GENIUS_GENODEF_13
1002
{
1000
HIER
1070
     0
1002
}
1002
{
1000
MANEDIT
1070
     0
1002
}
1002
{
1000
NOSEL
1070
     0
1002
}
1002
{
1000
BEHIND
1070
     0
1002
}
1002
{
1000
REACTOR
1002
}
1001
GENIUS_GENOBJ-N-FIL_13
1002
{
1000
OWNER
1000
GEN
1002
}
  0
LINE
  5
154D2
  8
AM_0
 10
186.2251571242669
 20
297.15503380923099
 30
0.0
 11
190.22515724347619
 21
297.15503380923099
 31
0.0
  0
LINE
  5
154D3
  8
AM_0
 10
192.20105855325539
 20
324.96490436249718
 30
0.0
 11
192.01324320721719
 21
319.58657654292949
 31
0.0
  0
LINE
  5
154D4
  8
AM_0
 10
194.2716242423613
 20
324.98898826683728
 30
0.0
 11
194.45878994779821
 21
319.62926372007132
 31
0.0
  0
LINE
  5
154D5
  8
AM_0
 10
187.2251583759645
 20
315.65503298966718
 30
0.0
 11
190.22515837596461
 21
315.65503298966718
 31
0.0
  0
ARC
  5
154D6
  8
AM_0
 10
193.20044938027479
 20
324.93000486579461
 30
0.0
 40
1.0
 50
108.5665808019029
 51
177.99999999999631
1001
GENIUS_GENODEF_13
1002
{
1000
HIER
1070
     0
1002
}
1002
{
1000
MANEDIT
1070
     0
1002
}
1002
{
1000
NOSEL
1070
     0
1002
}
1002
{
1000
BEHIND
1070
     0
1002
}
1002
{
1000
REACTOR
1002
}
1001
GENIUS_GENOBJ-N-FIL_13
1002
{
1000
OWNER
1000
GEN
1002
}
  0
ARC
  5
154D7
  8
AM_0
 10
228.2251583759645
 20
220.65503298966721
 30
0.0
 40
111.0
 50
108.527142314469
 51
108.56658080189619
  0
ARC
  5
154D8
  8
AM_0
 10
193.2722334153421
 20
324.95408877013449
 30
0.0
 40
1.0
 50
1.999999999997129
 51
108.527142314469
1001
GENIUS_GENODEF_13
1002
{
1000
HIER
1070
     0
1002
}
1002
{
1000
MANEDIT
1070
     0
1002
}
1002
{
1000
NOSEL
1070
     0
1002
}
1002
{
1000
BEHIND
1070
     0
1002
}
1002
{
1000
REACTOR
1002
}
1001
GENIUS_GENOBJ-N-FIL_13
1002
{
1000
OWNER
1000
GEN
1002
}
  0
ARC
  5
154D9
  8
AM_0
 10
233.25782502784401
 20
330.53984661908112
 30
0.0
 40
1.0
 50
1.999999999997129
 51
87.37771591204708
1001
GENIUS_GENODEF_13
1002
{
1000
HIER
1070
     0
1002
}
1002
{
1000
MANEDIT
1070
     0
1002
}
1002
{
1000
NOSEL
1070
     0
1002
}
1002
{
1000
BEHIND
1070
     0
1002
}
1002
{
1000
REACTOR
1002
}
1001
GENIUS_GENOBJ-N-FIL_13
1002
{
1000
OWNER
1000
GEN
1002
}
  0
ARC
  5
154DA
  8
AM_0
 10
228.2251583759645
 20
269.65503298966718
 30
0.0
 40
56.5
 50
64.482124634799419
 51
117.51787536520141
  0
LINE
  5
154DB
  8
AM_0
 10
204.2673442990087
 20
327.82133742152882
 30
0.0
 11
204.50778603227999
 21
320.93598704778742
 31
0.0
  0
LINE
  5
154DC
  8
AM_0
 10
202.19854765000531
 20
327.80500268720601
 30
0.0
 11
201.91759102378089
 21
319.75945757713919
 31
0.0
  0
ARC
  5
154DD
  8
AM_0
 10
203.19793847702419
 20
327.77010319050351
 30
0.0
 40
1.0
 50
103.1511182606549
 51
178.00000000000281
1001
GENIUS_GENODEF_13
1002
{
1000
HIER
1070
     0
1002
}
1002
{
1000
MANEDIT
1070
     0
1002
}
1002
{
1000
NOSEL
1070
     0
1002
}
1002
{
1000
BEHIND
1070
     0
1002
}
1002
{
1000
REACTOR
1002
}
1001
GENIUS_GENOBJ-N-FIL_13
1002
{
1000
OWNER
1000
GEN
1002
}
  0
ARC
  5
154DE
  8
AM_0
 10
228.2251583759645
 20
220.65503298966721
 30
0.0
 40
111.0
 50
103.11367014329871
 51
103.1511182606549
  0
ARC
  5
154DF
  8
AM_0
 10
203.2679534719897
 20
327.78643792482598
 30
0.0
 40
1.0
 50
2.0000000000036389
 51
103.11367014329871
1001
GENIUS_GENODEF_13
1002
{
1000
HIER
1070
     0
1002
}
1002
{
1000
MANEDIT
1070
     0
1002
}
1002
{
1000
NOSEL
1070
     0
1002
}
1002
{
1000
BEHIND
1070
     0
1002
}
1002
{
1000
REACTOR
1002
}
1001
GENIUS_GENOBJ-N-FIL_13
1002
{
1000
OWNER
1000
GEN
1002
}
  0
ARC
  5
154E0
  8
AM_0
 10
213.26420960285179
 20
329.63287482831021
 30
0.0
 40
1.0
 50
1.999999999997129
 51
97.816947831694506
1001
GENIUS_GENODEF_13
1002
{
1000
HIER
1070
     0
1002
}
1002
{
1000
MANEDIT
1070
     0
1002
}
1002
{
1000
NOSEL
1070
     0
1002
}
1002
{
1000
BEHIND
1070
     0
1002
}
1002
{
1000
REACTOR
1002
}
1001
GENIUS_GENOBJ-N-FIL_13
1002
{
1000
OWNER
1000
GEN
1002
}
  0
ARC
  5
154E1
  8
AM_0
 10
213.1953018469172
 20
329.62339267593683
 30
0.0
 40
1.0
 50
97.853178088806203
 51
178.00000000000281
1001
GENIUS_GENODEF_13
1002
{
1000
HIER
1070
     0
1002
}
1002
{
1000
MANEDIT
1070
     0
1002
}
1002
{
1000
NOSEL
1070
     0
1002
}
1002
{
1000
BEHIND
1070
     0
1002
}
1002
{
1000
REACTOR
1002
}
1001
GENIUS_GENOBJ-N-FIL_13
1002
{
1000
OWNER
1000
GEN
1002
}
  0
ARC
  5
154E2
  8
AM_0
 10
228.2251583759645
 20
220.65503298966721
 30
0.0
 40
111.0
 50
97.816947831694506
 51
97.853178088806203
  0
LINE
  5
154E3
  8
AM_0
 10
212.19591101989829
 20
329.65829217263939
 30
0.0
 11
211.99036861605089
 21
323.77232783569019
 31
0.0
  0
LINE
  5
154E4
  8
AM_0
 10
214.26360042987099
 20
329.66777432501289
 30
0.0
 11
214.44584351573721
 21
324.44901515908708
 31
0.0
  0
ARC
  5
154E5
  8
AM_0
 10
223.19249172408499
 20
330.53984661908112
 30
0.0
 40
1.0
 50
92.622284087952934
 51
178.00000000000281
1001
GENIUS_GENODEF_13
1002
{
1000
HIER
1070
     0
1002
}
1002
{
1000
MANEDIT
1070
     0
1002
}
1002
{
1000
NOSEL
1070
     0
1002
}
1002
{
1000
BEHIND
1070
     0
1002
}
1002
{
1000
REACTOR
1002
}
1001
GENIUS_GENOBJ-N-FIL_13
1002
{
1000
OWNER
1000
GEN
1002
}
  0
ARC
  5
154E6
  8
AM_0
 10
223.26086575820099
 20
330.54295679754148
 30
0.0
 40
1.0
 50
2.0000000000036389
 51
92.586633228773294
1001
GENIUS_GENODEF_13
1002
{
1000
HIER
1070
     0
1002
}
1002
{
1000
MANEDIT
1070
     0
1002
}
1002
{
1000
NOSEL
1070
     0
1002
}
1002
{
1000
BEHIND
1070
     0
1002
}
1002
{
1000
REACTOR
1002
}
1001
GENIUS_GENOBJ-N-FIL_13
1002
{
1000
OWNER
1000
GEN
1002
}
  0
ARC
  5
154E7
  8
AM_0
 10
228.2251583759645
 20
220.65503298966721
 30
0.0
 40
111.0
 50
92.586633228773294
 51
92.622284087952934
  0
LINE
  5
154E8
  8
AM_0
 10
224.26025658522019
 20
330.5778562942441
 30
0.0
 11
224.41918654658099
 21
326.02669766647023
 31
0.0
  0
LINE
  5
154E9
  8
AM_0
 10
222.1931008970661
 20
330.57474611578363
 30
0.0
 11
222.026852423218
 21
325.81401271077812
 31
0.0
  0
ARC
  5
154EA
  8
AM_0
 10
233.189450993728
 20
330.54295679754148
 30
0.0
 40
1.0
 50
87.413366771226706
 51
177.99999999999631
1001
GENIUS_GENODEF_13
1002
{
1000
HIER
1070
     0
1002
}
1002
{
1000
MANEDIT
1070
     0
1002
}
1002
{
1000
NOSEL
1070
     0
1002
}
1002
{
1000
BEHIND
1070
     0
1002
}
1002
{
1000
REACTOR
1002
}
1001
GENIUS_GENOBJ-N-FIL_13
1002
{
1000
OWNER
1000
GEN
1002
}
  0
ARC
  5
154EB
  8
AM_0
 10
228.2251583759645
 20
220.65503298966721
 30
0.0
 40
111.0
 50
87.37771591204708
 51
87.413366771226706
  0
LINE
  5
154EC
  8
AM_0
 10
232.1900601667088
 20
330.5778562942441
 30
0.0
 11
232.03113020534789
 21
326.02669766647023
 31
0.0
  0
ARC
  5
154ED
  8
AM_0
 10
243.1861071490772
 20
329.63287482831021
 30
0.0
 40
1.0
 50
82.183052168305494
 51
178.00000000000281
1001
GENIUS_GENODEF_13
1002
{
1000
HIER
1070
     0
1002
}
1002
{
1000
MANEDIT
1070
     0
1002
}
1002
{
1000
NOSEL
1070
     0
1002
}
1002
{
1000
BEHIND
1070
     0
1002
}
1002
{
1000
REACTOR
1002
}
1001
GENIUS_GENOBJ-N-FIL_13
1002
{
1000
OWNER
1000
GEN
1002
}
  0
LINE
  5
154EE
  8
AM_0
 10
234.25721585486289
 20
330.57474611578363
 30
0.0
 11
234.42346432871099
 21
325.81401271077812
 31
0.0
  0
LINE
  5
154EF
  8
AM_0
 10
242.186716322058
 20
329.66777432501289
 30
0.0
 11
242.00447323619181
 21
324.44901515908708
 31
0.0
  0
ARC
  5
154F0
  8
AM_0
 10
243.25501490501179
 20
329.62339267593683
 30
0.0
 40
1.0
 50
1.999999999997129
 51
82.146821911193769
1001
GENIUS_GENODEF_13
1002
{
1000
HIER
1070
     0
1002
}
1002
{
1000
MANEDIT
1070
     0
1002
}
1002
{
1000
NOSEL
1070
     0
1002
}
1002
{
1000
BEHIND
1070
     0
1002
}
1002
{
1000
REACTOR
1002
}
1001
GENIUS_GENOBJ-N-FIL_13
1002
{
1000
OWNER
1000
GEN
1002
}
  0
ARC
  5
154F1
  8
AM_0
 10
228.2251583759645
 20
220.65503298966721
 30
0.0
 40
111.0
 50
82.146821911193769
 51
82.183052168305494
  0
LINE
  5
154F2
  8
AM_0
 10
244.2544057320307
 20
329.65829217263939
 30
0.0
 11
244.45994813587811
 21
323.77232783569019
 31
0.0
  0
LINE
  5
154F3
  8
AM_0
 10
264.2492581986736
 20
324.96490436249718
 30
0.0
 11
264.40657774031848
 21
320.45986212159607
 31
0.0
  0
LINE
  5
154F4
  8
AM_0
 10
262.17869250956772
 20
324.98898826683728
 30
0.0
 11
262.02198545408407
 21
320.50148533477972
 31
0.0
  0
LINE
  5
154F5
  8
AM_0
 10
252.18297245292041
 20
327.82133742152882
 30
0.0
 11
251.942530719649
 21
320.93598704778742
 31
0.0
  0
LINE
  5
154F6
  8
AM_0
 10
254.25176910192371
 20
327.80500268720601
 30
0.0
 11
254.5022299237551
 21
320.63274315580588
 31
0.0
  0
LINE
  5
154F7
  8
AM_0
 10
253.22515912102261
 20
320.65503450958551
 30
0.0
 11
266.22515950845269
 21
320.42811865875609
 31
0.0
  0
ARC
  5
154F8
  8
AM_0
 10
253.2523782749048
 20
327.77010319050351
 30
0.0
 40
1.0
 50
1.999999999997129
 51
76.848881739345046
1001
GENIUS_GENODEF_13
1002
{
1000
HIER
1070
     0
1002
}
1002
{
1000
MANEDIT
1070
     0
1002
}
1002
{
1000
NOSEL
1070
     0
1002
}
1002
{
1000
BEHIND
1070
     0
1002
}
1002
{
1000
REACTOR
1002
}
1001
GENIUS_GENOBJ-N-FIL_13
1002
{
1000
OWNER
1000
GEN
1002
}
  0
ARC
  5
154F9
  8
AM_0
 10
228.2251583759645
 20
220.65503298966721
 30
0.0
 40
111.0
 50
76.848881739345046
 51
76.886329856701238
  0
ARC
  5
154FA
  8
AM_0
 10
253.1823632799393
 20
327.78643792482598
 30
0.0
 40
1.0
 50
76.886329856701238
 51
177.99999999999631
1001
GENIUS_GENODEF_13
1002
{
1000
HIER
1070
     0
1002
}
1002
{
1000
MANEDIT
1070
     0
1002
}
1002
{
1000
NOSEL
1070
     0
1002
}
1002
{
1000
BEHIND
1070
     0
1002
}
1002
{
1000
REACTOR
1002
}
1001
GENIUS_GENOBJ-N-FIL_13
1002
{
1000
OWNER
1000
GEN
1002
}
  0
ARC
  5
154FB
  8
AM_0
 10
228.2251583759645
 20
220.65503298966721
 30
0.0
 40
111.0
 50
71.433419198103763
 51
71.472857685530954
  0
ARC
  5
154FC
  8
AM_0
 10
263.2498673716542
 20
324.93000486579461
 30
0.0
 40
1.0
 50
2.0000000000036389
 51
71.43341919809707
1001
GENIUS_GENODEF_13
1002
{
1000
HIER
1070
     0
1002
}
1002
{
1000
MANEDIT
1070
     0
1002
}
1002
{
1000
NOSEL
1070
     0
1002
}
1002
{
1000
BEHIND
1070
     0
1002
}
1002
{
1000
REACTOR
1002
}
1001
GENIUS_GENOBJ-N-FIL_13
1002
{
1000
OWNER
1000
GEN
1002
}
  0
ARC
  5
154FD
  8
AM_0
 10
263.17808333658678
 20
324.95408877013449
 30
0.0
 40
1.0
 50
71.472857685530954
 51
178.00000000000281
1001
GENIUS_GENODEF_13
1002
{
1000
HIER
1070
     0
1002
}
1002
{
1000
MANEDIT
1070
     0
1002
}
1002
{
1000
NOSEL
1070
     0
1002
}
1002
{
1000
BEHIND
1070
     0
1002
}
1002
{
1000
REACTOR
1002
}
1001
GENIUS_GENOBJ-N-FIL_13
1002
{
1000
OWNER
1000
GEN
1002
}
  0
ARC
  5
154FE
  8
AM_0
 10
269.2251583759645
 20
310.65503298966729
 30
0.0
 40
5.0
 50
0.0
 51
90.0
1001
GENIUS_GENODEF_13
1002
{
1000
HIER
1070
     0
1002
}
1002
{
1000
MANEDIT
1070
     0
1002
}
1002
{
1000
NOSEL
1070
     0
1002
}
1002
{
1000
BEHIND
1070
     0
1002
}
1002
{
1000
REACTOR
1002
}
1001
GENIUS_GENOBJ-N-FIL_13
1002
{
1000
OWNER
1000
GEN
1002
}
  0
LINE
  5
154FF
  8
AM_0
 10
288.22841755893671
 20
285.68428034573338
 30
0.0
 11
282.3424532219878
 21
285.88982274958079
 31
0.0
  0
LINE
  5
15500
  8
AM_0
 10
288.23789971131021
 20
283.61659093576088
 30
0.0
 11
283.01914054538429
 21
283.43434784989438
 31
0.0
  0
LINE
  5
15501
  8
AM_0
 10
273.225159717069
 20
284.65503343670201
 30
0.0
 11
270.22515962766198
 21
284.65503343670201
 31
0.0
  0
ARC
  5
15507
  8
AM_0
 10
288.19351806223409
 20
284.68488951871439
 30
0.0
 40
1.0
 50
7.8531780888061062
 51
88.000000000002842
1001
GENIUS_GENODEF_13
1002
{
1000
HIER
1070
     0
1002
}
1002
{
1000
MANEDIT
1070
     0
1002
}
1002
{
1000
NOSEL
1070
     0
1002
}
1002
{
1000
BEHIND
1070
     0
1002
}
1002
{
1000
REACTOR
1002
}
1001
GENIUS_GENOBJ-N-FIL_13
1002
{
1000
OWNER
1000
GEN
1002
}
  0
ARC
  5
15508
  8
AM_0
 10
179.2251583759645
 20
269.65503298966718
 30
0.0
 40
111.0
 50
7.8169478316945114
 51
7.8531780888127791
  0
ARC
  5
15509
  8
AM_0
 10
288.2030002146077
 20
284.61598176277988
 30
0.0
 40
1.0
 50
271.9999999999971
 51
7.8169478316945114
1001
GENIUS_GENODEF_13
1002
{
1000
HIER
1070
     0
1002
}
1002
{
1000
MANEDIT
1070
     0
1002
}
1002
{
1000
NOSEL
1070
     0
1002
}
1002
{
1000
BEHIND
1070
     0
1002
}
1002
{
1000
REACTOR
1002
}
1001
GENIUS_GENOBJ-N-FIL_13
1002
{
1000
OWNER
1000
GEN
1002
}
  0
ARC
  5
1550A
  8
AM_0
 10
283.50013025209222
 20
304.67974198535711
 30
0.0
 40
1.0
 50
18.566580801903179
 51
87.999999999996334
1001
GENIUS_GENODEF_13
1002
{
1000
HIER
1070
     0
1002
}
1002
{
1000
MANEDIT
1070
     0
1002
}
1002
{
1000
NOSEL
1070
     0
1002
}
1002
{
1000
BEHIND
1070
     0
1002
}
1002
{
1000
REACTOR
1002
}
1001
GENIUS_GENOBJ-N-FIL_13
1002
{
1000
OWNER
1000
GEN
1002
}
  0
ARC
  5
1550B
  8
AM_0
 10
283.52421415643209
 20
304.60795795028969
 30
0.0
 40
1.0
 50
271.9999999999971
 51
18.52714231446825
1001
GENIUS_GENODEF_13
1002
{
1000
HIER
1070
     0
1002
}
1002
{
1000
MANEDIT
1070
     0
1002
}
1002
{
1000
NOSEL
1070
     0
1002
}
1002
{
1000
BEHIND
1070
     0
1002
}
1002
{
1000
REACTOR
1002
}
1001
GENIUS_GENOBJ-N-FIL_13
1002
{
1000
OWNER
1000
GEN
1002
}
  0
LINE
  5
1550C
  8
AM_0
 10
286.37512807350339
 20
295.68164371562659
 30
0.0
 11
278.22485297339762
 21
295.96625759369169
 31
0.0
  0
LINE
  5
1550D
  8
AM_0
 10
286.39146280782631
 20
293.61284706662309
 30
0.0
 11
279.50611243408468
 21
293.37240533335159
 31
0.0
  0
LINE
  5
1550E
  8
AM_0
 10
282.22515837596438
 20
303.5619843785243
 30
0.0
 11
282.2251583759645
 21
295.82656385083197
 31
0.0
  0
LINE
  5
1550F
  8
AM_0
 10
283.53502974879473
 20
305.67913281237628
 30
0.0
 11
274.2251583759645
 21
306.00424068458477
 31
0.0
  0
LINE
  5
15510
  8
AM_0
 10
283.55911365313489
 20
303.60856712327057
 30
0.0
 11
274.2251583759645
 21
303.28261822259032
 31
0.0
  0
LINE
  5
15511
  8
AM_0
 10
274.2251583759645
 20
310.65503298966729
 30
0.0
 11
274.2251583759645
 21
302.93791147095271
 31
0.0
1001
GENIUS_GENODEF_13
1002
{
1000
HIER
1070
     0
1002
}
1002
{
1000
MANEDIT
1070
     0
1002
}
1002
{
1000
NOSEL
1070
     0
1002
}
1002
{
1000
BEHIND
1070
     0
1002
}
1002
{
1000
REACTOR
1002
}
1001
GENIUS_GENOBJ-N-CEN_13
1002
{
1000
OWNER
1000
GEN
1002
}
  0
ARC
  5
15512
  8
AM_0
 10
275.7251583759645
 20
302.93791147095271
 30
0.0
 40
1.5
 50
179.99999999999349
 51
215.01862826208421
1001
GENIUS_GENODEF_13
1002
{
1000
HIER
1070
     0
1002
}
1002
{
1000
MANEDIT
1070
     0
1002
}
1002
{
1000
NOSEL
1070
     0
1002
}
1002
{
1000
BEHIND
1070
     0
1002
}
1002
{
1000
REACTOR
1002
}
1001
GENIUS_GENOBJ-N-FIL_13
1002
{
1000
OWNER
1000
GEN
1002
}
  0
ARC
  5
15513
  8
AM_0
 10
179.2251583759645
 20
269.65503298966718
 30
0.0
 40
111.0
 50
13.11367014330567
 51
13.151118260648429
  0
ARC
  5
15514
  8
AM_0
 10
286.35656331112352
 20
294.6122378936422
 30
0.0
 40
1.0
 50
272.00000000000369
 51
13.113670143298769
1001
GENIUS_GENODEF_13
1002
{
1000
HIER
1070
     0
1002
}
1002
{
1000
MANEDIT
1070
     0
1002
}
1002
{
1000
NOSEL
1070
     0
1002
}
1002
{
1000
BEHIND
1070
     0
1002
}
1002
{
1000
REACTOR
1002
}
1001
GENIUS_GENOBJ-N-FIL_13
1002
{
1000
OWNER
1000
GEN
1002
}
  0
ARC
  5
15515
  8
AM_0
 10
286.34022857680083
 20
294.68225288860748
 30
0.0
 40
1.0
 50
13.151118260648429
 51
88.000000000002842
1001
GENIUS_GENODEF_13
1002
{
1000
HIER
1070
     0
1002
}
1002
{
1000
MANEDIT
1070
     0
1002
}
1002
{
1000
NOSEL
1070
     0
1002
}
1002
{
1000
BEHIND
1070
     0
1002
}
1002
{
1000
REACTOR
1002
}
1001
GENIUS_GENOBJ-N-FIL_13
1002
{
1000
OWNER
1000
GEN
1002
}
  0
ARC
  5
15516
  8
AM_0
 10
179.2251583759645
 20
269.65503298966718
 30
0.0
 40
111.0
 50
18.52714231446825
 51
18.56658080189623
  0
CIRCLE
  5
15729
  8
AM_0
 10
471.64557199881961
 20
269.65503298966769
 30
0.0
 40
27.500000819563869
  0
LINE
  5
1572C
  8
ﾁｭｳｼﾝｾﾝ1
 10
471.64557199881961
 20
325.65503450958619
 30
0.0
 11
471.64557199881961
 21
213.65503146974939
 31
0.0
  0
LINE
  5
1572D
  8
AM_0
 10
557.64557456181933
 20
309.65503418176058
 30
0.0
 11
557.64557456181933
 21
229.65503179757491
 31
0.0
  0
ARC
  5
1572F
  8
AM_0
 10
338.64558982060862
 20
269.65503298966769
 30
0.0
 40
236.0
 50
349.43602826972682
 51
359.9999949910495
  0
LINE
  5
15731
  8
AM_0
 10
582.15167807744433
 20
325.65503298966769
 30
0.0
 11
582.15167807744433
 21
213.65503298966769
 31
0.0
  0
LINE
  5
15732
  8
AM_0
 10
570.64557456181933
 20
219.01475131242159
 30
0.0
 11
570.64557456181933
 21
320.29532229630831
 31
0.0
  0
LINE
  5
15733
  8
ﾁｭｳｼﾝｾﾝ1
 10
554.14557445751132
 20
229.65503179757491
 30
0.0
 11
539.14557401047625
 21
229.65503179757491
 31
0.0
  0
LINE
  5
15735
  8
AM_0
 10
546.64557423399367
 20
218.65503146974939
 30
0.0
 11
429.64557080672682
 21
218.65503146974939
 31
0.0
  0
ARC
  5
1573E
  8
AM_0
 10
546.64557423399367
 20
229.65503179757491
 30
0.0
 40
11.000000327825591
 50
269.999999316757
 51
359.99999499104308
  0
LINE
  5
1573F
  8
ﾁｭｳｼﾝｾﾝ1
 10
546.64557423399367
 20
237.1550320210923
 30
0.0
 11
546.64557423399367
 21
222.1550315740574
 31
0.0
  0
CIRCLE
  5
15740
  8
AM_0
 10
546.64557423399367
 20
229.65503179757491
 30
0.0
 40
4.5000001341104507
  0
LINE
  5
15744
  8
AM_0
 10
590.15167807744433
 20
223.65503298966769
 30
0.0
 11
570.64557456181933
 21
223.65503298966769
 31
0.0
  0
LINE
  5
15745
  8
AM_0
 10
582.15167807744433
 20
213.65503298966769
 30
0.0
 11
572.59444949864132
 21
213.65503298966769
 31
0.0
  0
LINE
  5
1574D
  8
AM_0
 10
590.15167807744433
 20
213.65503298966769
 30
0.0
 11
582.15167807744433
 21
213.65503298966769
 31
0.0
  0
LINE
  5
1574E
  8
AM_0
 10
569.45178798443715
 20
220.65503298966769
 30
0.0
 11
552.97012988215613
 21
220.65503298966769
 31
0.0
  0
ARC
  5
1574F
  8
AM_0
 10
572.59444949864132
 20
215.65503298966769
 30
0.0
 40
2.0
 50
182.0004653026449
 51
270.0
1001
GENIUS_GENOBJ-N-FIL_13
1002
{
1000
OWNER
1000
GEN
1002
}
1001
GENIUS_GENODEF_13
1002
{
1000
HIER
1070
     0
1002
}
1002
{
1000
MANEDIT
1070
     0
1002
}
1002
{
1000
NOSEL
1070
     0
1002
}
1002
{
1000
BEHIND
1070
     0
1002
}
1002
{
1000
OTHER
1070
     0
1002
}
1002
{
1000
REACTOR
1002
}
  0
ARC
  5
15750
  8
AM_0
 10
569.45052068021153
 20
219.65168013406901
 30
0.0
 40
1.003353655944897
 50
4.3650553058041783
 51
89.927631496271459
  0
LINE
  5
15751
  8
AM_0
 10
570.59566841151116
 20
215.5852177640329
 30
0.0
 11
570.45096396611621
 21
219.72804629533181
 31
0.0
  0
LINE
  5
15752
  8
AM_0
 10
590.15167807744433
 20
237.71509298966771
 30
0.0
 11
572.47092771645077
 21
237.71509298966771
 31
0.0
  0
LINE
  5
1575D
  8
AM_0
 10
570.14557456181933
 20
226.38842379777321
 30
0.0
 11
557.64557456181933
 21
226.38842379777321
 31
0.0
  0
ARC
  5
15761
  8
AM_0
 10
429.64557080672682
 20
229.65503179757491
 30
0.0
 40
11.00000032782555
 50
180.0
 51
270.0
  0
CIRCLE
  5
15762
  8
AM_0
 10
431.64557080672682
 20
229.65503179757491
 30
0.0
 40
4.5000001341104507
  0
LINE
  5
15763
  8
ﾁｭｳｼﾝｾﾝ1
 10
431.64557080672682
 20
237.1550320210923
 30
0.0
 11
431.64557080672682
 21
222.1550315740574
 31
0.0
  0
LINE
  5
15766
  8
ﾁｭｳｼﾝｾﾝ1
 10
439.14557103024401
 20
229.65503179757491
 30
0.0
 11
424.14557058320941
 21
229.65503179757491
 31
0.0
  0
LINE
  5
1576C
  8
ﾁｭｳｼﾝｾﾝ1
 10
554.14557445751132
 20
309.65503418176058
 30
0.0
 11
539.14557401047625
 21
309.65503418176058
 31
0.0
  0
LINE
  5
1576E
  8
AM_0
 10
546.64557423399367
 20
320.6550345095863
 30
0.0
 11
429.64557080672682
 21
320.65503450958607
 31
0.0
  0
ARC
  5
15772
  8
AM_0
 10
338.64558982060862
 20
269.65503298966769
 30
0.0
 40
236.0
 50
359.9999949910495
 51
10.5639617123589
  0
LINE
  5
15776
  8
ﾁｭｳｼﾝｾﾝ1
 10
546.64557423399367
 20
302.15503395824322
 30
0.0
 11
546.64557423399367
 21
317.15503440527829
 31
0.0
  0
ARC
  5
15777
  8
AM_0
 10
546.64557423399367
 20
309.65503418176058
 30
0.0
 40
11.00000032782555
 50
359.99999499104308
 51
89.999997495521569
  0
CIRCLE
  5
15778
  8
AM_0
 10
546.64557423399367
 20
309.65503418176058
 30
0.0
 40
4.5000001341104507
  0
LINE
  5
15779
  8
AM_0
 10
590.15167807744433
 20
301.5949829896677
 30
0.0
 11
572.54566194148163
 21
301.5949829896677
 31
0.0
  0
LINE
  5
15784
  8
AM_0
 10
582.15167807744433
 20
325.65503298966769
 30
0.0
 11
572.59444896566856
 21
325.65503298966769
 31
0.0
  0
LINE
  5
15785
  8
AM_0
 10
590.15167807744433
 20
315.65503298966769
 30
0.0
 11
570.64557456181933
 21
315.65503298966769
 31
0.0
  0
LINE
  5
15792
  8
AM_0
 10
590.15167807744433
 20
325.65503298966769
 30
0.0
 11
582.15167807744433
 21
325.65503298966769
 31
0.0
  0
LINE
  5
15793
  8
AM_0
 10
569.45178798443715
 20
318.65503298966769
 30
0.0
 11
552.97012988215613
 21
318.65503298966769
 31
0.0
  0
LINE
  5
15794
  8
AM_0
 10
570.59566787853828
 20
323.72484821530247
 30
0.0
 11
570.45096396611621
 21
319.58203494279269
 31
0.0
  0
LINE
  5
15795
  8
AM_0
 10
570.14557456181933
 20
312.92164981095669
 30
0.0
 11
557.64557456181933
 21
312.92164981095669
 31
0.0
  0
ARC
  5
15796
  8
AM_0
 10
569.45178794072547
 20
319.65503298966769
 30
0.0
 40
1.0000000000000091
 50
270.00000250447852
 51
352.8192495496059
  0
ARC
  5
15797
  8
AM_0
 10
572.59444896566856
 20
323.65503298966769
 30
0.0
 40
2.0
 50
90.0
 51
177.99953469735499
1001
GENIUS_GENODEF_13
1002
{
1000
HIER
1070
     0
1002
}
1002
{
1000
MANEDIT
1070
     0
1002
}
1002
{
1000
NOSEL
1070
     0
1002
}
1002
{
1000
BEHIND
1070
     0
1002
}
1002
{
1000
OTHER
1070
     0
1002
}
1002
{
1000
REACTOR
1002
}
1001
GENIUS_GENOBJ-N-FIL_13
1002
{
1000
OWNER
1000
GEN
1002
}
  0
CIRCLE
  5
1579E
  8
AM_0
 10
431.64557080672682
 20
309.65503418176058
 30
0.0
 40
4.5000001341104507
  0
LINE
  5
157A0
  8
ﾁｭｳｼﾝｾﾝ1
 10
431.64557080672682
 20
302.15503395824322
 30
0.0
 11
431.64557080672682
 21
317.15503440527829
 31
0.0
  0
ARC
  5
157A1
  8
AM_0
 10
429.64557080672682
 20
309.65503418176058
 30
0.0
 40
11.000000327825539
 50
90.0
 51
180.0
  0
LINE
  5
157A5
  8
ﾁｭｳｼﾝｾﾝ1
 10
439.14557103024401
 20
309.65503418176058
 30
0.0
 11
424.14557058320941
 21
309.65503418176058
 31
0.0
  0
LINE
  5
157A6
  8
ﾁｭｳｼﾝｾﾝ1
 10
415.64557047890128
 20
269.65503298966769
 30
0.0
 11
719.64557456181944
 21
269.6550329896686
 31
0.0
  0
ARC
  5
15C0C
  8
AM_0
 10
462.13751535819461
 20
309.65503298966769
 30
0.0
 40
5.0000000000000044
 50
89.999997495521541
 51
165.52248856352909
  0
LINE
  5
15C0D
  8
AM_0
 10
441.14557199881961
 20
313.65503298966769
 30
0.0
 11
441.14557199881961
 21
320.65503298966769
 31
0.0
  0
LINE
  5
15C0E
  8
AM_0
 10
449.64557199881972
 20
311.92297732560519
 30
0.0
 11
449.64557199881972
 21
315.38708102433571
 31
0.0
  0
LINE
  5
15C0F
  8
AM_0
 10
443.64557199881961
 20
311.92297732560519
 30
0.0
 11
443.64557199881961
 21
315.38708102433571
 31
0.0
  0
LINE
  5
15C11
  8
AM_0
 10
452.14557199881961
 20
313.65503298966769
 30
0.0
 11
452.14557199881961
 21
320.65503298966769
 31
0.0
  0
ARC
  5
15C12
  8
AM_0
 10
446.64557199881961
 20
313.65503298966769
 30
0.0
 40
5.5
 50
180.0
 51
0.0000050089569292
  0
CIRCLE
  5
15C13
  8
AM_0
 10
446.64557199881961
 20
313.65503298966769
 30
0.0
 40
5.0
  0
ARC
  5
15C15
  8
AM_0
 10
446.64557199881961
 20
313.65503298966769
 30
0.0
 40
11.0
 50
283.08572287868662
 51
345.52249015738431
  0
LINE
  5
15C16
  8
AM_0
 10
449.64557199881972
 20
311.92297732560519
 30
0.0
 11
446.64557199881961
 21
310.19092929093722
 31
0.0
  0
LINE
  5
15C17
  8
AM_0
 10
446.64557199881961
 20
310.19092929093722
 30
0.0
 11
443.64557199881961
 21
311.92297732560519
 31
0.0
  0
LINE
  5
15C18
  8
AM_0
 10
449.64557199881972
 20
315.38708102433571
 30
0.0
 11
446.64557199881961
 21
317.11912905900363
 31
0.0
  0
LINE
  5
15C19
  8
AM_0
 10
446.64557199881961
 20
317.11912905900363
 30
0.0
 11
443.64557199881961
 21
315.38708102433571
 31
0.0
  0
LINE
  5
15C1A
  8
AM_0
 10
449.13608103202279
 20
302.94066989152321
 30
0.0
 11
430.5135529558508
 21
298.61196505753878
 31
0.0
  0
LINE
  5
15C1B
  8
AM_0
 10
426.64557199881961
 20
245.56825625626919
 30
0.0
 11
426.64557199881961
 21
293.74180209367159
 31
0.0
  0
ARC
  5
15C1C
  8
AM_0
 10
431.64557199881961
 20
293.74180209367159
 30
0.0
 40
5.0
 50
103.0857246999183
 51
180.0
  0
LINE
  5
15C1D
  8
AM_0
 10
449.13608103202279
 20
236.36938845841769
 30
0.0
 11
430.5135529558508
 21
240.69809329240209
 31
0.0
  0
ARC
  5
15C1E
  8
AM_0
 10
431.64557199881961
 20
245.56825625626919
 30
0.0
 40
5.0
 50
180.0
 51
256.91427530008173
  0
ARC
  5
15C1F
  8
AM_0
 10
446.64557199881961
 20
225.65503298966769
 30
0.0
 40
11.0
 50
14.47750984261552
 51
76.914277121313376
  0
LINE
  5
15C20
  8
AM_0
 10
449.64557199881972
 20
227.3870733949411
 30
0.0
 11
446.64557199881961
 21
229.1191290590036
 31
0.0
  0
LINE
  5
15C21
  8
AM_0
 10
446.64557199881961
 20
229.1191290590036
 30
0.0
 11
443.64557199881961
 21
227.3870733949411
 31
0.0
  0
ARC
  5
15C23
  8
AM_0
 10
446.64557199881961
 20
225.65503298966769
 30
0.0
 40
5.5000000000000213
 50
0.0000050089569292
 51
180.00001001791389
  0
CIRCLE
  5
15C24
  8
AM_0
 10
446.64557199881961
 20
225.65503298966769
 30
0.0
 40
5.0
  0
LINE
  5
15C26
  8
AM_0
 10
441.14557199881961
 20
218.65503298966769
 30
0.0
 11
441.14557199881961
 21
225.65503298966769
 31
0.0
  0
LINE
  5
15C27
  8
AM_0
 10
449.64557199881972
 20
223.92297732560519
 30
0.0
 11
446.64557199881961
 21
222.19092166154269
 31
0.0
  0
LINE
  5
15C28
  8
AM_0
 10
446.64557199881961
 20
222.19092166154269
 30
0.0
 11
443.64557199881961
 21
223.92297732560519
 31
0.0
  0
LINE
  5
15C29
  8
AM_0
 10
449.64557199881972
 20
223.92297732560519
 30
0.0
 11
449.64557199881972
 21
227.3870733949411
 31
0.0
  0
LINE
  5
15C2A
  8
AM_0
 10
443.64557199881961
 20
223.92297732560519
 30
0.0
 11
443.64557199881961
 21
227.3870733949411
 31
0.0
  0
LINE
  5
15C2B
  8
AM_0
 10
452.14557199881961
 20
218.65503298966769
 30
0.0
 11
452.14557199881961
 21
225.65503298966769
 31
0.0
  0
LINE
  5
15C2C
  8
AM_0
 10
516.15365915702273
 20
224.65503298966769
 30
0.0
 11
462.13751535819461
 21
224.65503298966769
 31
0.0
  0
ARC
  5
15C2D
  8
AM_0
 10
462.13751535819461
 20
229.65503298966769
 30
0.0
 40
5.0000000000000231
 50
194.47751143647091
 51
270.00000250447852
  0
ARC
  5
15C2E
  8
AM_0
 10
531.64557199881961
 20
225.65503298966769
 30
0.0
 40
11.000000000000011
 50
103.0857246999183
 51
165.52248856352909
  0
ARC
  5
15C2F
  8
AM_0
 10
516.15365915702273
 20
229.65503298966769
 30
0.0
 40
5.0000000000000044
 50
270.00000250447852
 51
345.52249015738431
  0
LINE
  5
15C31
  8
AM_0
 10
531.64557199881961
 20
229.1191290590036
 30
0.0
 11
528.64557199881961
 21
227.3870733949411
 31
0.0
  0
LINE
  5
15C32
  8
AM_0
 10
534.64557199881949
 20
227.3870733949411
 30
0.0
 11
531.64557199881961
 21
229.1191290590036
 31
0.0
  0
ARC
  5
15C33
  8
AM_0
 10
531.64557199881961
 20
225.65503298966769
 30
0.0
 40
5.5000000000000213
 50
0.0000050089569292
 51
180.00001001791389
  0
CIRCLE
  5
15C34
  8
AM_0
 10
531.64557199881961
 20
225.65503298966769
 30
0.0
 40
5.0
  0
LINE
  5
15C36
  8
AM_0
 10
534.64557199881949
 20
223.92297732560519
 30
0.0
 11
531.64557199881961
 21
222.19092166154269
 31
0.0
  0
LINE
  5
15C37
  8
AM_0
 10
531.64557199881961
 20
222.19092166154269
 30
0.0
 11
528.64557199881961
 21
223.92297732560519
 31
0.0
  0
LINE
  5
15C38
  8
AM_0
 10
528.64557199881961
 20
223.92297732560519
 30
0.0
 11
528.64557199881961
 21
227.3870733949411
 31
0.0
  0
LINE
  5
15C39
  8
AM_0
 10
526.14557199881949
 20
218.65503298966769
 30
0.0
 11
526.14557199881949
 21
225.65503298966769
 31
0.0
  0
LINE
  5
15C3A
  8
AM_0
 10
534.64557199881949
 20
223.92297732560519
 30
0.0
 11
534.64557199881949
 21
227.3870733949411
 31
0.0
  0
LINE
  5
15C3B
  8
AM_0
 10
537.14557199881961
 20
218.65503298966769
 30
0.0
 11
537.14557199881961
 21
225.65503298966769
 31
0.0
  0
LINE
  5
15C3C
  8
AM_0
 10
547.77762155936659
 20
240.69809329240201
 30
0.0
 11
529.15509348319461
 21
236.36938845841769
 31
0.0
  0
LINE
  5
15C3D
  8
AM_0
 10
551.64557199881949
 20
245.56825625626911
 30
0.0
 11
551.64557199881949
 21
293.74180209367148
 31
0.0
  0
ARC
  5
15C3E
  8
AM_0
 10
546.64557199881961
 20
245.56825625626919
 30
0.0
 40
5.0000000000000062
 50
283.08572287868662
 51
0.0000050089569292
  0
ARC
  5
15C3F
  8
AM_0
 10
546.64557199881961
 20
293.74180209367159
 30
0.0
 40
5.0000000000000178
 50
0.0000050089569292
 51
76.91428713922771
  0
ARC
  5
15C41
  8
AM_0
 10
531.64557199881961
 20
313.65503298966769
 30
0.0
 40
11.0
 50
194.47751143647091
 51
256.91427530008173
  0
ARC
  5
15C42
  8
AM_0
 10
516.15365915702273
 20
309.65503298966769
 30
0.0
 40
5.0000000000000107
 50
14.47750984261552
 51
89.999997495521541
  0
LINE
  5
15C43
  8
AM_0
 10
526.14557199881983
 20
313.65503298966769
 30
0.0
 11
526.14557199881983
 21
320.65503298966769
 31
0.0
  0
LINE
  5
15C44
  8
AM_0
 10
528.64557199881983
 20
311.92297732560519
 30
0.0
 11
528.64557199881983
 21
315.38708102433571
 31
0.0
  0
LINE
  5
15C45
  8
AM_0
 10
537.14557199881983
 20
313.65503298966769
 30
0.0
 11
537.14557199881983
 21
320.65503298966769
 31
0.0
  0
LINE
  5
15C46
  8
AM_0
 10
534.64557199881983
 20
311.92297732560519
 30
0.0
 11
534.64557199881983
 21
315.38708102433571
 31
0.0
  0
ARC
  5
15C47
  8
AM_0
 10
531.64557199881961
 20
313.65503298966769
 30
0.0
 40
5.5
 50
180.0
 51
0.0000050089569292
  0
CIRCLE
  5
15C48
  8
AM_0
 10
531.64557199881961
 20
313.65503298966769
 30
0.0
 40
5.0
  0
LINE
  5
15C4A
  8
AM_0
 10
534.64557199881983
 20
311.92297732560519
 30
0.0
 11
531.64557199881983
 21
310.19092929093722
 31
0.0
  0
LINE
  5
15C4B
  8
AM_0
 10
531.64557199881983
 20
310.19092929093722
 30
0.0
 11
528.64557199881983
 21
311.92297732560519
 31
0.0
  0
LINE
  5
15C4C
  8
AM_0
 10
534.64557199881983
 20
315.38708102433571
 30
0.0
 11
531.64557199881983
 21
317.11912905900363
 31
0.0
  0
LINE
  5
15C4D
  8
AM_0
 10
531.64557199881983
 20
317.11912905900363
 30
0.0
 11
528.64557199881983
 21
315.38708102433571
 31
0.0
  0
LINE
  5
15C4E
  8
AM_0
 10
547.77762155936659
 20
298.61196505753873
 30
0.0
 11
529.15509348319461
 21
302.94066989152321
 31
0.0
  0
LINE
  5
15C4F
  8
AM_0
 10
516.15365915702296
 20
314.65503298966769
 30
0.0
 11
462.13751535819461
 21
314.65503298966769
 31
0.0
  0
LINE
  5
15C50
  8
AM_0
 10
590.15167807744433
 20
325.65503298966769
 30
0.0
 11
590.15167807744433
 21
213.6550329896678
 31
0.0
  0
LINE
  5
15C51
  8
AM_0
 10
698.15167807744433
 20
322.65503298966769
 30
0.0
 11
698.15167807744433
 21
216.65503298966769
 31
0.0
  0
LINE
  5
15C52
  8
AM_0
 10
591.95166807744465
 20
308.99496298966773
 30
0.0
 11
596.09167807744416
 21
324.45498298966783
 31
0.0
  0
LINE
  5
15C53
  8
AM_0
 10
692.79168807744429
 20
306.30502298966758
 30
0.0
 11
698.15167807744433
 21
317.75500298966767
 31
0.0
  0
LINE
  5
15C55
  8
AM_0
 10
706.15167807744433
 20
322.65503298966769
 30
0.0
 11
706.15167807744433
 21
216.65503298966769
 31
0.0
  0
LINE
  5
15C56
  8
AM_0
 10
707.15167807744444
 20
319.65503298966769
 30
0.0
 11
707.15167807744444
 21
219.65503298966769
 31
0.0
  0
LINE
  5
15C57
  8
AM_0
 10
712.15167807744433
 20
317.67505298966762
 30
0.0
 11
712.15167807744433
 21
274.65503298966769
 31
0.0
  0
LINE
  5
15C58
  8
AM_0
 10
709.95166807744431
 20
305.34497298966772
 30
0.0
 11
707.85168807744435
 21
305.34497298966772
 31
0.0
  0
LINE
  5
15C59
  8
AM_0
 10
710.00164807744466
 20
303.39502298966772
 30
0.0
 11
708.15167807744433
 21
303.39502298966772
 31
0.0
  0
LINE
  5
15C5A
  8
AM_0
 10
708.15167807744433
 20
293.65503298966769
 30
0.0
 11
711.15167807744433
 21
293.65503298966769
 31
0.0
  0
LINE
  5
15C5B
  8
AM_0
 10
708.15167807744433
 20
295.65503298966769
 30
0.0
 11
711.15167807744433
 21
295.65503298966769
 31
0.0
  0
LINE
  5
15C5C
  8
AM_0
 10
708.15167807744433
 20
283.65503298966769
 30
0.0
 11
711.15167807744433
 21
283.65503298966769
 31
0.0
  0
LINE
  5
15C5D
  8
AM_0
 10
708.15167807744433
 20
285.65503298966769
 30
0.0
 11
711.15167807744433
 21
285.65503298966769
 31
0.0
  0
LINE
  5
15C5E
  8
AM_0
 10
708.15167807744433
 20
273.65503298966769
 30
0.0
 11
711.15167807744433
 21
273.65503298966769
 31
0.0
  0
LINE
  5
15C5F
  8
AM_0
 10
708.15167807744433
 20
275.65503298966769
 30
0.0
 11
711.15167807744433
 21
275.65503298966769
 31
0.0
  0
LINE
  5
15C60
  8
AM_0
 10
708.15167807744433
 20
255.65503298966769
 30
0.0
 11
711.15167807744433
 21
255.65503298966769
 31
0.0
  0
LINE
  5
15C61
  8
AM_0
 10
708.15167807744433
 20
263.65503298966769
 30
0.0
 11
711.15167807744433
 21
263.65503298966769
 31
0.0
  0
LINE
  5
15C62
  8
AM_0
 10
708.15167807744433
 20
265.65503298966769
 30
0.0
 11
711.15167807744433
 21
265.65503298966769
 31
0.0
  0
LINE
  5
15C63
  8
AM_0
 10
708.15167807744433
 20
245.65503298966769
 30
0.0
 11
711.15167807744433
 21
245.65503298966769
 31
0.0
  0
LINE
  5
15C64
  8
AM_0
 10
708.15167807744433
 20
253.65503298966769
 30
0.0
 11
711.15167807744433
 21
253.65503298966769
 31
0.0
  0
LINE
  5
15C65
  8
AM_0
 10
710.00164807744466
 20
235.91504298966771
 30
0.0
 11
708.15167807744433
 21
235.91504298966771
 31
0.0
  0
LINE
  5
15C66
  8
AM_0
 10
709.95166807744431
 20
233.96508298966771
 30
0.0
 11
707.85168807744435
 21
233.96508298966771
 31
0.0
  0
LINE
  5
15C67
  8
AM_0
 10
708.15167807744433
 20
243.65503298966769
 30
0.0
 11
711.15167807744433
 21
243.65503298966769
 31
0.0
  0
LINE
  5
15C68
  8
AM_0
 10
709.90167807744433
 20
223.15503298966769
 30
0.0
 11
708.15167807744433
 21
223.15503298966769
 31
0.0
  0
ARC
  5
15C69
  8
AM_0
 10
709.88830807744421
 20
228.6760229896677
 30
0.0
 40
1.001044999999998
 50
269.62029000000052
 51
299.52813000000049
  0
ARC
  5
15C6A
  8
AM_0
 10
709.85888807744425
 20
227.5355229896677
 30
0.0
 40
1.000521999999999
 50
269.58655999999962
 51
302.85381999999981
  0
LINE
  5
15C6B
  8
AM_0
 10
709.9116880774443
 20
221.05505298966759
 30
0.0
 11
707.65167807744433
 21
221.05505298966759
 31
0.0
  0
ARC
  5
15C6C
  8
AM_0
 10
709.88025807744418
 20
223.01867298966769
 30
0.0
 40
1.003743999999998
 50
269.50809999999939
 51
300.62887000000262
  0
ARC
  5
15C6D
  8
AM_0
 10
709.87097807744465
 20
220.90612298966761
 30
0.0
 40
1.001123999999999
 50
270.61232000000132
 51
300.67218000000099
  0
LINE
  5
15C70
  8
AM_0
 10
591.94598807744421
 20
230.33609298966769
 30
0.0
 11
596.09173807744423
 21
214.8549829896676
 31
0.0
  0
LINE
  5
15C71
  8
AM_0
 10
692.79168807744429
 20
233.0050329896678
 30
0.0
 11
698.15167807744433
 21
221.5650329896678
 31
0.0
  0
LINE
  5
15C72
  8
AM_0
 10
694.94165807744434
 20
213.37500298966779
 30
0.0
 11
598.02166807744425
 21
213.37500298966779
 31
0.0
  0
LINE
  5
15C73
  8
AM_0
 10
612.15167807744444
 20
180.15503298966769
 30
0.0
 11
687.15167807744444
 21
180.15503298966769
 31
0.0
  0
LINE
  5
15C74
  8
AM_0
 10
623.34767807744447
 20
177.15503298966769
 30
0.0
 11
658.95567807744453
 21
177.15503298966769
 31
0.0
  0
LINE
  5
15C75
  8
AM_0
 10
609.65167807744479
 20
196.65503298966769
 30
0.0
 11
667.15167807744444
 21
196.65503298966769
 31
0.0
  0
LINE
  5
15C76
  8
AM_0
 10
689.65167807744456
 20
200.15503298966769
 30
0.0
 11
609.65167807744479
 21
200.15503298966769
 31
0.0
  0
LINE
  5
15C77
  8
AM_0
 10
609.65167807744479
 20
202.6550329896676
 30
0.0
 11
689.65167807744456
 21
202.6550329896676
 31
0.0
  0
LINE
  5
15C78
  8
AM_0
 10
618.15167807744467
 20
180.15503298966769
 30
0.0
 11
623.34767807744447
 21
177.15503298966769
 31
0.0
  0
ARC
  5
15C79
  8
AM_0
 10
609.5725973916592
 20
205.65503298966769
 30
0.0
 40
1.4999999999999989
 50
1.500134906353124
 51
90.0
1001
GENIUS_GENODEF_13
1002
{
1000
HIER
1070
     0
1002
}
1002
{
1000
MANEDIT
1070
     0
1002
}
1002
{
1000
NOSEL
1070
     0
1002
}
1002
{
1000
BEHIND
1070
     0
1002
}
1002
{
1000
REACTOR
1002
}
1001
GENIUS_GENOBJ-N-FIL_13
1002
{
1000
OWNER
1000
GEN
1002
}
  0
LINE
  5
15C7A
  8
AM_0
 10
609.65167807744479
 20
202.6550329896676
 30
0.0
 11
609.65167807744479
 21
196.65503298966769
 31
0.0
  0
LINE
  5
15C7B
  8
AM_0
 10
591.15167807744433
 20
216.65500298966771
 30
0.0
 11
596.87747807744438
 21
207.83804298966771
 31
0.0
  0
LINE
  5
15C7C
  8
AM_0
 10
595.60962807744443
 20
216.65503298966769
 30
0.0
 11
590.15167807744433
 21
216.65503298966769
 31
0.0
  0
LINE
  5
15C7D
  8
AM_0
 10
609.5725973916592
 20
207.15503298966769
 30
0.0
 11
598.13549807744459
 21
207.15503298966769
 31
0.0
  0
ARC
  5
15C7E
  8
AM_0
 10
598.13549807744459
 20
208.65503298966769
 30
0.0
 40
1.4999999999999989
 50
213.00000000000151
 51
270.000010000001
  0
ARC
  5
15C7F
  8
AM_0
 10
598.02649807744433
 20
215.37976298966771
 30
0.0
 40
2.0047289999999989
 50
195.17349999999811
 51
269.86167999999742
  0
LINE
  5
15C80
  8
AM_0
 10
611.15167807744444
 20
196.65503298966769
 30
0.0
 11
611.15167807744444
 21
181.15503298966769
 31
0.0
  0
ARC
  5
15C81
  8
AM_0
 10
612.15167807744444
 20
181.15503298966749
 30
0.0
 40
1.0
 50
180.0
 51
270.0
  0
LINE
  5
15C82
  8
AM_0
 10
611.15167807744433
 20
202.6549729896677
 30
0.0
 11
610.87093895438113
 21
213.37500298966779
 31
0.0
  0
LINE
  5
15C83
  8
AM_0
 10
658.95567807744453
 20
177.15503298966769
 30
0.0
 11
664.14445358764783
 21
180.15503298966769
 31
0.0
  0
LINE
  5
15C84
  8
AM_0
 10
675.65167807744479
 20
184.15503298966769
 30
0.0
 11
677.65167807744444
 21
184.15503298966769
 31
0.0
  0
ARC
  5
15C85
  8
AM_0
 10
676.65167807744467
 20
192.65503298966769
 30
0.0
 40
3.999999999999996
 50
180.0
 51
0.000000000000007
  0
ARC
  5
15C86
  8
AM_0
 10
676.65167807744467
 20
192.65503298966769
 30
0.0
 40
7.5000000000000018
 50
180.0
 51
0.000000000000007
  0
LINE
  5
15C87
  8
AM_0
 10
695.24542807744433
 20
210.52502298966769
 30
0.0
 11
672.81902787877743
 21
210.52502298966769
 31
0.0
  0
ARC
  5
15C88
  8
AM_0
 10
675.65167807744479
 20
191.65503298966769
 30
0.0
 40
7.4999999999999956
 50
180.0
 51
270.0
  0
ARC
  5
15C89
  8
AM_0
 10
667.15167807744444
 20
195.65503298966769
 30
0.0
 40
1.0
 50
0.000000000000007
 51
90.0
  0
LINE
  5
15C8A
  8
AM_0
 10
668.15167807744467
 20
191.65503298966769
 30
0.0
 11
668.15167807744467
 21
195.65503298966769
 31
0.0
  0
LINE
  5
15C8B
  8
AM_0
 10
672.65167807744467
 20
200.15503298966769
 30
0.0
 11
672.65167807744467
 21
192.65503298966769
 31
0.0
  0
LINE
  5
15C8C
  8
AM_0
 10
669.15167807744456
 20
192.65503298966769
 30
0.0
 11
669.15167807744456
 21
200.15503298966769
 31
0.0
  0
LINE
  5
15C8D
  8
AM_0
 10
671.15173807744407
 20
202.65500298966771
 30
0.0
 11
671.43240226478349
 21
213.37500298966759
 31
0.0
  0
ARC
  5
15C8E
  8
AM_0
 10
672.81902787877743
 20
209.02502298966769
 30
0.0
 40
1.4999999999999989
 50
90.0
 51
178.50026113613271
1001
GENIUS_GENODEF_13
1002
{
1000
HIER
1070
     0
1002
}
1002
{
1000
MANEDIT
1070
     0
1002
}
1002
{
1000
NOSEL
1070
     0
1002
}
1002
{
1000
BEHIND
1070
     0
1002
}
1002
{
1000
REACTOR
1002
}
1001
GENIUS_GENOBJ-N-FIL_13
1002
{
1000
OWNER
1000
GEN
1002
}
  0
LINE
  5
15C8F
  8
AM_0
 10
689.65167807744456
 20
202.6550329896676
 30
0.0
 11
689.65167807744456
 21
184.15503298966769
 31
0.0
  0
LINE
  5
15C90
  8
AM_0
 10
688.15167807744479
 20
196.65503298966769
 30
0.0
 11
688.15167807744479
 21
181.15503298966769
 31
0.0
  0
ARC
  5
15C91
  8
AM_0
 10
677.65167807744444
 20
191.65503298966769
 30
0.0
 40
7.499999999999992
 50
270.0
 51
0.000000000000007
  0
ARC
  5
15C92
  8
AM_0
 10
687.15167807744444
 20
181.15503298966769
 30
0.0
 40
1.0
 50
270.0
 51
0.000000000000007
  0
LINE
  5
15C93
  8
AM_0
 10
689.65167807744456
 20
184.15503298966769
 30
0.0
 11
688.15167807744479
 21
184.15503298966769
 31
0.0
  0
LINE
  5
15C94
  8
AM_0
 10
684.15167807744479
 20
200.15503298966769
 30
0.0
 11
684.15167807744479
 21
192.65503298966769
 31
0.0
  0
LINE
  5
15C95
  8
AM_0
 10
680.65167807744467
 20
200.15503298966769
 30
0.0
 11
680.65167807744467
 21
192.65503298966769
 31
0.0
  0
LINE
  5
15C96
  8
AM_0
 10
685.15167807744467
 20
195.65503298966769
 30
0.0
 11
685.15167807744467
 21
191.65503298966769
 31
0.0
  0
ARC
  5
15C97
  8
AM_0
 10
686.15167807744444
 20
195.65503298966769
 30
0.0
 40
1.0
 50
90.0
 51
180.0
  0
LINE
  5
15C98
  8
AM_0
 10
689.65167807744456
 20
196.65503298966769
 30
0.0
 11
686.15167807744444
 21
196.65503298966769
 31
0.0
  0
ARC
  5
15C99
  8
AM_0
 10
695.16504807744434
 20
212.5250229896678
 30
0.0
 40
1.9999999999999989
 50
270.000010000001
 51
351.37037999999581
  0
ARC
  5
15C9A
  8
AM_0
 10
695.24542807744433
 20
212.5250229896678
 30
0.0
 40
1.9999999999999989
 50
270.000010000001
 51
352.04955999999657
  0
ARC
  5
15C9B
  8
AM_0
 10
694.89550807744445
 20
212.52539298966769
 30
0.0
 40
2.000420099999999
 50
270.1772900000023
 51
351.07317999999862
  0
LINE
  5
15C9C
  8
AM_0
 10
706.15167807744433
 20
216.65503298966769
 30
0.0
 11
698.15167807744433
 21
216.65503298966769
 31
0.0
  0
LINE
  5
15C9D
  8
AM_0
 10
698.15167807744433
 20
221.56497298966769
 30
0.0
 11
696.9116880774443
 21
215.00497298966769
 31
0.0
  0
LINE
  5
15C9E
  8
AM_0
 10
698.15167807744433
 20
220.2149629896677
 30
0.0
 11
696.87170807744417
 21
212.21502298966769
 31
0.0
  0
LINE
  5
15C9F
  8
AM_0
 10
698.15167807744433
 20
218.87497298966761
 30
0.0
 11
697.1424580774443
 21
212.2249429896676
 31
0.0
  0
LINE
  5
15CA0
  8
AM_0
 10
698.15167807744433
 20
218.8750329896678
 30
0.0
 11
697.22619807744434
 21
212.24841298966771
 31
0.0
  0
ARC
  5
15CA1
  8
AM_0
 10
694.94683807744434
 20
215.37427298966779
 30
0.0
 40
1.9992489999999989
 50
269.8525700000003
 51
349.35689999999892
  0
ARC
  5
15CA2
  8
AM_0
 10
707.65503807744437
 20
221.55847298966759
 30
0.0
 40
0.5033929900000002
 50
180.38490000000189
 51
269.61508999999938
  0
ARC
  5
15CA3
  8
AM_0
 10
707.65118807744443
 20
219.40551298966761
 30
0.0
 40
0.49952301
 50
89.945226000000403
 51
180.0547699999986
  0
LINE
  5
15CA4
  8
AM_0
 10
707.15167807744444
 20
219.65503298966769
 30
0.0
 11
706.15167807744433
 21
219.65503298966769
 31
0.0
  0
LINE
  5
15CA5
  8
AM_0
 10
709.87164807744443
 20
222.01501298966761
 30
0.0
 11
707.15167807744444
 21
222.01501298966761
 31
0.0
  0
LINE
  5
15CA6
  8
AM_0
 10
709.88165807744451
 20
219.90503298966769
 30
0.0
 11
707.65167807744433
 21
219.90503298966769
 31
0.0
  0
LINE
  5
15CA7
  8
AM_0
 10
629.15167807744433
 20
243.65503298966769
 30
0.0
 11
695.79168807744418
 21
243.65503298966769
 31
0.0
  0
LINE
  5
15CA8
  8
AM_0
 10
696.69165807744434
 20
243.16504298966771
 30
0.0
 11
629.15167807744433
 21
243.16504298966771
 31
0.0
  0
LINE
  5
15CA9
  8
AM_0
 10
696.47168807744458
 20
236.28503298966771
 30
0.0
 11
629.13165807744417
 21
236.28503298966771
 31
0.0
  0
LINE
  5
15CAA
  8
AM_0
 10
629.15167807744433
 20
295.65503298966769
 30
0.0
 11
695.79168807744418
 21
295.65503298966769
 31
0.0
  0
LINE
  5
15CAB
  8
AM_0
 10
696.69165807744434
 20
296.14502298966772
 30
0.0
 11
629.15167807744433
 21
296.14502298966772
 31
0.0
  0
LINE
  5
15CAC
  8
AM_0
 10
596.81884807744416
 20
293.65503298966769
 30
0.0
 11
695.79168807744418
 21
293.65503298966769
 31
0.0
  0
LINE
  5
15CAD
  8
AM_0
 10
696.69165807744434
 20
293.21509298966782
 30
0.0
 11
593.11743807744415
 21
293.21509298966782
 31
0.0
  0
LINE
  5
15CAE
  8
AM_0
 10
596.81884807744416
 20
245.65503298966769
 30
0.0
 11
695.79168807744418
 21
245.65503298966769
 31
0.0
  0
LINE
  5
15CAF
  8
AM_0
 10
696.69165807744434
 20
246.0949729896677
 30
0.0
 11
593.11743807744415
 21
246.0949729896677
 31
0.0
  0
LINE
  5
15CB0
  8
AM_0
 10
696.47168807744458
 20
232.93506298966761
 30
0.0
 11
641.15167807744433
 21
232.93506298966761
 31
0.0
  0
LINE
  5
15CB1
  8
AM_0
 10
641.15167807744433
 20
235.65503298966769
 30
0.0
 11
695.79168807744418
 21
235.65503298966769
 31
0.0
  0
LINE
  5
15CB2
  8
AM_0
 10
641.15167807744433
 20
233.65503298966769
 30
0.0
 11
695.79168807744418
 21
233.65503298966769
 31
0.0
  0
LINE
  5
15CB3
  8
AM_0
 10
696.47168807744458
 20
303.0250229896676
 30
0.0
 11
629.13165807744417
 21
303.0250229896676
 31
0.0
  0
LINE
  5
15CB4
  8
AM_0
 10
596.81164807744415
 20
305.65503298966769
 30
0.0
 11
695.79168807744418
 21
305.65503298966769
 31
0.0
  0
LINE
  5
15CB5
  8
AM_0
 10
596.81164807744415
 20
303.65503298966769
 30
0.0
 11
695.79168807744418
 21
303.65503298966769
 31
0.0
  0
LINE
  5
15CB6
  8
AM_0
 10
696.47168807744458
 20
306.37500298966779
 30
0.0
 11
593.33166807744408
 21
306.37500298966779
 31
0.0
  0
LINE
  5
15CB7
  8
AM_0
 10
596.81884807744416
 20
243.65503298966769
 30
0.0
 11
611.15167807744433
 21
243.65503298966769
 31
0.0
  0
LINE
  5
15CB8
  8
AM_0
 10
611.15167807744433
 20
243.17505298966771
 30
0.0
 11
593.11743807744415
 21
243.17505298966771
 31
0.0
  0
LINE
  5
15CB9
  8
AM_0
 10
593.33166807744408
 20
236.28503298966771
 30
0.0
 11
611.17169807744438
 21
236.28503298966771
 31
0.0
  0
LINE
  5
15CBA
  8
AM_0
 10
596.81164807744415
 20
235.65503298966769
 30
0.0
 11
641.15167807744433
 21
235.65503298966769
 31
0.0
  0
LINE
  5
15CBB
  8
AM_0
 10
596.81164807744415
 20
233.65503298966769
 30
0.0
 11
641.15167807744433
 21
233.65503298966769
 31
0.0
  0
LINE
  5
15CBC
  8
AM_0
 10
641.15167807744433
 20
232.93506298966761
 30
0.0
 11
593.33166807744408
 21
232.93506298966761
 31
0.0
  0
ARC
  5
15CBD
  8
AM_0
 10
596.81170807744422
 20
244.65503298966769
 30
0.0
 40
1.0000255999999981
 50
89.589469000002197
 51
270.4105299999984
  0
ARC
  5
15CBE
  8
AM_0
 10
593.11169807744443
 20
244.62500298966771
 30
0.0
 40
1.460011199999999
 50
89.775250000004789
 51
270.22475000000497
  0
ARC
  5
15CBF
  8
AM_0
 10
593.33166807744408
 20
234.6099829896678
 30
0.0
 40
1.675001999999999
 50
89.999997000000647
 51
270.000010000001
  0
ARC
  5
15CC0
  8
AM_0
 10
590.49847807744425
 20
229.93225298966769
 30
0.0
 40
1.502775999999999
 50
14.75642999999951
 51
89.877586999996751
  0
ARC
  5
15CC1
  8
AM_0
 10
596.81164807744415
 20
234.6550329896678
 30
0.0
 40
0.9999999999999998
 50
89.999997000000647
 51
270.000010000001
  0
CIRCLE
  5
15CC2
  8
AM_0
 10
617.65167807744433
 20
241.15503298966769
 30
0.0
 40
0.9999999999999998
  0
LINE
  5
15CC3
  8
AM_0
 10
612.65167807744433
 20
242.15503298966769
 30
0.0
 11
612.65167807744433
 21
237.1550329896678
 31
0.0
  0
LINE
  5
15CC4
  8
AM_0
 10
612.17169807744438
 20
242.15503298966769
 30
0.0
 11
612.17169807744438
 21
237.29504298966771
 31
0.0
  0
ARC
  5
15CC5
  8
AM_0
 10
611.17169807744438
 20
237.29504298966771
 30
0.0
 40
0.9999999999999998
 50
270.0
 51
0.0000100000010064
  0
ARC
  5
15CC6
  8
AM_0
 10
611.15167807744433
 20
237.1550329896678
 30
0.0
 40
1.4999999999999989
 50
270.0
 51
0.0000100000010064
  0
ARC
  5
15CC7
  8
AM_0
 10
611.15167807744433
 20
242.15503298966769
 30
0.0
 40
1.4999999999999989
 50
359.999989999999
 51
89.999997000000647
  0
ARC
  5
15CC8
  8
AM_0
 10
611.15167807744433
 20
242.15503298966769
 30
0.0
 40
1.019999999999998
 50
359.999989999999
 51
89.999997000000647
  0
CIRCLE
  5
15CC9
  8
AM_0
 10
622.65167807744433
 20
241.15503298966769
 30
0.0
 40
1.149999999999999
  0
CIRCLE
  5
15CCA
  8
AM_0
 10
622.65167807744433
 20
241.15503298966769
 30
0.0
 40
1.0999999999999981
  0
LINE
  5
15CCB
  8
AM_0
 10
627.65167807744433
 20
242.15503298966769
 30
0.0
 11
627.65167807744433
 21
237.1550329896678
 31
0.0
  0
LINE
  5
15CCC
  8
AM_0
 10
628.13165807744429
 20
242.15503298966769
 30
0.0
 11
628.13165807744429
 21
237.29504298966771
 31
0.0
  0
ARC
  5
15CCD
  8
AM_0
 10
629.13165807744417
 20
237.29504298966771
 30
0.0
 40
0.9999999999999998
 50
179.99999931675049
 51
270.000010000001
  0
ARC
  5
15CCE
  8
AM_0
 10
629.15167807744433
 20
237.1550329896678
 30
0.0
 40
1.4999999999999989
 50
179.99999931675049
 51
270.000010000001
  0
ARC
  5
15CCF
  8
AM_0
 10
629.15167807744433
 20
242.15503298966769
 30
0.0
 40
1.019999999999998
 50
89.999997000000647
 51
180.0
  0
ARC
  5
15CD0
  8
AM_0
 10
629.15167807744433
 20
242.15503298966769
 30
0.0
 40
1.4999999999999989
 50
89.999997000000647
 51
180.0
  0
LINE
  5
15CD1
  8
AM_0
 10
596.80450807744421
 20
295.65503298966769
 30
0.0
 11
611.15167807744433
 21
295.65503298966769
 31
0.0
  0
LINE
  5
15CD2
  8
AM_0
 10
611.15167807744433
 20
296.14502298966772
 30
0.0
 11
593.10601807744433
 21
296.14502298966772
 31
0.0
  0
LINE
  5
15CD3
  8
AM_0
 10
611.17169807744438
 20
303.01501298966758
 30
0.0
 11
593.33166807744408
 21
303.01501298966758
 31
0.0
  0
ARC
  5
15CD4
  8
AM_0
 10
593.33166807744408
 20
304.70007298966772
 30
0.0
 40
1.675001999999999
 50
89.999997000000647
 51
270.000010000001
  0
ARC
  5
15CD5
  8
AM_0
 10
593.11169807744443
 20
294.68506298966759
 30
0.0
 40
1.460011199999999
 50
89.775250000004789
 51
270.22475000000497
  0
ARC
  5
15CD6
  8
AM_0
 10
590.49847807744425
 20
309.37781298966769
 30
0.0
 40
1.502775999999999
 50
270.12242000000128
 51
345.24357000000049
  0
ARC
  5
15CD7
  8
AM_0
 10
596.81170807744422
 20
294.65503298966769
 30
0.0
 40
1.0000255999999981
 50
89.589469000002197
 51
270.4105299999984
  0
ARC
  5
15CD8
  8
AM_0
 10
596.81164807744415
 20
304.65503298966769
 30
0.0
 40
0.9999999999999998
 50
89.999997000000647
 51
270.000010000001
  0
CIRCLE
  5
15CD9
  8
AM_0
 10
622.65167807744433
 20
298.15503298966769
 30
0.0
 40
1.149999999999999
  0
LINE
  5
15CDA
  8
AM_0
 10
612.17169807744438
 20
297.15503298966769
 30
0.0
 11
612.17169807744438
 21
302.0150129896677
 31
0.0
  0
LINE
  5
15CDB
  8
AM_0
 10
612.65167807744433
 20
297.15503298966769
 30
0.0
 11
612.65167807744433
 21
302.15503298966769
 31
0.0
  0
CIRCLE
  5
15CDC
  8
AM_0
 10
622.65167807744433
 20
298.15503298966769
 30
0.0
 40
1.0999999999999981
  0
CIRCLE
  5
15CDD
  8
AM_0
 10
617.65167807744433
 20
298.15503298966769
 30
0.0
 40
0.9999999999999998
  0
ARC
  5
15CDE
  8
AM_0
 10
611.15167807744433
 20
297.15503298966769
 30
0.0
 40
1.4999999999999989
 50
270.0
 51
0.0000100000010064
  0
ARC
  5
15CDF
  8
AM_0
 10
611.15167807744433
 20
297.15503298966769
 30
0.0
 40
1.019999999999998
 50
270.0
 51
0.0000100000010064
  0
ARC
  5
15CE0
  8
AM_0
 10
611.15167807744433
 20
302.15503298966769
 30
0.0
 40
1.4999999999999989
 50
359.999989999999
 51
89.999997000000647
  0
ARC
  5
15CE1
  8
AM_0
 10
611.17169807744438
 20
302.0150129896677
 30
0.0
 40
0.9999999999999998
 50
359.999989999999
 51
89.999997000000647
  0
LINE
  5
15CE2
  8
AM_0
 10
628.13165807744429
 20
297.15503298966769
 30
0.0
 11
628.13165807744429
 21
302.0150129896677
 31
0.0
  0
LINE
  5
15CE3
  8
AM_0
 10
627.65167807744433
 20
297.15503298966769
 30
0.0
 11
627.65167807744433
 21
302.15503298966769
 31
0.0
  0
ARC
  5
15CE4
  8
AM_0
 10
629.15167807744433
 20
297.15503298966769
 30
0.0
 40
1.4999999999999989
 50
179.99999931675049
 51
270.000010000001
  0
ARC
  5
15CE5
  8
AM_0
 10
629.15167807744433
 20
297.15503298966769
 30
0.0
 40
1.019999999999998
 50
179.999999316757
 51
270.000010000001
  0
ARC
  5
15CE6
  8
AM_0
 10
629.15167807744433
 20
302.15503298966769
 30
0.0
 40
1.4999999999999989
 50
89.999997000000647
 51
180.0
  0
ARC
  5
15CE7
  8
AM_0
 10
629.13165807744417
 20
302.0150129896677
 30
0.0
 40
0.9999999999999998
 50
89.999997000000647
 51
180.0
  0
ARC
  5
15CE8
  8
AM_0
 10
696.88751807744427
 20
264.65503298966769
 30
0.0
 40
1.2700129999999981
 50
269.73663000000249
 51
90.263382999998399
  0
ARC
  5
15CE9
  8
AM_0
 10
708.15661807744425
 20
266.6599129896677
 30
0.0
 40
1.004942999999999
 50
180.28113000000181
 51
269.71886000000057
  0
ARC
  5
15CEA
  8
AM_0
 10
660.42474807744441
 20
264.65503298966769
 30
0.0
 40
1.2700266
 50
89.629329999993644
 51
270.37068000000158
  0
LINE
  5
15CEB
  8
AM_0
 10
696.82165807744434
 20
253.31506298966769
 30
0.0
 11
660.48040807744417
 21
253.31506298966769
 31
0.0
  0
LINE
  5
15CEC
  8
AM_0
 10
696.82165807744434
 20
255.9749729896678
 30
0.0
 11
660.49298807744435
 21
255.9749729896678
 31
0.0
  0
LINE
  5
15CED
  8
AM_0
 10
661.71295807744423
 20
255.6550329896678
 30
0.0
 11
695.79168807744418
 21
255.6550329896678
 31
0.0
  0
LINE
  5
15CEE
  8
AM_0
 10
661.71295807744423
 20
253.6550329896678
 30
0.0
 11
695.79168807744418
 21
253.6550329896678
 31
0.0
  0
LINE
  5
15CEF
  8
AM_0
 10
661.71295807744423
 20
265.65503298966769
 30
0.0
 11
695.79168807744418
 21
265.65503298966769
 31
0.0
  0
LINE
  5
15CF0
  8
AM_0
 10
661.71295807744423
 20
263.65503298966769
 30
0.0
 11
695.79168807744418
 21
263.65503298966769
 31
0.0
  0
LINE
  5
15CF1
  8
AM_0
 10
696.88165807744429
 20
263.38501298966781
 30
0.0
 11
660.43298807744452
 21
263.38501298966781
 31
0.0
  0
ARC
  5
15CF2
  8
AM_0
 10
660.48669807744454
 20
254.64502298966769
 30
0.0
 40
1.3300147999999981
 50
89.729433000000611
 51
270.27058000000301
  0
ARC
  5
15CF3
  8
AM_0
 10
661.71295807744423
 20
254.65503298966769
 30
0.0
 40
1.000005699999998
 50
89.999997000000647
 51
270.000010000001
  0
ARC
  5
15CF4
  8
AM_0
 10
661.71295807744423
 20
264.65503298966769
 30
0.0
 40
1.000005699999998
 50
89.999997000000647
 51
270.000010000001
  0
ARC
  5
15CF5
  8
AM_0
 10
696.69165807744434
 20
244.6300029896677
 30
0.0
 40
1.4650039999999991
 50
270.0
 51
89.999997000000647
  0
ARC
  5
15CF6
  8
AM_0
 10
695.60705807744432
 20
244.65503298966769
 30
0.0
 40
1.000013899999999
 50
269.69165999999939
 51
90.308340000000754
  0
ARC
  5
15CF7
  8
AM_0
 10
696.47851807744416
 20
234.6099829896678
 30
0.0
 40
1.6750139999999989
 50
269.76649000000219
 51
90.233501000003244
  0
LINE
  5
15CF8
  8
AM_0
 10
705.45166807744431
 20
226.46508298966771
 30
0.0
 11
699.22168807744436
 21
226.46508298966771
 31
0.0
  0
ARC
  5
15CF9
  8
AM_0
 10
708.15576807744435
 20
224.1591829896677
 30
0.0
 40
1.0041199999999999
 50
180.23461
 51
269.76539000000002
  0
ARC
  5
15CFA
  8
AM_0
 10
708.15490807744425
 20
228.68176298966759
 30
0.0
 40
1.0032760000000001
 50
180.38188999999531
 51
205.8018999999949
  0
ARC
  5
15CFB
  8
AM_0
 10
708.15411807744465
 20
228.67749298966771
 30
0.0
 40
1.002470999999999
 50
180.14107000000001
 51
269.85892999999987
  0
LINE
  5
15CFC
  8
AM_0
 10
709.85162807744462
 20
226.53503298966771
 30
0.0
 11
707.15167807744444
 21
226.53503298966771
 31
0.0
  0
LINE
  5
15CFD
  8
AM_0
 10
709.88165807744451
 20
227.67505298966759
 30
0.0
 11
708.15167807744433
 21
227.67505298966759
 31
0.0
  0
POLYLINE
  5
15CFE
  8
AM_0
 66
     1
 10
0.0
 20
0.0
 30
0.0
  0
VERTEX
  5
15CFF
  8
AM_0
 10
694.29077807744432
 20
243.1719929896677
 30
0.0
 42
-0.00068900015
  0
VERTEX
  5
15D00
  8
AM_0
 10
694.21989807744433
 20
242.59724298966759
 30
0.0
 42
-0.00070644648
  0
VERTEX
  5
15D01
  8
AM_0
 10
694.14739807744445
 20
242.0225629896677
 30
0.0
 42
-0.00069245587
  0
VERTEX
  5
15D02
  8
AM_0
 10
694.07330807744415
 20
241.44824298966779
 30
0.0
 42
-0.00069587802
  0
VERTEX
  5
15D03
  8
AM_0
 10
693.99762807744435
 20
240.87410298966779
 30
0.0
 42
-0.00068980012
  0
VERTEX
  5
15D04
  8
AM_0
 10
693.9203280774442
 20
240.30010298966781
 30
0.0
 42
-0.00072079193
  0
VERTEX
  5
15D05
  8
AM_0
 10
693.8414380774442
 20
239.72632298966781
 30
0.0
 42
-0.00071003147
  0
VERTEX
  5
15D06
  8
AM_0
 10
693.76089807744415
 20
239.1528429896677
 30
0.0
 42
-0.00072658712
  0
VERTEX
  5
15D07
  8
AM_0
 10
693.67873807744434
 20
238.5797529896677
 30
0.0
 42
-0.00069571059
  0
VERTEX
  5
15D08
  8
AM_0
 10
693.59491807744428
 20
238.0067129896677
 30
0.0
 42
-0.0007126617
  0
VERTEX
  5
15D09
  8
AM_0
 10
693.5094880774443
 20
237.43395298966769
 30
0.0
 42
-0.00071614574
  0
VERTEX
  5
15D0A
  8
AM_0
 10
693.42245807744428
 20
236.8616029896678
 30
0.0
 42
-0.00072290803
  0
VERTEX
  5
15D0B
  8
AM_0
 10
693.33374807744428
 20
236.28930298966779
 30
0.0
  0
SEQEND
  5
15D0C
  8
AM_0
  0
ARC
  5
15D0D
  8
AM_0
 10
695.60705807744432
 20
234.6550329896678
 30
0.0
 40
1.000013899999999
 50
269.69165999999939
 51
90.308340000000754
  0
ARC
  5
15D0E
  8
AM_0
 10
707.85113807744415
 20
233.26562298966769
 30
0.0
 40
0.6994530000000001
 50
89.95517099999924
 51
180.04482999999919
  0
ARC
  5
15D0F
  8
AM_0
 10
708.15503807744437
 20
236.9183329896677
 30
0.0
 40
1.003352
 50
180.1910999999989
 51
269.80888999999979
  0
ARC
  5
15D10
  8
AM_0
 10
708.15149807744433
 20
242.65515298966761
 30
0.0
 40
0.9998239899999999
 50
89.989922999999536
 51
180.01008000000471
  0
ARC
  5
15D11
  8
AM_0
 10
696.82165807744434
 20
254.64502298966769
 30
0.0
 40
1.3300049999999981
 50
270.0
 51
89.999997000000647
  0
ARC
  5
15D12
  8
AM_0
 10
695.60705807744432
 20
254.65503298966769
 30
0.0
 40
1.000013899999999
 50
269.69165999999939
 51
90.308340000000754
  0
POLYLINE
  5
15D13
  8
AM_0
 66
     1
 10
0.0
 20
0.0
 30
0.0
  0
VERTEX
  5
15D14
  8
AM_0
 10
695.27343807744433
 20
253.31445298966759
 30
0.0
 42
-0.00073721992
  0
VERTEX
  5
15D15
  8
AM_0
 10
695.22928807744415
 20
252.71204298966771
 30
0.0
 42
-0.00074398496
  0
VERTEX
  5
15D16
  8
AM_0
 10
695.18335807744415
 20
252.1097729896677
 30
0.0
 42
-0.00073322625
  0
VERTEX
  5
15D17
  8
AM_0
 10
695.13562807744415
 20
251.50744298966771
 30
0.0
 42
-0.00073594289
  0
VERTEX
  5
15D18
  8
AM_0
 10
695.08614807744425
 20
250.90545298966771
 30
0.0
 42
-0.00074742568
  0
VERTEX
  5
15D19
  8
AM_0
 10
695.03487807744432
 20
250.30359298966769
 30
0.0
 42
-0.00073216749
  0
VERTEX
  5
15D1A
  8
AM_0
 10
694.98181807744425
 20
249.70178298966769
 30
0.0
 42
-0.00074184065
  0
VERTEX
  5
15D1B
  8
AM_0
 10
694.9269980774443
 20
249.10025298966781
 30
0.0
 42
-0.00072077528
  0
VERTEX
  5
15D1C
  8
AM_0
 10
694.87041807744436
 20
248.49902298966779
 30
0.0
 42
-0.00074978179
  0
VERTEX
  5
15D1D
  8
AM_0
 10
694.81207807744431
 20
247.89782298966779
 30
0.0
 42
-0.00074288888
  0
VERTEX
  5
15D1E
  8
AM_0
 10
694.75192807744429
 20
247.2968029896677
 30
0.0
 42
-0.00072503679
  0
VERTEX
  5
15D1F
  8
AM_0
 10
694.69001807744417
 20
246.69606298966769
 30
0.0
 42
-0.00074640584
  0
VERTEX
  5
15D20
  8
AM_0
 10
694.62634807744416
 20
246.09546298966779
 30
0.0
  0
SEQEND
  5
15D21
  8
AM_0
  0
ARC
  5
15D22
  8
AM_0
 10
708.15661807744425
 20
246.65991298966759
 30
0.0
 40
1.0049469
 50
180.2813699999993
 51
269.71863000000081
  0
ARC
  5
15D23
  8
AM_0
 10
708.15149807744433
 20
252.65515298966761
 30
0.0
 40
0.9998210099999999
 50
89.989718000001702
 51
180.01028000000201
  0
POLYLINE
  5
15D24
  8
AM_0
 66
     1
 10
0.0
 20
0.0
 30
0.0
  0
VERTEX
  5
15D25
  8
AM_0
 10
695.74762807744457
 20
263.38464298966773
 30
0.0
 42
-0.00076695235
  0
VERTEX
  5
15D26
  8
AM_0
 10
695.73282807744431
 20
262.76688298966769
 30
0.0
 42
-0.00073263043
  0
VERTEX
  5
15D27
  8
AM_0
 10
695.71618807744414
 20
262.14928298966771
 30
0.0
 42
-0.00076525988
  0
VERTEX
  5
15D28
  8
AM_0
 10
695.69769807744433
 20
261.53161298966768
 30
0.0
 42
-0.00075144488
  0
VERTEX
  5
15D29
  8
AM_0
 10
695.67732807744414
 20
260.9140129896677
 30
0.0
 42
-0.00076035096
  0
VERTEX
  5
15D2A
  8
AM_0
 10
695.65508807744425
 20
260.2965829896678
 30
0.0
 42
-0.00075543154
  0
VERTEX
  5
15D2B
  8
AM_0
 10
695.63098807744416
 20
259.6792029896676
 30
0.0
 42
-0.0007577325
  0
VERTEX
  5
15D2C
  8
AM_0
 10
695.6050080774445
 20
259.0618029896678
 30
0.0
 42
-0.00076034585
  0
VERTEX
  5
15D2D
  8
AM_0
 10
695.57715807744444
 20
258.44441298966763
 30
0.0
 42
-0.00074823143
  0
VERTEX
  5
15D2E
  8
AM_0
 10
695.54742807744435
 20
257.82702298966768
 30
0.0
 42
-0.00074896605
  0
VERTEX
  5
15D2F
  8
AM_0
 10
695.51586807744434
 20
257.20989298966771
 30
0.0
 42
-0.00076039763
  0
VERTEX
  5
15D30
  8
AM_0
 10
695.48244807744425
 20
256.59286298966782
 30
0.0
 42
-0.00075616127
  0
VERTEX
  5
15D31
  8
AM_0
 10
695.44714807744435
 20
255.97583298966771
 30
0.0
  0
SEQEND
  5
15D32
  8
AM_0
  0
ARC
  5
15D33
  8
AM_0
 10
695.60705807744432
 20
264.65503298966769
 30
0.0
 40
1.000013899999999
 50
269.69165999999939
 51
90.308340000000754
  0
ARC
  5
15D34
  8
AM_0
 10
708.15149807744433
 20
262.65515298966761
 30
0.0
 40
0.9998279799999998
 50
89.990161999999827
 51
180.00984000000301
  0
ARC
  5
15D35
  8
AM_0
 10
708.15661807744425
 20
256.6599129896677
 30
0.0
 40
1.004939
 50
180.28092999999899
 51
269.71906000000018
  0
LINE
  5
15D36
  8
AM_0
 10
661.71295807744423
 20
275.65503298966769
 30
0.0
 11
695.79168807744418
 21
275.65503298966769
 31
0.0
  0
LINE
  5
15D37
  8
AM_0
 10
661.71295807744423
 20
273.65503298966769
 30
0.0
 11
695.79168807744418
 21
273.65503298966769
 31
0.0
  0
LINE
  5
15D38
  8
AM_0
 10
696.88165807744429
 20
275.92505298966768
 30
0.0
 11
660.43298807744452
 21
275.92505298966768
 31
0.0
  0
LINE
  5
15D39
  8
AM_0
 10
696.88165807744429
 20
273.39502298966772
 30
0.0
 11
660.43298807744452
 21
273.39502298966772
 31
0.0
  0
LINE
  5
15D3A
  8
AM_0
 10
696.88165807744429
 20
265.92505298966751
 30
0.0
 11
660.43298807744452
 21
265.92505298966751
 31
0.0
  0
LINE
  5
15D3B
  8
AM_0
 10
661.71295807744423
 20
283.65503298966769
 30
0.0
 11
695.79168807744418
 21
283.65503298966769
 31
0.0
  0
LINE
  5
15D3C
  8
AM_0
 10
696.82165807744434
 20
283.33508298966763
 30
0.0
 11
660.49298807744435
 21
283.33508298966763
 31
0.0
  0
LINE
  5
15D3D
  8
AM_0
 10
661.71295807744423
 20
285.65503298966769
 30
0.0
 11
695.79168807744418
 21
285.65503298966769
 31
0.0
  0
LINE
  5
15D3E
  8
AM_0
 10
696.82165807744434
 20
285.99499298966771
 30
0.0
 11
660.49298807744435
 21
285.99499298966771
 31
0.0
  0
ARC
  5
15D3F
  8
AM_0
 10
660.42474807744441
 20
274.66504298966771
 30
0.0
 40
1.2700266
 50
89.629329999993644
 51
270.37068000000158
  0
ARC
  5
15D40
  8
AM_0
 10
660.48669807744454
 20
284.67004298966771
 30
0.0
 40
1.3350147999999991
 50
89.730443999996979
 51
270.2695700000001
  0
ARC
  5
15D41
  8
AM_0
 10
661.71295807744423
 20
274.65503298966769
 30
0.0
 40
1.000005699999998
 50
89.999997000000647
 51
270.000010000001
  0
ARC
  5
15D42
  8
AM_0
 10
661.71295807744423
 20
284.65503298966769
 30
0.0
 40
1.000005699999998
 50
89.999997000000647
 51
270.000010000001
  0
POLYLINE
  5
15D43
  8
AM_0
 66
     1
 10
0.0
 20
0.0
 30
0.0
  0
VERTEX
  5
15D44
  8
AM_0
 10
695.27343807744433
 20
285.9956029896677
 30
0.0
 42
0.0007337051
  0
VERTEX
  5
15D45
  8
AM_0
 10
695.22929807744435
 20
286.5980229896677
 30
0.0
 42
0.00075211323
  0
VERTEX
  5
15D46
  8
AM_0
 10
695.18335807744415
 20
287.20041298966771
 30
0.0
 42
0.0007297491
  0
VERTEX
  5
15D47
  8
AM_0
 10
695.13562807744415
 20
287.80261298966781
 30
0.0
 42
0.00073593041
  0
VERTEX
  5
15D48
  8
AM_0
 10
695.08614807744425
 20
288.40460298966758
 30
0.0
 42
0.00074742739
  0
VERTEX
  5
15D49
  8
AM_0
 10
695.03487807744432
 20
289.0064729896676
 30
0.0
 42
0.00073217363
  0
VERTEX
  5
15D4A
  8
AM_0
 10
694.98181807744425
 20
289.60827298966763
 30
0.0
 42
0.00073754168
  0
VERTEX
  5
15D4B
  8
AM_0
 10
694.9269980774443
 20
290.20981298966763
 30
0.0
 42
0.00073075073
  0
VERTEX
  5
15D4C
  8
AM_0
 10
694.87041807744436
 20
290.81117298966763
 30
0.0
 42
0.00074550816
  0
VERTEX
  5
15D4D
  8
AM_0
 10
694.81207807744431
 20
291.4122329896677
 30
0.0
 42
0.00074288416
  0
VERTEX
  5
15D4E
  8
AM_0
 10
694.75192807744429
 20
292.01325298966782
 30
0.0
 42
0.00072504001
  0
VERTEX
  5
15D4F
  8
AM_0
 10
694.69001807744417
 20
292.61400298966771
 30
0.0
 42
0.00074640667
  0
VERTEX
  5
15D50
  8
AM_0
 10
694.62634807744416
 20
293.2146029896677
 30
0.0
  0
SEQEND
  5
15D51
  8
AM_0
  0
POLYLINE
  5
15D52
  8
AM_0
 66
     1
 10
0.0
 20
0.0
 30
0.0
  0
VERTEX
  5
15D53
  8
AM_0
 10
695.74762807744457
 20
275.92541298966751
 30
0.0
 42
0.00076691992
  0
VERTEX
  5
15D54
  8
AM_0
 10
695.73282807744431
 20
276.5431829896678
 30
0.0
 42
0.00073262792
  0
VERTEX
  5
15D55
  8
AM_0
 10
695.71618807744414
 20
277.16077298966781
 30
0.0
 42
0.00076529537
  0
VERTEX
  5
15D56
  8
AM_0
 10
695.69769807744433
 20
277.77844298966761
 30
0.0
 42
0.00075141097
  0
VERTEX
  5
15D57
  8
AM_0
 10
695.67732807744414
 20
278.39604298966771
 30
0.0
 42
0.00075841687
  0
VERTEX
  5
15D58
  8
AM_0
 10
695.65509807744434
 20
279.0134729896676
 30
0.0
 42
0.00075711788
  0
VERTEX
  5
15D59
  8
AM_0
 10
695.63098807744416
 20
279.6309829896677
 30
0.0
 42
0.00075976003
  0
VERTEX
  5
15D5A
  8
AM_0
 10
695.60499807744429
 20
280.2483729896677
 30
0.0
 42
0.00075797311
  0
VERTEX
  5
15D5B
  8
AM_0
 10
695.57715807744444
 20
280.86565298966781
 30
0.0
 42
0.0007482613
  0
VERTEX
  5
15D5C
  8
AM_0
 10
695.54742807744435
 20
281.48303298966772
 30
0.0
 42
0.00074893561
  0
VERTEX
  5
15D5D
  8
AM_0
 10
695.51586807744434
 20
282.10016298966769
 30
0.0
 42
0.00076039839
  0
VERTEX
  5
15D5E
  8
AM_0
 10
695.48244807744425
 20
282.71719298966758
 30
0.0
 42
0.00075618786
  0
VERTEX
  5
15D5F
  8
AM_0
 10
695.44714807744435
 20
283.33423298966773
 30
0.0
  0
SEQEND
  5
15D60
  8
AM_0
  0
ARC
  5
15D61
  8
AM_0
 10
708.15661807744425
 20
276.65991298966759
 30
0.0
 40
1.0049469
 50
180.28133999999929
 51
269.71864999999963
  0
POLYLINE
  5
15D62
  8
AM_0
 66
     1
 10
0.0
 20
0.0
 30
0.0
  0
VERTEX
  5
15D63
  8
AM_0
 10
695.79168807744418
 20
269.65503298966769
 30
0.0
 42
0.00039106649
  0
VERTEX
  5
15D64
  8
AM_0
 10
695.79404807744436
 20
269.96616298966768
 30
0.0
 42
0.00035488198
  0
VERTEX
  5
15D65
  8
AM_0
 10
695.79593807744425
 20
270.27727298966761
 30
0.0
 42
0.00039706113
  0
VERTEX
  5
15D66
  8
AM_0
 10
695.79736807744428
 20
270.58838298966771
 30
0.0
 42
0.00038765718
  0
VERTEX
  5
15D67
  8
AM_0
 10
695.79829807744431
 20
270.89952298966779
 30
0.0
 42
0.00040613432
  0
VERTEX
  5
15D68
  8
AM_0
 10
695.79874807744432
 20
271.21062298966763
 30
0.0
 42
0.00035573434
  0
VERTEX
  5
15D69
  8
AM_0
 10
695.7987080774443
 20
271.52173298966778
 30
0.0
 42
0.00038545884
  0
VERTEX
  5
15D6A
  8
AM_0
 10
695.79821807744418
 20
271.83286298966772
 30
0.0
 42
0.00035501205
  0
VERTEX
  5
15D6B
  8
AM_0
 10
695.79725807744433
 20
272.1439729896677
 30
0.0
 42
0.00040120779
  0
VERTEX
  5
15D6C
  8
AM_0
 10
695.79583807744416
 20
272.45520298966773
 30
0.0
 42
0.00038317817
  0
VERTEX
  5
15D6D
  8
AM_0
 10
695.79392807744432
 20
272.76633298966772
 30
0.0
 42
0.00035656084
  0
VERTEX
  5
15D6E
  8
AM_0
 10
695.7915480774443
 20
273.07757298966771
 30
0.0
 42
0.00040143615
  0
VERTEX
  5
15D6F
  8
AM_0
 10
695.78869807744434
 20
273.38867298966773
 30
0.0
  0
SEQEND
  5
15D70
  8
AM_0
  0
POLYLINE
  5
15D71
  8
AM_0
 66
     1
 10
0.0
 20
0.0
 30
0.0
  0
VERTEX
  5
15D72
  8
AM_0
 10
695.79168807744418
 20
269.65503298966769
 30
0.0
 42
-0.00039106589
  0
VERTEX
  5
15D73
  8
AM_0
 10
695.79404807744436
 20
269.34389298966772
 30
0.0
 42
-0.00035488584
  0
VERTEX
  5
15D74
  8
AM_0
 10
695.79593807744425
 20
269.03278298966768
 30
0.0
 42
-0.00039705232
  0
VERTEX
  5
15D75
  8
AM_0
 10
695.79736807744428
 20
268.72168298966773
 30
0.0
 42
-0.0003876649
  0
VERTEX
  5
15D76
  8
AM_0
 10
695.79829807744431
 20
268.4105429896677
 30
0.0
 42
-0.00040613779
  0
VERTEX
  5
15D77
  8
AM_0
 10
695.79874807744432
 20
268.09943298966778
 30
0.0
 42
-0.00035571855
  0
VERTEX
  5
15D78
  8
AM_0
 10
695.7987080774443
 20
267.78833298966771
 30
0.0
 42
-0.00038547358
  0
VERTEX
  5
15D79
  8
AM_0
 10
695.79821807744418
 20
267.47719298966763
 30
0.0
 42
-0.000355015
  0
VERTEX
  5
15D7A
  8
AM_0
 10
695.79725807744433
 20
267.16609298966779
 30
0.0
 42
-0.00040118616
  0
VERTEX
  5
15D7B
  8
AM_0
 10
695.79583807744416
 20
266.85486298966771
 30
0.0
 42
-0.00038319867
  0
VERTEX
  5
15D7C
  8
AM_0
 10
695.79392807744432
 20
266.54372298966769
 30
0.0
 42
-0.00035656356
  0
VERTEX
  5
15D7D
  8
AM_0
 10
695.7915480774443
 20
266.23249298966761
 30
0.0
 42
-0.00040140992
  0
VERTEX
  5
15D7E
  8
AM_0
 10
695.78869807744434
 20
265.92138298966768
 30
0.0
  0
SEQEND
  5
15D7F
  8
AM_0
  0
ARC
  5
15D80
  8
AM_0
 10
696.88751807744427
 20
274.66003298966768
 30
0.0
 40
1.2650129999999991
 50
269.7355899999958
 51
90.264420999998279
  0
ARC
  5
15D81
  8
AM_0
 10
695.60705807744432
 20
274.65503298966769
 30
0.0
 40
1.000013899999999
 50
269.69165999999939
 51
90.308340000000754
  0
ARC
  5
15D82
  8
AM_0
 10
708.15149807744433
 20
272.65515298966761
 30
0.0
 40
0.9998249999999999
 50
89.989949999998785
 51
180.01005000000131
  0
ARC
  5
15D83
  8
AM_0
 10
696.82165807744434
 20
284.6650429896676
 30
0.0
 40
1.3300049999999981
 50
270.0
 51
89.999997000000647
  0
ARC
  5
15D84
  8
AM_0
 10
695.60705807744432
 20
284.65503298966769
 30
0.0
 40
1.000013899999999
 50
269.69165999999939
 51
90.308340000000754
  0
ARC
  5
15D85
  8
AM_0
 10
708.15149807744433
 20
282.65515298966761
 30
0.0
 40
0.9998210099999999
 50
89.989745000000994
 51
180.01024999999851
  0
ARC
  5
15D86
  8
AM_0
 10
708.15661807744425
 20
286.65991298966759
 30
0.0
 40
1.004939
 50
180.2809000000002
 51
269.71908999999908
  0
POLYLINE
  5
15D87
  8
AM_0
 66
     1
 10
0.0
 20
0.0
 30
0.0
  0
VERTEX
  5
15D88
  8
AM_0
 10
694.29077807744432
 20
296.13806298966767
 30
0.0
 42
0.00068898288
  0
VERTEX
  5
15D89
  8
AM_0
 10
694.21989807744433
 20
296.71281298966773
 30
0.0
 42
0.00070644354
  0
VERTEX
  5
15D8A
  8
AM_0
 10
694.14739807744445
 20
297.2875029896677
 30
0.0
 42
0.00069248071
  0
VERTEX
  5
15D8B
  8
AM_0
 10
694.07330807744415
 20
297.86181298966773
 30
0.0
 42
0.00069585665
  0
VERTEX
  5
15D8C
  8
AM_0
 10
693.99762807744435
 20
298.43595298966773
 30
0.0
 42
0.00068980191
  0
VERTEX
  5
15D8D
  8
AM_0
 10
693.9203280774442
 20
299.00995298966768
 30
0.0
 42
0.00072080104
  0
VERTEX
  5
15D8E
  8
AM_0
 10
693.8414380774442
 20
299.5837429896676
 30
0.0
 42
0.00071002307
  0
VERTEX
  5
15D8F
  8
AM_0
 10
693.76089807744415
 20
300.15721298966758
 30
0.0
 42
0.00072659056
  0
VERTEX
  5
15D90
  8
AM_0
 10
693.67873807744434
 20
300.73031298966771
 30
0.0
 42
0.00069570481
  0
VERTEX
  5
15D91
  8
AM_0
 10
693.59491807744428
 20
301.30334298966773
 30
0.0
 42
0.00071266935
  0
VERTEX
  5
15D92
  8
AM_0
 10
693.5094880774443
 20
301.87611298966772
 30
0.0
 42
0.00071614426
  0
VERTEX
  5
15D93
  8
AM_0
 10
693.42245807744428
 20
302.4484529896676
 30
0.0
 42
0.00072288975
  0
VERTEX
  5
15D94
  8
AM_0
 10
693.33374807744428
 20
303.0207529896677
 30
0.0
  0
SEQEND
  5
15D95
  8
AM_0
  0
ARC
  5
15D96
  8
AM_0
 10
696.69165807744434
 20
294.68005298966767
 30
0.0
 40
1.4650039999999991
 50
270.0
 51
89.999997000000647
  0
ARC
  5
15D97
  8
AM_0
 10
695.60705807744432
 20
294.65503298966769
 30
0.0
 40
1.000013899999999
 50
269.69165999999939
 51
90.308340000000754
  0
ARC
  5
15D98
  8
AM_0
 10
708.15149807744433
 20
292.65515298966761
 30
0.0
 40
0.9998289899999999
 50
89.990188999999049
 51
180.00980999999959
  0
ARC
  5
15D99
  8
AM_0
 10
708.15661807744425
 20
296.65991298966759
 30
0.0
 40
1.004942999999999
 50
180.28111000000001
 51
269.71888999999999
  0
ARC
  5
15D9A
  8
AM_0
 10
696.47906807744425
 20
304.70007298966772
 30
0.0
 40
1.675015999999999
 50
269.74613000000068
 51
90.253854999997117
  0
ARC
  5
15D9B
  8
AM_0
 10
695.60705807744432
 20
304.65503298966769
 30
0.0
 40
1.000013899999999
 50
269.69165999999939
 51
90.308340000000754
  0
ARC
  5
15D9C
  8
AM_0
 10
707.85620807744419
 20
306.04956298966772
 30
0.0
 40
0.704566
 50
180.37009000000211
 51
269.62990000000002
  0
ARC
  5
15D9D
  8
AM_0
 10
708.14996807744433
 20
302.39672298966769
 30
0.0
 40
0.9982839799999999
 50
89.901423999998656
 51
180.09857999999991
  0
LINE
  5
15D9E
  8
AM_0
 10
712.15167807744433
 20
221.63501298966759
 30
0.0
 11
712.15167807744433
 21
264.65503298966769
 31
0.0
  0
LINE
  5
15D9F
  8
AM_0
 10
710.15167807744433
 20
222.2550029896677
 30
0.0
 11
710.15167807744433
 21
222.80505298966759
 31
0.0
  0
ARC
  5
15DA0
  8
AM_0
 10
711.15594807744435
 20
222.6854229896677
 30
0.0
 40
0.9956849800000001
 50
296.59085999999951
 51
359.97886999999997
  0
LINE
  5
15DA1
  8
AM_0
 10
710.39160807744463
 20
222.15503298966769
 30
0.0
 11
711.67163807744441
 21
222.92505298966759
 31
0.0
  0
LINE
  5
15DA7
  8
AM_0
 10
710.15167807744433
 20
220.15503298966769
 30
0.0
 11
710.15167807744433
 21
220.6850629896677
 31
0.0
  0
LINE
  5
15DA8
  8
AM_0
 10
710.36169807744432
 20
221.16501298966759
 30
0.0
 11
711.60168807744435
 21
221.79501298966761
 31
0.0
  0
LINE
  5
15DA9
  8
AM_0
 10
710.38165807744451
 20
220.04504298966759
 30
0.0
 11
711.65161807744448
 21
220.77502298966769
 31
0.0
  0
ARC
  5
15DAA
  8
AM_0
 10
709.90582807744465
 20
222.05432298966761
 30
0.0
 40
0.9993420200000001
 50
270.3345399999983
 51
297.13800000000202
  0
ARC
  5
15DAB
  8
AM_0
 10
711.15405807744435
 20
221.63964298966761
 30
0.0
 40
0.9976310099999999
 50
299.92076000000071
 51
359.73219000000142
  0
ARC
  5
15DB1
  8
AM_0
 10
711.15655807744429
 20
264.6599129896677
 30
0.0
 40
0.9950770099999999
 50
359.7158599999994
 51
90.284140000000534
  0
LINE
  5
15DB2
  8
AM_0
 10
714.64557456181933
 20
254.43320071427709
 30
0.0
 11
714.64557456181933
 21
284.87683474748019
 31
0.0
  0
LINE
  5
15DB3
  8
AM_0
 10
713.65167807744433
 20
289.65503298966769
 30
0.0
 11
713.65167807744433
 21
249.65503298966769
 31
0.0
  0
LINE
  5
15DB4
  8
AM_0
 10
710.15167807744433
 20
244.02502298966769
 30
0.0
 11
710.15167807744433
 21
245.39502298966769
 31
0.0
  0
ARC
  5
15DB5
  8
AM_0
 10
711.15142807744428
 20
244.65527298966759
 30
0.0
 40
1.0001959999999981
 50
270.01124999999951
 51
359.98875000000061
  0
LINE
  5
15DB6
  8
AM_0
 10
710.37164807744443
 20
223.27502298966769
 30
0.0
 11
711.62164807744443
 21
223.93502298966769
 31
0.0
  0
LINE
  5
15DB7
  8
AM_0
 10
710.15167807744433
 20
226.8250729896676
 30
0.0
 11
710.15167807744433
 21
227.29504298966771
 31
0.0
  0
LINE
  5
15DB8
  8
AM_0
 10
711.6616880774443
 20
228.55502298966769
 30
0.0
 11
711.68170807744434
 21
228.56500298966759
 31
0.0
  0
LINE
  5
15DB9
  8
AM_0
 10
710.38165807744451
 20
227.80508298966771
 30
0.0
 11
711.66162807744445
 21
228.55505298966759
 31
0.0
  0
LINE
  5
15DBA
  8
AM_0
 10
710.40173807744418
 20
226.69500298966761
 30
0.0
 11
711.7017280774445
 21
227.54501298966761
 31
0.0
  0
ARC
  5
15DBB
  8
AM_0
 10
709.89648807744436
 20
224.15564298966771
 30
0.0
 40
1.0006820000000001
 50
270.29607000000112
 51
298.3493799999996
  0
ARC
  5
15DBC
  8
AM_0
 10
711.15393807744431
 20
224.81628298966771
 30
0.0
 40
0.9977070099999998
 50
297.95518999999922
 51
359.925979999996
  0
ARC
  5
15DBD
  8
AM_0
 10
711.15289807744443
 20
223.77856298966771
 30
0.0
 40
0.9987969999999998
 50
301.2920499999999
 51
0.3727199999990344
  0
ARC
  5
15DBE
  8
AM_0
 10
711.15319807744447
 20
229.4143029896677
 30
0.0
 40
0.9984580299999999
 50
300.61343000000232
 51
0.0404200000014871
  0
ARC
  5
15DBF
  8
AM_0
 10
711.15319807744447
 20
229.4143029896677
 30
0.0
 40
0.9984580299999999
 50
300.61343000000232
 51
0.0404200000014871
  0
ARC
  5
15DC0
  8
AM_0
 10
711.15258807744431
 20
228.37976298966771
 30
0.0
 40
0.9990889999999998
 50
303.33790999999962
 51
0.3049100000035252
  0
LINE
  5
15DC1
  8
AM_0
 10
710.15167807744433
 20
234.26501298966761
 30
0.0
 11
710.15167807744433
 21
235.3250729896676
 31
0.0
  0
LINE
  5
15DC2
  8
AM_0
 10
710.29168807744429
 20
235.95501298966769
 30
0.0
 11
711.44165807744434
 21
236.31503298966771
 31
0.0
  0
LINE
  5
15DC3
  8
AM_0
 10
710.34161807744465
 20
234.04507298966769
 30
0.0
 11
711.54162807744433
 21
234.5650929896677
 31
0.0
  0
ARC
  5
15DC4
  8
AM_0
 10
710.01110807744431
 20
236.91772298966771
 30
0.0
 40
1.002699
 50
269.45935999999892
 51
286.247279999998
  0
ARC
  5
15DC5
  8
AM_0
 10
709.94867807744436
 20
234.9702129896676
 30
0.0
 40
1.005233
 50
270.17075000000062
 51
293.01360999999969
  0
ARC
  5
15DC6
  8
AM_0
 10
711.15527807744434
 20
237.2694129896677
 30
0.0
 40
0.99638802
 50
286.70335999999969
 51
359.75009000000108
  0
ARC
  5
15DC7
  8
AM_0
 10
711.1551580774443
 20
235.4835229896677
 30
0.0
 40
0.9965090199999998
 50
292.82155000000091
 51
0.086250000003443
  0
LINE
  5
15DC8
  8
AM_0
 10
710.15167807744433
 20
254.04504298966759
 30
0.0
 11
710.15167807744433
 21
255.26501298966761
 31
0.0
  0
ARC
  5
15DC9
  8
AM_0
 10
711.15655807744429
 20
254.6599129896677
 30
0.0
 40
0.9950810099999999
 50
359.71607999999549
 51
90.283927999999904
  0
LINE
  5
15DCA
  8
AM_0
 10
713.65167807744433
 20
254.5050029896677
 30
0.0
 11
712.15167807744433
 21
254.5050029896677
 31
0.0
  0
LINE
  5
15DCB
  8
AM_0
 10
713.65167807744433
 20
252.37500298966771
 30
0.0
 11
712.15167807744433
 21
252.37500298966771
 31
0.0
  0
LINE
  5
15DCC
  8
AM_0
 10
713.65167807744433
 20
249.65500298966771
 30
0.0
 11
712.15167807744433
 21
249.52499298966771
 31
0.0
  0
LINE
  5
15DCD
  8
AM_0
 10
714.64554404424109
 20
254.43320071427709
 30
0.0
 11
714.14554404424109
 21
251.66321170060519
 31
0.0
  0
LINE
  5
15DCE
  8
AM_0
 10
714.14557456181933
 20
251.66321170060519
 30
0.0
 11
713.64554404424121
 21
251.70322024552709
 31
0.0
  0
ARC
  5
15DCF
  8
AM_0
 10
711.15655807744429
 20
244.65991298966759
 30
0.0
 40
0.9950849999999999
 50
359.71628000000078
 51
90.283717000000564
  0
ARC
  5
15DD0
  8
AM_0
 10
711.15142807744428
 20
254.65527298966771
 30
0.0
 40
1.000199999999998
 50
270.01145999999858
 51
359.98854000000142
  0
LINE
  5
15DD1
  8
AM_0
 10
710.15167807744433
 20
264.04504298966759
 30
0.0
 11
710.15167807744433
 21
265.2050729896676
 31
0.0
  0
ARC
  5
15DD2
  8
AM_0
 10
711.15142807744428
 20
264.65527298966771
 30
0.0
 40
1.0002040000000001
 50
270.01167999999927
 51
359.98834000000318
  0
LINE
  5
15DD3
  8
AM_0
 10
714.64557456181933
 20
284.87686526505831
 30
0.0
 11
714.14557456181933
 21
287.64685427873019
 31
0.0
  0
LINE
  5
15DD4
  8
AM_0
 10
710.15167807744433
 20
275.2650129896677
 30
0.0
 11
710.15167807744433
 21
274.10498298966769
 31
0.0
  0
ARC
  5
15DD5
  8
AM_0
 10
711.15142807744428
 20
274.65527298966771
 30
0.0
 40
1.0001959999999981
 50
270.01121999999913
 51
359.98878000000411
  0
ARC
  5
15DD6
  8
AM_0
 10
711.15655807744429
 20
274.65991298966759
 30
0.0
 40
0.9950849999999999
 50
359.71631000000031
 51
90.283688999999086
  0
LINE
  5
15DD7
  8
AM_0
 10
713.65167807744433
 20
286.9350629896677
 30
0.0
 11
712.15167807744433
 21
286.9350629896677
 31
0.0
  0
LINE
  5
15DD8
  8
AM_0
 10
713.65167807744433
 20
284.80505298966762
 30
0.0
 11
712.15167807744433
 21
284.80505298966762
 31
0.0
  0
LINE
  5
15DD9
  8
AM_0
 10
710.15167807744433
 20
285.2650129896677
 30
0.0
 11
710.15167807744433
 21
284.05505298966762
 31
0.0
  0
ARC
  5
15DDA
  8
AM_0
 10
711.15142807744428
 20
284.65527298966759
 30
0.0
 40
1.000199999999998
 50
270.01143000000161
 51
359.98856999999839
  0
ARC
  5
15DDB
  8
AM_0
 10
711.15655807744429
 20
284.65991298966759
 30
0.0
 40
0.99508202
 50
359.716090000002
 51
90.283901000001805
  0
LINE
  5
15DDC
  8
AM_0
 10
713.65167807744433
 20
289.65500298966771
 30
0.0
 11
712.15167807744433
 21
289.7850029896677
 31
0.0
  0
LINE
  5
15DDD
  8
AM_0
 10
714.14554404424109
 20
287.64685427873019
 30
0.0
 11
713.64557456181933
 21
287.60684573380831
 31
0.0
  0
LINE
  5
15DDE
  8
AM_0
 10
710.15167807744433
 20
295.28503298966768
 30
0.0
 11
710.15167807744433
 21
293.91504298966771
 31
0.0
  0
ARC
  5
15DDF
  8
AM_0
 10
711.15655807744429
 20
294.6599129896677
 30
0.0
 40
0.99507803
 50
359.71589000000017
 51
90.284112999998655
  0
ARC
  5
15DE0
  8
AM_0
 10
711.15142807744428
 20
294.65527298966759
 30
0.0
 40
1.000203
 50
270.01164999999878
 51
359.98835000000429
  0
LINE
  5
15DE1
  8
AM_0
 10
710.15167807744433
 20
305.04504298966771
 30
0.0
 11
710.15167807744433
 21
303.98498298966763
 31
0.0
  0
LINE
  5
15DE2
  8
AM_0
 10
710.3416780774445
 20
305.26504298966768
 30
0.0
 11
711.54162807744433
 21
304.75503298966771
 31
0.0
  0
LINE
  5
15DE3
  8
AM_0
 10
710.29168807744429
 20
303.35507298966758
 30
0.0
 11
711.44165807744434
 21
303.00506298966758
 31
0.0
  0
ARC
  5
15DE4
  8
AM_0
 10
709.95068807744417
 20
304.34961298966772
 30
0.0
 40
0.9954450099999999
 50
66.872549999997958
 51
89.943095000000326
  0
ARC
  5
15DE5
  8
AM_0
 10
710.0125180774445
 20
302.40234298966772
 30
0.0
 40
0.9927430199999999
 50
73.667929999997554
 51
90.625445000001221
  0
ARC
  5
15DE6
  8
AM_0
 10
711.15527807744434
 20
303.83654298966769
 30
0.0
 40
0.9963999999999998
 50
359.9095800000004
 51
67.182639999999211
  0
ARC
  5
15DE7
  8
AM_0
 10
711.1553980774446
 20
302.05078298966771
 30
0.0
 40
0.9962710099999999
 50
359.66994999999997
 51
73.302080000000089
  0
LINE
  5
15DE8
  8
AM_0
 10
709.90167807744433
 20
316.15503298966769
 30
0.0
 11
708.15167807744433
 21
316.15503298966769
 31
0.0
  0
ARC
  5
15DE9
  8
AM_0
 10
709.84503807744431
 20
311.78881298966769
 30
0.0
 40
0.99617702
 50
56.029510000002702
 51
89.618682000000817
  0
ARC
  5
15DEA
  8
AM_0
 10
709.87225807744437
 20
310.64856298966782
 30
0.0
 40
0.99648702
 50
59.25623000000207
 51
89.459279000001374
  0
LINE
  5
15DEB
  8
AM_0
 10
709.9116880774443
 20
318.25500298966767
 30
0.0
 11
707.65167807744433
 21
318.25500298966767
 31
0.0
  0
ARC
  5
15DEC
  8
AM_0
 10
709.88964807744446
 20
318.40918298966773
 30
0.0
 40
0.9959030199999999
 50
60.392830000001311
 51
90.458733000000876
  0
ARC
  5
15DED
  8
AM_0
 10
709.88281807744443
 20
316.30078298966771
 30
0.0
 40
0.99427301
 50
59.219089999998253
 51
90.643933999999973
  0
LINE
  5
15DEE
  8
AM_0
 10
694.94165807744434
 20
325.9350629896677
 30
0.0
 11
598.02166807744425
 21
325.9350629896677
 31
0.0
  0
LINE
  5
15DEF
  8
AM_0
 10
694.90167807744433
 20
328.78503298966768
 30
0.0
 11
598.02166807744425
 21
328.78503298966768
 31
0.0
  0
LINE
  5
15DF0
  8
AM_0
 10
694.88165807744417
 20
330.6350129896677
 30
0.0
 11
598.02166807744425
 21
330.6350129896677
 31
0.0
  0
LINE
  5
15DF1
  8
AM_0
 10
694.86169807744454
 20
331.54504298966771
 30
0.0
 11
598.02160807744417
 21
331.54504298966771
 31
0.0
  0
ARC
  5
15DF2
  8
AM_0
 10
598.02649807744433
 20
329.54028298966767
 30
0.0
 40
2.0047289999999989
 50
90.138321999999846
 51
164.82650400000341
  0
ARC
  5
15DF3
  8
AM_0
 10
598.02649807744433
 20
328.63025298966772
 30
0.0
 40
2.0047289999999989
 50
90.138321999999846
 51
164.82650400000341
  0
LINE
  5
15DF4
  8
AM_0
 10
591.94592807744425
 20
314.58386298966769
 30
0.0
 11
596.09164807744457
 21
330.06497298966769
 31
0.0
  0
LINE
  5
15DF5
  8
AM_0
 10
591.94595807744406
 20
313.67386298966773
 30
0.0
 11
596.09167807744416
 21
329.15497298966761
 31
0.0
  0
LINE
  5
15DF6
  8
AM_0
 10
591.94595807744406
 20
311.82388298966771
 30
0.0
 11
596.09167807744416
 21
327.30502298966758
 31
0.0
  0
LINE
  5
15DF7
  8
AM_0
 10
595.61169807744443
 20
322.65503298966769
 30
0.0
 11
590.15167807744433
 21
322.65503298966769
 31
0.0
  0
ARC
  5
15DF8
  8
AM_0
 10
590.49847807744425
 20
314.07776298966769
 30
0.0
 40
1.502775999999999
 50
270.12242000000128
 51
345.24357000000049
  0
ARC
  5
15DF9
  8
AM_0
 10
590.49847807744425
 20
312.22778298966779
 30
0.0
 40
1.502775999999999
 50
270.12242000000128
 51
345.24357000000049
  0
ARC
  5
15DFA
  8
AM_0
 10
590.49847807744425
 20
314.9877929896677
 30
0.0
 40
1.502775999999999
 50
270.12242000000128
 51
345.24357000000049
  0
ARC
  5
15DFB
  8
AM_0
 10
598.02160807744417
 20
323.93677298966759
 30
0.0
 40
1.9982919999999991
 50
89.997367999997024
 51
164.96745200000379
  0
ARC
  5
15DFC
  8
AM_0
 10
598.02649807744433
 20
326.78027298966759
 30
0.0
 40
2.0047289999999989
 50
90.138321999999846
 51
164.82650400000341
  0
ARC
  5
15DFD
  8
AM_0
 10
694.88708807744433
 20
328.63830298966758
 30
0.0
 40
1.996732999999999
 50
8.5461200000027322
 51
90.156033000002694
  0
ARC
  5
15DFE
  8
AM_0
 10
694.86517807744428
 20
329.54944298966768
 30
0.0
 40
1.9956329999999991
 50
7.9388700000004286
 51
90.100291999999357
  0
LINE
  5
15DFF
  8
AM_0
 10
698.15167807744433
 20
319.09506298966761
 30
0.0
 11
696.87170807744417
 21
327.10501298966773
 31
0.0
  0
LINE
  5
15E00
  8
AM_0
 10
698.15167807744433
 20
317.75506298966781
 30
0.0
 11
696.9116880774443
 21
324.31503298966783
 31
0.0
  0
LINE
  5
15E01
  8
AM_0
 10
705.45166807744431
 20
312.84497298966772
 30
0.0
 11
699.22168807744436
 21
312.84497298966772
 31
0.0
  0
ARC
  5
15E02
  8
AM_0
 10
708.1539980774445
 20
310.64270298966773
 30
0.0
 40
1.002353
 50
90.134327000000596
 51
179.86567318000149
  0
LINE
  5
15E03
  8
AM_0
 10
709.85162807744462
 20
312.78503298966768
 30
0.0
 11
707.15167807744444
 21
312.78503298966768
 31
0.0
  0
LINE
  5
15E04
  8
AM_0
 10
709.88165807744451
 20
311.64502298966772
 30
0.0
 11
708.15167807744433
 21
311.64502298966772
 31
0.0
  0
ARC
  5
15E05
  8
AM_0
 10
708.15069807744464
 20
315.15600298966763
 30
0.0
 40
0.9990100299999999
 50
89.943190999999956
 51
180.05680999999871
  0
ARC
  5
15E06
  8
AM_0
 10
707.65625807744425
 20
319.90966298966771
 30
0.0
 40
0.50463498
 50
180.5238300000004
 51
269.47616999999963
  0
LINE
  5
15E07
  8
AM_0
 10
707.15167807744444
 20
319.65503298966769
 30
0.0
 11
706.15167807744433
 21
319.65503298966769
 31
0.0
  0
ARC
  5
15E08
  8
AM_0
 10
707.64996807744433
 20
317.75671298966768
 30
0.0
 40
0.4983060100000002
 50
89.804892999999964
 51
180.1951100000021
  0
LINE
  5
15E09
  8
AM_0
 10
709.88165807744451
 20
319.40503298966769
 30
0.0
 11
707.65167807744433
 21
319.40503298966769
 31
0.0
  0
LINE
  5
15E0A
  8
AM_0
 10
709.87164807744443
 20
317.29504298966771
 30
0.0
 11
707.15167807744444
 21
317.29504298966771
 31
0.0
  0
LINE
  5
15E0B
  8
AM_0
 10
706.15167807744433
 20
322.65503298966769
 30
0.0
 11
698.15167807744433
 21
322.65503298966769
 31
0.0
  0
LINE
  5
15E0C
  8
AM_0
 10
698.15167807744433
 20
320.44504298966763
 30
0.0
 11
696.8616980774442
 21
328.93500298966768
 31
0.0
  0
LINE
  5
15E0D
  8
AM_0
 10
698.15167807744433
 20
320.44504298966763
 30
0.0
 11
696.84167807744416
 21
329.82507298966772
 31
0.0
  0
ARC
  5
15E0E
  8
AM_0
 10
694.90142807744462
 20
326.7897929896676
 30
0.0
 40
1.9952829999999979
 50
9.0916499999993068
 51
89.993796000001524
  0
ARC
  5
15E0F
  8
AM_0
 10
694.95294807744415
 20
323.94092298966763
 30
0.0
 40
1.994108999999999
 50
10.812230000001239
 51
90.324451999997237
  0
LINE
  5
15E10
  8
AM_0
 10
710.15167807744433
 20
317.05505298966762
 30
0.0
 11
710.15167807744433
 21
316.50500298966767
 31
0.0
  0
LINE
  5
15E11
  8
AM_0
 10
710.39172807744433
 20
317.15509298966759
 30
0.0
 11
711.67169807744415
 21
316.38507298966772
 31
0.0
  0
LINE
  5
15E12
  8
AM_0
 10
710.15167807744433
 20
312.48498298966763
 30
0.0
 11
710.15167807744433
 21
312.01501298966781
 31
0.0
  0
LINE
  5
15E13
  8
AM_0
 10
710.40173807744418
 20
312.61505298966767
 30
0.0
 11
711.7017280774445
 21
311.76507298966771
 31
0.0
  0
LINE
  5
15E14
  8
AM_0
 10
710.38171807744425
 20
311.50506298966781
 30
0.0
 11
711.6616880774443
 21
310.75506298966781
 31
0.0
  0
LINE
  5
15E15
  8
AM_0
 10
710.37164807744443
 20
316.04507298966769
 30
0.0
 11
711.62164807744443
 21
315.3750629896677
 31
0.0
  0
ARC
  5
15E16
  8
AM_0
 10
709.91656807744425
 20
315.15966298966771
 30
0.0
 40
0.99545902
 50
62.7961800000012
 51
90.858709000000076
  0
LINE
  5
15E17
  8
AM_0
 10
710.36169807744432
 20
318.15503298966769
 30
0.0
 11
711.60168807744435
 21
317.52502298966772
 31
0.0
  0
LINE
  5
15E18
  8
AM_0
 10
710.15167807744433
 20
319.15503298966769
 30
0.0
 11
710.15167807744433
 21
318.62500298966768
 31
0.0
  0
LINE
  5
15E19
  8
AM_0
 10
710.38165807744451
 20
319.27499298966768
 30
0.0
 11
711.65161807744448
 21
318.53500298966759
 31
0.0
  0
ARC
  5
15E1A
  8
AM_0
 10
709.92688807744435
 20
317.26098298966758
 30
0.0
 40
0.99411702
 50
64.065020000001226
 51
90.877356000001484
  0
ARC
  5
15E1B
  8
AM_0
 10
711.1560680774445
 20
316.63476298966771
 30
0.0
 40
0.995579
 50
0.0173600000000249
 51
63.412910000002142
  0
ARC
  5
15E1C
  8
AM_0
 10
711.15686807744441
 20
310.9326129896678
 30
0.0
 40
0.9948369899999999
 50
359.56214000000188
 51
56.795039999998927
  0
ARC
  5
15E1D
  8
AM_0
 10
711.15759807744428
 20
309.89819298966768
 30
0.0
 40
0.99404597
 50
359.81435999999968
 51
59.531800000001169
  0
ARC
  5
15E1E
  8
AM_0
 10
711.15844807744429
 20
314.49646298966769
 30
0.0
 40
0.9932109699999999
 50
359.91813000000002
 51
62.20067999999938
  0
ARC
  5
15E1F
  8
AM_0
 10
711.15722807744442
 20
315.53405298966771
 30
0.0
 40
0.9944329899999999
 50
0.0594900000009383
 51
58.847870000000192
  0
ARC
  5
15E20
  8
AM_0
 10
711.15844807744429
 20
317.67297298966758
 30
0.0
 40
0.99319202
 50
0.1204100000019515
 51
60.22661999999832
  0
LINE
  5
16119
  8
AM_0
 10
273.2251599070691
 20
254.65503254263231
 30
0.0
 11
297.22515990706898
 21
257.65503298966718
 31
0.0
  0
LINE
  5
1611A
  8
AM_0
 10
297.22515990706898
 20
279.15503298966701
 30
0.0
 11
325.2251599070691
 21
279.15503298966712
 31
0.0
  0
LINE
  5
1611B
  8
AM_0
 10
325.2251599070691
 20
281.65503298966718
 30
0.0
 11
303.22515990706898
 21
281.65503298966718
 31
0.0
  0
LINE
  5
1611C
  8
AM_0
 10
325.2251599070691
 20
260.15503298966701
 30
0.0
 11
297.22515990706898
 21
260.15503298670518
 31
0.0
  0
LINE
  5
1611D
  8
AM_0
 10
297.22515990706898
 20
281.65503298966718
 30
0.0
 11
297.22515990706898
 21
257.65503298966718
 31
0.0
  0
LINE
  5
1611E
  8
AM_0
 10
303.22515990706898
 20
281.65503298966718
 30
0.0
 11
303.22515990706898
 21
279.15503298966712
 31
0.0
  0
LINE
  5
1611F
  8
AM_0
 10
325.2251599070691
 20
260.15503298966701
 30
0.0
 11
325.2251599070691
 21
281.65503298966718
 31
0.0
  0
LINE
  5
16204
  8
AM_0
 10
273.22515971706889
 20
284.6550334604521
 30
0.0
 11
297.22515990706898
 21
281.65503298966718
 31
0.0
  0
ARC
  5
16207
  8
AM_0
 10
228.2251583759645
 20
269.65503298966718
 30
0.0
 40
56.5
 50
14.115754068750601
 51
35.018628262084249
  0
CIRCLE
  5
16485
  8
AM_0
 10
471.64557199881978
 20
269.65503298966792
 30
0.0
 40
15.00000044703483
  0
ARC
  5
16486
  8
AM_0
 10
471.64557199881978
 20
269.65503298966792
 30
0.0
 40
9.5
 50
108.4084801705864
 51
71.591519829413585
  0
LINE
  5
16487
  8
AM_0
 10
474.64557199881978
 20
281.65503298966792
 30
0.0
 11
474.64557199881978
 21
275.65503298966792
 31
0.0
  0
LINE
  5
16488
  8
AM_0
 10
468.64557199881989
 20
275.65503298966792
 30
0.0
 11
468.64557199881989
 21
281.65503298966792
 31
0.0
  0
CIRCLE
  5
16489
  8
ｽﾝﾎﾟｳｾﾝ
 10
471.64557199881978
 20
269.65503298966792
 30
0.0
 40
3.0
  0
LINE
  5
1648A
  8
AM_0
 10
474.64557199881978
 20
275.65503298966792
 30
0.0
 11
468.64557199881989
 21
275.65503298966792
 31
0.0
  0
LINE
  5
1648B
  8
AM_0
 10
468.64557199881989
 20
281.65503298966792
 30
0.0
 11
474.64557199881978
 21
281.65503298966792
 31
0.0
  0
CIRCLE
  5
16863
  8
AM_0
 10
471.64557199881978
 20
269.65503298966792
 30
0.0
 40
2.5
  0
LINE
  5
17012
  8
AM_0
 10
418.8721819453234
 20
459.86505615809642
 30
0.0
 11
557.418658978748
 21
459.8650717226688
 31
0.0
  0
LINE
  5
17013
  8
AM_0
 10
418.64526609057151
 20
472.86505677024451
 30
0.0
 11
557.64557509732481
 21
472.86505677024451
 31
0.0
  0
LINE
  5
17014
  8
AM_0
 10
419.74493467830581
 20
535.86505864779076
 30
0.0
 11
556.54590597408514
 21
535.8650586477911
 31
0.0
  0
LINE
  5
17015
  8
ﾁｭｳｼﾝｾﾝ1
 10
718.65167807744433
 20
497.86503757043562
 30
0.0
 11
415.64557047890128
 21
497.86508102001068
 31
0.0
1001
GENIUS_GENODEF_13
1002
{
1000
HIER
1070
     0
1002
}
1002
{
1000
MANEDIT
1070
     0
1002
}
1002
{
1000
NOSEL
1070
     0
1002
}
1002
{
1000
BEHIND
1070
     0
1002
}
1002
{
1000
REACTOR
1002
}
1001
GENIUS_GENOBJ-N-CEN_13
1002
{
1000
OWNER
1000
GEN
1002
}
  0
LINE
  5
17016
  8
AM_0
 10
714.64557456181933
 20
482.64320529504499
 30
0.0
 11
714.64557456181933
 21
513.08683932824806
 31
0.0
  0
ARC
  5
17017
  8
AM_0
 10
708.15167807744433
 20
510.86503757043579
 30
0.0
 40
1.0
 50
89.999996999995744
 51
180.0
  0
ARC
  5
17018
  8
AM_0
 10
711.15167807744433
 20
512.86503757043556
 30
0.0
 40
1.0
 50
270.0
 51
0.0000100000009873
  0
LINE
  5
17019
  8
AM_0
 10
712.15167807744433
 20
545.88139757043575
 30
0.0
 11
712.15167807744433
 21
502.86502757043559
 31
0.0
  0
LINE
  5
1701A
  8
AM_0
 10
707.15167807744433
 20
547.86502757043581
 30
0.0
 11
707.15167807744433
 21
446.74180857043581
 31
0.0
  0
LINE
  5
1701B
  8
AM_0
 10
713.65167807744433
 20
517.86502757043581
 30
0.0
 11
713.65167807744433
 21
477.86504757043571
 31
0.0
  0
LINE
  5
1701C
  8
AM_0
 10
706.15167807744433
 20
550.86502757043581
 30
0.0
 11
706.15167807744433
 21
444.86504657043571
 31
0.0
  0
LINE
  5
1701D
  8
AM_0
 10
710.38391807744426
 20
448.24988057043572
 30
0.0
 11
711.65210807744415
 21
448.98285957043572
 31
0.0
  0
LINE
  5
1701E
  8
AM_0
 10
707.15167807744433
 20
447.8650465704356
 30
0.0
 11
706.15167807744433
 21
447.8650465704356
 31
0.0
  0
LINE
  5
1701F
  8
AM_0
 10
709.88348807744433
 20
448.11564957043572
 30
0.0
 11
707.65167807744433
 21
448.11564957043572
 31
0.0
  0
ARC
  5
17020
  8
AM_0
 10
707.6516780774441
 20
447.61565657043582
 30
0.0
 40
0.5
 50
89.999996999995744
 51
180.0
  0
ARC
  5
17021
  8
AM_0
 10
709.8834880774441
 20
449.11565657043582
 30
0.0
 40
1.0
 50
270.0
 51
300.02639999999673
  0
LINE
  5
17022
  8
AM_0
 10
714.64554404424109
 20
482.64320529504499
 30
0.0
 11
714.14554404424109
 21
479.87321628137329
 31
0.0
  0
LINE
  5
17023
  8
AM_0
 10
712.15167807744433
 20
449.84862857043572
 30
0.0
 11
712.15167807744433
 21
492.86504757043559
 31
0.0
  0
ARC
  5
17024
  8
AM_0
 10
708.15167807744433
 20
465.12186757043571
 30
0.0
 40
1.0
 50
180.0
 51
270.0
  0
ARC
  5
17025
  8
AM_0
 10
710.00134807744428
 20
465.12186757043571
 30
0.0
 40
1.0
 50
270.0
 51
287.09762999999651
  0
ARC
  5
17026
  8
AM_0
 10
708.1516780774441
 20
456.88010657043571
 30
0.0
 40
1.0
 50
180.0
 51
270.0
  0
LINE
  5
17027
  8
AM_0
 10
710.3857480774443
 20
456.01720757043569
 30
0.0
 11
711.65710807744415
 21
456.7618895704357
 31
0.0
  0
ARC
  5
17028
  8
AM_0
 10
711.1516780774441
 20
456.59167057043572
 30
0.0
 40
1.0
 50
303.25471999999678
 51
0.0000100000009873
  0
LINE
  5
17029
  8
AM_0
 10
710.37133807744431
 20
451.47983857043579
 30
0.0
 11
711.61993807744432
 21
452.14170357043582
 31
0.0
  0
LINE
  5
1702A
  8
AM_0
 10
710.36505807744425
 20
449.37030357043568
 30
0.0
 11
711.60431807744419
 21
449.99933157043569
 31
0.0
  0
LINE
  5
1702B
  8
AM_0
 10
710.40142807744428
 20
454.90387257043568
 30
0.0
 11
711.70007807744435
 21
455.75543557043579
 31
0.0
  0
LINE
  5
1702C
  8
AM_0
 10
710.38922807744416
 20
450.36594657043571
 30
0.0
 11
711.66613807744409
 21
451.1321895704358
 31
0.0
  0
ARC
  5
1702D
  8
AM_0
 10
711.1516780774441
 20
451.98968057043572
 30
0.0
 40
1.0
 50
300.96660000000128
 51
0.0000100000009873
  0
ARC
  5
1702E
  8
AM_0
 10
711.1516780774441
 20
453.02525657043572
 30
0.0
 40
1.0
 50
297.9265899999989
 51
0.0000100000009873
  0
ARC
  5
1702F
  8
AM_0
 10
711.1516780774441
 20
450.89097857043572
 30
0.0
 40
1.0
 50
296.91125000000312
 51
0.0000100000009873
  0
ARC
  5
17030
  8
AM_0
 10
711.1516780774441
 20
449.84862857043572
 30
0.0
 40
1.0
 50
300.0263900000046
 51
0.0000100000009873
  0
LINE
  5
17031
  8
AM_0
 10
709.91241807744427
 20
449.26195857043581
 30
0.0
 11
707.65167807744433
 21
449.26195857043581
 31
0.0
  0
LINE
  5
17032
  8
AM_0
 10
709.90301807744424
 20
451.36339057043591
 30
0.0
 11
708.15167807744433
 21
451.36339057043591
 31
0.0
  0
LINE
  5
17033
  8
AM_0
 10
709.88037807744433
 20
455.88012257043579
 30
0.0
 11
708.15167807744433
 21
455.88012257043579
 31
0.0
  0
LINE
  5
17034
  8
AM_0
 10
709.85302807744426
 20
454.74010757043573
 30
0.0
 11
707.15167807744433
 21
454.74010757043573
 31
0.0
  0
LINE
  5
17035
  8
AM_0
 10
709.87463807744427
 20
450.22337657043579
 30
0.0
 11
707.15167807744433
 21
450.22337657043579
 31
0.0
  0
ARC
  5
17036
  8
AM_0
 10
707.6516780774441
 20
449.7619505704356
 30
0.0
 40
0.5
 50
180.0
 51
270.0
  0
ARC
  5
17037
  8
AM_0
 10
708.1516780774441
 20
452.36339857043572
 30
0.0
 40
1.0
 50
180.0
 51
270.0
  0
LINE
  5
17038
  8
AM_0
 10
710.15167807744433
 20
450.46848557043569
 30
0.0
 11
710.15167807744433
 21
451.0145065704358
 31
0.0
  0
LINE
  5
17039
  8
AM_0
 10
710.15167807744433
 20
455.03458657043569
 30
0.0
 11
710.15167807744433
 21
455.50670157043578
 31
0.0
  0
ARC
  5
1703A
  8
AM_0
 10
709.88037807744433
 20
456.88010657043571
 30
0.0
 40
1.0
 50
270.0
 51
300.35950000000429
  0
ARC
  5
1703B
  8
AM_0
 10
709.85302807744415
 20
455.74009257043571
 30
0.0
 40
1.0
 50
270.0
 51
303.25472999999891
  0
ARC
  5
1703C
  8
AM_0
 10
709.90301807744413
 20
452.36339857043572
 30
0.0
 40
1.0
 50
270.0
 51
297.92659999999631
  0
ARC
  5
1703D
  8
AM_0
 10
709.87463807744405
 20
451.22338357043571
 30
0.0
 40
1.0
 50
270.0
 51
300.96660000000128
  0
ARC
  5
1703E
  8
AM_0
 10
709.91241807744427
 20
450.26194257043568
 30
0.0
 40
1.0
 50
270.0
 51
296.91126000000179
  0
LINE
  5
1703F
  8
AM_0
 10
710.15167807744433
 20
448.36888457043568
 30
0.0
 11
710.15167807744433
 21
448.89464857043572
 31
0.0
  0
LINE
  5
17040
  8
AM_0
 10
710.33978807744415
 20
462.25613657043567
 30
0.0
 11
711.54449807744425
 21
462.77064857043581
 31
0.0
  0
ARC
  5
17041
  8
AM_0
 10
711.1516780774441
 20
463.69030257043568
 30
0.0
 40
1.0
 50
293.12701999999518
 51
0.0000100000009873
  0
LINE
  5
17042
  8
AM_0
 10
711.65710807744415
 20
456.76192757043572
 30
0.0
 11
711.68066807744435
 21
456.77575257043571
 31
0.0
  0
ARC
  5
17043
  8
AM_0
 10
711.1516780774441
 20
457.62479657043559
 30
0.0
 40
1.0
 50
300.35951000000171
 51
0.0000100000009873
  0
ARC
  5
17044
  8
AM_0
 10
711.1516780774441
 20
457.62479657043559
 30
0.0
 40
1.0
 50
300.35951000000171
 51
0.0000100000009873
  0
LINE
  5
17045
  8
AM_0
 10
710.00134807744428
 20
464.12188257043567
 30
0.0
 11
708.15167807744433
 21
464.12188257043567
 31
0.0
  0
LINE
  5
17046
  8
AM_0
 10
709.9470280774442
 20
462.17576857043571
 30
0.0
 11
707.85168807744435
 21
462.17576857043571
 31
0.0
  0
ARC
  5
17047
  8
AM_0
 10
707.85168807744412
 20
461.4758255704358
 30
0.0
 40
0.6999999900000002
 50
89.999996999995744
 51
180.0
  0
LINE
  5
17048
  8
AM_0
 10
710.15167807744433
 20
462.47214757043571
 30
0.0
 11
710.15167807744433
 21
463.53209957043578
 31
0.0
  0
ARC
  5
17049
  8
AM_0
 10
709.9470280774442
 20
463.1757765704358
 30
0.0
 40
1.0
 50
270.0
 51
293.12702999999561
  0
ARC
  5
1704A
  8
AM_0
 10
708.1516780774441
 20
456.88010657043571
 30
0.0
 40
1.0
 50
180.0
 51
205.3632400000005
  0
ARC
  5
1704B
  8
AM_0
 10
711.15167807744433
 20
472.86502757043581
 30
0.0
 40
1.0
 50
270.0
 51
0.0000100000009873
  0
LINE
  5
1704C
  8
AM_0
 10
708.15167807744433
 20
471.86504757043571
 30
0.0
 11
711.15167807744433
 21
471.86504757043571
 31
0.0
  0
LINE
  5
1704D
  8
AM_0
 10
710.29535807744435
 20
464.16610257043573
 30
0.0
 11
711.44574807744425
 21
464.5199535704358
 31
0.0
  0
ARC
  5
1704E
  8
AM_0
 10
711.15167807744433
 20
465.47576457043567
 30
0.0
 40
1.0
 50
287.09762999999651
 51
0.0000100000009873
  0
ARC
  5
1704F
  8
AM_0
 10
708.15167807744433
 20
470.86503757043567
 30
0.0
 40
1.0
 50
89.999996999995744
 51
180.0
  0
LINE
  5
17050
  8
AM_0
 10
708.15167807744433
 20
473.86503757043579
 30
0.0
 11
711.15167807744433
 21
473.86503757043579
 31
0.0
  0
LINE
  5
17051
  8
AM_0
 10
714.14557456181933
 20
479.87321628137329
 30
0.0
 11
713.64554404424121
 21
479.91322482629499
 31
0.0
  0
LINE
  5
17052
  8
AM_0
 10
713.65161807744425
 20
477.86504757043571
 30
0.0
 11
712.15167807744433
 21
477.7338175704358
 31
0.0
  0
ARC
  5
17053
  8
AM_0
 10
711.15167807744433
 20
472.86502757043581
 30
0.0
 40
1.0
 50
359.999989999999
 51
89.999996999995744
  0
LINE
  5
17054
  8
AM_0
 10
710.15167807744433
 20
472.23880757043571
 30
0.0
 11
710.15167807744433
 21
473.60166757043572
 31
0.0
  0
ARC
  5
17055
  8
AM_0
 10
708.15167807744433
 20
474.86504757043582
 30
0.0
 40
1.0
 50
180.0
 51
270.0
  0
LINE
  5
17056
  8
AM_0
 10
713.65167807744433
 20
482.71500757043572
 30
0.0
 11
710.35797807744427
 21
482.71500757043572
 31
0.0
  0
LINE
  5
17057
  8
AM_0
 10
708.15167807744433
 20
483.86504757043582
 30
0.0
 11
711.15167807744433
 21
483.86504757043582
 31
0.0
  0
LINE
  5
17058
  8
AM_0
 10
708.15167807744433
 20
481.86502757043559
 30
0.0
 11
711.15167807744433
 21
481.86502757043559
 31
0.0
  0
ARC
  5
17059
  8
AM_0
 10
711.15167807744433
 20
482.86503757043567
 30
0.0
 40
1.0
 50
359.999989999999
 51
89.999996999995744
  0
LINE
  5
1705A
  8
AM_0
 10
713.65167807744433
 20
480.58299757043579
 30
0.0
 11
712.15167807744433
 21
480.58299757043579
 31
0.0
  0
ARC
  5
1705B
  8
AM_0
 10
711.15167807744433
 20
482.86503757043567
 30
0.0
 40
1.0
 50
270.0
 51
0.0000100000009873
  0
ARC
  5
1705C
  8
AM_0
 10
708.15167807744433
 20
484.86502757043581
 30
0.0
 40
1.0
 50
180.0
 51
270.0
  0
ARC
  5
1705D
  8
AM_0
 10
708.15167807744433
 20
480.86504757043559
 30
0.0
 40
1.0
 50
89.999996999995744
 51
180.0
  0
LINE
  5
1705E
  8
AM_0
 10
710.15167807744433
 20
482.2579275704357
 30
0.0
 11
710.15167807744433
 21
483.46928757043571
 31
0.0
  0
LINE
  5
1705F
  8
AM_0
 10
708.15167807744433
 20
493.8650275704357
 30
0.0
 11
711.15167807744433
 21
493.8650275704357
 31
0.0
  0
LINE
  5
17060
  8
AM_0
 10
708.15167807744433
 20
491.86503757043567
 30
0.0
 11
711.15167807744433
 21
491.86503757043567
 31
0.0
  0
ARC
  5
17061
  8
AM_0
 10
711.15167807744433
 20
492.86504757043559
 30
0.0
 40
1.0
 50
359.999989999999
 51
89.999996999995744
  0
ARC
  5
17062
  8
AM_0
 10
711.15167807744433
 20
492.86504757043559
 30
0.0
 40
1.0
 50
270.0
 51
0.0000100000009873
  0
ARC
  5
17063
  8
AM_0
 10
708.15167807744433
 20
490.86502757043581
 30
0.0
 40
1.0
 50
89.999996999995744
 51
180.0
  0
ARC
  5
17064
  8
AM_0
 10
708.15167807744433
 20
494.86503757043579
 30
0.0
 40
1.0
 50
180.0
 51
270.0
  0
LINE
  5
17065
  8
AM_0
 10
710.15167807744433
 20
492.2517575704357
 30
0.0
 11
710.15167807744433
 21
493.41264757043558
 31
0.0
  0
ARC
  5
17066
  8
AM_0
 10
708.15167807744433
 20
504.86503757043567
 30
0.0
 40
1.0
 50
180.0
 51
270.0
  0
ARC
  5
17067
  8
AM_0
 10
711.15167807744433
 20
502.86502757043559
 30
0.0
 40
1.0
 50
359.999989999999
 51
89.999996999995744
  0
LINE
  5
17068
  8
AM_0
 10
708.15167807744433
 20
501.86503757043579
 30
0.0
 11
711.15167807744433
 21
501.86503757043579
 31
0.0
  0
LINE
  5
17069
  8
AM_0
 10
708.15167807744433
 20
503.86503757043567
 30
0.0
 11
711.15167807744433
 21
503.86503757043567
 31
0.0
  0
ARC
  5
1706A
  8
AM_0
 10
711.15167807744433
 20
502.86502757043559
 30
0.0
 40
1.0
 50
270.0
 51
0.0000100000009873
  0
ARC
  5
1706B
  8
AM_0
 10
708.15167807744433
 20
500.86503757043567
 30
0.0
 40
1.0
 50
89.999996999995744
 51
180.0
  0
LINE
  5
1706C
  8
AM_0
 10
710.15167807744433
 20
503.47824757043571
 30
0.0
 11
710.15167807744433
 21
502.3173575704356
 31
0.0
  0
ARC
  5
1706D
  8
AM_0
 10
708.15167807744433
 20
543.36666757043565
 30
0.0
 40
1.0
 50
89.999996999995744
 51
180.0
  0
LINE
  5
1706E
  8
AM_0
 10
710.37133807744431
 20
544.25019757043583
 30
0.0
 11
711.61999807744451
 21
543.58833757043556
 31
0.0
  0
ARC
  5
1706F
  8
AM_0
 10
711.15167807744433
 20
542.70474757043576
 30
0.0
 40
1.0
 50
359.999989999999
 51
62.073400000003602
  0
LINE
  5
17070
  8
AM_0
 10
713.65167807744433
 20
513.01506757043558
 30
0.0
 11
708.97418807744418
 21
513.01506757043558
 31
0.0
  0
LINE
  5
17071
  8
AM_0
 10
708.15167807744433
 20
511.86502757043581
 30
0.0
 11
711.15167807744433
 21
511.86502757043581
 31
0.0
  0
LINE
  5
17072
  8
AM_0
 10
708.15167807744433
 20
513.86503757043556
 30
0.0
 11
711.15167807744433
 21
513.86503757043556
 31
0.0
  0
LINE
  5
17073
  8
AM_0
 10
714.14554404424109
 20
515.85685885949829
 30
0.0
 11
713.64557456181933
 21
515.8168503145763
 31
0.0
  0
LINE
  5
17074
  8
AM_0
 10
714.64557456181933
 20
513.0868698458263
 30
0.0
 11
714.14557456181933
 21
515.85685885949829
 31
0.0
  0
LINE
  5
17075
  8
AM_0
 10
713.65167807744433
 20
517.86502757043581
 30
0.0
 11
712.15167807744433
 21
517.9962475704358
 31
0.0
  0
LINE
  5
17076
  8
AM_0
 10
713.65167807744433
 20
515.14700757043579
 30
0.0
 11
712.15167807744433
 21
515.14700757043579
 31
0.0
  0
ARC
  5
17077
  8
AM_0
 10
711.15167807744433
 20
512.86503757043556
 30
0.0
 40
1.0
 50
359.999989999999
 51
89.999996999995744
  0
ARC
  5
17078
  8
AM_0
 10
708.15167807744433
 20
514.8650275704357
 30
0.0
 40
1.0
 50
180.0
 51
270.0
  0
LINE
  5
17079
  8
AM_0
 10
710.15167807744433
 20
513.47213757043573
 30
0.0
 11
710.15167807744433
 21
512.26071757043576
 31
0.0
  0
LINE
  5
1707A
  8
AM_0
 10
708.15167807744433
 20
521.86503757043556
 30
0.0
 11
711.15167807744433
 21
521.86503757043556
 31
0.0
  0
LINE
  5
1707B
  8
AM_0
 10
708.15167807744433
 20
523.86502757043559
 30
0.0
 11
711.15167807744433
 21
523.86502757043559
 31
0.0
  0
ARC
  5
1707C
  8
AM_0
 10
711.15167807744433
 20
522.86503757043579
 30
0.0
 40
1.0
 50
270.0
 51
0.0000100000009873
  0
ARC
  5
1707D
  8
AM_0
 10
711.15167807744433
 20
522.86503757043579
 30
0.0
 40
1.0
 50
359.999989999999
 51
89.999996999995744
  0
ARC
  5
1707E
  8
AM_0
 10
708.15167807744433
 20
520.86502757043581
 30
0.0
 40
1.0
 50
89.999996999995744
 51
180.0
  0
LINE
  5
1707F
  8
AM_0
 10
710.15167807744433
 20
523.49119757043582
 30
0.0
 11
710.15167807744433
 21
522.1284075704358
 31
0.0
  0
ARC
  5
17080
  8
AM_0
 10
708.15167807744433
 20
524.86503757043556
 30
0.0
 40
1.0
 50
180.0
 51
270.0
  0
LINE
  5
17081
  8
AM_0
 10
710.33984807744434
 20
533.47392757043565
 30
0.0
 11
711.54443807744428
 21
532.9594575704358
 31
0.0
  0
LINE
  5
17082
  8
AM_0
 10
710.29535807744435
 20
531.56396757043581
 30
0.0
 11
711.4456780774442
 21
531.21012757043582
 31
0.0
  0
ARC
  5
17083
  8
AM_0
 10
711.15167807744433
 20
530.2543075704358
 30
0.0
 40
1.0
 50
359.999989999999
 51
72.902370000003572
  0
ARC
  5
17084
  8
AM_0
 10
711.15167807744433
 20
532.03976757043574
 30
0.0
 40
1.0
 50
359.999989999999
 51
66.872970000004372
  0
LINE
  5
17085
  8
AM_0
 10
709.9470280774442
 20
533.55423757043582
 30
0.0
 11
707.85168807744435
 21
533.55423757043582
 31
0.0
  0
ARC
  5
17086
  8
AM_0
 10
707.85168807744435
 20
534.25424757043572
 30
0.0
 40
0.6999999900000002
 50
180.0
 51
270.0
  0
ARC
  5
17087
  8
AM_0
 10
709.9470280774442
 20
532.55424757043579
 30
0.0
 40
1.0
 50
66.872970000004372
 51
89.999996999995744
  0
LINE
  5
17088
  8
AM_0
 10
710.00134807744428
 20
531.6081375704357
 30
0.0
 11
708.15167807744433
 21
531.6081375704357
 31
0.0
  0
ARC
  5
17089
  8
AM_0
 10
708.15167807744433
 20
530.60813757043582
 30
0.0
 40
1.0
 50
89.999996999995744
 51
180.0
  0
ARC
  5
1708A
  8
AM_0
 10
710.00134807744428
 20
530.60813757043582
 30
0.0
 40
1.0
 50
72.902370000003572
 51
89.999996999995744
  0
LINE
  5
1708B
  8
AM_0
 10
710.15167807744433
 20
533.25791757043555
 30
0.0
 11
710.15167807744433
 21
532.19796757043582
 31
0.0
  0
LINE
  5
1708C
  8
AM_0
 10
710.38580807744415
 20
539.71281757043585
 30
0.0
 11
711.65710807744449
 21
538.9681475704358
 31
0.0
  0
LINE
  5
1708D
  8
AM_0
 10
710.40142807744428
 20
540.82618757043565
 30
0.0
 11
711.70001807744416
 21
539.97462757043581
 31
0.0
  0
ARC
  5
1708E
  8
AM_0
 10
711.15167807744433
 20
539.1383575704358
 30
0.0
 40
1.0
 50
359.999989999999
 51
56.745270000001042
  0
ARC
  5
1708F
  8
AM_0
 10
711.15167807744433
 20
538.10527757043576
 30
0.0
 40
1.0
 50
359.999989999999
 51
59.640499999995711
  0
LINE
  5
17090
  8
AM_0
 10
709.85302807744426
 20
540.98991757043575
 30
0.0
 11
707.15167807744433
 21
540.98991757043575
 31
0.0
  0
LINE
  5
17091
  8
AM_0
 10
709.88037807744433
 20
539.84994757043557
 30
0.0
 11
708.15167807744433
 21
539.84994757043557
 31
0.0
  0
ARC
  5
17092
  8
AM_0
 10
708.15167807744433
 20
538.84996757043575
 30
0.0
 40
1.0
 50
89.999996999995744
 51
180.0
  0
LINE
  5
17093
  8
AM_0
 10
710.15167807744433
 20
540.69548757043583
 30
0.0
 11
710.15167807744433
 21
540.22329757043565
 31
0.0
  0
ARC
  5
17094
  8
AM_0
 10
709.88037807744433
 20
538.84996757043575
 30
0.0
 40
1.0
 50
59.640499999995711
 51
89.999996999995744
  0
ARC
  5
17095
  8
AM_0
 10
709.85302807744426
 20
539.98991757043575
 30
0.0
 40
1.0
 50
56.745270000001042
 51
89.999996999995744
  0
LINE
  5
17096
  8
AM_0
 10
710.36499807744417
 20
546.35984757043559
 30
0.0
 11
711.60424807744448
 21
545.73082757043574
 31
0.0
  0
LINE
  5
17097
  8
AM_0
 10
710.38922807744416
 20
545.36413757043556
 30
0.0
 11
711.66626807744444
 21
544.59783757043556
 31
0.0
  0
LINE
  5
17098
  8
AM_0
 10
710.3838580774443
 20
547.48014757043575
 30
0.0
 11
711.65203807744433
 21
546.74719757043567
 31
0.0
  0
ARC
  5
17099
  8
AM_0
 10
711.15167807744433
 20
543.7403475704358
 30
0.0
 40
1.0
 50
359.999989999999
 51
59.033399999998721
  0
ARC
  5
1709A
  8
AM_0
 10
711.15167807744433
 20
544.8390975704358
 30
0.0
 40
1.0
 50
359.999989999999
 51
63.088739999998189
  0
ARC
  5
1709B
  8
AM_0
 10
711.15167807744433
 20
545.88139757043575
 30
0.0
 40
1.0
 50
359.999989999999
 51
59.973600000003451
  0
LINE
  5
1709C
  8
AM_0
 10
707.15167807744433
 20
547.86502757043581
 30
0.0
 11
706.15167807744433
 21
547.86502757043581
 31
0.0
  0
LINE
  5
1709D
  8
AM_0
 10
709.91241807744427
 20
546.46810757043579
 30
0.0
 11
707.65167807744433
 21
546.46810757043579
 31
0.0
  0
LINE
  5
1709E
  8
AM_0
 10
709.90301807744424
 20
544.36668757043583
 30
0.0
 11
708.15167807744433
 21
544.36668757043583
 31
0.0
  0
LINE
  5
1709F
  8
AM_0
 10
709.87463807744427
 20
545.50662757043574
 30
0.0
 11
707.15167807744433
 21
545.50662757043574
 31
0.0
  0
LINE
  5
170A0
  8
AM_0
 10
709.88348807744433
 20
547.61442757043574
 30
0.0
 11
707.65167807744433
 21
547.61442757043574
 31
0.0
  0
ARC
  5
170A1
  8
AM_0
 10
707.65167807744433
 20
548.11441757043565
 30
0.0
 40
0.5
 50
180.0
 51
270.0
  0
ARC
  5
170A2
  8
AM_0
 10
707.65167807744433
 20
545.96812757043574
 30
0.0
 40
0.5
 50
89.999996999995744
 51
180.0
  0
LINE
  5
170A3
  8
AM_0
 10
710.15167807744433
 20
547.36119757043582
 30
0.0
 11
710.15167807744433
 21
546.83541757043565
 31
0.0
  0
LINE
  5
170A4
  8
AM_0
 10
710.15167807744433
 20
545.26158757043584
 30
0.0
 11
710.15167807744433
 21
544.71550757043565
 31
0.0
  0
ARC
  5
170A5
  8
AM_0
 10
709.90301807744424
 20
543.36666757043565
 30
0.0
 40
1.0
 50
62.073400000003602
 51
89.999996999995744
  0
ARC
  5
170A6
  8
AM_0
 10
709.87463807744427
 20
544.50663757043583
 30
0.0
 40
1.0
 50
59.033399999998721
 51
89.999996999995744
  0
ARC
  5
170A7
  8
AM_0
 10
709.91241807744427
 20
545.46812757043574
 30
0.0
 40
1.0
 50
63.088739999998189
 51
89.999996999995744
  0
ARC
  5
170A8
  8
AM_0
 10
709.88348807744433
 20
546.61441757043565
 30
0.0
 40
1.0
 50
59.973600000003451
 51
89.999996999995744
  0
LINE
  5
170A9
  8
AM_0
 10
557.64557509732481
 20
472.86505677024451
 30
0.0
 11
556.54590570632695
 21
535.86507398764525
 31
0.0
  0
LINE
  5
170AA
  8
ﾁｭｳｼﾝｾﾝ1
 10
546.64557423399356
 20
456.86505638281471
 30
0.0
 11
546.64557423399356
 21
538.86505864779087
 31
0.0
  0
LINE
  5
170AB
  8
ｶｸﾚｾﾝ2
 10
542.14557423399356
 20
459.86505638281449
 30
0.0
 11
542.14557423399356
 21
535.86505864779076
 31
0.0
  0
LINE
  5
170AC
  8
ｶｸﾚｾﾝ2
 10
551.14557423399356
 20
459.86505638281449
 30
0.0
 11
551.14557423399356
 21
535.86505864779076
 31
0.0
  0
LINE
  5
170AD
  8
AM_0
 10
572.51410090192962
 20
553.39714604884625
 30
0.0
 11
572.51408564381518
 21
442.33296827637042
 31
0.0
  0
LINE
  5
170AE
  8
AM_0
 10
582.15167807744422
 20
553.8650675704356
 30
0.0
 11
582.15167807744422
 21
441.86504657043582
 31
0.0
  0
LINE
  5
170AF
  8
AM_0
 10
571.83004496896615
 20
443.5177635396563
 30
0.0
 11
566.594092084149
 21
473.21235284314531
 31
0.0
1001
GENIUS_GENODEF_13
1002
{
1000
HIER
1070
     0
1002
}
1002
{
1000
MANEDIT
1070
     0
1002
}
1002
{
1000
NOSEL
1070
     0
1002
}
1002
{
1000
BEHIND
1070
     0
1002
}
1002
{
1000
REACTOR
1002
}
1001
GENIUS_GENOBJ-N-CEN_13
1002
{
1000
OWNER
1000
GEN
1002
}
  0
ARC
  5
170B0
  8
AM_0
 10
573.79966097303509
 20
443.86505707043568
 30
0.0
 40
2.0
 50
189.9999917840739
 51
270.0
1001
GENIUS_GENOBJ-N-CEN_13
1002
{
1000
OWNER
1000
GEN
1002
}
1001
GENIUS_GENODEF_13
1002
{
1000
HIER
1070
     0
1002
}
1002
{
1000
MANEDIT
1070
     0
1002
}
1002
{
1000
NOSEL
1070
     0
1002
}
1002
{
1000
BEHIND
1070
     0
1002
}
1002
{
1000
OTHER
1070
     0
1002
}
1002
{
1000
REACTOR
1002
}
1001
GENIUS_GENOBJ-N-FIL_13
1002
{
1000
OWNER
1000
GEN
1002
}
  0
LINE
  5
170B1
  8
AM_0
 10
582.15167807744422
 20
441.86505707043568
 30
0.0
 11
573.79966097303532
 21
441.86505707043568
 31
0.0
  0
LINE
  5
170B2
  8
AM_0
 10
558.62827236044063
 20
474.86505677024468
 30
0.0
 11
564.62447652832395
 21
474.86505677024468
 31
0.0
  0
LINE
  5
170B3
  8
AM_0
 10
582.15167807744422
 20
451.86503157043558
 30
0.0
 11
572.51408695334305
 21
451.86505292941041
 31
0.0
  0
LINE
  5
170B4
  8
AM_0
 10
582.15167807744422
 20
465.92759957043569
 30
0.0
 11
572.5140888849312
 21
465.92512813854478
 31
0.0
  0
ARC
  5
170B5
  8
AM_0
 10
564.62447652832395
 20
472.86505677024462
 30
0.0
 40
2.0
 50
9.9999917840739432
 51
90.0
1001
GENIUS_GENODEF_13
1002
{
1000
HIER
1070
     0
1002
}
1002
{
1000
MANEDIT
1070
     0
1002
}
1002
{
1000
NOSEL
1070
     0
1002
}
1002
{
1000
BEHIND
1070
     0
1002
}
1002
{
1000
OTHER
1070
     0
1002
}
1002
{
1000
REACTOR
1002
}
1001
GENIUS_GENOBJ-N-FIL_13
1002
{
1000
OWNER
1000
GEN
1002
}
  0
LINE
  5
170B6
  8
AM_0
 10
557.64557482957753
 20
472.86507211009899
 30
0.0
 11
557.418658978748
 21
459.8650717226688
 31
0.0
  0
ARC
  5
170B7
  8
AM_0
 10
558.62827236044063
 20
473.86505677024462
 30
0.0
 40
1.0
 50
90.0
 51
180.9999999999886
1001
GENIUS_GENODEF_13
1002
{
1000
HIER
1070
     0
1002
}
1002
{
1000
MANEDIT
1070
     0
1002
}
1002
{
1000
NOSEL
1070
     0
1002
}
1002
{
1000
BEHIND
1070
     0
1002
}
1002
{
1000
OTHER
1070
     0
1002
}
1002
{
1000
REACTOR
1002
}
1001
GENIUS_GENOBJ-N-FIL_13
1002
{
1000
OWNER
1000
GEN
1002
}
  0
LINE
  5
170B8
  8
AM_0
 10
558.54621063017294
 20
533.8650586477911
 30
0.0
 11
567.64557199881961
 21
533.8650586477911
 31
0.0
  0
LINE
  5
170B9
  8
AM_0
 10
571.83006055523185
 20
552.21235370820261
 30
0.0
 11
569.64557199881961
 21
539.82351386132632
 31
0.0
1001
GENIUS_GENODEF_13
1002
{
1000
HIER
1070
     0
1002
}
1002
{
1000
MANEDIT
1070
     0
1002
}
1002
{
1000
NOSEL
1070
     0
1002
}
1002
{
1000
BEHIND
1070
     0
1002
}
1002
{
1000
REACTOR
1002
}
1001
GENIUS_GENOBJ-N-CEN_13
1002
{
1000
OWNER
1000
GEN
1002
}
  0
LINE
  5
170BA
  8
AM_0
 10
582.15167807744422
 20
529.80500707043575
 30
0.0
 11
572.51409766081645
 21
529.80500707043575
 31
0.0
  0
ARC
  5
170BB
  8
AM_0
 10
567.64557199881949
 20
535.86505864779076
 30
0.0
 40
2.0
 50
270.0
 51
0.0
1001
GENIUS_GENODEF_13
1002
{
1000
HIER
1070
     0
1002
}
1002
{
1000
MANEDIT
1070
     0
1002
}
1002
{
1000
NOSEL
1070
     0
1002
}
1002
{
1000
BEHIND
1070
     0
1002
}
1002
{
1000
OTHER
1070
     0
1002
}
1002
{
1000
REACTOR
1002
}
1001
GENIUS_GENOBJ-N-FIL_13
1002
{
1000
OWNER
1000
GEN
1002
}
  0
LINE
  5
170BC
  8
AM_0
 10
569.64557199881972
 20
535.8650586477911
 30
0.0
 11
569.64557199881961
 21
539.82351386132632
 31
0.0
  0
ARC
  5
170BD
  8
AM_0
 10
573.79967601145563
 20
551.86505707043557
 30
0.0
 40
2.0
 50
90.0
 51
169.99999178406969
1001
GENIUS_GENOBJ-N-CEN_13
1002
{
1000
OWNER
1000
GEN
1002
}
1001
GENIUS_GENOBJ-N-FIL_13
1002
{
1000
OWNER
1000
GEN
1002
}
1001
GENIUS_GENODEF_13
1002
{
1000
HIER
1070
     0
1002
}
1002
{
1000
MANEDIT
1070
     0
1002
}
1002
{
1000
NOSEL
1070
     0
1002
}
1002
{
1000
BEHIND
1070
     0
1002
}
1002
{
1000
OTHER
1070
     0
1002
}
1002
{
1000
REACTOR
1002
}
  0
LINE
  5
170BE
  8
AM_0
 10
582.15167807744422
 20
543.8650570704358
 30
0.0
 11
572.51409959240129
 21
543.8650570704358
 31
0.0
  0
LINE
  5
170BF
  8
AM_0
 10
582.15167807744422
 20
553.8650570704358
 30
0.0
 11
573.79967601145574
 21
553.8650570704358
 31
0.0
  0
ARC
  5
170C0
  8
AM_0
 10
558.54621063017294
 20
535.86505864779076
 30
0.0
 40
2.0
 50
180.9999999999952
 51
270.0
1001
GENIUS_GENODEF_13
1002
{
1000
HIER
1070
     0
1002
}
1002
{
1000
MANEDIT
1070
     0
1002
}
1002
{
1000
NOSEL
1070
     0
1002
}
1002
{
1000
BEHIND
1070
     0
1002
}
1002
{
1000
OTHER
1070
     0
1002
}
1002
{
1000
REACTOR
1002
}
1001
GENIUS_GENOBJ-N-FIL_13
1002
{
1000
OWNER
1000
GEN
1002
}
  0
LINE
  5
170C2
  8
ｶｸﾚｾﾝ2
 10
436.1455708067266
 20
459.86505638281449
 30
0.0
 11
436.14557080672671
 21
535.86505864779076
 31
0.0
  0
LINE
  5
170C3
  8
ｶｸﾚｾﾝ2
 10
427.14557080672648
 20
459.86505638281449
 30
0.0
 11
427.14557080672671
 21
535.86505864779076
 31
0.0
  0
LINE
  5
170C4
  8
ﾁｭｳｼﾝｾﾝ1
 10
431.64557080672648
 20
456.86505638281471
 30
0.0
 11
431.64557080672671
 21
538.86505864779087
 31
0.0
  0
LINE
  5
170C5
  8
ﾁｭｳｼﾝｾﾝ1
 10
471.64557199881961
 20
544.86510577641639
 30
0.0
 11
471.64557199881961
 21
397.0542550383322
 31
0.0
  0
LINE
  5
170C6
  8
AM_0
 10
444.14557117925551
 20
455.8650562636052
 30
0.0
 11
499.14557281838341
 21
455.8650562636052
 31
0.0
  0
LINE
  5
170C7
  8
AM_0
 10
499.14557281838341
 20
455.8650562636052
 30
0.0
 11
499.14557281838341
 21
459.86505638281449
 31
0.0
  0
LINE
  5
170C8
  8
AM_0
 10
444.14557117925551
 20
455.8650562636052
 30
0.0
 11
444.14557117925551
 21
459.86505638281449
 31
0.0
  0
LINE
  5
170CA
  8
AM_0
 10
444.14557117925563
 20
539.86505876700028
 30
0.0
 11
499.14557281838341
 21
539.86505876700039
 31
0.0
  0
LINE
  5
170CB
  8
AM_0
 10
499.14557281838341
 20
539.86505876700039
 30
0.0
 11
499.14557281838341
 21
535.8650586477911
 31
0.0
  0
LINE
  5
170CC
  8
AM_0
 10
444.14557117925563
 20
539.86505876700028
 30
0.0
 11
444.14557117925563
 21
535.86505864779076
 31
0.0
  0
LINE
  5
170CD
  8
AM_0
 10
705.46164807744435
 20
454.67002024682631
 30
0.0
 11
699.23166807744417
 21
454.67002024682631
 31
0.0
  0
LINE
  5
170CE
  8
AM_0
 10
706.15164807744407
 20
444.8600312468264
 30
0.0
 11
698.15164807744407
 21
444.8600312468264
 31
0.0
  0
LINE
  5
170CF
  8
AM_0
 10
706.15164807744407
 20
444.86502024682642
 30
0.0
 11
698.15164807744407
 21
444.86502024682642
 31
0.0
  0
LINE
  5
170D0
  8
AM_0
 10
705.46164807744435
 20
541.05001424682632
 30
0.0
 11
699.23166807744451
 21
541.05001424682632
 31
0.0
  0
LINE
  5
170D1
  8
AM_0
 10
706.15164807744429
 20
550.86003424682644
 30
0.0
 11
698.15164807744429
 21
550.86003424682644
 31
0.0
  0
LINE
  5
170D2
  8
AM_0
 10
706.15164807744429
 20
550.86502424682635
 30
0.0
 11
698.15164807744429
 21
550.86502424682635
 31
0.0
  0
LINE
  5
170D3
  8
AM_0
 10
692.82676086113224
 20
534.58500080916235
 30
0.0
 11
698.15164807744429
 21
545.96002424682638
 31
0.0
  0
LINE
  5
170D4
  8
AM_0
 10
593.31986334081967
 20
542.29710445408773
 30
0.0
 11
596.1016280774445
 21
552.66003424682617
 31
0.0
  0
LINE
  5
170D5
  8
AM_0
 10
590.15164807744441
 20
553.86502424682635
 30
0.0
 11
590.15164807744441
 21
441.8650202468263
 31
0.0
  0
LINE
  5
170D6
  8
AM_0
 10
698.15164807744429
 20
550.86003424682644
 30
0.0
 11
698.15164807744407
 21
448.42003624682633
 31
0.0
  0
LINE
  5
170D7
  8
AM_0
 10
694.95163807744427
 20
554.15002424682643
 30
0.0
 11
598.03167807744433
 21
554.15002424682643
 31
0.0
  0
LINE
  5
170D8
  8
AM_0
 10
694.86166807744416
 20
559.75003424682632
 30
0.0
 11
661.15164807744441
 21
559.75003424682632
 31
0.0
  0
LINE
  5
170D9
  8
AM_0
 10
694.88162807744425
 20
558.84002424682637
 30
0.0
 11
661.15164807744441
 21
558.84002424682637
 31
0.0
  0
LINE
  5
170DA
  8
AM_0
 10
694.90164807744418
 20
556.99002424682635
 30
0.0
 11
661.15164807744441
 21
556.99002424682635
 31
0.0
  0
ARC
  5
170DB
  8
AM_0
 10
694.90323807744414
 20
554.99688424682643
 30
0.0
 40
1.9931281000000001
 50
9.0388199999997951
 51
90.046626999999489
  0
LINE
  5
170DC
  8
AM_0
 10
698.15164807744429
 20
548.65000424682626
 30
0.0
 11
696.84164807744435
 21
558.03001424682634
 31
0.0
  0
LINE
  5
170DD
  8
AM_0
 10
698.15158807744433
 20
548.65004424682638
 30
0.0
 11
696.86160807744432
 21
557.14003424682642
 31
0.0
  0
ARC
  5
170DE
  8
AM_0
 10
694.88894807744407
 20
556.84545424682631
 30
0.0
 40
1.994588
 50
8.492910000005347
 51
90.209246999997575
  0
ARC
  5
170DF
  8
AM_0
 10
694.86697807744429
 20
557.75654424682625
 30
0.0
 40
1.9934921000000001
 50
7.8852599999973876
 51
90.153908999998592
  0
ARC
  5
170E0
  8
AM_0
 10
694.94876807744436
 20
552.15312424682645
 30
0.0
 40
1.9969039999999989
 50
10.587439999998571
 51
89.916526000000346
  0
LINE
  5
170E1
  8
AM_0
 10
698.15164807744429
 20
547.30003424682639
 30
0.0
 11
696.87167807744424
 21
555.31002424682617
 31
0.0
  0
LINE
  5
170E2
  8
AM_0
 10
698.15164807744429
 20
545.96003424682635
 30
0.0
 11
696.91165807744414
 21
552.5200342468263
 31
0.0
  0
ARC
  5
170E3
  8
AM_0
 10
661.15207807744423
 20
554.98960424682627
 30
0.0
 40
2.000407899999999
 50
90.011650000002106
 51
179.98835099999931
  0
LINE
  5
170E4
  8
AM_0
 10
659.15164807744441
 20
557.75001424682625
 30
0.0
 11
659.15164807744441
 21
554.15002424682643
 31
0.0
  0
ARC
  5
170E5
  8
AM_0
 10
661.15323807744414
 20
556.83847424682642
 30
0.0
 40
2.0015439999999991
 50
90.044216000000915
 51
179.9557860009991
  0
ARC
  5
170E6
  8
AM_0
 10
661.15292807744424
 20
557.7487342468263
 30
0.0
 40
2.001287899999999
 50
90.036874000002058
 51
179.96312800099781
  0
LINE
  5
170E7
  8
AM_0
 10
590.15164807744441
 20
553.86502424682635
 30
0.0
 11
582.15167807744422
 21
553.86502424682635
 31
0.0
  0
ARC
  5
170E8
  8
AM_0
 10
598.03445807744424
 20
552.15142424682631
 30
0.0
 40
1.9986041000000001
 50
90.080483999998904
 51
165.25728400000051
  0
LINE
  5
170E9
  8
AM_0
 10
595.61166807744416
 20
550.86003424682644
 30
0.0
 11
590.15164807744441
 21
550.86003424682644
 31
0.0
  0
LINE
  5
170EA
  8
AM_0
 10
596.81165696470362
 20
533.86505451224946
 30
0.0
 11
695.79169696470058
 21
533.86503007721353
 31
0.0
  0
LINE
  5
170EB
  8
AM_0
 10
596.81165647096691
 20
531.86505451224969
 30
0.0
 11
695.79169647096387
 21
531.86503007721365
 31
0.0
  0
LINE
  5
170EC
  8
AM_0
 10
596.81885400228339
 20
521.86505451047242
 30
0.0
 11
695.79169400228045
 21
521.86503007721376
 31
0.0
  0
LINE
  5
170ED
  8
AM_0
 10
696.47169714243819
 20
534.5849999093432
 30
0.0
 11
593.33167714244144
 21
534.58502537134655
 31
0.0
  0
LINE
  5
170EE
  8
AM_0
 10
696.69166389367342
 20
521.42508985503991
 30
0.0
 11
593.11744389367607
 21
521.42511542423335
 31
0.0
  0
LINE
  5
170EF
  8
AM_0
 10
696.69166461698023
 20
524.35501985503993
 30
0.0
 11
593.10602461698329
 21
524.35504542705257
 31
0.0
  0
LINE
  5
170F0
  8
AM_0
 10
596.80451449602015
 20
523.86505451401229
 30
0.0
 11
695.79169449601727
 21
523.86503007721399
 31
0.0
  0
LINE
  5
170F1
  8
AM_0
 10
696.47169631543443
 20
531.23501990934324
 30
0.0
 11
593.33167631543745
 21
531.23504537134625
 31
0.0
  0
LINE
  5
170F2
  8
AM_0
 10
696.82166211125946
 20
514.20498982294714
 30
0.0
 11
592.82308415486216
 21
514.20501549690118
 31
0.0
  0
LINE
  5
170F3
  8
AM_0
 10
696.82166145461201
 20
511.54507982294712
 30
0.0
 11
592.97460899662178
 21
511.54510545949432
 31
0.0
  0
LINE
  5
170F4
  8
AM_0
 10
696.88165962531025
 20
504.13504980813531
 30
0.0
 11
592.76556037180626
 21
504.1350755111016
 31
0.0
  0
LINE
  5
170F5
  8
AM_0
 10
696.88165900072613
 20
501.60501980813552
 30
0.0
 11
592.92884702471974
 21
501.60504547079142
 31
0.0
  0
LINE
  5
170F6
  8
AM_0
 10
596.80831277150594
 20
501.8650545130742
 30
0.0
 11
695.79168906491407
 21
501.8650300772145
 31
0.0
  0
LINE
  5
170F7
  8
AM_0
 10
596.80831326524265
 20
503.86505451307409
 30
0.0
 11
695.79168955865077
 21
503.8650300772145
 31
0.0
  0
LINE
  5
170F8
  8
AM_0
 10
596.80831524019266
 20
511.8650545130738
 30
0.0
 11
695.79169153359749
 21
511.86503007721421
 31
0.0
  0
LINE
  5
170F9
  8
AM_0
 10
596.80831573390458
 20
513.8650545130738
 30
0.0
 11
695.79169202733397
 21
513.86503007721421
 31
0.0
  0
LINE
  5
170FA
  8
AM_0
 10
596.80831178401172
 20
481.86505615638629
 30
0.0
 11
695.79168807744406
 21
481.86505615638612
 31
0.0
  0
LINE
  5
170FB
  8
AM_0
 10
596.8083117840365
 20
483.86505615638612
 30
0.0
 11
695.79168807744406
 21
483.86505615638612
 31
0.0
  0
LINE
  5
170FC
  8
AM_0
 10
596.80831178403309
 20
491.86505615638612
 30
0.0
 11
695.79168807744406
 21
491.86505615638612
 31
0.0
  0
LINE
  5
170FD
  8
AM_0
 10
596.80831178403309
 20
493.86505615638617
 30
0.0
 11
695.79168807744406
 21
493.86505615638617
 31
0.0
  0
LINE
  5
170FE
  8
AM_0
 10
696.88165807744429
 20
494.1250661563862
 30
0.0
 11
592.92884610143483
 21
494.1250661563862
 31
0.0
  0
LINE
  5
170FF
  8
AM_0
 10
696.88165807744429
 20
491.59503615638619
 30
0.0
 11
592.76555882393734
 21
491.59503615638619
 31
0.0
  0
LINE
  5
17100
  8
AM_0
 10
696.82165807744434
 20
484.18500615638629
 30
0.0
 11
592.97460561945081
 21
484.18500615638629
 31
0.0
  0
LINE
  5
17101
  8
AM_0
 10
696.82165807744434
 20
481.52509615638621
 30
0.0
 11
592.82308012104374
 21
481.52509615638621
 31
0.0
  0
LINE
  5
17102
  8
AM_0
 10
696.47168807744436
 20
464.4950661563862
 30
0.0
 11
593.33166807744442
 21
464.4950661563862
 31
0.0
  0
LINE
  5
17103
  8
AM_0
 10
596.80450807744421
 20
471.86505615638612
 30
0.0
 11
695.79168807744406
 21
471.86505615638612
 31
0.0
  0
LINE
  5
17104
  8
AM_0
 10
696.69165807744434
 20
471.3750661563862
 30
0.0
 11
593.10601807744422
 21
471.3750661563862
 31
0.0
  0
LINE
  5
17105
  8
AM_0
 10
696.69165807744434
 20
474.30499615638621
 30
0.0
 11
593.11743807744415
 21
474.30499615638621
 31
0.0
  0
LINE
  5
17106
  8
AM_0
 10
696.47168807744436
 20
461.14508615638613
 30
0.0
 11
593.33166807744442
 21
461.14508615638613
 31
0.0
  0
LINE
  5
17107
  8
AM_0
 10
596.81884807744416
 20
473.86505615638612
 30
0.0
 11
695.79168807744406
 21
473.86505615638612
 31
0.0
  0
LINE
  5
17108
  8
AM_0
 10
596.81164807744415
 20
463.86505615638617
 30
0.0
 11
695.79168807744406
 21
463.86505615638617
 31
0.0
  0
LINE
  5
17109
  8
AM_0
 10
596.81164807744415
 20
461.86505615638612
 30
0.0
 11
695.79168807744406
 21
461.86505615638612
 31
0.0
  0
LINE
  5
1710A
  8
AM_0
 10
672.65164807744441
 20
536.09001424682617
 30
0.0
 11
592.89686985891046
 21
536.09001424682617
 31
0.0
  0
LINE
  5
1710B
  8
AM_0
 10
672.65164807744407
 20
459.64002924682632
 30
0.0
 11
592.89687160399774
 21
459.64002924682637
 31
0.0
  0
LINE
  5
1710C
  8
AM_0
 10
694.95163807744427
 20
441.5800172468264
 30
0.0
 11
598.03167807744421
 21
441.5800172468264
 31
0.0
  0
LINE
  5
1710D
  8
AM_0
 10
692.82210073816054
 20
461.14508615638613
 30
0.0
 11
698.15170807744425
 21
449.77004924682632
 31
0.0
  0
POLYLINE
  5
1710E
  8
AM_0
 66
     1
 10
0.0
 20
0.0
 30
0.0
  0
VERTEX
  5
1710F
  8
AM_0
 10
695.79168807744088
 20
497.86503007721461
 30
0.0
 42
0.00039106649
  0
VERTEX
  5
17110
  8
AM_0
 10
695.79404815424914
 20
498.17616007663207
 30
0.0
 42
0.00035488198
  0
VERTEX
  5
17111
  8
AM_0
 10
695.79593823105222
 20
498.48727007616537
 30
0.0
 42
0.00039706113
  0
VERTEX
  5
17112
  8
AM_0
 10
695.79736830785555
 20
498.7983800758123
 30
0.0
 42
0.00038765718
  0
VERTEX
  5
17113
  8
AM_0
 10
695.79829838466628
 20
499.10952007558291
 30
0.0
 42
0.00040613432
  0
VERTEX
  5
17114
  8
AM_0
 10
695.79874846146708
 20
499.42062007547162
 30
0.0
 42
0.00035573434
  0
VERTEX
  5
17115
  8
AM_0
 10
695.79870853827015
 20
499.73173007548161
 30
0.0
 42
0.00038545884
  0
VERTEX
  5
17116
  8
AM_0
 10
695.79821861507833
 20
500.04286007560239
 30
0.0
 42
0.00035501205
  0
VERTEX
  5
17117
  8
AM_0
 10
695.79725869188155
 20
500.35397007583958
 30
0.0
 42
0.00040120779
  0
VERTEX
  5
17118
  8
AM_0
 10
695.79583876871425
 20
500.6652000761901
 30
0.0
 42
0.00038317817
  0
VERTEX
  5
17119
  8
AM_0
 10
695.79392884552215
 20
500.97633007666161
 30
0.0
 42
0.00035656084
  0
VERTEX
  5
1711A
  8
AM_0
 10
695.79154892235783
 20
501.28757007724909
 30
0.0
 42
0.00040143615
  0
VERTEX
  5
1711B
  8
AM_0
 10
695.78869899915833
 20
501.59867007795259
 30
0.0
  0
SEQEND
  5
1711C
  8
AM_0
  0
LINE
  5
1711D
  8
AM_0
 10
672.65170807744425
 20
536.09002424682637
 30
0.0
 11
692.82913807744433
 21
534.59002424682626
 31
0.0
  0
ARC
  5
1711E
  8
AM_0
 10
696.69166425532558
 20
522.89004985503982
 30
0.0
 40
1.465004
 50
269.99998585548531
 51
89.999982855481065
  0
ARC
  5
1711F
  8
AM_0
 10
696.47907672895121
 20
532.91006990752123
 30
0.0
 40
1.6750160000000001
 50
269.74611585548871
 51
90.253840855485208
  0
ARC
  5
17120
  8
AM_0
 10
695.60706671783214
 20
532.86503012279297
 30
0.0
 40
1.0000138999999999
 50
269.69164585548162
 51
90.308325855483076
  0
ARC
  5
17121
  8
AM_0
 10
695.60706424914895
 20
522.8650301227932
 30
0.0
 40
1.0000138999999999
 50
269.69164585548162
 51
90.308325855483076
  0
POLYLINE
  5
17122
  8
AM_0
 66
     1
 10
0.0
 20
0.0
 30
0.0
  0
VERTEX
  5
17123
  8
AM_0
 10
694.29078461526194
 20
524.34806044774098
 30
0.0
 42
0.00068898288
  0
VERTEX
  5
17124
  8
AM_0
 10
694.21990475714983
 20
524.92281046523885
 30
0.0
 42
0.00070644354
  0
VERTEX
  5
17125
  8
AM_0
 10
694.14740489902215
 20
525.49750048313695
 30
0.0
 42
0.00069248071
  0
VERTEX
  5
17126
  8
AM_0
 10
694.07331504080116
 20
526.07181050142742
 30
0.0
 42
0.00069585665
  0
VERTEX
  5
17127
  8
AM_0
 10
693.99763518253849
 20
526.64595052011043
 30
0.0
 42
0.00068980191
  0
VERTEX
  5
17128
  8
AM_0
 10
693.92033532424057
 20
527.21995053919329
 30
0.0
 42
0.00072080104
  0
VERTEX
  5
17129
  8
AM_0
 10
693.8414454658913
 20
527.79374055866845
 30
0.0
 42
0.00071002307
  0
VERTEX
  5
1712A
  8
AM_0
 10
693.76090560746286
 20
528.36721057855118
 30
0.0
 42
0.00072659056
  0
VERTEX
  5
1712B
  8
AM_0
 10
693.67874574894313
 20
528.94031059883389
 30
0.0
 42
0.00069570481
  0
VERTEX
  5
1712C
  8
AM_0
 10
693.59492589040588
 20
529.51334061952662
 30
0.0
 42
0.00071266935
  0
VERTEX
  5
1712D
  8
AM_0
 10
693.50949603180482
 20
530.08611064061665
 30
0.0
 42
0.00071614426
  0
VERTEX
  5
1712E
  8
AM_0
 10
693.42246617309752
 20
530.65845066210125
 30
0.0
 42
0.00072288975
  0
VERTEX
  5
1712F
  8
AM_0
 10
693.33375631438014
 20
531.23075068400112
 30
0.0
  0
SEQEND
  5
17130
  8
AM_0
  0
POLYLINE
  5
17131
  8
AM_0
 66
     1
 10
0.0
 20
0.0
 30
0.0
  0
VERTEX
  5
17132
  8
AM_0
 10
695.74762962539933
 20
504.13541008809148
 30
0.0
 42
0.00076691992
  0
VERTEX
  5
17133
  8
AM_0
 10
695.73282977790723
 20
504.75318009174509
 30
0.0
 42
0.00073262792
  0
VERTEX
  5
17134
  8
AM_0
 10
695.71618993037043
 20
505.37077009585312
 30
0.0
 42
0.00076529537
  0
VERTEX
  5
17135
  8
AM_0
 10
695.69770008285354
 20
505.98844010041751
 30
0.0
 42
0.00075141097
  0
VERTEX
  5
17136
  8
AM_0
 10
695.67733023531946
 20
506.60604010544608
 30
0.0
 42
0.00075841687
  0
VERTEX
  5
17137
  8
AM_0
 10
695.65510038774335
 20
507.22347011093422
 30
0.0
 42
0.00075711788
  0
VERTEX
  5
17138
  8
AM_0
 10
695.63099054018687
 20
507.84098011688621
 30
0.0
 42
0.00075976003
  0
VERTEX
  5
17139
  8
AM_0
 10
695.60500069260115
 20
508.45837012330207
 30
0.0
 42
0.00075797311
  0
VERTEX
  5
1713A
  8
AM_0
 10
695.57716084498793
 20
509.07565013017512
 30
0.0
 42
0.0007482613
  0
VERTEX
  5
1713B
  8
AM_0
 10
695.54743099739937
 20
509.69303013751431
 30
0.0
 42
0.00074893561
  0
VERTEX
  5
1713C
  8
AM_0
 10
695.5158711497495
 20
510.31016014530547
 30
0.0
 42
0.00076039839
  0
VERTEX
  5
1713D
  8
AM_0
 10
695.48245130207442
 20
510.92719015355578
 30
0.0
 42
0.00075618786
  0
VERTEX
  5
1713E
  8
AM_0
 10
695.44715145440205
 20
511.5442301622702
 30
0.0
  0
SEQEND
  5
1713F
  8
AM_0
  0
ARC
  5
17140
  8
AM_0
 10
696.82166178293676
 20
512.87503982294731
 30
0.0
 40
1.3300049999999981
 50
269.99998585548531
 51
89.999982855481065
  0
ARC
  5
17141
  8
AM_0
 10
695.60706178046564
 20
512.86503012279354
 30
0.0
 40
1.0000138999999999
 50
269.69164585548162
 51
90.308325855483076
  0
POLYLINE
  5
17142
  8
AM_0
 66
     1
 10
0.0
 20
0.0
 30
0.0
  0
VERTEX
  5
17143
  8
AM_0
 10
695.27344211141008
 20
514.20560020515381
 30
0.0
 42
0.0007337051
  0
VERTEX
  5
17144
  8
AM_0
 10
695.22930226012818
 20
514.80802021605052
 30
0.0
 42
0.00075211323
  0
VERTEX
  5
17145
  8
AM_0
 10
695.18336240883934
 20
515.41041022739137
 30
0.0
 42
0.0007297491
  0
VERTEX
  5
17146
  8
AM_0
 10
695.13563255750364
 20
516.01261023917471
 30
0.0
 42
0.00073593041
  0
VERTEX
  5
17147
  8
AM_0
 10
695.08615270611574
 20
516.61460025138956
 30
0.0
 42
0.00074742739
  0
VERTEX
  5
17148
  8
AM_0
 10
695.03488285469825
 20
517.21647026404651
 30
0.0
 42
0.00073217363
  0
VERTEX
  5
17149
  8
AM_0
 10
694.98182300326357
 20
517.8182702771453
 30
0.0
 42
0.00073754168
  0
VERTEX
  5
1714A
  8
AM_0
 10
694.92700315176501
 20
518.41981029067836
 30
0.0
 42
0.00073075073
  0
VERTEX
  5
1714B
  8
AM_0
 10
694.87042330022155
 20
519.02117030464638
 30
0.0
 42
0.00074550816
  0
VERTEX
  5
1714C
  8
AM_0
 10
694.81208344860443
 20
519.62223031904864
 30
0.0
 42
0.00074288416
  0
VERTEX
  5
1714D
  8
AM_0
 10
694.75193359697721
 20
520.22325033389779
 30
0.0
 42
0.00072504001
  0
VERTEX
  5
1714E
  8
AM_0
 10
694.6900237452835
 20
520.82400034918135
 30
0.0
 42
0.00074640667
  0
VERTEX
  5
1714F
  8
AM_0
 10
694.6263538935525
 20
521.42460036489933
 30
0.0
  0
SEQEND
  5
17150
  8
AM_0
  0
ARC
  5
17151
  8
AM_0
 10
696.88751931301692
 20
502.87002980668882
 30
0.0
 40
1.2650129999999991
 50
269.73557585548838
 51
90.264406855489256
  0
ARC
  5
17152
  8
AM_0
 10
695.60705931178268
 20
502.86503012279383
 30
0.0
 40
1.0000138999999999
 50
269.69164585548162
 51
90.308325855483076
  0
LINE
  5
17153
  8
AM_0
 10
672.65164807744407
 20
459.64002924682632
 30
0.0
 11
692.82449807744433
 21
461.14002924682632
 31
0.0
  0
POLYLINE
  5
17154
  8
AM_0
 66
     1
 10
0.0
 20
0.0
 30
0.0
  0
VERTEX
  5
17155
  8
AM_0
 10
695.27343807744433
 20
481.5244861563861
 30
0.0
 42
-0.0007337051
  0
VERTEX
  5
17156
  8
AM_0
 10
695.22929807744435
 20
480.92206615638622
 30
0.0
 42
-0.00075211323
  0
VERTEX
  5
17157
  8
AM_0
 10
695.18335807744415
 20
480.31967615638621
 30
0.0
 42
-0.0007297491
  0
VERTEX
  5
17158
  8
AM_0
 10
695.13562807744415
 20
479.717476156386
 30
0.0
 42
-0.00073593041
  0
VERTEX
  5
17159
  8
AM_0
 10
695.08614807744425
 20
479.11548615638611
 30
0.0
 42
-0.00074742739
  0
VERTEX
  5
1715A
  8
AM_0
 10
695.03487807744432
 20
478.51361615638632
 30
0.0
 42
-0.00073217363
  0
VERTEX
  5
1715B
  8
AM_0
 10
694.98181807744425
 20
477.91181615638641
 30
0.0
 42
-0.00073754168
  0
VERTEX
  5
1715C
  8
AM_0
 10
694.9269980774443
 20
477.31027615638629
 30
0.0
 42
-0.00073075073
  0
VERTEX
  5
1715D
  8
AM_0
 10
694.87041807744436
 20
476.70891615638629
 30
0.0
 42
-0.00074550816
  0
VERTEX
  5
1715E
  8
AM_0
 10
694.81207807744431
 20
476.10785615638611
 30
0.0
 42
-0.00074288416
  0
VERTEX
  5
1715F
  8
AM_0
 10
694.75192807744429
 20
475.50683615638621
 30
0.0
 42
-0.00072504001
  0
VERTEX
  5
17160
  8
AM_0
 10
694.69001807744417
 20
474.90608615638621
 30
0.0
 42
-0.00074640667
  0
VERTEX
  5
17161
  8
AM_0
 10
694.62634807744416
 20
474.30548615638628
 30
0.0
  0
SEQEND
  5
17162
  8
AM_0
  0
POLYLINE
  5
17163
  8
AM_0
 66
     1
 10
0.0
 20
0.0
 30
0.0
  0
VERTEX
  5
17164
  8
AM_0
 10
695.74762807744435
 20
491.5946761563863
 30
0.0
 42
-0.00076691992
  0
VERTEX
  5
17165
  8
AM_0
 10
695.73282807744431
 20
490.97690615638618
 30
0.0
 42
-0.00073262792
  0
VERTEX
  5
17166
  8
AM_0
 10
695.71618807744414
 20
490.359316156386
 30
0.0
 42
-0.00076529537
  0
VERTEX
  5
17167
  8
AM_0
 10
695.69769807744433
 20
489.74164615638631
 30
0.0
 42
-0.00075141097
  0
VERTEX
  5
17168
  8
AM_0
 10
695.67732807744414
 20
489.1240461563861
 30
0.0
 42
-0.00075841687
  0
VERTEX
  5
17169
  8
AM_0
 10
695.65509807744434
 20
488.50661615638609
 30
0.0
 42
-0.00075711788
  0
VERTEX
  5
1716A
  8
AM_0
 10
695.63098807744416
 20
487.88910615638599
 30
0.0
 42
-0.00075976003
  0
VERTEX
  5
1716B
  8
AM_0
 10
695.60499807744429
 20
487.27171615638628
 30
0.0
 42
-0.00075797311
  0
VERTEX
  5
1716C
  8
AM_0
 10
695.57715807744432
 20
486.654436156386
 30
0.0
 42
-0.0007482613
  0
VERTEX
  5
1716D
  8
AM_0
 10
695.54742807744435
 20
486.03705615638609
 30
0.0
 42
-0.00074893561
  0
VERTEX
  5
1716E
  8
AM_0
 10
695.51586807744434
 20
485.41992615638611
 30
0.0
 42
-0.00076039839
  0
VERTEX
  5
1716F
  8
AM_0
 10
695.48244807744425
 20
484.80289615638611
 30
0.0
 42
-0.00075618786
  0
VERTEX
  5
17170
  8
AM_0
 10
695.44714807744435
 20
484.18585615638619
 30
0.0
  0
SEQEND
  5
17171
  8
AM_0
  0
POLYLINE
  5
17172
  8
AM_0
 66
     1
 10
0.0
 20
0.0
 30
0.0
  0
VERTEX
  5
17173
  8
AM_0
 10
695.79168807744406
 20
497.86505615638617
 30
0.0
 42
-0.00039106649
  0
VERTEX
  5
17174
  8
AM_0
 10
695.79404807744436
 20
497.55392615638613
 30
0.0
 42
-0.00035488198
  0
VERTEX
  5
17175
  8
AM_0
 10
695.79593807744425
 20
497.24281615638631
 30
0.0
 42
-0.00039706113
  0
VERTEX
  5
17176
  8
AM_0
 10
695.79736807744428
 20
496.93170615638621
 30
0.0
 42
-0.00038765718
  0
VERTEX
  5
17177
  8
AM_0
 10
695.79829807744431
 20
496.62056615638608
 30
0.0
 42
-0.00040613432
  0
VERTEX
  5
17178
  8
AM_0
 10
695.79874807744432
 20
496.30946615638641
 30
0.0
 42
-0.00035573434
  0
VERTEX
  5
17179
  8
AM_0
 10
695.7987080774443
 20
495.99835615638619
 30
0.0
 42
-0.00038545884
  0
VERTEX
  5
1717A
  8
AM_0
 10
695.79821807744418
 20
495.68722615638632
 30
0.0
 42
-0.00035501205
  0
VERTEX
  5
1717B
  8
AM_0
 10
695.79725807744433
 20
495.3761161563861
 30
0.0
 42
-0.00040120779
  0
VERTEX
  5
1717C
  8
AM_0
 10
695.79583807744416
 20
495.06488615638619
 30
0.0
 42
-0.00038317817
  0
VERTEX
  5
1717D
  8
AM_0
 10
695.79392807744432
 20
494.75375615638598
 30
0.0
 42
-0.00035656084
  0
VERTEX
  5
1717E
  8
AM_0
 10
695.7915480774443
 20
494.4425161563862
 30
0.0
 42
-0.00040143615
  0
VERTEX
  5
1717F
  8
AM_0
 10
695.78869807744434
 20
494.13141615638619
 30
0.0
  0
SEQEND
  5
17180
  8
AM_0
  0
ARC
  5
17181
  8
AM_0
 10
695.60705807744432
 20
492.86505615638617
 30
0.0
 40
1.0000138999999999
 50
269.69165999999939
 51
90.308340000000726
  0
ARC
  5
17182
  8
AM_0
 10
696.88751807744427
 20
492.86005615638629
 30
0.0
 40
1.2650129999999991
 50
269.73557900000168
 51
90.264410000002485
  0
ARC
  5
17183
  8
AM_0
 10
695.60705807744432
 20
482.86505615638612
 30
0.0
 40
1.0000138999999999
 50
269.69165999999939
 51
90.308340000000726
  0
ARC
  5
17184
  8
AM_0
 10
696.82165807744434
 20
482.85504615638621
 30
0.0
 40
1.3300049999999981
 50
270.00000299999761
 51
90.0
  0
POLYLINE
  5
17185
  8
AM_0
 66
     1
 10
0.0
 20
0.0
 30
0.0
  0
VERTEX
  5
17186
  8
AM_0
 10
694.29077807744432
 20
471.38202615638642
 30
0.0
 42
-0.00068898288
  0
VERTEX
  5
17187
  8
AM_0
 10
694.21989807744433
 20
470.80727615638642
 30
0.0
 42
-0.00070644354
  0
VERTEX
  5
17188
  8
AM_0
 10
694.14739807744434
 20
470.23258615638622
 30
0.0
 42
-0.00069248071
  0
VERTEX
  5
17189
  8
AM_0
 10
694.07330807744415
 20
469.65827615638619
 30
0.0
 42
-0.00069585665
  0
VERTEX
  5
1718A
  8
AM_0
 10
693.99762807744435
 20
469.08413615638631
 30
0.0
 42
-0.00068980191
  0
VERTEX
  5
1718B
  8
AM_0
 10
693.9203280774442
 20
468.51013615638612
 30
0.0
 42
-0.00072080104
  0
VERTEX
  5
1718C
  8
AM_0
 10
693.8414380774442
 20
467.93634615638632
 30
0.0
 42
-0.00071002307
  0
VERTEX
  5
1718D
  8
AM_0
 10
693.76089807744415
 20
467.36287615638611
 30
0.0
 42
-0.00072659056
  0
VERTEX
  5
1718E
  8
AM_0
 10
693.67873807744434
 20
466.78977615638621
 30
0.0
 42
-0.00069570481
  0
VERTEX
  5
1718F
  8
AM_0
 10
693.59491807744428
 20
466.21674615638608
 30
0.0
 42
-0.00071266935
  0
VERTEX
  5
17190
  8
AM_0
 10
693.5094880774443
 20
465.6439761563862
 30
0.0
 42
-0.00071614426
  0
VERTEX
  5
17191
  8
AM_0
 10
693.42245807744428
 20
465.07163615638621
 30
0.0
 42
-0.00072288975
  0
VERTEX
  5
17192
  8
AM_0
 10
693.33374807744428
 20
464.49933615638611
 30
0.0
  0
SEQEND
  5
17193
  8
AM_0
  0
ARC
  5
17194
  8
AM_0
 10
696.69165807744434
 20
472.84003615638619
 30
0.0
 40
1.465004
 50
270.00000299999761
 51
90.0
  0
ARC
  5
17195
  8
AM_0
 10
695.60705807744432
 20
472.86505615638617
 30
0.0
 40
1.0000138999999999
 50
269.69165999999939
 51
90.308340000000726
  0
ARC
  5
17196
  8
AM_0
 10
695.60705807744375
 20
462.86505615638612
 30
0.0
 40
1.0000138999999999
 50
269.69165999999939
 51
90.308340000000726
  0
ARC
  5
17197
  8
AM_0
 10
696.47906807744403
 20
462.8200161563862
 30
0.0
 40
1.6750160000000001
 50
269.74614499999802
 51
90.253870000000916
  0
LINE
  5
17198
  8
ﾁｭｳｼﾝｾﾝ1
 10
641.15164807744441
 20
538.49005018355615
 30
0.0
 11
641.15164807744441
 21
457.24004718355587
 31
0.0
  0
LINE
  5
17199
  8
AM_0
 10
694.86166807744416
 20
435.9700312468263
 30
0.0
 11
661.15164807744407
 21
435.9700312468263
 31
0.0
  0
LINE
  5
1719A
  8
AM_0
 10
694.88162807744425
 20
436.89002224682628
 30
0.0
 11
661.15164807744407
 21
436.89002224682628
 31
0.0
  0
LINE
  5
1719B
  8
AM_0
 10
694.90164807744407
 20
438.73002624682641
 30
0.0
 11
661.15164807744407
 21
438.73002624682641
 31
0.0
  0
ARC
  5
1719C
  8
AM_0
 10
694.94699807744405
 20
443.57902524682629
 30
0.0
 40
1.9990078999999989
 50
270.13344999999691
 51
349.36259000000302
  0
LINE
  5
1719D
  8
AM_0
 10
698.15164807744407
 20
447.08004724682638
 30
0.0
 11
696.84164807744435
 21
437.70004224682629
 31
0.0
  0
LINE
  5
1719E
  8
AM_0
 10
698.15158807744433
 20
447.08002424682633
 30
0.0
 11
696.86160807744432
 21
438.58003224682631
 31
0.0
  0
LINE
  5
1719F
  8
AM_0
 10
698.15164807744407
 20
448.42002024682631
 30
0.0
 11
696.87167807744424
 21
440.4200282468264
 31
0.0
  0
LINE
  5
171A0
  8
AM_0
 10
698.15164807744407
 20
449.77001124682641
 30
0.0
 11
696.91165807744414
 21
443.2100142468264
 31
0.0
  0
ARC
  5
171A1
  8
AM_0
 10
694.89566807744416
 20
440.73020124682631
 30
0.0
 40
2.0001840999999998
 50
270.1714700000008
 51
351.07899999999728
  0
ARC
  5
171A2
  8
AM_0
 10
694.88809807744406
 20
438.88735924682641
 30
0.0
 40
1.9973480999999991
 50
269.81531999999589
 51
351.14853000000028
  0
ARC
  5
171A3
  8
AM_0
 10
694.85952807744411
 20
437.97050424682629
 30
0.0
 40
2.0004758999999992
 50
270.06031000000399
 51
352.22953999999908
  0
LINE
  5
171A4
  8
AM_0
 10
659.15164807744407
 20
437.9700242468262
 30
0.0
 11
659.15164807744407
 21
441.5800172468264
 31
0.0
  0
ARC
  5
171A5
  8
AM_0
 10
661.15884807744408
 20
440.73720524682642
 30
0.0
 40
2.0071799999999991
 50
180.2046199999977
 51
269.79537999999582
  0
ARC
  5
171A6
  8
AM_0
 10
661.15493807744429
 20
438.89331024682627
 30
0.0
 40
2.003279899999999
 50
180.09378999999711
 51
269.90621000000289
  0
ARC
  5
171A7
  8
AM_0
 10
661.15963807744424
 20
437.97803424682633
 30
0.0
 40
2.0080360999999991
 50
180.22878999999941
 51
269.77121000000062
  0
LINE
  5
171A8
  8
AM_0
 10
593.31812993434016
 20
453.43100119515532
 30
0.0
 11
596.10165807744409
 21
443.06003524682632
 31
0.0
  0
LINE
  5
171A9
  8
AM_0
 10
590.15164807744441
 20
543.86502424682635
 30
0.0
 11
582.15167807744422
 21
543.86502424682635
 31
0.0
  0
LINE
  5
171AA
  8
AM_0
 10
590.15164807744441
 20
529.80503424682638
 30
0.0
 11
582.15167807744422
 21
529.80503424682638
 31
0.0
  0
ARC
  5
171AB
  8
AM_0
 10
596.81171424915181
 20
522.86505451223513
 30
0.0
 40
1.0000255999999981
 50
89.589454855482614
 51
270.41051585548382
  0
ARC
  5
171AC
  8
AM_0
 10
596.81165671783515
 20
532.86505451224969
 30
0.0
 40
1.0
 50
89.999982855481065
 51
269.9999958554863
  0
ARC
  5
171AD
  8
AM_0
 10
593.33169689671388
 20
532.91007137134056
 30
0.0
 40
1.675026000120903
 50
90.000672712195325
 51
269.99929599882307
  0
ARC
  5
171AE
  8
AM_0
 10
593.11170425656564
 20
522.89508542565022
 30
0.0
 40
1.460011199999999
 50
89.775235855490308
 51
270.22473585549062
  0
ARC
  5
171AF
  8
AM_0
 10
596.81169188046874
 20
512.86505451224025
 30
0.0
 40
1.000005699999998
 50
89.999982855481065
 51
269.9999958554863
  0
ARC
  5
171B0
  8
AM_0
 10
596.81168941178555
 20
502.8650545122407
 30
0.0
 40
1.000005699999998
 50
89.999982855481065
 51
269.9999958554863
  0
ARC
  5
171B1
  8
AM_0
 10
592.98670538417446
 20
512.88006545650831
 30
0.0
 40
1.3350147999999999
 50
89.730429855483649
 51
270.26955585548518
  0
ARC
  5
171B2
  8
AM_0
 10
592.92475291425694
 20
502.87506547180209
 30
0.0
 40
1.2700266
 50
89.629315855484137
 51
270.3706658554824
  0
LINE
  5
171B3
  8
AM_0
 10
590.15164807744441
 20
465.92503324682627
 30
0.0
 11
582.15167807744422
 21
465.92503324682627
 31
0.0
  0
ARC
  5
171B4
  8
AM_0
 10
596.81168817744424
 20
492.86505615638629
 30
0.0
 40
1.000005699999998
 50
89.999989999999016
 51
270.00000299999761
  0
ARC
  5
171B5
  8
AM_0
 10
596.81168817744424
 20
482.86505615638612
 30
0.0
 40
1.000005699999998
 50
89.999989999999016
 51
270.00000299999761
  0
ARC
  5
171B6
  8
AM_0
 10
592.92475167744419
 20
492.85504615638632
 30
0.0
 40
1.2700266
 50
89.629319999999979
 51
270.37067000000468
  0
ARC
  5
171B7
  8
AM_0
 10
592.98670167744422
 20
482.85004615638633
 30
0.0
 40
1.3350147999999999
 50
89.730429999999885
 51
270.26955600000139
  0
ARC
  5
171B8
  8
AM_0
 10
596.81164807744403
 20
462.86505615638629
 30
0.0
 40
1.0
 50
89.999989999999016
 51
270.00000299999761
  0
ARC
  5
171B9
  8
AM_0
 10
596.81170807744422
 20
472.86505615638617
 30
0.0
 40
1.0000255999999981
 50
89.589470000003274
 51
270.41053099999777
  0
ARC
  5
171BA
  8
AM_0
 10
593.1116980774442
 20
472.83502615638628
 30
0.0
 40
1.460011199999999
 50
89.77524999999666
 51
270.22474999999679
  0
ARC
  5
171BB
  8
AM_0
 10
593.33168824520965
 20
462.82004015638682
 30
0.0
 40
1.675026000120903
 50
90.000689856662106
 51
269.99931314329001
  0
LINE
  5
171BC
  8
AM_0
 10
590.15164807744441
 20
451.86502824682628
 30
0.0
 11
582.15167807744422
 21
451.86502824682628
 31
0.0
  0
LINE
  5
171BD
  8
AM_0
 10
590.15164807744441
 20
441.8650202468263
 30
0.0
 11
582.15167807744422
 21
441.8650202468263
 31
0.0
  0
ARC
  5
171BE
  8
AM_0
 10
598.0345180774442
 20
443.5821602468265
 30
0.0
 40
2.0021281000000002
 50
195.11669999999501
 51
269.9184800000001
  0
LINE
  5
171BF
  8
AM_0
 10
595.61166807744416
 20
444.8600312468264
 30
0.0
 11
590.15164807744441
 21
444.8600312468264
 31
0.0
  0
LINE
  5
171C0
  8
ｶｸﾚｾﾝ2
 10
612.65164807744418
 20
466.36505979667209
 30
0.0
 11
686.65164807744441
 21
466.36505979667209
 31
0.0
  0
LINE
  5
171C1
  8
ｶｸﾚｾﾝ2
 10
609.65164807744441
 20
469.3650597966722
 30
0.0
 11
609.65164807744441
 21
526.36505979667231
 31
0.0
  0
ARC
  5
171C2
  8
ｶｸﾚｾﾝ2
 10
612.65164807744418
 20
469.3650597966722
 30
0.0
 40
3.0
 50
180.0
 51
270.0
  0
LINE
  5
171C3
  8
ｶｸﾚｾﾝ2
 10
612.65164807744418
 20
529.36505979667231
 30
0.0
 11
686.65164807744441
 21
529.36505979667231
 31
0.0
  0
ARC
  5
171C4
  8
ｶｸﾚｾﾝ2
 10
612.65164807744418
 20
526.3650597966722
 30
0.0
 40
3.0
 50
90.0
 51
180.0
  0
LINE
  5
171C5
  8
ｶｸﾚｾﾝ2
 10
689.65164807744429
 20
526.36505979667231
 30
0.0
 11
689.65164807744429
 21
469.3650597966722
 31
0.0
  0
ARC
  5
171C6
  8
ｶｸﾚｾﾝ2
 10
686.65164807744441
 20
526.3650597966722
 30
0.0
 40
3.0
 50
0.0
 51
90.0
  0
ARC
  5
171C7
  8
ｶｸﾚｾﾝ2
 10
686.65164807744441
 20
469.3650597966722
 30
0.0
 40
3.0
 50
270.0
 51
0.0
  0
LINE
  5
171C8
  8
AM_0
 10
486.64557244585433
 20
452.86510318361388
 30
0.0
 11
456.6455715517846
 21
452.86510318361388
 31
0.0
  0
LINE
  5
171C9
  8
AM_0
 10
456.6455715517846
 20
455.86510327302091
 30
0.0
 11
456.6455715517846
 21
452.86510318361388
 31
0.0
  0
LINE
  5
171CA
  8
AM_0
 10
486.64557244585433
 20
455.86510327302091
 30
0.0
 11
486.64557244585433
 21
452.86510318361388
 31
0.0
  0
LINE
  5
171CB
  8
AM_0
 10
486.64557244585433
 20
452.8651029936139
 30
0.0
 11
456.6455715517846
 21
452.8651029936139
 31
0.0
  0
LINE
  5
171CC
  8
0
 10
486.64557244585433
 20
452.8651029936139
 30
0.0
 11
483.64557199881949
 21
428.8651029936139
 31
0.0
  0
LINE
  5
171CD
  8
AM_0
 10
486.64557244585433
 20
452.8651029936139
 30
0.0
 11
486.64557244585433
 21
455.86510308302093
 31
0.0
  0
LINE
  5
171CE
  8
0
 10
456.6455715517846
 20
452.8651029936139
 30
0.0
 11
459.64557199881949
 21
428.8651029936139
 31
0.0
  0
LINE
  5
171CF
  8
AM_0
 10
456.6455715517846
 20
452.8651029936139
 30
0.0
 11
456.6455715517846
 21
455.86510308302093
 31
0.0
  0
LINE
  5
171D0
  8
AM_0
 10
483.64557199881949
 20
428.8651029936139
 30
0.0
 11
459.64557199881949
 21
428.8651029936139
 31
0.0
  0
LINE
  5
171D1
  8
0
 10
462.14557199881949
 20
400.8651029936139
 30
0.0
 11
481.14557199881938
 21
400.8651029936139
 31
0.0
  0
LINE
  5
171D2
  8
0
 10
462.14557199881949
 20
400.8651029936139
 30
0.0
 11
462.14557199585738
 21
428.8651029936139
 31
0.0
  0
LINE
  5
171D3
  8
0
 10
481.14557199881938
 20
428.8651029936139
 30
0.0
 11
481.14557199881938
 21
400.8651029936139
 31
0.0
  0
LINE
  5
171D4
  8
0
 10
474.64557199881972
 20
422.8651029936139
 30
0.0
 11
468.64557199881961
 21
422.8651029936139
 31
0.0
  0
LINE
  5
171D5
  8
AM_0
 10
474.64557199881972
 20
400.8651029936139
 30
0.0
 11
474.64557199881972
 21
422.86510299361407
 31
0.0
  0
LINE
  5
171D6
  8
AM_0
 10
468.64557199881961
 20
400.8651029936139
 30
0.0
 11
468.64557199881938
 21
422.8651029936139
 31
0.0
  0
ARC
  5
171D7
  8
AM_0
 10
471.64557199881961
 20
422.8651029936139
 30
0.0
 40
2.9999999999999432
 50
0.0000000000032774
 51
180.0
  0
LINE
  5
171D8
  8
AM_0
 10
590.15164807744441
 20
457.1423922468262
 30
0.0
 11
591.15164807744441
 21
456.56503224682638
 31
0.0
  0
LINE
  5
171D9
  8
AM_0
 10
593.75162807744437
 20
458.16504224682609
 30
0.0
 11
593.75162807744437
 21
454.56503224682621
 31
0.0
  0
LINE
  5
171DA
  8
AM_0
 10
591.15164807744441
 20
460.16504224682637
 30
0.0
 11
591.15164807744441
 21
452.56503224682638
 31
0.0
  0
LINE
  5
171DB
  8
AM_0
 10
591.15164807744441
 20
535.56500224682634
 30
0.0
 11
591.15164807744441
 21
543.16501224682645
 31
0.0
  0
ARC
  5
171DC
  8
AM_0
 10
592.05164807744404
 20
537.56500224682645
 30
0.0
 40
1.699996899999999
 50
270.00000299999761
 51
359.99998000000448
  0
LINE
  5
171DD
  8
AM_0
 10
590.15164807744441
 20
539.58765224682634
 30
0.0
 11
591.15164807744441
 21
540.16501224682645
 31
0.0
  0
LINE
  5
171DE
  8
AM_0
 10
591.15164807744441
 20
542.86502224682636
 30
0.0
 11
592.05164807744416
 21
542.86502224682636
 31
0.0
  0
LINE
  5
171DF
  8
AM_0
 10
591.15164807744441
 20
543.16501224682645
 30
0.0
 11
590.15164807744441
 21
543.16501224682645
 31
0.0
  0
LINE
  5
171E0
  8
AM_0
 10
590.15164807744441
 20
538.58765224682634
 30
0.0
 11
591.15164807744441
 21
539.16501224682645
 31
0.0
  0
LINE
  5
171E1
  8
AM_0
 10
593.75162807744437
 20
537.56500224682645
 30
0.0
 11
593.75162807744437
 21
541.16501224682645
 31
0.0
  0
ARC
  5
171E2
  8
AM_0
 10
592.05164807744404
 20
541.16501224682645
 30
0.0
 40
1.7000007999999991
 50
0.0000100000009873
 51
89.999979999998018
  0
LINE
  5
171E3
  8
AM_0
 10
591.15164807744441
 20
535.56500224682634
 30
0.0
 11
590.15164807744441
 21
535.56500224682634
 31
0.0
  0
LINE
  5
171E4
  8
AM_0
 10
591.15164807744441
 20
535.86502224682613
 30
0.0
 11
592.05164807744416
 21
535.86502224682613
 31
0.0
  0
LINE
  5
171E5
  8
AM_0
 10
591.15164807744441
 20
460.16504224682637
 30
0.0
 11
590.15164807744441
 21
460.16504224682637
 31
0.0
  0
LINE
  5
171E6
  8
AM_0
 10
591.15164807744441
 20
459.86502224682641
 30
0.0
 11
592.05164807744416
 21
459.86502224682641
 31
0.0
  0
ARC
  5
171E7
  8
AM_0
 10
592.05164807744416
 20
458.16504224682632
 30
0.0
 40
1.699996899999999
 50
0.0000199999954997
 51
89.999996999995744
  0
LINE
  5
171E8
  8
AM_0
 10
591.15164807744441
 20
452.86502224682641
 30
0.0
 11
592.05164807744416
 21
452.86502224682641
 31
0.0
  0
LINE
  5
171E9
  8
AM_0
 10
591.15164807744441
 20
452.56503224682638
 30
0.0
 11
590.15164807744441
 21
452.56503224682638
 31
0.0
  0
LINE
  5
171EA
  8
AM_0
 10
590.15164807744441
 20
456.14239224682638
 30
0.0
 11
591.15164807744441
 21
455.56503224682632
 31
0.0
  0
ARC
  5
171EB
  8
AM_0
 10
592.05164807744416
 20
454.56503224682632
 30
0.0
 40
1.7000007999999991
 50
270.000020000002
 51
359.999989999999
  0
LINE
  5
17652
  8
AM_0
 10
418.64557047890122
 20
309.65503418176058
 30
0.0
 11
418.64557047890122
 21
229.65503179757491
 31
0.0
  0
LINE
  5
17654
  8
AM_0
 10
418.6458750885883
 20
472.89997692297197
 30
0.0
 11
419.74493467830581
 21
535.86505864779076
 31
0.0
  0
LINE
  5
17655
  8
AM_0
 10
418.64526609057151
 20
472.86505677024451
 30
0.0
 11
418.8721819453234
 21
459.86505615809642
 31
0.0
  0
TEXT
  5
176FB
  8
AM_0
 10
137.3893680463745
 20
518.5229094047894
 30
0.0
 40
10.0
  1
VC01-007MR~VC01-060MR
1001
ACAD
1000
MTEXTBEGIN
1070
    73
1070
     1
1070
    44
1040
1.0
1070
    74
1070
     0
1000
MTEXTEND
  0
VIEWPORT
  5
89
 67
     1
  8
0
 10
210.0
 20
148.5
 30
0.0
 40
420.0
 41
297.0
 68
     1
 69
     1
1001
ACAD
1000
MVIEW
1002
{
1070
    16
1010
0.0
1020
0.0
1030
0.0
1010
0.0
1020
0.0
1030
1.0
1040
0.0
1040
297.0
1040
221.70154043645701
1040
148.5
1040
50.0
1040
0.0
1040
0.0
1070
     0
1070
   100
1070
     1
1070
     1
1070
     0
1070
     0
1070
     0
1070
     0
1040
0.0
1040
0.0
1040
0.0
1040
10.0
1040
10.0
1040
10.0
1040
10.0
1070
     0
1002
{
1002
}
1002
}
1001
GENIUS_GENOREF_13
1005
1B94
1001
GENIUS_GENSCREG_15
1000
PF
1040
1.0
1000
DF
1040
1.0
1000
MIN
1011
0.0
1021
0.0
1031
0.0
1021
0.0
1031
0.0
1000
MAX
1011
420.0
1021
0.0
1031
0.0
1021
297.0
1031
0.0
1000
FLAGS
1070
     4
  0
ENDSEC
  0
EOF
