  0
SECTION
  2
HEADER
  9
$ACADVER
  1
AC1009
  9
$INSBASE
 10
0.0
 20
0.0
 30
0.0
  9
$EXTMIN
 10
131.90075897669971
 20
174.35982373908789
 30
-0.0015258207003583
  9
$EXTMAX
 10
728.89233582652184
 20
577.77298277650812
 30
0.0000000349246037
  9
$LIMMIN
 10
0.0
 20
0.0
  9
$LIMMAX
 10
853.5
 20
555.00000000000011
  9
$ORTHOMODE
 70
     0
  9
$REGENMODE
 70
     1
  9
$FILLMODE
 70
     1
  9
$QTEXTMODE
 70
     0
  9
$MIRRTEXT
 70
     1
  9
$DRAGMODE
 70
     2
  9
$LTSCALE
 40
3.0
  9
$OSMODE
 70
   551
  9
$ATTMODE
 70
     1
  9
$TEXTSIZE
 40
2.5
  9
$TRACEWID
 40
1.0
  9
$TEXTSTYLE
  7
STANDARD
  9
$CLAYER
  8
AM_0
  9
$CELTYPE
  6
BYLAYER
  9
$CECOLOR
 62
   256
  9
$DIMSCALE
 40
3.0
  9
$DIMASZ
 40
2.5
  9
$DIMEXO
 40
1.0
  9
$DIMDLI
 40
7.0
  9
$DIMRND
 40
0.0
  9
$DIMDLE
 40
0.0
  9
$DIMEXE
 40
1.0
  9
$DIMTP
 40
0.1
  9
$DIMTM
 40
0.1000000001
  9
$DIMTXT
 40
2.5
  9
$DIMCEN
 40
0.0
  9
$DIMTSZ
 40
0.0
  9
$DIMTOL
 70
     0
  9
$DIMLIM
 70
     0
  9
$DIMTIH
 70
     0
  9
$DIMTOH
 70
     0
  9
$DIMSE1
 70
     0
  9
$DIMSE2
 70
     0
  9
$DIMTAD
 70
     3
  9
$DIMZIN
 70
     8
  9
$DIMBLK
  1

  9
$DIMASO
 70
     1
  9
$DIMSHO
 70
     1
  9
$DIMPOST
  1

  9
$DIMAPOST
  1
"
  9
$DIMALT
 70
     0
  9
$DIMALTD
 70
     2
  9
$DIMALTF
 40
0.0393701
  9
$DIMLFAC
 40
1.0
  9
$DIMTOFL
 70
     1
  9
$DIMTVP
 40
0.0
  9
$DIMTIX
 70
     0
  9
$DIMSOXD
 70
     0
  9
$DIMSAH
 70
     0
  9
$DIMBLK1
  1

  9
$DIMBLK2
  1

  9
$DIMSTYLE
  2
AM_JIS
  9
$DIMCLRD
 70
   256
  9
$DIMCLRE
 70
   256
  9
$DIMCLRT
 70
     4
  9
$DIMTFAC
 40
0.71
  9
$DIMGAP
 40
1.0
  9
$LUNITS
 70
     2
  9
$LUPREC
 70
     2
  9
$SKETCHINC
 40
1.0
  9
$FILLETRAD
 40
1.0
  9
$AUNITS
 70
     0
  9
$AUPREC
 70
     3
  9
$MENU
  1
.
  9
$ELEVATION
 40
0.0
  9
$PELEVATION
 40
0.0
  9
$THICKNESS
 40
0.0
  9
$LIMCHECK
 70
     0
  9
$BLIPMODE
 70
     0
  9
$CHAMFERA
 40
7.5
  9
$CHAMFERB
 40
7.5
  9
$SKPOLY
 70
     0
  9
$TDCREATE
 40
2452753.643349607
  9
$TDUPDATE
 40
2458543.4227351621
  9
$TDINDWG
 40
0.3060900116
  9
$TDUSRTIMER
 40
0.3060898264
  9
$USRTIMER
 70
     1
  9
$ANGBASE
 50
0.0
  9
$ANGDIR
 70
     0
  9
$PDMODE
 70
     0
  9
$PDSIZE
 40
0.0
  9
$PLINEWID
 40
0.0
  9
$COORDS
 70
     1
  9
$SPLFRAME
 70
     0
  9
$SPLINETYPE
 70
     6
  9
$SPLINESEGS
 70
     8
  9
$ATTDIA
 70
     1
  9
$ATTREQ
 70
     1
  9
$HANDLING
 70
     1
  9
$HANDSEED
  5
179F6
  9
$SURFTAB1
 70
     6
  9
$SURFTAB2
 70
     6
  9
$SURFTYPE
 70
     6
  9
$SURFU
 70
     6
  9
$SURFV
 70
     6
  9
$UCSNAME
  2

  9
$UCSORG
 10
0.0
 20
0.0
 30
0.0
  9
$UCSXDIR
 10
1.0
 20
0.0
 30
0.0
  9
$UCSYDIR
 10
0.0
 20
1.0
 30
0.0
  9
$PUCSNAME
  2

  9
$PUCSORG
 10
0.0
 20
0.0
 30
0.0
  9
$PUCSXDIR
 10
1.0
 20
0.0
 30
0.0
  9
$PUCSYDIR
 10
0.0
 20
1.0
 30
0.0
  9
$USERI1
 70
     0
  9
$USERI2
 70
     0
  9
$USERI3
 70
     0
  9
$USERI4
 70
     0
  9
$USERI5
 70
     0
  9
$USERR1
 40
0.0
  9
$USERR2
 40
0.0
  9
$USERR3
 40
0.0
  9
$USERR4
 40
0.0
  9
$USERR5
 40
0.0
  9
$WORLDVIEW
 70
     1
  9
$SHADEDGE
 70
     3
  9
$SHADEDIF
 70
    70
  9
$TILEMODE
 70
     1
  9
$MAXACTVP
 70
    48
  9
$PLIMCHECK
 70
     0
  9
$PEXTMIN
 10
1.0000000000000000E+020
 20
1.0000000000000000E+020
 30
1.0000000000000000E+020
  9
$PEXTMAX
 10
-1.0000000000000000E+020
 20
-1.0000000000000000E+020
 30
-1.0000000000000000E+020
  9
$PLIMMIN
 10
0.0
 20
0.0
  9
$PLIMMAX
 10
420.0
 20
297.0
  9
$UNITMODE
 70
     0
  9
$VISRETAIN
 70
     1
  9
$PLINEGEN
 70
     0
  9
$PSLTSCALE
 70
     1
  0
ENDSEC
  0
SECTION
  2
TABLES
  0
TABLE
  2
VPORT
 70
     1
  0
VPORT
  2
*ACTIVE
 70
     0
 10
0.0
 20
0.0
 11
1.0
 21
1.0
 12
430.39654740161069
 22
376.06640325779802
 13
0.0
 23
0.0
 14
7.5
 24
7.5
 15
30.0
 25
30.0
 16
0.0
 26
0.0
 36
1.0
 17
0.0
 27
0.0
 37
0.0
 40
406.18258575850092
 41
1.7571592210767459
 42
50.0
 43
0.0
 44
0.0
 50
0.0
 51
0.0
 71
    16
 72
   100
 73
     1
 74
     1
 75
     0
 76
     0
 77
     0
 78
     0
  0
ENDTAB
  0
TABLE
  2
LTYPE
 70
    21
  0
LTYPE
  2
CONTINUOUS
 70
     0
  3
Solid line
 72
    65
 73
     0
 40
0.0
  0
LTYPE
  2
PHANTOM2
 70
     0
  3
Phantom (.5x) ___ _ _ ___ _ _ ___ _ _ ___ _ _
 72
    65
 73
     6
 40
31.75
 49
15.875
 49
-3.174999999999998
 49
3.174999999999998
 49
-3.174999999999998
 49
3.174999999999998
 49
-3.174999999999998
  0
LTYPE
  2
CENTER
 70
     0
  3
Center ____ _ ____ _ ____ _ ____ _ ____ _ ____
 72
    65
 73
     4
 40
50.799999999999997
 49
31.75
 49
-6.3499999999999979
 49
6.3499999999999979
 49
-6.3499999999999979
  0
LTYPE
  2
ACANSTGBM
 70
     0
  3
__ . . __ . .
 72
    65
 73
     6
 40
9.0
 49
4.0
 49
-1.0
 49
1.0
 49
-1.0
 49
1.0
 49
-1.0
  0
LTYPE
  2
ACANSTGLM
 70
     0
  3
_ _ _ _ _
 72
    65
 73
     2
 40
3.0
 49
2.0
 49
-1.0
  0
LTYPE
  2
GEN3B
 70
     0
  3
 - - - - -
 72
    65
 73
     2
 40
1.0
 49
0.5
 49
-0.5
  0
LTYPE
  2
GEN7A
 70
     0
  3
__ . __ . __
 72
    65
 73
     4
 40
7.375
 49
4.75
 49
-0.875
 49
0.875
 49
-0.875
  0
LTYPE
  2
AM_ISO02W050
 70
     0
  3
__ __ __ __ __ __ __ __ __ __ __ __ __ __ __
 72
    65
 73
     2
 40
7.5
 49
6.0
 49
-1.5
  0
LTYPE
  2
AM_ISO08W050
 70
     0
  3
____ . ____ . ____ . ____ . ____ . ____ . ____
 72
    65
 73
     4
 40
18.0
 49
12.0
 49
-1.5
 49
3.0
 49
-1.5
  0
LTYPE
  2
AM_ISO09W050
 70
     0
  3
_____ . . _____ . . _____ . . ____ .. ____
 72
    65
 73
     6
 40
22.5
 49
12.0
 49
-1.5
 49
3.0
 49
-1.5
 49
3.0
 49
-1.5
  0
LTYPE
  2
AMCONSTR
 70
     0
  3
_______________________
 72
    65
 73
     2
 40
9999.0
 49
9999.0
 49
0.0
  0
LTYPE
  2
AM_ISO02W050X2
 70
     0
  3
 _ _ _ _ _ _ _ _ _ _ _ _
 72
    65
 73
     2
 40
3.75
 49
3.0
 49
-0.75
  0
LTYPE
  2
AM_ISO08W050X2
 70
     0
  3
__ . __ . __ . __ . __ . __
 72
    65
 73
     4
 40
9.0
 49
6.0
 49
-0.75
 49
1.5
 49
-0.75
  0
LTYPE
  2
AMZIGZAG
 70
     0
  3
/\/-/\/-/\/-/\/-/\/-/\/
 72
    65
 73
     2
 40
11.0001
 49
0.0001
 49
-11.0
  0
LTYPE
  2
ACJISTGB
 70
     0
  3
__ . . __ . .
 72
    65
 73
     6
 40
9.0
 49
4.0
 49
-1.0
 49
1.0
 49
-1.0
 49
1.0
 49
-1.0
  0
LTYPE
  2
ACJISTGL
 70
     0
  3
_ _ _ _ _
 72
    65
 73
     2
 40
3.0
 49
2.0
 49
-1.0
  0
LTYPE
  2
ACISOWELD
 70
     0
  3
_ _ _ _ _
 72
    65
 73
     2
 40
2.0
 49
2.0
 49
-1.0
  0
LTYPE
  2
ACISOTGB
 70
     0
  3
__ . . __ . .
 72
    65
 73
     6
 40
9.0
 49
4.0
 49
-1.0
 49
1.0
 49
-1.0
 49
1.0
 49
-1.0
  0
LTYPE
  2
ACISOTGL
 70
     0
  3
_ _ _ _ _
 72
    65
 73
     2
 40
3.0
 49
2.0
 49
-1.0
  0
LTYPE
  2
HIDDEN
 70
     0
  3
Hidden __ __ __ __ __ __ __ __ __ __ __ __ __ _
 72
    65
 73
     2
 40
9.5249999999999968
 49
6.3499999999999979
 49
-3.174999999999998
  0
ENDTAB
  0
TABLE
  2
LAYER
 70
     8
  0
LAYER
  2
0
 70
     0
 62
     7
  6
CONTINUOUS
  0
LAYER
  2
ｽﾝﾎﾟｳｾﾝ
 70
     0
 62
     2
  6
CONTINUOUS
  0
LAYER
  2
DEFPOINTS
 70
     0
 62
     7
  6
CONTINUOUS
  0
LAYER
  2
ｶｸﾚｾﾝ2
 70
     0
 62
     3
  6
GEN3B
  0
LAYER
  2
ﾁｭｳｼﾝｾﾝ1
 70
     0
 62
     1
  6
GEN7A
  0
LAYER
  2
AM_0
 70
     0
 62
     7
  6
CONTINUOUS
  0
LAYER
  2
AM_0N
 70
     0
 62
     7
  6
CONTINUOUS
  0
LAYER
  2
AM_5
 70
     0
 62
     2
  6
CONTINUOUS
  0
ENDTAB
  0
TABLE
  2
STYLE
 70
     8
  0
STYLE
  2
STANDARD
 70
     0
 40
0.0
 41
0.8299999999999999
 50
0.0
 71
     0
 42
2.5
  3
txt.shx
  4
bigfont.shx
  0
STYLE
  2
ACANSTS
 70
     0
 40
1.0
 41
1.0
 50
0.0
 71
     0
 42
2.5
  3
romans.shx
  4
bigfont.shx
  0
STYLE
  2
ACANSGDT
 70
     0
 40
0.0
 41
1.0
 50
0.0
 71
     0
 42
2.5
  3
amgdtans.shx
  4

  0
STYLE
  2

 70
     1
 40
0.0
 41
1.0
 50
0.0
 71
     0
 42
2.5
  3
ltypeshp.shx
  4

  0
STYLE
  2
ACJISTS
 70
     0
 40
1.0
 41
1.0
 50
0.0
 71
     0
 42
2.5
  3
isocp.shx
  4
bigfont.shx
  0
STYLE
  2
ACJISGDT
 70
     0
 40
0.0
 41
1.0
 50
0.0
 71
     0
 42
2.5
  3
amgdt.shx
  4

  0
STYLE
  2
ACISOTS
 70
     0
 40
3.0
 41
1.0
 50
0.0
 71
     0
 42
2.5
  3
isocp.shx
  4
extfont.shx
  0
STYLE
  2
ACISOGDT
 70
     0
 40
0.0
 41
1.0
 50
0.0
 71
     0
 42
2.5
  3
amgdt.shx
  4

  0
ENDTAB
  0
TABLE
  2
VIEW
 70
    12
  0
VIEW
  2
GEN1
 70
     0
 40
95.824742268041234
 10
71.5
 20
137.08762886597941
 41
143.0
 11
0.0
 21
0.0
 31
1.0
 12
0.0
 22
0.0
 32
0.0
 42
50.0
 43
0.0
 44
0.0
 50
0.0
 71
     0
  0
VIEW
  2
GEN2
 70
     0
 40
95.824742268041234
 10
214.5
 20
137.08762886597941
 41
143.0
 11
0.0
 21
0.0
 31
1.0
 12
0.0
 22
0.0
 32
0.0
 42
50.0
 43
0.0
 44
0.0
 50
0.0
 71
     0
  0
VIEW
  2
GEN3
 70
     0
 40
95.824742268041234
 10
71.5
 20
47.912371134020603
 41
143.0
 11
0.0
 21
0.0
 31
1.0
 12
0.0
 22
0.0
 32
0.0
 42
50.0
 43
0.0
 44
0.0
 50
0.0
 71
     0
  0
VIEW
  2
GEN4
 70
     0
 40
95.824742268041234
 10
214.5
 20
47.912371134020603
 41
143.0
 11
0.0
 21
0.0
 31
1.0
 12
0.0
 22
0.0
 32
0.0
 42
50.0
 43
0.0
 44
0.0
 50
0.0
 71
     0
  0
VIEW
  2
GEN5
 70
     0
 40
95.824742268041234
 10
143.0
 20
92.500000000000057
 41
143.0
 11
0.0
 21
0.0
 31
1.0
 12
0.0
 22
0.0
 32
0.0
 42
50.0
 43
0.0
 44
0.0
 50
0.0
 71
     0
  0
VIEW
  2
GEN6
 70
     0
 40
191.64756804123709
 10
143.0
 20
92.5
 41
285.99714
 11
0.0
 21
0.0
 31
1.0
 12
0.0
 22
0.0
 32
0.0
 42
50.0
 43
0.0
 44
0.0
 50
0.0
 71
     0
  0
VIEW
  2
AM_VIEW1
 70
     0
 40
277.50000000000011
 10
249.64779005524869
 20
416.25000000000011
 41
499.29558011049721
 11
0.0
 21
0.0
 31
1.0
 12
0.0
 22
0.0
 32
0.0
 42
50.0
 43
0.0
 44
0.0
 50
0.0
 71
    16
  0
VIEW
  2
AM_VIEW2
 70
     0
 40
277.50000000000011
 10
603.85220994475117
 20
416.25000000000011
 41
499.29558011049721
 11
0.0
 21
0.0
 31
1.0
 12
0.0
 22
0.0
 32
0.0
 42
50.0
 43
0.0
 44
0.0
 50
0.0
 71
    16
  0
VIEW
  2
AM_VIEW3
 70
     0
 40
277.50000000000011
 10
249.64779005524869
 20
138.75
 41
499.29558011049721
 11
0.0
 21
0.0
 31
1.0
 12
0.0
 22
0.0
 32
0.0
 42
50.0
 43
0.0
 44
0.0
 50
0.0
 71
    16
  0
VIEW
  2
AM_VIEW4
 70
     0
 40
277.50000000000011
 10
603.85220994475117
 20
138.75
 41
499.29558011049721
 11
0.0
 21
0.0
 31
1.0
 12
0.0
 22
0.0
 32
0.0
 42
50.0
 43
0.0
 44
0.0
 50
0.0
 71
    16
  0
VIEW
  2
AM_VIEW5
 70
     0
 40
277.50000000000011
 10
426.75
 20
277.50000000000011
 41
499.2955801104971
 11
0.0
 21
0.0
 31
1.0
 12
0.0
 22
0.0
 32
0.0
 42
50.0
 43
0.0
 44
0.0
 50
0.0
 71
    16
  0
VIEW
  2
AM_VIEW6
 70
     0
 40
554.99445000000014
 10
426.75
 20
277.5
 41
998.5811743093924
 11
0.0
 21
0.0
 31
1.0
 12
0.0
 22
0.0
 32
0.0
 42
50.0
 43
0.0
 44
0.0
 50
0.0
 71
    16
  0
ENDTAB
  0
TABLE
  2
UCS
 70
     0
  0
ENDTAB
  0
TABLE
  2
APPID
 70
    98
  0
APPID
  2
ACAD
 70
     0
  0
APPID
  2
MCAD_NO_VIS
 70
     0
  0
APPID
  2
ACAD_TEMP_GRAPHIC
 70
     0
  0
APPID
  2
AD_DRAW
 70
     0
  0
APPID
  2
DESIGNERASSEMBLIES
 70
     0
  0
APPID
  2
ASURF_PCURVE_APPNAME
 70
     0
  0
APPID
  2
GENIUS_GE3SECT_13
 70
     0
  0
APPID
  2
GENIUS_GENCFG_13
 70
     0
  0
APPID
  2
GENIUS_GE3CFG0_13
 70
     0
  0
APPID
  2
GENIUS_GENCFG0_13
 70
     0
  0
APPID
  2
GENIUS_GENCFG1_13
 70
     0
  0
APPID
  2
GENIUS_GENCFG2_13
 70
     0
  0
APPID
  2
GENIUS_GENCFG3_13
 70
     0
  0
APPID
  2
GENIUS_GENCFG4_13
 70
     0
  0
APPID
  2
GENIUS_GEVCFG0_13
 70
     0
  0
APPID
  2
GENIUS_GENOENT_13
 70
     0
  0
APPID
  2
GENIUS_GENREC_14
 70
     0
  0
APPID
  2
GENIUS_GENODEF_13
 70
     0
  0
APPID
  2
GENIUS_GENOBJ-N-REC_13
 70
     0
  0
APPID
  2
GENIUS_GENHINW_13
 70
     0
  0
APPID
  2
GENIUS_FIRSTVISTXT_14
 70
     0
  0
APPID
  2
GENIUS_GENOBJ-N-LEADER_13
 70
     0
  0
APPID
  2
GENIUS_GENOREF_13
 70
     0
  0
APPID
  2
GENIUS_GENOLIS_13
 70
     0
  0
APPID
  2
GEV_VCCNULL_SWITCH_OFF
 70
     0
  0
APPID
  2
GENIUS_GENDTOL_13
 70
     0
  0
APPID
  2
GENIUS_GEFCFG0_13
 70
     0
  0
APPID
  2
GENIUS_GENOBJ-N-TIT_13
 70
     0
  0
APPID
  2
GENIUS_GENTITLE_13
 70
     0
  0
APPID
  2
GENIUS_GENZVEED_13
 70
     0
  0
APPID
  2
GENIUS_GENOBJ-N-SDF_13
 70
     0
  0
APPID
  2
GENIUS_GENSCREG_13
 70
     0
  0
APPID
  2
GENIUS_DUMCFG0_13
 70
     0
  0
APPID
  2
GEVID936201362
 70
     0
  0
APPID
  2
GEVDC
 70
     0
  0
APPID
  2
GEVCON
 70
     0
  0
APPID
  2
VCC
 70
     0
  0
APPID
  2
GEVPT
 70
     0
  0
APPID
  2
GEVIT
 70
     0
  0
APPID
  2
GENBH
 70
     0
  0
APPID
  2
GEVMK
 70
     0
  0
APPID
  2
GENIUS_GENBH_13
 70
     0
  0
APPID
  2
GENIUS_GENOBJ-NBEHI-BHF_13
 70
     0
  0
APPID
  2
GENIUS_GENOBJ-NBEHI-BHB_13
 70
     0
  0
APPID
  2
GENIUS_GENOBJ-F-DESC_13
 70
     0
  0
APPID
  2
GENIUS_GEFDESC_14
 70
     0
  0
APPID
  2
GENIUS_GENOBJ-F-PART_13
 70
     0
  0
APPID
  2
GENIUS_GEFSTDP_13
 70
     0
  0
APPID
  2
GENIUS_GEFPARTINS_13
 70
     0
  0
APPID
  2
GENIUS_GENTRA_14
 70
     0
  0
APPID
  2
GENIUS_GENINF13_13
 70
     0
  0
APPID
  2
GENIUS_GENOBJ-N-INFOPT_13
 70
     0
  0
APPID
  2
GENIUS_GENOBJ-N-RSSYM_13
 70
     0
  0
APPID
  2
GENIUS_GENSYMENT_13
 70
     0
  0
APPID
  2
GENIUS_GENSCSYM_13
 70
     0
  0
APPID
  2
GENIUS_GEFINFNAM_13
 70
     0
  0
APPID
  2
GENIUS_GENSCREG_15
 70
     0
  0
APPID
  2
GENIUS_GENOBJ-N-CEN_13
 70
     0
  0
APPID
  2
GENIUS_GENOBJ-N-CRS_13
 70
     0
  0
APPID
  2
GENIUS_GENOBJ-N-CRC_13
 70
     0
  0
APPID
  2
GENIUS_GENCRC_14
 70
     0
  0
APPID
  2
GEVID942827039
 70
     0
  0
APPID
  2
GEVID942827040
 70
     0
  0
APPID
  2
GEVID942827041
 70
     0
  0
APPID
  2
GENIUS_GENOBJ-F-SCPASSM_13
 70
     0
  0
APPID
  2
GENIUS_GENDIMSH_14
 70
     0
  0
APPID
  2
GENIUS_GENFIL_13
 70
     0
  0
APPID
  2
GENIUS_GENOBJ-N-CHA_13
 70
     0
  0
APPID
  2
GENIUS_GENOBJ-N-FIL_13
 70
     0
  0
APPID
  2
GEVID942827042
 70
     0
  0
APPID
  2
GEVID946020473
 70
     0
  0
APPID
  2
GEVID946020474
 70
     0
  0
APPID
  2
GEVID946020475
 70
     0
  0
APPID
  2
GENIUS_GENOBJ-N-HTC_13
 70
     0
  0
APPID
  2
GENIUS_GENHATCH_13
 70
     0
  0
APPID
  2
GEVID948854295
 70
     0
  0
APPID
  2
GEVID939402019
 70
     0
  0
APPID
  2
GEVID952919491
 70
     0
  0
APPID
  2
GEVID952919492
 70
     0
  0
APPID
  2
GENIUS_GEFWELD_13
 70
     0
  0
APPID
  2
GENIUS_GENOBJ-F-WELS_13
 70
     0
  0
APPID
  2
GEVID952919493
 70
     0
  0
APPID
  2
GENIUS_GENOBJ-N-RSBK_13
 70
     0
  0
APPID
  2
GENIUS_GENOBJ-N-LIB_13
 70
     0
  0
APPID
  2
GENIUS_GENSCALE_13
 70
     0
  0
APPID
  2
GEVID986376691
 70
     0
  0
APPID
  2
ACATTRIBSERVICES
 70
     0
  0
APPID
  2
DCO15
 70
     0
  0
APPID
  2
GENIUS_GENOBJ-N-DIM_13
 70
     0
  0
APPID
  2
GENIUS_GENDIM_13
 70
     0
  0
APPID
  2
ACADM_DIM_EDIT
 70
     0
  0
APPID
  2
AMDT_DM_ADJ
 70
     0
  0
APPID
  2
ACAD_MLEADERVER
 70
     0
  0
APPID
  2
ACAD_DSTYLE_DIMBREAK
 70
     0
  0
APPID
  2
ACAD_DSTYLE_DIMJAG
 70
     0
  0
APPID
  2
ACAD_NAV_VCDISPLAY
 70
     0
  0
APPID
  2
ACADANNOPO
 70
     0
  0
APPID
  2
ACAD_EXEMPT_FROM_CAD_STANDARDS
 70
     0
  0
ENDTAB
  0
TABLE
  2
DIMSTYLE
 70
    16
  0
DIMSTYLE
  2
STANDARD
 70
     0
  3

  4

  5

  6

  7

 40
1.0
 41
0.18
 42
0.0625
 43
0.38
 44
0.18
 45
0.0
 46
0.0
 47
0.0
 48
0.0
140
0.18
141
0.09
142
0.0
143
25.399999999999999
144
1.0
145
0.0
146
1.0
147
0.09
 71
     0
 72
     0
 73
     1
 74
     1
 75
     0
 76
     0
 77
     0
 78
     0
170
     0
171
     2
172
     0
173
     0
174
     0
175
     0
176
     0
177
     0
178
     0
  0
DIMSTYLE
  2
AM_JIS
 70
     0
  3

  4
"
  5

  6

  7

 40
1.0
 41
2.5
 42
1.0
 43
7.0
 44
1.0
 45
0.0
 46
0.0
 47
0.1
 48
0.1000000001
140
2.5
141
0.0
142
0.0
143
0.0393701
144
1.0
145
0.0
146
0.71
147
1.0
 71
     0
 72
     0
 73
     0
 74
     0
 75
     0
 76
     0
 77
     3
 78
     8
170
     0
171
     2
172
     1
173
     0
174
     0
175
     0
176
   256
177
   256
178
     4
  0
DIMSTYLE
  2
AM_JIS$3
 70
     0
  3

  4
"
  5

  6

  7

 40
1.0
 41
2.5
 42
1.0
 43
7.0
 44
1.0
 45
0.0
 46
0.0
 47
0.1
 48
0.1000000001
140
2.5
141
0.0
142
0.0
143
0.0393701
144
1.0
145
0.0
146
0.71
147
1.0
 71
     0
 72
     0
 73
     0
 74
     1
 75
     0
 76
     0
 77
     3
 78
     8
170
     0
171
     2
172
     0
173
     0
174
     0
175
     0
176
   256
177
   256
178
     4
  0
DIMSTYLE
  2
AM_JIS$4
 70
     0
  3

  4
"
  5

  6

  7

 40
1.0
 41
2.5
 42
1.0
 43
7.0
 44
1.0
 45
0.0
 46
0.0
 47
0.1
 48
0.1000000001
140
2.5
141
0.0
142
0.0
143
0.0393701
144
1.0
145
0.0
146
0.71
147
1.0
 71
     0
 72
     0
 73
     0
 74
     0
 75
     0
 76
     0
 77
     3
 78
     8
170
     0
171
     2
172
     0
173
     0
174
     0
175
     0
176
   256
177
   256
178
     4
  0
DIMSTYLE
  2
AM_JIS$6
 70
     0
  3

  4
"
  5

  6

  7

 40
1.0
 41
2.5
 42
1.0
 43
7.0
 44
1.0
 45
0.0
 46
0.0
 47
0.1
 48
0.1000000001
140
2.5
141
0.0
142
0.0
143
0.0393701
144
1.0
145
0.0
146
0.71
147
1.0
 71
     0
 72
     0
 73
     0
 74
     0
 75
     0
 76
     0
 77
     0
 78
     8
170
     0
171
     2
172
     1
173
     0
174
     0
175
     0
176
   256
177
   256
178
     4
  0
DIMSTYLE
  2
AM_JIS$7
 70
     0
  3

  4
"
  5

  6

  7

 40
1.0
 41
2.5
 42
1.0
 43
7.0
 44
1.0
 45
0.0
 46
0.0
 47
0.1
 48
0.1000000001
140
2.5
141
0.0
142
0.0
143
0.0393701
144
1.0
145
0.0
146
0.71
147
1.0
 71
     0
 72
     0
 73
     0
 74
     0
 75
     0
 76
     0
 77
     3
 78
     8
170
     0
171
     2
172
     1
173
     0
174
     0
175
     0
176
   256
177
   256
178
     4
  0
DIMSTYLE
  2
AM_JIS$SF
 70
     0
  3

  4
"
  5
OPEN30
  6
OPEN30
  7
OPEN30
 40
1.0
 41
2.5
 42
1.0
 43
10.0
 44
1.0
 45
0.0
 46
0.0
 47
0.1
 48
0.1
140
3.5
141
0.0
142
0.0
143
0.0393701
144
1.0
145
0.0
146
0.71
147
1.5
 71
     0
 72
     0
 73
     0
 74
     0
 75
     1
 76
     1
 77
     3
 78
     8
170
     0
171
     2
172
     1
173
     0
174
     0
175
     0
176
   256
177
   256
178
     4
  0
DIMSTYLE
  2
AM_JIS$SH
 70
     0
  3

  4
"
  5

  6
NONE
  7

 40
1.0
 41
2.5
 42
1.0
 43
10.0
 44
1.0
 45
0.0
 46
0.0
 47
0.1
 48
0.1
140
3.5
141
0.0
142
0.0
143
0.0393701
144
1.0
145
0.0
146
0.71
147
1.5
 71
     0
 72
     0
 73
     0
 74
     0
 75
     1
 76
     0
 77
     3
 78
     8
170
     0
171
     2
172
     1
173
     1
174
     0
175
     0
176
   256
177
   256
178
     4
  0
DIMSTYLE
  2
AM_ISO
 70
     0
  3

  4
"
  5

  6

  7

 40
1.0
 41
2.5
 42
1.0
 43
10.0
 44
1.0
 45
0.0
 46
0.0
 47
0.0
 48
0.000000001
140
3.0
141
0.0
142
0.0
143
0.0393701
144
1.0
145
0.0
146
0.71
147
1.299999999999998
 71
     1
 72
     0
 73
     0
 74
     0
 75
     0
 76
     0
 77
     1
 78
     8
170
     0
171
     2
172
     1
173
     0
174
     0
175
     0
176
   256
177
   256
178
     4
  0
DIMSTYLE
  2
AM_ISO$3
 70
     0
  3

  4
"
  5

  6

  7

 40
1.0
 41
2.5
 42
1.0
 43
10.0
 44
1.0
 45
0.0
 46
0.0
 47
0.0
 48
0.000000001
140
2.5
141
0.0
142
0.0
143
0.0393701
144
1.0
145
0.0
146
0.71
147
1.299999999999998
 71
     1
 72
     0
 73
     0
 74
     1
 75
     0
 76
     0
 77
     1
 78
     8
170
     0
171
     2
172
     0
173
     0
174
     0
175
     0
176
   256
177
   256
178
     4
  0
DIMSTYLE
  2
AM_ISO$4
 70
     0
  3

  4
"
  5

  6

  7

 40
1.0
 41
2.5
 42
1.0
 43
10.0
 44
1.0
 45
0.0
 46
0.0
 47
0.0
 48
0.000000001
140
2.5
141
0.0
142
0.0
143
0.0393701
144
1.0
145
0.0
146
0.71
147
1.299999999999998
 71
     1
 72
     0
 73
     0
 74
     1
 75
     0
 76
     0
 77
     1
 78
     8
170
     0
171
     2
172
     0
173
     0
174
     0
175
     0
176
   256
177
   256
178
     4
  0
DIMSTYLE
  2
AM_ISO$6
 70
     0
  3

  4
"
  5

  6

  7

 40
1.0
 41
2.5
 42
1.0
 43
10.0
 44
1.0
 45
0.0
 46
0.0
 47
0.0
 48
0.000000001
140
2.5
141
0.0
142
0.0
143
0.0393701
144
1.0
145
0.0
146
0.71
147
1.299999999999998
 71
     1
 72
     0
 73
     0
 74
     0
 75
     0
 76
     0
 77
     0
 78
     8
170
     0
171
     2
172
     1
173
     0
174
     0
175
     0
176
   256
177
   256
178
     4
  0
DIMSTYLE
  2
AM_ISO$7
 70
     0
  3

  4
"
  5

  6

  7

 40
1.0
 41
2.5
 42
1.0
 43
10.0
 44
1.0
 45
0.0
 46
0.0
 47
0.0
 48
0.000000001
140
2.5
141
0.0
142
0.0
143
0.0393701
144
1.0
145
0.0
146
0.71
147
1.299999999999998
 71
     1
 72
     0
 73
     0
 74
     0
 75
     0
 76
     0
 77
     1
 78
     8
170
     0
171
     2
172
     1
173
     0
174
     0
175
     0
176
   256
177
   256
178
     4
  0
DIMSTYLE
  2
AM_ISO$SF
 70
     0
  3

  4
"
  5

  6

  7

 40
1.0
 41
2.5
 42
1.0
 43
10.0
 44
1.0
 45
0.0
 46
0.0
 47
0.1
 48
0.1
140
3.5
141
0.0
142
0.0
143
0.0393701
144
1.0
145
0.0
146
0.71
147
1.5
 71
     0
 72
     0
 73
     0
 74
     0
 75
     1
 76
     1
 77
     1
 78
     8
170
     0
171
     2
172
     1
173
     0
174
     0
175
     0
176
   256
177
   256
178
     4
  0
DIMSTYLE
  2
AM_ISO$SH
 70
     0
  3

  4
"
  5

  6
GENAXEH
  7

 40
1.0
 41
2.5
 42
1.0
 43
10.0
 44
1.0
 45
0.0
 46
0.0
 47
0.1
 48
0.1
140
3.5
141
0.0
142
0.0
143
0.0393701
144
2.0
145
0.0
146
0.71
147
1.5
 71
     0
 72
     0
 73
     0
 74
     0
 75
     1
 76
     1
 77
     1
 78
     8
170
     0
171
     2
172
     1
173
     1
174
     0
175
     0
176
   256
177
   256
178
     4
  0
DIMSTYLE
  2
AM_JIS$0
 70
     0
  3

  4
"
  5

  6

  7

 40
1.0
 41
2.5
 42
1.0
 43
7.0
 44
1.0
 45
0.0
 46
0.0
 47
0.1
 48
0.1000000001
140
2.5
141
0.0
142
0.0
143
0.0393701
144
1.0
145
0.0
146
0.71
147
1.0
 71
     0
 72
     0
 73
     0
 74
     0
 75
     0
 76
     0
 77
     3
 78
     8
170
     0
171
     2
172
     1
173
     0
174
     0
175
     0
176
   256
177
   256
178
     4
  0
ENDTAB
  0
ENDSEC
  0
SECTION
  2
BLOCKS
  0
BLOCK
  8
0
  2
$MODEL_SPACE
 70
     0
 10
0.0
 20
0.0
 30
0.0
  3
$MODEL_SPACE
  1

  0
ENDBLK
  5
1A
  8
0
  0
BLOCK
 67
     1
  8
0
  2
$PAPER_SPACE
 70
     0
 10
0.0
 20
0.0
 30
0.0
  3
$PAPER_SPACE
  1

  0
ENDBLK
  5
17
 67
     1
  8
0
  0
BLOCK
  8
0
  2
_OPEN30
 70
     0
 10
0.0
 20
0.0
 30
0.0
  3
_OPEN30
  1

  0
LINE
  5
21C5
  8
0
 62
     0
 10
-1.0
 20
0.26794919
 30
0.0
 11
0.0
 21
0.0
 31
0.0
  0
LINE
  5
21C6
  8
0
 62
     0
 10
0.0
 20
0.0
 30
0.0
 11
-1.0
 21
-0.26794919
 31
0.0
  0
LINE
  5
21C7
  8
0
 62
     0
 10
0.0
 20
0.0
 30
0.0
 11
-1.0
 21
0.0
 31
0.0
  0
ENDBLK
  5
21C9
  8
0
  0
BLOCK
  8
0
  2
GENAXEH
 70
     0
 10
0.0
 20
0.0
 30
0.0
  3
GENAXEH
  1

  0
LINE
  5
21D0
  8
0
 10
-1.0
 20
0.0
 30
0.0
 11
1.0
 21
0.0
 31
0.0
  0
ENDBLK
  5
21D2
  8
0
  0
BLOCK
  8
0
  2
_NONE
 70
     0
 10
0.0
 20
0.0
 30
0.0
  3
_NONE
  1

  0
ENDBLK
  5
8193
  8
0
  0
ENDSEC
  0
SECTION
  2
ENTITIES
  0
POINT
  5
1B94
  8
0
 10
0.0
 20
0.0
 30
0.0
1001
GENIUS_GENODEF_13
1002
{
1000
HIER
1070
     1
1002
}
1002
{
1000
MANEDIT
1070
     0
1002
}
1002
{
1000
NOSEL
1070
     0
1002
}
1002
{
1000
BEHIND
1070
     0
1002
}
1002
{
1000
REACTOR
1002
}
1001
GENIUS_GENOBJ-N-SDF_13
1002
{
1000
OWNER
1000
GEN
1002
}
1001
GENIUS_GENOENT_13
1002
{
1000
MYREF
1005
1B94
1002
}
1002
{
1000
GRP
1005
0
1002
}
1001
GENIUS_GENOLIS_13
1002
{
1000
ENT
1005
89
1002
}
  0
LINE
  5
15EEE
  8
AM_0
 10
256.15959774736962
 20
292.88011357768079
 30
0.0
 11
256.15959774736962
 21
217.88011134250681
 31
0.0
  0
LINE
  5
15EEF
  8
AM_0
 10
260.15959786657891
 20
275.38011305614009
 30
0.0
 11
260.15959786657891
 21
235.38011186404739
 31
0.0
  0
LINE
  5
15EF0
  8
AM_0
 10
158.15959482674199
 20
292.88011357768079
 30
0.0
 11
158.15959482674199
 21
217.88011134250681
 31
0.0
  0
LINE
  5
15EF2
  8
AM_0
 10
232.15959724073011
 20
315.38011424823299
 30
0.0
 11
232.15959724073011
 21
195.3801106719545
 31
0.0
  0
LINE
  5
15EF3
  8
AM_0
 10
252.1595976281603
 20
195.72923177246719
 30
0.0
 11
252.1595976281603
 21
315.03099314772038
 31
0.0
  0
LINE
  5
15EF4
  8
AM_0
 10
162.15959494595131
 20
314.15824586655799
 30
0.0
 11
162.15959494595131
 21
196.60195131037611
 31
0.0
  0
ARC
  5
15EF6
  8
AM_0
 10
207.15959628705579
 20
271.88011246009393
 30
0.0
 40
56.5
 50
144.98137173791841
 51
209.8586057579233
  0
LINE
  5
15EF7
  8
ﾁｭｳｼﾝｾﾝ1
 10
207.15959628705579
 20
174.38011246009361
 30
0.0
 11
207.15959628705579
 21
338.38011246009393
 31
0.0
  0
LINE
  5
15EF9
  8
AM_0
 10
178.65959628705559
 20
182.38011246009381
 30
0.0
 11
235.65959628705559
 21
182.38011246009361
 31
0.0
  0
LINE
  5
15EFA
  8
AM_0
 10
232.15959724073011
 20
195.3801106719545
 30
0.0
 11
162.15959494595131
 21
196.60195131037599
 31
0.0
  0
LINE
  5
15EFB
  8
ｶｸﾚｾﾝ2
 10
162.15959494595131
 20
210.3801111189893
 30
0.0
 11
252.1595976281603
 21
210.3801111189893
 31
0.0
  0
LINE
  5
15EFC
  8
ｶｸﾚｾﾝ2
 10
162.15959494595131
 20
201.38011085076849
 30
0.0
 11
252.1595976281603
 21
201.38011085076849
 31
0.0
  0
LINE
  5
15EFD
  8
ﾁｭｳｼﾝｾﾝ1
 10
159.1595949459512
 20
205.88011098487891
 30
0.0
 11
255.1595976281603
 21
205.88011098487891
 31
0.0
  0
LINE
  5
15EFE
  8
ﾁｭｳｼﾝｾﾝ1
 10
149.1595947075327
 20
255.3801124600939
 30
0.0
 11
321.55905378093388
 21
255.3801124600939
 31
0.0
  0
LINE
  5
15EFF
  8
ﾁｭｳｼﾝｾﾝ1
 10
143.8026404616952
 20
271.88011295183219
 30
0.0
 11
270.51655211241638
 21
271.88011295183219
 31
0.0
  0
LINE
  5
15F00
  8
AM_0
 10
224.4633962870557
 20
179.38011246009361
 30
0.0
 11
189.85569628705571
 21
179.38011246009361
 31
0.0
  0
LINE
  5
15F01
  8
AM_0
 10
177.15959628705559
 20
196.34012830160299
 30
0.0
 11
177.15959628705559
 21
183.8801124600939
 31
0.0
  0
LINE
  5
15F02
  8
AM_0
 10
189.85569628705571
 20
179.38011246009361
 30
0.0
 11
184.65959628705559
 21
182.38011246009361
 31
0.0
  0
ARC
  5
15F03
  8
AM_0
 10
178.65959628705579
 20
183.8801124600939
 30
0.0
 40
1.5
 50
180.0
 51
270.0
  0
LINE
  5
15F05
  8
AM_0
 10
153.1595962870559
 20
237.97316107123669
 30
0.0
 11
153.15959628705579
 21
245.70858159892899
 31
0.0
  0
LINE
  5
15F06
  8
AM_0
 10
151.8256410098854
 20
237.9265783264905
 30
0.0
 11
158.15959482674199
 21
238.14776486769989
 31
0.0
  0
LINE
  5
15F07
  8
AM_0
 10
151.84972491422579
 20
235.85601263738479
 30
0.0
 11
158.15959482674199
 21
235.6356671246468
 31
0.0
  0
ARC
  5
15F08
  8
AM_0
 10
151.8846244109281
 20
236.85540346440371
 30
0.0
 40
1.0
 50
198.56658080190289
 51
267.99999999999642
1001
GENIUS_GENODEF_13
1002
{
1000
HIER
1070
     0
1002
}
1002
{
1000
MANEDIT
1070
     0
1002
}
1002
{
1000
NOSEL
1070
     0
1002
}
1002
{
1000
BEHIND
1070
     0
1002
}
1002
{
1000
REACTOR
1002
}
1001
GENIUS_GENOBJ-N-FIL_13
1002
{
1000
OWNER
1000
GEN
1002
}
  0
ARC
  5
15F09
  8
AM_0
 10
256.15959628705582
 20
271.88011246009393
 30
0.0
 40
111.0
 50
198.52714231447439
 51
198.56658080189561
  0
ARC
  5
15F0A
  8
AM_0
 10
151.86054050658819
 20
236.9271874994711
 30
0.0
 40
1.0
 50
92.000000000003695
 51
198.52714231447439
1001
GENIUS_GENODEF_13
1002
{
1000
HIER
1070
     0
1002
}
1002
{
1000
MANEDIT
1070
     0
1002
}
1002
{
1000
NOSEL
1070
     0
1002
}
1002
{
1000
BEHIND
1070
     0
1002
}
1002
{
1000
REACTOR
1002
}
1001
GENIUS_GENOBJ-N-FIL_13
1002
{
1000
OWNER
1000
GEN
1002
}
  0
ARC
  5
15F0B
  8
AM_0
 10
149.02819135189679
 20
246.92290755611859
 30
0.0
 40
1.0
 50
92.000000000003695
 51
193.11367014329909
1001
GENIUS_GENODEF_13
1002
{
1000
HIER
1070
     0
1002
}
1002
{
1000
MANEDIT
1070
     0
1002
}
1002
{
1000
NOSEL
1070
     0
1002
}
1002
{
1000
BEHIND
1070
     0
1002
}
1002
{
1000
REACTOR
1002
}
1001
GENIUS_GENOBJ-N-FIL_13
1002
{
1000
OWNER
1000
GEN
1002
}
  0
ARC
  5
15F0C
  8
AM_0
 10
149.04452608621949
 20
246.85289256115331
 30
0.0
 40
1.0
 50
193.15111826064859
 51
268.0000000000029
1001
GENIUS_GENODEF_13
1002
{
1000
HIER
1070
     0
1002
}
1002
{
1000
MANEDIT
1070
     0
1002
}
1002
{
1000
NOSEL
1070
     0
1002
}
1002
{
1000
BEHIND
1070
     0
1002
}
1002
{
1000
REACTOR
1002
}
1001
GENIUS_GENOBJ-N-FIL_13
1002
{
1000
OWNER
1000
GEN
1002
}
  0
ARC
  5
15F0D
  8
AM_0
 10
256.15959628705582
 20
271.88011246009393
 30
0.0
 40
111.0
 50
193.11367014330551
 51
193.15111826064859
  0
LINE
  5
15F0E
  8
AM_0
 10
148.9932918551942
 20
247.92229838313801
 30
0.0
 11
155.8786422289356
 21
248.16274011640931
 31
0.0
  0
LINE
  5
15F0F
  8
AM_0
 10
149.00962658951701
 20
245.8535017341344
 30
0.0
 11
157.1599016896229
 21
245.5688878560691
 31
0.0
  0
LINE
  5
15F10
  8
AM_0
 10
147.14685495171011
 20
257.91855451400011
 30
0.0
 11
152.36561411763589
 21
258.10079759986661
 31
0.0
  0
LINE
  5
15F11
  8
AM_0
 10
147.1563371040836
 20
255.85086510402769
 30
0.0
 11
153.04230144103261
 21
255.6453227001802
 31
0.0
  0
ARC
  5
15F12
  8
AM_0
 10
147.1817544484127
 20
256.91916368698088
 30
0.0
 40
1.0
 50
92.000000000003695
 51
187.81694783169451
1001
GENIUS_GENODEF_13
1002
{
1000
HIER
1070
     0
1002
}
1002
{
1000
MANEDIT
1070
     0
1002
}
1002
{
1000
NOSEL
1070
     0
1002
}
1002
{
1000
BEHIND
1070
     0
1002
}
1002
{
1000
REACTOR
1002
}
1001
GENIUS_GENOBJ-N-FIL_13
1002
{
1000
OWNER
1000
GEN
1002
}
  0
ARC
  5
15F13
  8
AM_0
 10
147.19123660078611
 20
256.85025593104638
 30
0.0
 40
1.0
 50
187.8531780888062
 51
268.0000000000029
1001
GENIUS_GENODEF_13
1002
{
1000
HIER
1070
     0
1002
}
1002
{
1000
MANEDIT
1070
     0
1002
}
1002
{
1000
NOSEL
1070
     0
1002
}
1002
{
1000
BEHIND
1070
     0
1002
}
1002
{
1000
REACTOR
1002
}
1001
GENIUS_GENOBJ-N-FIL_13
1002
{
1000
OWNER
1000
GEN
1002
}
  0
ARC
  5
15F14
  8
AM_0
 10
256.15959628705582
 20
271.88011246009393
 30
0.0
 40
111.0
 50
187.81694783169451
 51
187.8531780888126
  0
LINE
  5
15F15
  8
AM_0
 10
146.23988316093909
 20
265.84805498119511
 30
0.0
 11
151.00061656594491
 21
265.6818065073474
 31
0.0
  0
LINE
  5
15F16
  8
AM_0
 10
146.23677298247861
 20
267.91521066934928
 30
0.0
 11
150.7879316102526
 21
268.07414063071042
 31
0.0
  0
ARC
  5
15F17
  8
AM_0
 10
146.2716724791814
 20
266.91581984233022
 30
0.0
 40
1.0
 50
92.000000000003695
 51
182.58663322877331
1001
GENIUS_GENODEF_13
1002
{
1000
HIER
1070
     0
1002
}
1002
{
1000
MANEDIT
1070
     0
1002
}
1002
{
1000
NOSEL
1070
     0
1002
}
1002
{
1000
BEHIND
1070
     0
1002
}
1002
{
1000
REACTOR
1002
}
1001
GENIUS_GENOBJ-N-FIL_13
1002
{
1000
OWNER
1000
GEN
1002
}
  0
ARC
  5
15F18
  8
AM_0
 10
256.15959628705582
 20
271.88011246009393
 30
0.0
 40
111.0
 50
182.58663322877331
 51
182.62228408795289
  0
ARC
  5
15F19
  8
AM_0
 10
146.27478265764171
 20
266.84744580821422
 30
0.0
 40
1.0
 50
182.62228408795289
 51
267.99999999999642
1001
GENIUS_GENODEF_13
1002
{
1000
HIER
1070
     0
1002
}
1002
{
1000
MANEDIT
1070
     0
1002
}
1002
{
1000
NOSEL
1070
     0
1002
}
1002
{
1000
BEHIND
1070
     0
1002
}
1002
{
1000
REACTOR
1002
}
1001
GENIUS_GENOBJ-N-FIL_13
1002
{
1000
OWNER
1000
GEN
1002
}
  0
LINE
  5
15F1A
  8
AM_0
 10
174.15959628705559
 20
187.38011246009381
 30
0.0
 11
174.15959628705559
 21
196.39249289867581
 31
0.0
  0
LINE
  5
15F1B
  8
AM_0
 10
175.65959628705559
 20
186.38011246009381
 30
0.0
 11
175.65959628705559
 21
196.3663106001394
 31
0.0
  0
LINE
  5
15F1C
  8
AM_0
 10
177.15959628705559
 20
186.38011246009381
 30
0.0
 11
175.65959628705559
 21
186.38011246009381
 31
0.0
  0
LINE
  5
15F1D
  8
AM_0
 10
175.65959628705559
 20
187.38011246009381
 30
0.0
 11
174.15959628705559
 21
187.38011246009381
 31
0.0
  0
LINE
  5
15F1E
  8
AM_0
 10
162.15959494595131
 20
217.88011134250681
 30
0.0
 11
158.15959482674199
 21
217.88011134250681
 31
0.0
  0
LINE
  5
15F1F
  8
AM_0
 10
237.15959628705559
 20
195.46738891883379
 30
0.0
 11
237.15959628705559
 21
183.88011246009361
 31
0.0
  0
LINE
  5
15F20
  8
AM_0
 10
229.6624617076148
 20
182.38011246009361
 30
0.0
 11
224.4633962870557
 21
179.38011246009361
 31
0.0
  0
ARC
  5
15F21
  8
AM_0
 10
235.65959628705579
 20
183.88011246009361
 30
0.0
 40
1.5
 50
270.0
 51
0.000000000000007
  0
LINE
  5
15F22
  8
AM_0
 10
238.65959628705579
 20
187.38011246009361
 30
0.0
 11
240.15959628705579
 21
187.38011246009361
 31
0.0
  0
LINE
  5
15F23
  8
AM_0
 10
252.1595976281603
 20
195.72923177246719
 30
0.0
 11
232.15959724073011
 21
195.3801106719545
 31
0.0
  0
LINE
  5
15F24
  8
AM_0
 10
238.65959628705559
 20
186.38011246009361
 30
0.0
 11
237.15959628705559
 21
186.38011246009361
 31
0.0
  0
LINE
  5
15F25
  8
AM_0
 10
238.65959628705559
 20
195.4935718564559
 30
0.0
 11
238.65959628705559
 21
186.38011246009361
 31
0.0
  0
LINE
  5
15F26
  8
AM_0
 10
240.15959628705579
 20
187.38011246009361
 30
0.0
 11
240.15959628705579
 21
195.5197547940781
 31
0.0
  0
LINE
  5
15F27
  8
AM_0
 10
252.1595976281603
 20
217.88011134250681
 30
0.0
 11
256.15959774736962
 21
217.88011134250681
 31
0.0
  0
LINE
  5
15F28
  8
AM_0
 10
256.15959774736962
 20
235.38011186404739
 30
0.0
 11
260.15959786657891
 21
235.38011186404739
 31
0.0
  0
ARC
  5
15F2B
  8
AM_0
 10
262.43456816318349
 20
236.85540346440391
 30
0.0
 40
1.0
 50
272.00000000000369
 51
335.58926609317098
1001
GENIUS_GENODEF_13
1002
{
1000
HIER
1070
     0
1002
}
1002
{
1000
MANEDIT
1070
     0
1002
}
1002
{
1000
NOSEL
1070
     0
1002
}
1002
{
1000
BEHIND
1070
     0
1002
}
1002
{
1000
REACTOR
1002
}
1001
GENIUS_GENOBJ-N-FIL_13
1002
{
1000
OWNER
1000
GEN
1002
}
  0
LINE
  5
15F2D
  8
AM_0
 10
262.46946765988599
 20
235.85601263738479
 30
0.0
 11
261.48345614923431
 21
235.821580356705
 31
0.0
  0
ARC
  5
15F41
  8
AM_0
 10
222.18945281610311
 20
331.84847214636352
 30
0.0
 40
1.0
 50
1.9999999999971081
 51
82.146821911194237
1001
GENIUS_GENODEF_13
1002
{
1000
HIER
1070
     0
1002
}
1002
{
1000
MANEDIT
1070
     0
1002
}
1002
{
1000
NOSEL
1070
     0
1002
}
1002
{
1000
BEHIND
1070
     0
1002
}
1002
{
1000
REACTOR
1002
}
1001
GENIUS_GENOBJ-N-FIL_13
1002
{
1000
OWNER
1000
GEN
1002
}
  0
ARC
  5
15F42
  8
AM_0
 10
207.15959628705579
 20
271.88011246009393
 30
0.0
 40
56.5
 50
55.136162045695208
 51
124.8638379543048
  0
LINE
  5
15F43
  8
AM_0
 10
232.15959724073011
 20
315.38011424823321
 30
0.0
 11
162.15959494595131
 21
314.15824586655788
 31
0.0
  0
LINE
  5
15F44
  8
ｶｸﾚｾﾝ2
 10
162.15959494595131
 20
309.38011406941928
 30
0.0
 11
252.1595976281603
 21
309.38011406941928
 31
0.0
  0
LINE
  5
15F45
  8
ｶｸﾚｾﾝ2
 10
162.15959494595131
 20
300.38011380119838
 30
0.0
 11
252.1595976281603
 21
300.38011380119838
 31
0.0
  0
LINE
  5
15F46
  8
ﾁｭｳｼﾝｾﾝ1
 10
159.1595949459512
 20
304.88011393530883
 30
0.0
 11
255.1595976281603
 21
304.88011393530883
 31
0.0
  0
LINE
  5
15F4A
  8
AM_0
 10
149.00962658951701
 20
297.90672318605311
 30
0.0
 11
157.1599016896227
 21
298.19133706411822
 31
0.0
  0
LINE
  5
15F4B
  8
AM_0
 10
151.8256410098854
 20
305.83364659369698
 30
0.0
 11
161.15959628705579
 21
305.50769769301661
 31
0.0
  0
LINE
  5
15F4C
  8
AM_0
 10
151.84972491422579
 20
307.9042122828028
 30
0.0
 11
161.15959628705579
 21
308.22932015501118
 31
0.0
  0
LINE
  5
15F4E
  8
AM_0
 10
146.23988316093909
 20
277.91216993899229
 30
0.0
 11
151.00061656594491
 21
278.07841841284022
 31
0.0
  0
LINE
  5
15F4F
  8
AM_0
 10
146.23677298247861
 20
275.84501425083801
 30
0.0
 11
150.7879316102526
 21
275.68608428947732
 31
0.0
  0
ARC
  5
15F50
  8
AM_0
 10
146.2716724791814
 20
276.84440507785689
 30
0.0
 40
1.0
 50
177.41336677122669
 51
267.99999999999642
1001
GENIUS_GENODEF_13
1002
{
1000
HIER
1070
     0
1002
}
1002
{
1000
MANEDIT
1070
     0
1002
}
1002
{
1000
NOSEL
1070
     0
1002
}
1002
{
1000
BEHIND
1070
     0
1002
}
1002
{
1000
REACTOR
1002
}
1001
GENIUS_GENOBJ-N-FIL_13
1002
{
1000
OWNER
1000
GEN
1002
}
  0
ARC
  5
15F51
  8
AM_0
 10
256.15959628705582
 20
271.88011246009393
 30
0.0
 40
111.0
 50
177.37771591204699
 51
177.41336677122669
  0
ARC
  5
15F52
  8
AM_0
 10
146.27478265764171
 20
276.91277911197312
 30
0.0
 40
1.0
 50
92.000000000003695
 51
177.37771591204699
1001
GENIUS_GENODEF_13
1002
{
1000
HIER
1070
     0
1002
}
1002
{
1000
MANEDIT
1070
     0
1002
}
1002
{
1000
NOSEL
1070
     0
1002
}
1002
{
1000
BEHIND
1070
     0
1002
}
1002
{
1000
REACTOR
1002
}
1001
GENIUS_GENOBJ-N-FIL_13
1002
{
1000
OWNER
1000
GEN
1002
}
  0
LINE
  5
15F53
  8
AM_0
 10
147.1563371040836
 20
287.90935981616008
 30
0.0
 11
153.04230144103261
 21
288.11490222000731
 31
0.0
  0
LINE
  5
15F54
  8
AM_0
 10
147.14685495171011
 20
285.84167040618718
 30
0.0
 11
152.36561411763589
 21
285.65942732032107
 31
0.0
  0
ARC
  5
15F55
  8
AM_0
 10
147.19123660078611
 20
286.90996898914068
 30
0.0
 40
1.0
 50
91.9999999999972
 51
172.14682191120019
1001
GENIUS_GENODEF_13
1002
{
1000
HIER
1070
     0
1002
}
1002
{
1000
MANEDIT
1070
     0
1002
}
1002
{
1000
NOSEL
1070
     0
1002
}
1002
{
1000
BEHIND
1070
     0
1002
}
1002
{
1000
REACTOR
1002
}
1001
GENIUS_GENOBJ-N-FIL_13
1002
{
1000
OWNER
1000
GEN
1002
}
  0
ARC
  5
15F56
  8
AM_0
 10
256.15959628705582
 20
271.88011246009393
 30
0.0
 40
111.0
 50
172.14682191118729
 51
172.18305216830549
  0
ARC
  5
15F57
  8
AM_0
 10
147.1817544484127
 20
286.84106123320612
 30
0.0
 40
1.0
 50
172.18305216830549
 51
267.99999999999642
1001
GENIUS_GENODEF_13
1002
{
1000
HIER
1070
     0
1002
}
1002
{
1000
MANEDIT
1070
     0
1002
}
1002
{
1000
NOSEL
1070
     0
1002
}
1002
{
1000
BEHIND
1070
     0
1002
}
1002
{
1000
REACTOR
1002
}
1001
GENIUS_GENOBJ-N-FIL_13
1002
{
1000
OWNER
1000
GEN
1002
}
  0
LINE
  5
15F58
  8
AM_0
 10
153.1595962870559
 20
305.78706384895099
 30
0.0
 11
153.15959628705579
 21
298.0516433212585
 31
0.0
  0
ARC
  5
15F59
  8
AM_0
 10
149.04452608621949
 20
296.90733235903372
 30
0.0
 40
1.0
 50
91.9999999999972
 51
166.84888173935141
1001
GENIUS_GENODEF_13
1002
{
1000
HIER
1070
     0
1002
}
1002
{
1000
MANEDIT
1070
     0
1002
}
1002
{
1000
NOSEL
1070
     0
1002
}
1002
{
1000
BEHIND
1070
     0
1002
}
1002
{
1000
REACTOR
1002
}
1001
GENIUS_GENOBJ-N-FIL_13
1002
{
1000
OWNER
1000
GEN
1002
}
  0
ARC
  5
15F5A
  8
AM_0
 10
149.02819135189679
 20
296.8373173640685
 30
0.0
 40
1.0
 50
166.8863298567008
 51
267.99999999999642
1001
GENIUS_GENODEF_13
1002
{
1000
HIER
1070
     0
1002
}
1002
{
1000
MANEDIT
1070
     0
1002
}
1002
{
1000
NOSEL
1070
     0
1002
}
1002
{
1000
BEHIND
1070
     0
1002
}
1002
{
1000
REACTOR
1002
}
1001
GENIUS_GENOBJ-N-FIL_13
1002
{
1000
OWNER
1000
GEN
1002
}
  0
ARC
  5
15F5B
  8
AM_0
 10
256.15959628705582
 20
271.88011246009393
 30
0.0
 40
111.0
 50
166.84888173935141
 51
166.8863298567008
  0
LINE
  5
15F5C
  8
AM_0
 10
148.9932918551942
 20
295.8379265370495
 30
0.0
 11
155.87864222893549
 21
295.59748480377812
 31
0.0
  0
ARC
  5
15F5D
  8
AM_0
 10
151.86054050658819
 20
306.83303742071581
 30
0.0
 40
1.0
 50
161.4728576855255
 51
267.99999999999642
1001
GENIUS_GENODEF_13
1002
{
1000
HIER
1070
     0
1002
}
1002
{
1000
MANEDIT
1070
     0
1002
}
1002
{
1000
NOSEL
1070
     0
1002
}
1002
{
1000
BEHIND
1070
     0
1002
}
1002
{
1000
REACTOR
1002
}
1001
GENIUS_GENOBJ-N-FIL_13
1002
{
1000
OWNER
1000
GEN
1002
}
  0
ARC
  5
15F5E
  8
AM_0
 10
256.15959628705582
 20
271.88011246009393
 30
0.0
 40
111.0
 50
161.43341919810311
 51
161.4728576855255
  0
ARC
  5
15F5F
  8
AM_0
 10
151.8846244109281
 20
306.90482145578341
 30
0.0
 40
1.0
 50
92.000000000003695
 51
161.43341919809711
1001
GENIUS_GENODEF_13
1002
{
1000
HIER
1070
     0
1002
}
1002
{
1000
MANEDIT
1070
     0
1002
}
1002
{
1000
NOSEL
1070
     0
1002
}
1002
{
1000
BEHIND
1070
     0
1002
}
1002
{
1000
REACTOR
1002
}
1001
GENIUS_GENOBJ-N-FIL_13
1002
{
1000
OWNER
1000
GEN
1002
}
  0
ARC
  5
15F60
  8
AM_0
 10
166.15959628705579
 20
312.88011246009393
 30
0.0
 40
5.0
 50
90.0
 51
180.0
1001
GENIUS_GENOBJ-N-CEN_13
1002
{
1000
OWNER
1000
GEN
1002
}
1001
GENIUS_GENODEF_13
1002
{
1000
HIER
1070
     0
1002
}
1002
{
1000
MANEDIT
1070
     0
1002
}
1002
{
1000
NOSEL
1070
     0
1002
}
1002
{
1000
BEHIND
1070
     0
1002
}
1002
{
1000
REACTOR
1002
}
1001
GENIUS_GENOBJ-N-FIL_13
1002
{
1000
OWNER
1000
GEN
1002
}
  0
LINE
  5
15F61
  8
AM_0
 10
162.15959494595131
 20
292.88011357768079
 30
0.0
 11
158.15959482674199
 21
292.88011357768079
 31
0.0
  0
ARC
  5
15F62
  8
AM_0
 10
159.65959628705579
 20
305.16299094137872
 30
0.0
 40
1.5
 50
324.98137173791122
 51
0.000000000000007
1001
GENIUS_GENODEF_13
1002
{
1000
HIER
1070
     0
1002
}
1002
{
1000
MANEDIT
1070
     0
1002
}
1002
{
1000
NOSEL
1070
     0
1002
}
1002
{
1000
BEHIND
1070
     0
1002
}
1002
{
1000
REACTOR
1002
}
1001
GENIUS_GENOBJ-N-FIL_13
1002
{
1000
OWNER
1000
GEN
1002
}
  0
LINE
  5
15F63
  8
AM_0
 10
161.15959628705579
 20
305.16299094137878
 30
0.0
 11
161.15959628705579
 21
312.88011246009393
 31
0.0
1001
GENIUS_GENODEF_13
1002
{
1000
HIER
1070
     0
1002
}
1002
{
1000
MANEDIT
1070
     0
1002
}
1002
{
1000
NOSEL
1070
     0
1002
}
1002
{
1000
BEHIND
1070
     0
1002
}
1002
{
1000
REACTOR
1002
}
1001
GENIUS_GENOBJ-N-CEN_13
1002
{
1000
OWNER
1000
GEN
1002
}
  0
LINE
  5
15F64
  8
AM_0
 10
166.15959628705579
 20
317.88011246009393
 30
0.0
 11
173.71935107264389
 21
317.88011246009393
 31
0.0
  0
ARC
  5
15F65
  8
AM_0
 10
172.20667132643351
 20
327.17916824056118
 30
0.0
 40
1.0
 50
2.0000000000036211
 51
108.5271423144744
1001
GENIUS_GENODEF_13
1002
{
1000
HIER
1070
     0
1002
}
1002
{
1000
MANEDIT
1070
     0
1002
}
1002
{
1000
NOSEL
1070
     0
1002
}
1002
{
1000
BEHIND
1070
     0
1002
}
1002
{
1000
REACTOR
1002
}
1001
GENIUS_GENOBJ-N-FIL_13
1002
{
1000
OWNER
1000
GEN
1002
}
  0
LINE
  5
15F66
  8
AM_0
 10
171.13549646434669
 20
327.18998383292387
 30
0.0
 11
170.81038859213839
 21
317.88011246009393
 31
0.0
  0
ARC
  5
15F67
  8
AM_0
 10
207.15959628705579
 20
222.8801124600939
 30
0.0
 40
111.0
 50
108.5271423144744
 51
108.56658080189671
  0
ARC
  5
15F68
  8
AM_0
 10
172.13488729136611
 20
327.15508433622131
 30
0.0
 40
1.0
 50
108.5665808019029
 51
177.9999999999898
1001
GENIUS_GENODEF_13
1002
{
1000
HIER
1070
     0
1002
}
1002
{
1000
MANEDIT
1070
     0
1002
}
1002
{
1000
NOSEL
1070
     0
1002
}
1002
{
1000
BEHIND
1070
     0
1002
}
1002
{
1000
REACTOR
1002
}
1001
GENIUS_GENOBJ-N-FIL_13
1002
{
1000
OWNER
1000
GEN
1002
}
  0
LINE
  5
15F69
  8
AM_0
 10
181.13298556109649
 20
330.03008215763259
 30
0.0
 11
180.8483716830311
 21
321.8798070575267
 31
0.0
  0
LINE
  5
15F6A
  8
AM_0
 10
183.20178221009991
 20
330.04641689195552
 30
0.0
 11
183.44222394337129
 21
323.16106651821411
 31
0.0
  0
LINE
  5
15F6B
  8
AM_0
 10
173.20606215345259
 20
327.21406773726397
 30
0.0
 11
173.53170296873549
 21
317.88893487155502
 31
0.0
  0
ARC
  5
15F6C
  8
AM_0
 10
173.71935107264389
 20
319.88011246009393
 30
0.0
 40
2.0
 50
270.0
 51
304.86383795430481
1001
GENIUS_GENOBJ-N-FIL_13
1002
{
1000
OWNER
1000
GEN
1002
}
1001
GENIUS_GENODEF_13
1002
{
1000
HIER
1070
     0
1002
}
1002
{
1000
MANEDIT
1070
     0
1002
}
1002
{
1000
NOSEL
1070
     0
1002
}
1002
{
1000
BEHIND
1070
     0
1002
}
1002
{
1000
OTHER
1070
     0
1002
}
1002
{
1000
REACTOR
1002
}
  0
ARC
  5
15F6D
  8
AM_0
 10
182.13237638811549
 20
329.99518266093008
 30
0.0
 40
1.0
 50
103.15111826065571
 51
178.0000000000029
1001
GENIUS_GENODEF_13
1002
{
1000
HIER
1070
     0
1002
}
1002
{
1000
MANEDIT
1070
     0
1002
}
1002
{
1000
NOSEL
1070
     0
1002
}
1002
{
1000
BEHIND
1070
     0
1002
}
1002
{
1000
REACTOR
1002
}
1001
GENIUS_GENOBJ-N-FIL_13
1002
{
1000
OWNER
1000
GEN
1002
}
  0
ARC
  5
15F6E
  8
AM_0
 10
182.20239138308099
 20
330.01151739525272
 30
0.0
 40
1.0
 50
2.0000000000036211
 51
103.11367014329829
1001
GENIUS_GENODEF_13
1002
{
1000
HIER
1070
     0
1002
}
1002
{
1000
MANEDIT
1070
     0
1002
}
1002
{
1000
NOSEL
1070
     0
1002
}
1002
{
1000
BEHIND
1070
     0
1002
}
1002
{
1000
REACTOR
1002
}
1001
GENIUS_GENOBJ-N-FIL_13
1002
{
1000
OWNER
1000
GEN
1002
}
  0
ARC
  5
15F6F
  8
AM_0
 10
207.15959628705579
 20
222.8801124600939
 30
0.0
 40
111.0
 50
103.11367014329829
 51
103.15111826065571
  0
LINE
  5
15F70
  8
AM_0
 10
191.13034893098961
 20
331.8833716430662
 30
0.0
 11
190.92480652714221
 21
325.99740730611688
 31
0.0
  0
ARC
  5
15F71
  8
AM_0
 10
207.15959628705579
 20
222.8801124600939
 30
0.0
 40
111.0
 50
97.816947831694947
 51
97.853178088805777
  0
ARC
  5
15F72
  8
AM_0
 10
192.1297397580085
 20
331.84847214636352
 30
0.0
 40
1.0
 50
97.853178088805777
 51
178.0000000000029
1001
GENIUS_GENODEF_13
1002
{
1000
HIER
1070
     0
1002
}
1002
{
1000
MANEDIT
1070
     0
1002
}
1002
{
1000
NOSEL
1070
     0
1002
}
1002
{
1000
BEHIND
1070
     0
1002
}
1002
{
1000
REACTOR
1002
}
1001
GENIUS_GENOBJ-N-FIL_13
1002
{
1000
OWNER
1000
GEN
1002
}
  0
ARC
  5
15F73
  8
AM_0
 10
192.19864751394309
 20
331.85795429873679
 30
0.0
 40
1.0
 50
1.9999999999971081
 51
97.816947831694947
1001
GENIUS_GENODEF_13
1002
{
1000
HIER
1070
     0
1002
}
1002
{
1000
MANEDIT
1070
     0
1002
}
1002
{
1000
NOSEL
1070
     0
1002
}
1002
{
1000
BEHIND
1070
     0
1002
}
1002
{
1000
REACTOR
1002
}
1001
GENIUS_GENOBJ-N-FIL_13
1002
{
1000
OWNER
1000
GEN
1002
}
  0
LINE
  5
15F74
  8
AM_0
 10
193.19803834096231
 20
331.89285379543958
 30
0.0
 11
193.3802814268285
 21
326.67409462951377
 31
0.0
  0
ARC
  5
15F75
  8
AM_0
 10
202.12692963517631
 20
332.76492608950781
 30
0.0
 40
1.0
 50
92.622284087953005
 51
177.99999999999639
1001
GENIUS_GENODEF_13
1002
{
1000
HIER
1070
     0
1002
}
1002
{
1000
MANEDIT
1070
     0
1002
}
1002
{
1000
NOSEL
1070
     0
1002
}
1002
{
1000
BEHIND
1070
     0
1002
}
1002
{
1000
REACTOR
1002
}
1001
GENIUS_GENOBJ-N-FIL_13
1002
{
1000
OWNER
1000
GEN
1002
}
  0
ARC
  5
15F76
  8
AM_0
 10
202.19530366929229
 20
332.76803626796823
 30
0.0
 40
1.0
 50
2.0000000000036211
 51
92.586633228773294
1001
GENIUS_GENODEF_13
1002
{
1000
HIER
1070
     0
1002
}
1002
{
1000
MANEDIT
1070
     0
1002
}
1002
{
1000
NOSEL
1070
     0
1002
}
1002
{
1000
BEHIND
1070
     0
1002
}
1002
{
1000
REACTOR
1002
}
1001
GENIUS_GENOBJ-N-FIL_13
1002
{
1000
OWNER
1000
GEN
1002
}
  0
LINE
  5
15F77
  8
AM_0
 10
201.1275388081574
 20
332.79982558621032
 30
0.0
 11
200.9612903343093
 21
328.03909218120481
 31
0.0
  0
LINE
  5
15F78
  8
AM_0
 10
203.19469449631151
 20
332.80293576467091
 30
0.0
 11
203.35362445767231
 21
328.25177713689692
 31
0.0
  0
ARC
  5
15F79
  8
AM_0
 10
212.1922629389353
 20
332.76492608950781
 30
0.0
 40
1.0
 50
2.0000000000036211
 51
87.377715912047023
1001
GENIUS_GENODEF_13
1002
{
1000
HIER
1070
     0
1002
}
1002
{
1000
MANEDIT
1070
     0
1002
}
1002
{
1000
NOSEL
1070
     0
1002
}
1002
{
1000
BEHIND
1070
     0
1002
}
1002
{
1000
REACTOR
1002
}
1001
GENIUS_GENOBJ-N-FIL_13
1002
{
1000
OWNER
1000
GEN
1002
}
  0
ARC
  5
15F7A
  8
AM_0
 10
212.1238889048193
 20
332.76803626796823
 30
0.0
 40
1.0
 50
87.413366771226734
 51
177.99999999999639
1001
GENIUS_GENODEF_13
1002
{
1000
HIER
1070
     0
1002
}
1002
{
1000
MANEDIT
1070
     0
1002
}
1002
{
1000
NOSEL
1070
     0
1002
}
1002
{
1000
BEHIND
1070
     0
1002
}
1002
{
1000
REACTOR
1002
}
1001
GENIUS_GENOBJ-N-FIL_13
1002
{
1000
OWNER
1000
GEN
1002
}
  0
LINE
  5
15F7B
  8
AM_0
 10
213.1916537659543
 20
332.79982558621032
 30
0.0
 11
213.35790223980231
 21
328.03909218120481
 31
0.0
  0
LINE
  5
15F7C
  8
AM_0
 10
211.1244980778001
 20
332.80293576467091
 30
0.0
 11
210.9655681164393
 21
328.25177713689692
 31
0.0
  0
ARC
  5
15F7D
  8
AM_0
 10
207.15959628705579
 20
222.8801124600939
 30
0.0
 40
111.0
 50
82.146821911194237
 51
82.183052168305053
  0
ARC
  5
15F7E
  8
AM_0
 10
222.1205450601685
 20
331.85795429873679
 30
0.0
 40
1.0
 50
82.183052168305053
 51
178.0000000000029
1001
GENIUS_GENODEF_13
1002
{
1000
HIER
1070
     0
1002
}
1002
{
1000
MANEDIT
1070
     0
1002
}
1002
{
1000
NOSEL
1070
     0
1002
}
1002
{
1000
BEHIND
1070
     0
1002
}
1002
{
1000
REACTOR
1002
}
1001
GENIUS_GENOBJ-N-FIL_13
1002
{
1000
OWNER
1000
GEN
1002
}
  0
LINE
  5
15F7F
  8
AM_0
 10
221.1211542331493
 20
331.89285379543958
 30
0.0
 11
220.93891114728311
 21
326.67409462951377
 31
0.0
  0
ARC
  5
15F82
  8
AM_0
 10
248.15959628705579
 20
312.88011246009393
 30
0.0
 40
5.0
 50
0.000000000000007
 51
90.0
1001
GENIUS_GENODEF_13
1002
{
1000
HIER
1070
     0
1002
}
1002
{
1000
MANEDIT
1070
     0
1002
}
1002
{
1000
NOSEL
1070
     0
1002
}
1002
{
1000
BEHIND
1070
     0
1002
}
1002
{
1000
REACTOR
1002
}
1001
GENIUS_GENOBJ-N-FIL_13
1002
{
1000
OWNER
1000
GEN
1002
}
  0
LINE
  5
15F83
  8
AM_0
 10
256.15959774736962
 20
275.38011305614009
 30
0.0
 11
260.15959786657891
 21
275.38011305614009
 31
0.0
  0
LINE
  5
15F84
  8
AM_0
 10
262.49355156422621
 20
305.83364659369698
 30
0.0
 11
253.15959628705579
 21
305.50769769301661
 31
0.0
  0
LINE
  5
15F85
  8
AM_0
 10
262.46946765988582
 20
307.9042122828028
 30
0.0
 11
253.15959628705579
 21
308.22932015501118
 31
0.0
  0
LINE
  5
15F86
  8
AM_0
 10
252.1595976281603
 20
292.88011357768079
 30
0.0
 11
256.15959774736962
 21
292.88011357768079
 31
0.0
  0
LINE
  5
15F87
  8
AM_0
 10
252.1595976281603
 20
315.03099314772049
 30
0.0
 11
232.15959724073011
 21
315.38011424823299
 31
0.0
  0
ARC
  5
15F88
  8
AM_0
 10
254.65959628705579
 20
305.16299094137878
 30
0.0
 40
1.5
 50
180.0
 51
215.01862826208159
1001
GENIUS_GENODEF_13
1002
{
1000
HIER
1070
     0
1002
}
1002
{
1000
MANEDIT
1070
     0
1002
}
1002
{
1000
NOSEL
1070
     0
1002
}
1002
{
1000
BEHIND
1070
     0
1002
}
1002
{
1000
REACTOR
1002
}
1001
GENIUS_GENOBJ-N-FIL_13
1002
{
1000
OWNER
1000
GEN
1002
}
  0
LINE
  5
15F89
  8
AM_0
 10
253.15959628705579
 20
305.16299094137878
 30
0.0
 11
253.15959628705579
 21
312.88011246009393
 31
0.0
1001
GENIUS_GENODEF_13
1002
{
1000
HIER
1070
     0
1002
}
1002
{
1000
MANEDIT
1070
     0
1002
}
1002
{
1000
NOSEL
1070
     0
1002
}
1002
{
1000
BEHIND
1070
     0
1002
}
1002
{
1000
REACTOR
1002
}
1001
GENIUS_GENOBJ-N-CEN_13
1002
{
1000
OWNER
1000
GEN
1002
}
  0
LINE
  5
15F8A
  8
AM_0
 10
268.08241959163303
 20
275.84501425083801
 30
0.0
 11
263.5312609638591
 21
275.68608428947732
 31
0.0
  0
LINE
  5
15F8B
  8
AM_0
 10
268.0793094131725
 20
277.91216993899229
 30
0.0
 11
263.3185760081667
 21
278.07841841284022
 31
0.0
  0
ARC
  5
15F8C
  8
AM_0
 10
268.04752009493018
 20
276.84440507785712
 30
0.0
 40
1.0
 50
272.00000000000369
 51
2.5866332287732949
1001
GENIUS_GENODEF_13
1002
{
1000
HIER
1070
     0
1002
}
1002
{
1000
MANEDIT
1070
     0
1002
}
1002
{
1000
NOSEL
1070
     0
1002
}
1002
{
1000
BEHIND
1070
     0
1002
}
1002
{
1000
REACTOR
1002
}
1001
GENIUS_GENOBJ-N-FIL_13
1002
{
1000
OWNER
1000
GEN
1002
}
  0
ARC
  5
15F8D
  8
AM_0
 10
268.04440991646987
 20
276.91277911197329
 30
0.0
 40
1.0
 50
2.6222840879528651
 51
88.000000000002785
1001
GENIUS_GENODEF_13
1002
{
1000
HIER
1070
     0
1002
}
1002
{
1000
MANEDIT
1070
     0
1002
}
1002
{
1000
NOSEL
1070
     0
1002
}
1002
{
1000
BEHIND
1070
     0
1002
}
1002
{
1000
REACTOR
1002
}
1001
GENIUS_GENOBJ-N-FIL_13
1002
{
1000
OWNER
1000
GEN
1002
}
  0
ARC
  5
15F8E
  8
AM_0
 10
158.15959628705579
 20
271.88011246009359
 30
0.0
 40
111.0
 50
2.5866332287732949
 51
2.6222840879528651
  0
LINE
  5
15F8F
  8
AM_0
 10
267.17233762240153
 20
285.84167040618718
 30
0.0
 11
261.95357845647573
 21
285.65942732032107
 31
0.0
  0
LINE
  5
15F90
  8
AM_0
 10
267.16285547002798
 20
287.90935981616008
 30
0.0
 11
261.27689113307912
 21
288.11490222000731
 31
0.0
  0
ARC
  5
15F91
  8
AM_0
 10
267.12795597332553
 20
286.90996898914091
 30
0.0
 40
1.0
 50
7.8531780887997611
 51
88.000000000002785
1001
GENIUS_GENODEF_13
1002
{
1000
HIER
1070
     0
1002
}
1002
{
1000
MANEDIT
1070
     0
1002
}
1002
{
1000
NOSEL
1070
     0
1002
}
1002
{
1000
BEHIND
1070
     0
1002
}
1002
{
1000
REACTOR
1002
}
1001
GENIUS_GENOBJ-N-FIL_13
1002
{
1000
OWNER
1000
GEN
1002
}
  0
ARC
  5
15F92
  8
AM_0
 10
158.15959628705579
 20
271.88011246009359
 30
0.0
 40
111.0
 50
7.8169478316945069
 51
7.853178088812685
  0
ARC
  5
15F93
  8
AM_0
 10
267.13743812569902
 20
286.8410612332064
 30
0.0
 40
1.0
 50
271.99999999999721
 51
7.8169478316945069
1001
GENIUS_GENODEF_13
1002
{
1000
HIER
1070
     0
1002
}
1002
{
1000
MANEDIT
1070
     0
1002
}
1002
{
1000
NOSEL
1070
     0
1002
}
1002
{
1000
BEHIND
1070
     0
1002
}
1002
{
1000
REACTOR
1002
}
1001
GENIUS_GENOBJ-N-FIL_13
1002
{
1000
OWNER
1000
GEN
1002
}
  0
LINE
  5
15F94
  8
AM_0
 10
261.15959628705571
 20
305.78706384895099
 30
0.0
 11
261.15959628705582
 21
298.0516433212585
 31
0.0
  0
LINE
  5
15F95
  8
AM_0
 10
265.30956598459471
 20
297.90672318605311
 30
0.0
 11
257.15929088448888
 21
298.19133706411822
 31
0.0
  0
LINE
  5
15F96
  8
AM_0
 10
265.32590071891741
 20
295.8379265370495
 30
0.0
 11
258.44055034517601
 21
295.59748480377812
 31
0.0
  0
ARC
  5
15F97
  8
AM_0
 10
158.15959628705579
 20
271.88011246009359
 30
0.0
 40
111.0
 50
13.1136701433055
 51
13.151118260648611
  0
ARC
  5
15F98
  8
AM_0
 10
265.29100122221479
 20
296.83731736406872
 30
0.0
 40
1.0
 50
272.00000000000369
 51
13.11367014329914
1001
GENIUS_GENODEF_13
1002
{
1000
HIER
1070
     0
1002
}
1002
{
1000
MANEDIT
1070
     0
1002
}
1002
{
1000
NOSEL
1070
     0
1002
}
1002
{
1000
BEHIND
1070
     0
1002
}
1002
{
1000
REACTOR
1002
}
1001
GENIUS_GENOBJ-N-FIL_13
1002
{
1000
OWNER
1000
GEN
1002
}
  0
ARC
  5
15F99
  8
AM_0
 10
265.27466648789209
 20
296.907332359034
 30
0.0
 40
1.0
 50
13.151118260648611
 51
88.000000000002785
1001
GENIUS_GENODEF_13
1002
{
1000
HIER
1070
     0
1002
}
1002
{
1000
MANEDIT
1070
     0
1002
}
1002
{
1000
NOSEL
1070
     0
1002
}
1002
{
1000
BEHIND
1070
     0
1002
}
1002
{
1000
REACTOR
1002
}
1001
GENIUS_GENOBJ-N-FIL_13
1002
{
1000
OWNER
1000
GEN
1002
}
  0
ARC
  5
15F9A
  8
AM_0
 10
262.45865206752342
 20
306.83303742071598
 30
0.0
 40
1.0
 50
271.99999999999721
 51
18.527142314474439
1001
GENIUS_GENODEF_13
1002
{
1000
HIER
1070
     0
1002
}
1002
{
1000
MANEDIT
1070
     0
1002
}
1002
{
1000
NOSEL
1070
     0
1002
}
1002
{
1000
BEHIND
1070
     0
1002
}
1002
{
1000
REACTOR
1002
}
1001
GENIUS_GENOBJ-N-FIL_13
1002
{
1000
OWNER
1000
GEN
1002
}
  0
ARC
  5
15F9B
  8
AM_0
 10
158.15959628705579
 20
271.88011246009359
 30
0.0
 40
111.0
 50
18.527142314474439
 51
18.566580801895729
  0
ARC
  5
15F9C
  8
AM_0
 10
262.43456816318349
 20
306.90482145578358
 30
0.0
 40
1.0
 50
18.56658080190293
 51
87.999999999996334
1001
GENIUS_GENODEF_13
1002
{
1000
HIER
1070
     0
1002
}
1002
{
1000
MANEDIT
1070
     0
1002
}
1002
{
1000
NOSEL
1070
     0
1002
}
1002
{
1000
BEHIND
1070
     0
1002
}
1002
{
1000
REACTOR
1002
}
1001
GENIUS_GENOBJ-N-FIL_13
1002
{
1000
OWNER
1000
GEN
1002
}
  0
ARC
  5
15F9D
  8
AM_0
 10
240.59984150146769
 20
319.88011246009393
 30
0.0
 40
2.0
 50
235.13616204569519
 51
270.0
1001
GENIUS_GENODEF_13
1002
{
1000
HIER
1070
     0
1002
}
1002
{
1000
MANEDIT
1070
     0
1002
}
1002
{
1000
NOSEL
1070
     0
1002
}
1002
{
1000
BEHIND
1070
     0
1002
}
1002
{
1000
OTHER
1070
     0
1002
}
1002
{
1000
REACTOR
1002
}
1001
GENIUS_GENOBJ-N-FIL_13
1002
{
1000
OWNER
1000
GEN
1002
}
  0
LINE
  5
15F9E
  8
AM_0
 10
231.1174103640117
 20
330.04641689195552
 30
0.0
 11
230.87696863074029
 21
323.16106651821411
 31
0.0
  0
LINE
  5
15F9F
  8
AM_0
 10
233.18620701301509
 20
330.03008215763259
 30
0.0
 11
233.47082089108051
 21
321.8798070575267
 31
0.0
  0
LINE
  5
15FA0
  8
AM_0
 10
223.188843643122
 20
331.8833716430662
 30
0.0
 11
223.3943860469694
 21
325.99740730611688
 31
0.0
  0
ARC
  5
15FA1
  8
AM_0
 10
232.11680119103059
 20
330.01151739525272
 30
0.0
 40
1.0
 50
76.886329856701622
 51
177.99999999999639
1001
GENIUS_GENODEF_13
1002
{
1000
HIER
1070
     0
1002
}
1002
{
1000
MANEDIT
1070
     0
1002
}
1002
{
1000
NOSEL
1070
     0
1002
}
1002
{
1000
BEHIND
1070
     0
1002
}
1002
{
1000
REACTOR
1002
}
1001
GENIUS_GENOBJ-N-FIL_13
1002
{
1000
OWNER
1000
GEN
1002
}
  0
ARC
  5
15FA2
  8
AM_0
 10
232.18681618599609
 20
329.99518266093008
 30
0.0
 40
1.0
 50
1.9999999999971081
 51
76.848881739344307
1001
GENIUS_GENODEF_13
1002
{
1000
HIER
1070
     0
1002
}
1002
{
1000
MANEDIT
1070
     0
1002
}
1002
{
1000
NOSEL
1070
     0
1002
}
1002
{
1000
BEHIND
1070
     0
1002
}
1002
{
1000
REACTOR
1002
}
1001
GENIUS_GENOBJ-N-FIL_13
1002
{
1000
OWNER
1000
GEN
1002
}
  0
ARC
  5
15FA3
  8
AM_0
 10
207.15959628705579
 20
222.8801124600939
 30
0.0
 40
111.0
 50
76.848881739344307
 51
76.886329856701622
  0
LINE
  5
15FA4
  8
AM_0
 10
243.1836961097649
 20
327.18998383292387
 30
0.0
 11
243.5088039819733
 21
317.88011246009393
 31
0.0
  0
LINE
  5
15FA5
  8
AM_0
 10
241.11313042065899
 20
327.21406773726397
 30
0.0
 11
240.7874896053757
 21
317.88893487155491
 31
0.0
  0
LINE
  5
15FA6
  8
AM_0
 10
240.59984150146769
 20
317.88011246009393
 30
0.0
 11
248.15959628705579
 21
317.88011246009393
 31
0.0
  0
ARC
  5
15FA7
  8
AM_0
 10
207.15959628705579
 20
222.8801124600939
 30
0.0
 40
111.0
 50
71.433419198103252
 51
71.472857685525582
  0
ARC
  5
15FA8
  8
AM_0
 10
242.1843052827455
 20
327.15508433622131
 30
0.0
 40
1.0
 50
2.000000000010135
 51
71.43341919809707
1001
GENIUS_GENODEF_13
1002
{
1000
HIER
1070
     0
1002
}
1002
{
1000
MANEDIT
1070
     0
1002
}
1002
{
1000
NOSEL
1070
     0
1002
}
1002
{
1000
BEHIND
1070
     0
1002
}
1002
{
1000
REACTOR
1002
}
1001
GENIUS_GENOBJ-N-FIL_13
1002
{
1000
OWNER
1000
GEN
1002
}
  0
ARC
  5
15FA9
  8
AM_0
 10
242.1125212476781
 20
327.17916824056118
 30
0.0
 40
1.0
 50
71.472857685525582
 51
177.99999999999639
1001
GENIUS_GENODEF_13
1002
{
1000
HIER
1070
     0
1002
}
1002
{
1000
MANEDIT
1070
     0
1002
}
1002
{
1000
NOSEL
1070
     0
1002
}
1002
{
1000
BEHIND
1070
     0
1002
}
1002
{
1000
REACTOR
1002
}
1001
GENIUS_GENOBJ-N-FIL_13
1002
{
1000
OWNER
1000
GEN
1002
}
  0
LINE
  5
15FAF
  8
ﾁｭｳｼﾝｾﾝ1
 10
588.68272422205825
 20
255.38011246009381
 30
0.0
 11
414.86717577531198
 21
255.3801124600939
 31
0.0
  0
LINE
  5
15FB3
  8
AM_0
 10
419.86717577531192
 20
305.38011395020987
 30
0.0
 11
419.86717577531192
 21
205.38011096997781
 31
0.0
  0
LINE
  5
15FB6
  8
ﾁｭｳｼﾝｾﾝ1
 10
477.36717748894557
 20
320.3801136000327
 30
0.0
 11
477.36717748894557
 21
190.3801113201549
 31
0.0
  0
LINE
  5
15FB7
  8
AM_0
 10
573.86718036486968
 20
305.38011395020987
 30
0.0
 11
573.86718036486968
 21
205.38011096997781
 31
0.0
  0
LINE
  5
15FB9
  8
AM_0
 10
591.36718036486968
 20
327.88011295183219
 30
0.0
 11
591.36718036486968
 21
215.88011295183219
 31
0.0
  0
LINE
  5
15FBA
  8
AM_0
 10
579.8610768492448
 20
325.88011295183207
 30
0.0
 11
579.86107684924445
 21
217.88011295183219
 31
0.0
  0
ARC
  5
15FBB
  8
AM_0
 10
347.86109210803397
 20
271.88011295183219
 30
0.0
 40
236.0
 50
0.0000050089569522
 51
10.563971730273179
  0
CIRCLE
  5
15FBC
  8
AM_0
 10
477.36717748894557
 20
255.3801124600939
 30
0.0
 40
37.500001117587097
  0
LINE
  5
15FBE
  8
AM_0
 10
563.86718006684634
 20
195.38011067195461
 30
0.0
 11
429.8671760733352
 21
195.38011067195461
 31
0.0
  0
LINE
  5
15FBF
  8
AM_0
 10
563.86718006684634
 20
195.3801106719545
 30
0.0
 11
429.8671760733352
 21
195.3801106719545
 31
0.0
  0
ARC
  5
15FC0
  8
AM_0
 10
347.86109210803397
 20
271.88011295183219
 30
0.0
 40
236.0
 50
349.43603828764122
 51
0.0000050089569522
  0
LINE
  5
15FC1
  8
AM_0
 10
591.36718036486968
 20
225.8801129518321
 30
0.0
 11
579.86107684924445
 21
225.88011295183219
 31
0.0
  0
LINE
  5
15FC2
  8
AM_0
 10
591.36718036486968
 20
215.88011295183219
 30
0.0
 11
581.86107684924468
 21
215.88011295183219
 31
0.0
  0
LINE
  5
15FC3
  8
ﾁｭｳｼﾝｾﾝ1
 10
563.3671800519453
 20
198.38011076136149
 30
0.0
 11
563.3671800519453
 21
213.3801112083963
 31
0.0
  0
CIRCLE
  5
15FC5
  8
AM_0
 10
563.3671800519453
 20
205.88011098487891
 30
0.0
 40
4.5000001341104507
  0
ARC
  5
15FC6
  8
AM_0
 10
563.86718006684634
 20
205.38011096997781
 30
0.0
 40
10.000000298023259
 50
270.0000025044817
 51
0.0000050089569522
  0
LINE
  5
15FC7
  8
ﾁｭｳｼﾝｾﾝ1
 10
555.86717982842788
 20
205.88011098487891
 30
0.0
 11
570.86718027546272
 21
205.88011098487891
 31
0.0
  0
ARC
  5
15FC9
  8
AM_0
 10
578.396975234107
 20
215.88011295183219
 30
0.0
 40
2.0
 50
30.000000000000561
 51
90.0
1001
GENIUS_GENOBJ-N-FIL_13
1002
{
1000
OWNER
1000
GEN
1002
}
1001
GENIUS_GENODEF_13
1002
{
1000
HIER
1070
     0
1002
}
1002
{
1000
MANEDIT
1070
     0
1002
}
1002
{
1000
NOSEL
1070
     0
1002
}
1002
{
1000
BEHIND
1070
     0
1002
}
1002
{
1000
OTHER
1070
     0
1002
}
1002
{
1000
REACTOR
1002
}
  0
ARC
  5
15FCA
  8
AM_0
 10
575.86718036486945
 20
215.88011295183219
 30
0.0
 40
2.0
 50
90.0
 51
180.0
1001
GENIUS_GENODEF_13
1002
{
1000
HIER
1070
     0
1002
}
1002
{
1000
MANEDIT
1070
     0
1002
}
1002
{
1000
NOSEL
1070
     0
1002
}
1002
{
1000
BEHIND
1070
     0
1002
}
1002
{
1000
OTHER
1070
     0
1002
}
1002
{
1000
REACTOR
1002
}
1001
GENIUS_GENOBJ-N-FIL_13
1002
{
1000
OWNER
1000
GEN
1002
}
  0
LINE
  5
15FCB
  8
AM_0
 10
575.86718036486945
 20
217.88011295183219
 30
0.0
 11
578.396975234107
 21
217.88011295183219
 31
0.0
  0
ARC
  5
15FCC
  8
AM_0
 10
581.86107684924468
 20
217.88011295183219
 30
0.0
 40
2.0
 50
210.00000000000051
 51
270.0
1001
GENIUS_GENOBJ-N-FIL_13
1002
{
1000
OWNER
1000
GEN
1002
}
1001
GENIUS_GENODEF_13
1002
{
1000
HIER
1070
     0
1002
}
1002
{
1000
MANEDIT
1070
     0
1002
}
1002
{
1000
NOSEL
1070
     0
1002
}
1002
{
1000
BEHIND
1070
     0
1002
}
1002
{
1000
OTHER
1070
     0
1002
}
1002
{
1000
REACTOR
1002
}
  0
LINE
  5
15FCD
  8
AM_0
 10
579.36107684924445
 20
228.6134961305431
 30
0.0
 11
573.86718036486968
 21
228.6134961305431
 31
0.0
  0
LINE
  5
15FCE
  8
AM_0
 10
591.36718036486968
 20
239.94016295183221
 30
0.0
 11
581.76116422890698
 21
239.94016295183221
 31
0.0
  0
CIRCLE
  5
15FD2
  8
AM_0
 10
430.36717608823608
 20
205.88011098487891
 30
0.0
 40
4.5000001341104507
  0
LINE
  5
15FD4
  8
ﾁｭｳｼﾝｾﾝ1
 10
430.36717608823608
 20
198.38011076136149
 30
0.0
 11
430.36717608823608
 21
213.3801112083963
 31
0.0
  0
LINE
  5
15FD5
  8
ﾁｭｳｼﾝｾﾝ1
 10
437.86717631175401
 20
205.88011098487891
 30
0.0
 11
422.86717586471877
 21
205.88011098487891
 31
0.0
  0
ARC
  5
15FD7
  8
AM_0
 10
429.8671760733352
 20
205.38011096997781
 30
0.0
 40
10.000000298023229
 50
180.0
 51
270.0000025044817
  0
LINE
  5
15FE1
  8
AM_0
 10
577.86107684924468
 20
315.38011295183219
 30
0.0
 11
429.86718036486963
 21
315.38011295183219
 31
0.0
  0
ARC
  5
15FE2
  8
AM_0
 10
577.86107684924468
 20
317.38011295183219
 30
0.0
 40
2.0
 50
270.0
 51
0.000000000000007
1001
GENIUS_GENOBJ-N-FIL_13
1002
{
1000
OWNER
1000
GEN
1002
}
1001
GENIUS_GENODEF_13
1002
{
1000
HIER
1070
     0
1002
}
1002
{
1000
MANEDIT
1070
     0
1002
}
1002
{
1000
NOSEL
1070
     0
1002
}
1002
{
1000
BEHIND
1070
     0
1002
}
1002
{
1000
OTHER
1070
     0
1002
}
1002
{
1000
REACTOR
1002
}
  0
ARC
  5
15FE3
  8
AM_0
 10
563.86718006684634
 20
305.38011395020987
 30
0.0
 40
10.000000298023229
 50
359.9999949910495
 51
89.999997495524809
  0
LINE
  5
15FE4
  8
AM_0
 10
591.36718036486968
 20
303.82005295183222
 30
0.0
 11
581.68643000387613
 21
303.82005295183222
 31
0.0
  0
LINE
  5
15FE7
  8
ﾁｭｳｼﾝｾﾝ1
 10
555.86717982842788
 20
304.88011393530883
 30
0.0
 11
570.86718027546272
 21
304.88011393530883
 31
0.0
  0
CIRCLE
  5
15FE8
  8
AM_0
 10
563.3671800519453
 20
304.88011393530883
 30
0.0
 40
4.5000001341104507
  0
LINE
  5
15FE9
  8
ﾁｭｳｼﾝｾﾝ1
 10
563.3671800519453
 20
312.3801141588263
 30
0.0
 11
563.3671800519453
 21
297.38011371179141
 31
0.0
  0
LINE
  5
15FEA
  8
AM_0
 10
591.36718036486968
 20
317.88011295183219
 30
0.0
 11
579.8610768492448
 21
317.88011295183219
 31
0.0
  0
LINE
  5
15FEB
  8
AM_0
 10
591.36718036486968
 20
327.88011295183219
 30
0.0
 11
581.86107684924468
 21
327.88011295183207
 31
0.0
  0
ARC
  5
15FEC
  8
AM_0
 10
581.86107684924468
 20
325.88011295183207
 30
0.0
 40
2.0
 50
90.0
 51
180.0
1001
GENIUS_GENOBJ-N-FIL_13
1002
{
1000
OWNER
1000
GEN
1002
}
1001
GENIUS_GENODEF_13
1002
{
1000
HIER
1070
     0
1002
}
1002
{
1000
MANEDIT
1070
     0
1002
}
1002
{
1000
NOSEL
1070
     0
1002
}
1002
{
1000
BEHIND
1070
     0
1002
}
1002
{
1000
OTHER
1070
     0
1002
}
1002
{
1000
REACTOR
1002
}
  0
ARC
  5
15FF0
  8
AM_0
 10
429.8671760733352
 20
305.38011395020987
 30
0.0
 40
10.00000029802322
 50
89.999997495524809
 51
180.0
  0
CIRCLE
  5
15FF3
  8
AM_0
 10
430.36717608823608
 20
304.88011393530883
 30
0.0
 40
4.5000001341104507
  0
LINE
  5
15FF4
  8
ﾁｭｳｼﾝｾﾝ1
 10
437.86717631175401
 20
304.88011393530883
 30
0.0
 11
422.86717586471877
 21
304.88011393530883
 31
0.0
  0
LINE
  5
15FF6
  8
ﾁｭｳｼﾝｾﾝ1
 10
430.36717608823608
 20
312.3801141588263
 30
0.0
 11
430.36717608823608
 21
297.38011371179141
 31
0.0
  0
LINE
  5
1668C
  8
AM_0
 10
723.86107684924468
 20
287.10194473548472
 30
0.0
 11
723.36107684924468
 21
289.8719337491566
 31
0.0
  0
POLYLINE
  5
1668D
  8
AM_0
 66
     1
 10
0.0
 20
0.0
 30
0.0
  0
VERTEX
  5
1668E
  8
AM_0
 10
704.48894036486968
 20
288.220682460094
 30
0.0
 42
0.0007337051
  0
VERTEX
  5
1668F
  8
AM_0
 10
704.44480036486971
 20
288.82309246009402
 30
0.0
 42
0.00075211323
  0
VERTEX
  5
16690
  8
AM_0
 10
704.39886036486973
 20
289.42549246009412
 30
0.0
 42
0.0007297491
  0
VERTEX
  5
16691
  8
AM_0
 10
704.35113036486973
 20
290.0276924600941
 30
0.0
 42
0.00073593041
  0
VERTEX
  5
16692
  8
AM_0
 10
704.30165036486983
 20
290.6296824600941
 30
0.0
 42
0.00074742739
  0
VERTEX
  5
16693
  8
AM_0
 10
704.25038036486956
 20
291.23154246009398
 30
0.0
 42
0.00073217363
  0
VERTEX
  5
16694
  8
AM_0
 10
704.19732036486971
 20
291.83335246009398
 30
0.0
 42
0.00073754168
  0
VERTEX
  5
16695
  8
AM_0
 10
704.14250036486999
 20
292.43489246009398
 30
0.0
 42
0.00073075073
  0
VERTEX
  5
16696
  8
AM_0
 10
704.08592036486971
 20
293.03624246009412
 30
0.0
 42
0.00074550816
  0
VERTEX
  5
16697
  8
AM_0
 10
704.02758036486978
 20
293.63731246009411
 30
0.0
 42
0.00074288416
  0
VERTEX
  5
16698
  8
AM_0
 10
703.96743036486964
 20
294.23833246009411
 30
0.0
 42
0.00072504001
  0
VERTEX
  5
16699
  8
AM_0
 10
703.90552036486986
 20
294.83907246009409
 30
0.0
 42
0.00074640667
  0
VERTEX
  5
1669A
  8
AM_0
 10
703.84185036486974
 20
295.4396824600941
 30
0.0
  0
SEQEND
  5
1669B
  8
AM_0
  0
LINE
  5
1669C
  8
AM_0
 10
721.36718036486957
 20
319.90013246009403
 30
0.0
 11
721.36718036486957
 21
276.8801124600941
 31
0.0
  0
LINE
  5
1669D
  8
AM_0
 10
716.36718036486957
 20
321.8801124600941
 30
0.0
 11
716.36718036486957
 21
221.8801124600941
 31
0.0
  0
LINE
  5
1669E
  8
AM_0
 10
715.36718036486968
 20
324.8801124600941
 30
0.0
 11
715.36718036486968
 21
218.8801124600941
 31
0.0
  0
LINE
  5
1669F
  8
AM_0
 10
722.86718036486968
 20
291.8801124600941
 30
0.0
 11
722.86718036486968
 21
251.88011246009401
 31
0.0
  0
LINE
  5
166A0
  8
AM_0
 10
599.36718036486968
 20
327.8801124600941
 30
0.0
 11
599.36718036486968
 21
215.8801124600941
 31
0.0
  0
LINE
  5
166A1
  8
AM_0
 10
707.36718036486957
 20
324.8801124600941
 30
0.0
 11
707.36718036486957
 21
218.8801124600941
 31
0.0
  0
LINE
  5
166A2
  8
AM_0
 10
591.36718036486968
 20
327.88011295183219
 30
0.0
 11
591.36718036486968
 21
215.88011295183219
 31
0.0
  0
LINE
  5
166A3
  8
AM_0
 10
715.36718036486968
 20
218.8801124600941
 30
0.0
 11
707.36718036486957
 21
218.8801124600941
 31
0.0
  0
LINE
  5
166A6
  8
AM_0
 10
698.86718036486968
 20
205.88011246009401
 30
0.0
 11
698.86718036486968
 21
186.38011246009401
 31
0.0
  0
LINE
  5
166A7
  8
AM_0
 10
689.86718036486968
 20
202.3801124600941
 30
0.0
 11
689.86718036486968
 21
194.8801124600939
 31
0.0
  0
LINE
  5
166A8
  8
AM_0
 10
693.36718036486968
 20
202.3801124600941
 30
0.0
 11
693.36718036486968
 21
194.8801124600939
 31
0.0
  0
LINE
  5
166A9
  8
AM_0
 10
678.36718036486968
 20
194.8801124600939
 30
0.0
 11
678.36718036486968
 21
202.3801124600941
 31
0.0
  0
LINE
  5
166AA
  8
AM_0
 10
681.86718036486968
 20
202.3801124600941
 30
0.0
 11
681.86718036486968
 21
194.8801124600939
 31
0.0
  0
LINE
  5
166AB
  8
AM_0
 10
618.8671803648698
 20
205.88011246009401
 30
0.0
 11
618.8671803648698
 21
198.88011246009401
 31
0.0
  0
LINE
  5
166AC
  8
AM_0
 10
621.3671803648698
 20
182.3801124600939
 30
0.0
 11
696.36718036486957
 21
182.3801124600939
 31
0.0
  0
LINE
  5
166AD
  8
AM_0
 10
632.56318036486982
 20
179.3801124600939
 30
0.0
 11
668.17118036486966
 21
179.3801124600939
 31
0.0
  0
LINE
  5
166AE
  8
AM_0
 10
618.8671803648698
 20
198.88011246009401
 30
0.0
 11
676.3671803648698
 21
198.88011246009401
 31
0.0
  0
LINE
  5
166AF
  8
AM_0
 10
627.3671803648698
 20
182.3801124600939
 30
0.0
 11
632.56318036486982
 21
179.3801124600939
 31
0.0
  0
LINE
  5
166B0
  8
AM_0
 10
620.36718036486968
 20
198.88011246009401
 30
0.0
 11
620.36718036486968
 21
183.38011246009401
 31
0.0
  0
ARC
  5
166B1
  8
AM_0
 10
621.3671803648698
 20
183.3801124600939
 30
0.0
 40
1.0
 50
180.0
 51
270.0
  0
ARC
  5
166B2
  8
AM_0
 10
684.8671803648698
 20
193.88011246009401
 30
0.0
 40
7.4999999999999956
 50
180.0
 51
270.0
  0
ARC
  5
166B3
  8
AM_0
 10
685.86718036486968
 20
194.8801124600939
 30
0.0
 40
7.5000000000000018
 50
180.0
 51
0.0
  0
LINE
  5
166B4
  8
AM_0
 10
668.17118036486966
 20
179.3801124600939
 30
0.0
 11
673.35995587507273
 21
182.3801124600939
 31
0.0
  0
ARC
  5
166B5
  8
AM_0
 10
676.3671803648698
 20
197.88011246009401
 30
0.0
 40
1.0
 50
0.0
 51
90.0
  0
LINE
  5
166B6
  8
AM_0
 10
677.3671803648698
 20
193.88011246009401
 30
0.0
 11
677.3671803648698
 21
197.88011246009401
 31
0.0
  0
LINE
  5
166B7
  8
AM_0
 10
698.86718036486968
 20
198.88011246009401
 30
0.0
 11
695.36718036486957
 21
198.88011246009401
 31
0.0
  0
LINE
  5
166B8
  8
AM_0
 10
698.86718036486968
 20
186.38011246009401
 30
0.0
 11
697.36718036486968
 21
186.38011246009401
 31
0.0
  0
LINE
  5
166B9
  8
AM_0
 10
697.36718036486968
 20
198.88011246009401
 30
0.0
 11
697.36718036486968
 21
183.38011246009401
 31
0.0
  0
ARC
  5
166BA
  8
AM_0
 10
685.86718036486968
 20
194.8801124600939
 30
0.0
 40
3.999999999999996
 50
180.0
 51
0.0
  0
ARC
  5
166BB
  8
AM_0
 10
686.86718036486968
 20
193.88011246009401
 30
0.0
 40
7.499999999999992
 50
270.0
 51
0.0
  0
LINE
  5
166BC
  8
AM_0
 10
684.8671803648698
 20
186.38011246009401
 30
0.0
 11
686.86718036486968
 21
186.38011246009401
 31
0.0
  0
ARC
  5
166BD
  8
AM_0
 10
696.36718036486957
 20
183.38011246009401
 30
0.0
 40
1.0
 50
270.0
 51
0.0
  0
LINE
  5
166BE
  8
AM_0
 10
694.36718036486968
 20
197.88011246009401
 30
0.0
 11
694.36718036486968
 21
193.88011246009401
 31
0.0
  0
ARC
  5
166BF
  8
AM_0
 10
695.36718036486957
 20
197.88011246009401
 30
0.0
 40
1.0
 50
90.0
 51
180.0
  0
LINE
  5
166C0
  8
AM_0
 10
650.3671803648698
 20
235.16014246009411
 30
0.0
 11
602.54717036486966
 21
235.16014246009411
 31
0.0
  0
LINE
  5
166C1
  8
AM_0
 10
606.02715036486984
 20
235.8801124600941
 30
0.0
 11
650.3671803648698
 21
235.8801124600941
 31
0.0
  0
LINE
  5
166C2
  8
AM_0
 10
606.02715036486984
 20
237.8801124600941
 30
0.0
 11
650.3671803648698
 21
237.8801124600941
 31
0.0
  0
LINE
  5
166C3
  8
AM_0
 10
704.1571603648697
 20
215.60008246009409
 30
0.0
 11
607.23717036486983
 21
215.60008246009409
 31
0.0
  0
LINE
  5
166C4
  8
AM_0
 10
606.03435036486997
 20
247.8801124600941
 30
0.0
 11
705.00719036486964
 21
247.8801124600941
 31
0.0
  0
LINE
  5
166C5
  8
AM_0
 10
705.68719036486971
 20
238.51011246009409
 30
0.0
 11
638.34716036486986
 21
238.51011246009409
 31
0.0
  0
LINE
  5
166C6
  8
AM_0
 10
705.90716036486958
 20
245.39012246009401
 30
0.0
 11
638.3671803648698
 21
245.39012246009401
 31
0.0
  0
LINE
  5
166C7
  8
AM_0
 10
618.8671803648698
 20
205.88011246009401
 30
0.0
 11
698.86718036486968
 21
205.88011246009401
 31
0.0
  0
LINE
  5
166C8
  8
AM_0
 10
698.86718036486968
 20
202.3801124600941
 30
0.0
 11
618.8671803648698
 21
202.3801124600941
 31
0.0
  0
LINE
  5
166C9
  8
AM_0
 10
638.3671803648698
 20
245.8801124600941
 30
0.0
 11
705.00719036486964
 21
245.8801124600941
 31
0.0
  0
LINE
  5
166CA
  8
AM_0
 10
705.90716036486958
 20
248.32005246009399
 30
0.0
 11
602.33294036486973
 21
248.32005246009399
 31
0.0
  0
ARC
  5
166CB
  8
AM_0
 10
638.3671803648698
 20
244.3801124600941
 30
0.0
 40
1.5
 50
89.999996999999041
 51
180.0
  0
ARC
  5
166CC
  8
AM_0
 10
620.36718036486968
 20
244.3801124600941
 30
0.0
 40
1.5
 50
359.999989999999
 51
89.999996999999041
  0
ARC
  5
166CD
  8
AM_0
 10
602.32720036486967
 20
246.85008246009409
 30
0.0
 40
1.460011199999999
 50
89.775249999999915
 51
270.22475000000009
  0
LINE
  5
166CE
  8
AM_0
 10
602.54717036486966
 20
238.51011246009409
 30
0.0
 11
620.38714036486965
 21
238.51011246009409
 31
0.0
  0
LINE
  5
166CF
  8
AM_0
 10
620.36718036486968
 20
245.400132460094
 30
0.0
 11
602.33294036486973
 21
245.400132460094
 31
0.0
  0
LINE
  5
166D0
  8
AM_0
 10
618.78808155693355
 20
209.3801124600941
 30
0.0
 11
607.35094036486976
 21
209.3801124600941
 31
0.0
  0
LINE
  5
166D1
  8
AM_0
 10
602.53181268532069
 20
227.4440292358949
 30
0.0
 11
605.30718036486974
 21
217.08012246009409
 31
0.0
  0
LINE
  5
166D2
  8
AM_0
 10
599.36718036486968
 20
215.8801124600941
 30
0.0
 11
591.36718036486968
 21
215.8801124600941
 31
0.0
  0
LINE
  5
166D3
  8
AM_0
 10
600.3671803648698
 20
218.8801124600941
 30
0.0
 11
606.09292036486966
 21
210.06321246009401
 31
0.0
  0
ARC
  5
166D4
  8
AM_0
 10
607.35094036486976
 20
210.8801124600941
 30
0.0
 40
1.5
 50
213.00000000000151
 51
270.000010000001
  0
ARC
  5
166D5
  8
AM_0
 10
607.2420003648698
 20
217.60484246009409
 30
0.0
 40
2.0047290000000002
 50
195.173499999998
 51
269.86167999999901
  0
LINE
  5
166D6
  8
AM_0
 10
604.82513036486966
 20
218.8801124600941
 30
0.0
 11
599.36718036486968
 21
218.8801124600941
 31
0.0
  0
LINE
  5
166D7
  8
AM_0
 10
599.36718036486968
 20
225.8801124600941
 30
0.0
 11
591.36718036486968
 21
225.8801124600941
 31
0.0
  0
LINE
  5
166D8
  8
AM_0
 10
599.36718036486968
 20
239.94017246009409
 30
0.0
 11
591.36718036486968
 21
239.94017246009409
 31
0.0
  0
ARC
  5
166D9
  8
AM_0
 10
601.26718036486943
 20
232.180132460094
 30
0.0
 40
1.699996899999999
 50
0.0000199999954991
 51
89.999996999999041
  0
ARC
  5
166DA
  8
AM_0
 10
601.26718036486943
 20
228.5801224600938
 30
0.0
 40
1.7000007999999991
 50
270.0000199999987
 51
359.999989999999
  0
LINE
  5
166DB
  8
AM_0
 10
602.96716036486976
 20
232.180132460094
 30
0.0
 11
602.96716036486976
 21
228.5801224600938
 31
0.0
  0
LINE
  5
166DC
  8
AM_0
 10
600.3671803648698
 20
234.18013246009409
 30
0.0
 11
599.36718036486968
 21
234.18013246009409
 31
0.0
  0
LINE
  5
166DD
  8
AM_0
 10
599.36718036486968
 20
230.15748246009409
 30
0.0
 11
600.3671803648698
 21
229.580122460094
 31
0.0
  0
LINE
  5
166DE
  8
AM_0
 10
599.36718036486968
 20
231.15748246009409
 30
0.0
 11
600.3671803648698
 21
230.580122460094
 31
0.0
  0
LINE
  5
166DF
  8
AM_0
 10
600.3671803648698
 20
226.580122460094
 30
0.0
 11
599.36718036486968
 21
226.580122460094
 31
0.0
  0
LINE
  5
166E0
  8
AM_0
 10
599.36718036486968
 20
234.18013246009409
 30
0.0
 11
599.36718036486968
 21
226.580122460094
 31
0.0
  0
LINE
  5
166E1
  8
AM_0
 10
600.3671803648698
 20
234.18013246009409
 30
0.0
 11
600.3671803648698
 21
226.580122460094
 31
0.0
  0
LINE
  5
166E2
  8
AM_0
 10
600.3671803648698
 20
233.88011246009421
 30
0.0
 11
601.26718036486943
 21
233.88011246009421
 31
0.0
  0
LINE
  5
166E3
  8
AM_0
 10
600.3671803648698
 20
226.88011246009401
 30
0.0
 11
601.26718036486943
 21
226.88011246009401
 31
0.0
  0
ARC
  5
166E4
  8
AM_0
 10
606.02715036486984
 20
236.8801124600941
 30
0.0
 40
1.0
 50
89.999996999999041
 51
270.000010000001
  0
ARC
  5
166E5
  8
AM_0
 10
602.54717036486966
 20
236.83506246009401
 30
0.0
 40
1.6750020000000001
 50
89.999996999999041
 51
270.000010000001
  0
LINE
  5
166E6
  8
AM_0
 10
620.34096495118195
 20
205.88011246009401
 30
0.0
 11
620.08645115111415
 21
215.60008246009409
 31
0.0
  0
ARC
  5
166E7
  8
AM_0
 10
618.78808155693355
 20
207.8801124600941
 30
0.0
 40
1.5
 50
1.4999259432500831
 51
90.0
1001
GENIUS_GENODEF_13
1002
{
1000
HIER
1070
     0
1002
}
1002
{
1000
MANEDIT
1070
     0
1002
}
1002
{
1000
NOSEL
1070
     0
1002
}
1002
{
1000
BEHIND
1070
     0
1002
}
1002
{
1000
REACTOR
1002
}
1001
GENIUS_GENOBJ-N-FIL_13
1002
{
1000
OWNER
1000
GEN
1002
}
  0
CIRCLE
  5
166E8
  8
AM_0
 10
631.86718036486968
 20
243.3801124600941
 30
0.0
 40
1.1000000000000001
  0
CIRCLE
  5
166E9
  8
AM_0
 10
631.86718036486968
 20
243.3801124600941
 30
0.0
 40
1.149999999999999
  0
ARC
  5
166EA
  8
AM_0
 10
620.36718036486968
 20
244.3801124600941
 30
0.0
 40
1.02
 50
359.999989999999
 51
89.999996999999041
  0
ARC
  5
166EB
  8
AM_0
 10
620.36718036486968
 20
239.38011246009401
 30
0.0
 40
1.5
 50
270.0
 51
0.0000100000010064
  0
ARC
  5
166EC
  8
AM_0
 10
620.38714036486965
 20
239.520122460094
 30
0.0
 40
1.0
 50
270.0
 51
0.0000100000010064
  0
LINE
  5
166ED
  8
AM_0
 10
621.8671803648698
 20
244.3801124600941
 30
0.0
 11
621.8671803648698
 21
239.38011246009401
 31
0.0
  0
LINE
  5
166EE
  8
AM_0
 10
621.38714036486965
 20
244.3801124600941
 30
0.0
 11
621.38714036486965
 21
239.520122460094
 31
0.0
  0
CIRCLE
  5
166EF
  8
AM_0
 10
626.8671803648698
 20
243.3801124600941
 30
0.0
 40
1.0
  0
ARC
  5
166F0
  8
AM_0
 10
638.3671803648698
 20
244.3801124600941
 30
0.0
 40
1.02
 50
89.999996999999041
 51
180.0
  0
ARC
  5
166F1
  8
AM_0
 10
638.3671803648698
 20
239.38011246009401
 30
0.0
 40
1.5
 50
179.99999931675049
 51
270.000010000001
  0
ARC
  5
166F2
  8
AM_0
 10
638.34716036486986
 20
239.520122460094
 30
0.0
 40
1.0
 50
179.99999931675049
 51
270.000010000001
  0
LINE
  5
166F3
  8
AM_0
 10
637.34716036486975
 20
244.3801124600941
 30
0.0
 11
637.34716036486975
 21
239.520122460094
 31
0.0
  0
LINE
  5
166F4
  8
AM_0
 10
636.86718036486968
 20
244.3801124600941
 30
0.0
 11
636.86718036486968
 21
239.38011246009401
 31
0.0
  0
LINE
  5
166F5
  8
AM_0
 10
606.03435036486997
 20
245.8801124600941
 30
0.0
 11
620.36718036486968
 21
245.8801124600941
 31
0.0
  0
ARC
  5
166F6
  8
AM_0
 10
606.02721036486969
 20
246.8801124600941
 30
0.0
 40
1.0000255999999981
 50
89.589468999998957
 51
270.41053000000011
  0
ARC
  5
166F7
  8
AM_0
 10
705.90716036486958
 20
246.855082460094
 30
0.0
 40
1.465004
 50
270.0
 51
89.999996999999041
  0
ARC
  5
166F8
  8
AM_0
 10
682.03446754351796
 20
211.2501024600941
 30
0.0
 40
1.5
 50
90.0
 51
178.5002775490122
1001
GENIUS_GENODEF_13
1002
{
1000
HIER
1070
     0
1002
}
1002
{
1000
MANEDIT
1070
     0
1002
}
1002
{
1000
NOSEL
1070
     0
1002
}
1002
{
1000
BEHIND
1070
     0
1002
}
1002
{
1000
REACTOR
1002
}
1001
GENIUS_GENOBJ-N-FIL_13
1002
{
1000
OWNER
1000
GEN
1002
}
  0
LINE
  5
166F9
  8
AM_0
 10
650.3671803648698
 20
235.8801124600941
 30
0.0
 11
705.00719036486964
 21
235.8801124600941
 31
0.0
  0
LINE
  5
166FA
  8
AM_0
 10
650.3671803648698
 20
237.8801124600941
 30
0.0
 11
705.00719036486964
 21
237.8801124600941
 31
0.0
  0
LINE
  5
166FB
  8
AM_0
 10
705.68719036486971
 20
235.16014246009411
 30
0.0
 11
650.3671803648698
 21
235.16014246009411
 31
0.0
  0
LINE
  5
166FC
  8
AM_0
 10
680.39336143897367
 20
205.8801124600941
 30
0.0
 11
680.64784069383302
 21
215.600082460094
 31
0.0
  0
LINE
  5
166FD
  8
AM_0
 10
702.00719036486964
 20
235.230082460094
 30
0.0
 11
707.36712036486983
 21
223.79017246009411
 31
0.0
  0
LINE
  5
166FE
  8
AM_0
 10
704.46093036486957
 20
212.7501024600941
 30
0.0
 11
682.03446754351796
 21
212.7501024600941
 31
0.0
  0
ARC
  5
166FF
  8
AM_0
 10
704.46093036486957
 20
214.7501024600941
 30
0.0
 40
2.0
 50
270.000010000001
 51
352.04955999999657
  0
ARC
  5
16700
  8
AM_0
 10
704.3805503648698
 20
214.7501024600941
 30
0.0
 40
2.0
 50
270.000010000001
 51
351.3703800000024
  0
ARC
  5
16701
  8
AM_0
 10
704.11095036486972
 20
214.7504724600941
 30
0.0
 40
2.000420099999999
 50
270.1772900000006
 51
351.07317999999862
  0
ARC
  5
16702
  8
AM_0
 10
704.16228036486973
 20
217.59934246009399
 30
0.0
 40
1.9992490000000001
 50
269.85256999999859
 51
349.35689999999892
  0
LINE
  5
16703
  8
AM_0
 10
707.36718036486957
 20
222.44007246009409
 30
0.0
 11
706.0871503648699
 21
214.44016246009409
 31
0.0
  0
LINE
  5
16704
  8
AM_0
 10
707.36718036486957
 20
223.790082460094
 30
0.0
 11
706.12713036486969
 21
217.23008246009411
 31
0.0
  0
LINE
  5
16705
  8
AM_0
 10
707.36718036486957
 20
221.10017246009409
 30
0.0
 11
706.35790036486969
 21
214.44999246009411
 31
0.0
  0
LINE
  5
16706
  8
AM_0
 10
707.36712036486983
 20
221.10014246009399
 30
0.0
 11
706.44170036486969
 21
214.47355246009411
 31
0.0
  0
LINE
  5
16707
  8
AM_0
 10
714.66717036486966
 20
228.69016246009409
 30
0.0
 11
708.43719036486971
 21
228.69016246009409
 31
0.0
  0
ARC
  5
16708
  8
AM_0
 10
705.69402036486974
 20
236.83506246009401
 30
0.0
 40
1.675014
 50
269.7664900000006
 51
90.233500999999919
  0
ARC
  5
16709
  8
AM_0
 10
704.82256036486956
 20
236.8801124600941
 30
0.0
 40
1.0000138999999999
 50
269.69165999999939
 51
90.308340000000754
  0
POLYLINE
  5
1670A
  8
AM_0
 66
     1
 10
0.0
 20
0.0
 30
0.0
  0
VERTEX
  5
1670B
  8
AM_0
 10
703.50628036486955
 20
245.39707246009411
 30
0.0
 42
-0.0006890001
  0
VERTEX
  5
1670C
  8
AM_0
 10
703.43540036486968
 20
244.82232246009411
 30
0.0
 42
-0.00070644651
  0
VERTEX
  5
1670D
  8
AM_0
 10
703.36290036486957
 20
244.24764246009411
 30
0.0
 42
-0.0006924559
  0
VERTEX
  5
1670E
  8
AM_0
 10
703.28881036486973
 20
243.67332246009411
 30
0.0
 42
-0.00069587797
  0
VERTEX
  5
1670F
  8
AM_0
 10
703.21313036486958
 20
243.099182460094
 30
0.0
 42
-0.00071687041
  0
VERTEX
  5
16710
  8
AM_0
 10
703.13582036487003
 20
242.52518246009399
 30
0.0
 42
-0.00069759113
  0
VERTEX
  5
16711
  8
AM_0
 10
703.0568803648697
 20
241.9513924600941
 30
0.0
 42
-0.00071003142
  0
VERTEX
  5
16712
  8
AM_0
 10
702.97634036486966
 20
241.377922460094
 30
0.0
 42
-0.00069954544
  0
VERTEX
  5
16713
  8
AM_0
 10
702.89420036486968
 20
240.8048224600941
 30
0.0
 42
-0.0007188852
  0
VERTEX
  5
16714
  8
AM_0
 10
702.81042036486974
 20
240.23179246009411
 30
0.0
 42
-0.00071266165
  0
VERTEX
  5
16715
  8
AM_0
 10
702.72499036486965
 20
239.6590324600941
 30
0.0
 42
-0.00071614577
  0
VERTEX
  5
16716
  8
AM_0
 10
702.63796036486974
 20
239.08668246009401
 30
0.0
 42
-0.00072290806
  0
VERTEX
  5
16717
  8
AM_0
 10
702.54925036486964
 20
238.51438246009411
 30
0.0
  0
SEQEND
  5
16718
  8
AM_0
  0
LINE
  5
16719
  8
AM_0
 10
706.09716036486964
 20
275.62010246009407
 30
0.0
 11
669.64849036486964
 21
275.62010246009407
 31
0.0
  0
LINE
  5
1671A
  8
AM_0
 10
706.09716036486964
 20
278.15013246009403
 30
0.0
 11
669.64849036486964
 21
278.15013246009403
 31
0.0
  0
LINE
  5
1671B
  8
AM_0
 10
670.92846036486981
 20
275.8801124600941
 30
0.0
 11
705.00719036486964
 21
275.8801124600941
 31
0.0
  0
LINE
  5
1671C
  8
AM_0
 10
670.92846036486981
 20
277.8801124600941
 30
0.0
 11
705.00719036486964
 21
277.8801124600941
 31
0.0
  0
LINE
  5
1671D
  8
AM_0
 10
706.03716036486969
 20
285.5601624600942
 30
0.0
 11
669.70849036486948
 21
285.5601624600942
 31
0.0
  0
LINE
  5
1671E
  8
AM_0
 10
670.92846036486981
 20
285.8801124600941
 30
0.0
 11
705.00719036486964
 21
285.8801124600941
 31
0.0
  0
LINE
  5
1671F
  8
AM_0
 10
706.03716036486969
 20
288.22007246009412
 30
0.0
 11
669.70849036486948
 21
288.22007246009412
 31
0.0
  0
LINE
  5
16720
  8
AM_0
 10
670.92846036486981
 20
287.8801124600941
 30
0.0
 11
705.00719036486964
 21
287.8801124600941
 31
0.0
  0
LINE
  5
16721
  8
AM_0
 10
670.92846036486981
 20
267.8801124600941
 30
0.0
 11
705.00719036486964
 21
267.8801124600941
 31
0.0
  0
LINE
  5
16722
  8
AM_0
 10
706.09716036486964
 20
268.15013246009403
 30
0.0
 11
669.64849036486964
 21
268.15013246009403
 31
0.0
  0
LINE
  5
16723
  8
AM_0
 10
706.03716036486969
 20
255.5401424600941
 30
0.0
 11
669.69591036486986
 21
255.5401424600941
 31
0.0
  0
LINE
  5
16724
  8
AM_0
 10
670.92846036486981
 20
255.8801124600941
 30
0.0
 11
705.00719036486964
 21
255.8801124600941
 31
0.0
  0
LINE
  5
16725
  8
AM_0
 10
670.92846036486981
 20
257.8801124600941
 30
0.0
 11
705.00719036486964
 21
257.8801124600941
 31
0.0
  0
LINE
  5
16726
  8
AM_0
 10
706.03716036486969
 20
258.20005246009413
 30
0.0
 11
669.70849036486948
 21
258.20005246009413
 31
0.0
  0
LINE
  5
16727
  8
AM_0
 10
706.09716036486964
 20
265.61009246009411
 30
0.0
 11
669.64849036486964
 21
265.61009246009411
 31
0.0
  0
LINE
  5
16728
  8
AM_0
 10
670.92846036486981
 20
265.8801124600941
 30
0.0
 11
705.00719036486964
 21
265.8801124600941
 31
0.0
  0
ARC
  5
16729
  8
AM_0
 10
670.92846036486981
 20
266.8801124600941
 30
0.0
 40
1.000005699999998
 50
89.999996999999041
 51
270.000010000001
  0
ARC
  5
1672A
  8
AM_0
 10
669.64025036486976
 20
266.8801124600941
 30
0.0
 40
1.2700266
 50
89.629330000001815
 51
270.37067999999999
  0
ARC
  5
1672B
  8
AM_0
 10
670.92846036486981
 20
256.8801124600941
 30
0.0
 40
1.000005699999998
 50
89.999996999999041
 51
270.000010000001
  0
ARC
  5
1672C
  8
AM_0
 10
669.70220036486967
 20
256.87010246009407
 30
0.0
 40
1.3300148000000001
 50
89.729432999998977
 51
270.2705800000013
  0
ARC
  5
1672D
  8
AM_0
 10
669.64025036486976
 20
276.89012246009412
 30
0.0
 40
1.2700266
 50
89.629330000001815
 51
270.37067999999999
  0
ARC
  5
1672E
  8
AM_0
 10
670.92846036486981
 20
276.8801124600941
 30
0.0
 40
1.000005699999998
 50
89.999996999999041
 51
270.000010000001
  0
ARC
  5
1672F
  8
AM_0
 10
670.92846036486981
 20
286.8801124600941
 30
0.0
 40
1.000005699999998
 50
89.999996999999041
 51
270.000010000001
  0
ARC
  5
16730
  8
AM_0
 10
669.70220036486967
 20
286.89512246009411
 30
0.0
 40
1.3350147999999999
 50
89.730443999998613
 51
270.2695700000001
  0
ARC
  5
16731
  8
AM_0
 10
704.82256036486956
 20
266.8801124600941
 30
0.0
 40
1.0000138999999999
 50
269.69165999999939
 51
90.308340000000754
  0
ARC
  5
16732
  8
AM_0
 10
706.10302036486974
 20
266.8801124600941
 30
0.0
 40
1.2700129999999981
 50
269.73663000000079
 51
90.263383000001653
  0
ARC
  5
16733
  8
AM_0
 10
704.82256036486956
 20
256.8801124600941
 30
0.0
 40
1.0000138999999999
 50
269.69165999999939
 51
90.308340000000754
  0
ARC
  5
16734
  8
AM_0
 10
706.03716036486969
 20
256.87010246009407
 30
0.0
 40
1.3300049999999981
 50
270.0
 51
89.999996999999041
  0
ARC
  5
16735
  8
AM_0
 10
704.82256036486956
 20
246.8801124600941
 30
0.0
 40
1.0000138999999999
 50
269.69165999999939
 51
90.308340000000754
  0
POLYLINE
  5
16736
  8
AM_0
 66
     1
 10
0.0
 20
0.0
 30
0.0
  0
VERTEX
  5
16737
  8
AM_0
 10
704.48894036486968
 20
255.53953246009399
 30
0.0
 42
-0.00073721992
  0
VERTEX
  5
16738
  8
AM_0
 10
704.44479036486973
 20
254.93712246009409
 30
0.0
 42
-0.00074398496
  0
VERTEX
  5
16739
  8
AM_0
 10
704.39886036486973
 20
254.33485246009411
 30
0.0
 42
-0.00073322625
  0
VERTEX
  5
1673A
  8
AM_0
 10
704.35113036486973
 20
253.73252246009409
 30
0.0
 42
-0.00073594289
  0
VERTEX
  5
1673B
  8
AM_0
 10
704.30165036486983
 20
253.130532460094
 30
0.0
 42
-0.00074742568
  0
VERTEX
  5
1673C
  8
AM_0
 10
704.25038036486956
 20
252.52867246009399
 30
0.0
 42
-0.00073216749
  0
VERTEX
  5
1673D
  8
AM_0
 10
704.19732036486971
 20
251.9268624600941
 30
0.0
 42
-0.00074184065
  0
VERTEX
  5
1673E
  8
AM_0
 10
704.14250036486999
 20
251.32533246009399
 30
0.0
 42
-0.00072077528
  0
VERTEX
  5
1673F
  8
AM_0
 10
704.08592036486971
 20
250.724102460094
 30
0.0
 42
-0.00074978179
  0
VERTEX
  5
16740
  8
AM_0
 10
704.02758036486978
 20
250.12290246009411
 30
0.0
 42
-0.00074288888
  0
VERTEX
  5
16741
  8
AM_0
 10
703.96743036486964
 20
249.52188246009399
 30
0.0
 42
-0.00072503679
  0
VERTEX
  5
16742
  8
AM_0
 10
703.90552036486986
 20
248.9211424600941
 30
0.0
 42
-0.00074640584
  0
VERTEX
  5
16743
  8
AM_0
 10
703.84185036486974
 20
248.320542460094
 30
0.0
  0
SEQEND
  5
16744
  8
AM_0
  0
POLYLINE
  5
16745
  8
AM_0
 66
     1
 10
0.0
 20
0.0
 30
0.0
  0
VERTEX
  5
16746
  8
AM_0
 10
704.9631303648697
 20
265.60972246009408
 30
0.0
 42
-0.00076695232
  0
VERTEX
  5
16747
  8
AM_0
 10
704.94833036486955
 20
264.9919624600941
 30
0.0
 42
-0.00073263044
  0
VERTEX
  5
16748
  8
AM_0
 10
704.93169036486995
 20
264.37436246009401
 30
0.0
 42
-0.0007652599
  0
VERTEX
  5
16749
  8
AM_0
 10
704.91320036487002
 20
263.75669246009409
 30
0.0
 42
-0.00075144485
  0
VERTEX
  5
1674A
  8
AM_0
 10
704.89283036486972
 20
263.13909246009399
 30
0.0
 42
-0.00078594403
  0
VERTEX
  5
1674B
  8
AM_0
 10
704.87058036486974
 20
262.52166246009421
 30
0.0
 42
-0.00073349202
  0
VERTEX
  5
1674C
  8
AM_0
 10
704.84643036486955
 20
261.90428246009401
 30
0.0
 42
-0.0007358075
  0
VERTEX
  5
1674D
  8
AM_0
 10
704.82049036486956
 20
261.28688246009409
 30
0.0
 42
-0.00078592699
  0
VERTEX
  5
1674E
  8
AM_0
 10
704.79266036486956
 20
260.66949246009398
 30
0.0
 42
-0.00074823144
  0
VERTEX
  5
1674F
  8
AM_0
 10
704.7629303648697
 20
260.05210246009398
 30
0.0
 42
-0.00074896603
  0
VERTEX
  5
16750
  8
AM_0
 10
704.73137036487003
 20
259.43497246009412
 30
0.0
 42
-0.00076039765
  0
VERTEX
  5
16751
  8
AM_0
 10
704.69795036486971
 20
258.81794246009412
 30
0.0
 42
-0.00075616128
  0
VERTEX
  5
16752
  8
AM_0
 10
704.66265036486959
 20
258.200912460094
 30
0.0
  0
SEQEND
  5
16753
  8
AM_0
  0
ARC
  5
16754
  8
AM_0
 10
706.10302036486974
 20
276.88511246009409
 30
0.0
 40
1.2650129999999991
 50
269.73559000000068
 51
90.264420999998222
  0
ARC
  5
16755
  8
AM_0
 10
704.82256036486956
 20
276.8801124600941
 30
0.0
 40
1.0000138999999999
 50
269.69165999999939
 51
90.308340000000754
  0
POLYLINE
  5
16756
  8
AM_0
 66
     1
 10
0.0
 20
0.0
 30
0.0
  0
VERTEX
  5
16757
  8
AM_0
 10
705.00719036486964
 20
271.8801124600941
 30
0.0
 42
-0.00039106593
  0
VERTEX
  5
16758
  8
AM_0
 10
705.00955036486971
 20
271.56897246009407
 30
0.0
 42
-0.00040574899
  0
VERTEX
  5
16759
  8
AM_0
 10
705.01142036486965
 20
271.25786246009409
 30
0.0
 42
-0.0003534546
  0
VERTEX
  5
1675A
  8
AM_0
 10
705.01281036486955
 20
270.94676246009408
 30
0.0
 42
-0.00034407327
  0
VERTEX
  5
1675B
  8
AM_0
 10
705.01379036486946
 20
270.635622460094
 30
0.0
 42
-0.00045699408
  0
VERTEX
  5
1675C
  8
AM_0
 10
705.01425036486967
 20
270.32451246009413
 30
0.0
 42
-0.00035571853
  0
VERTEX
  5
1675D
  8
AM_0
 10
705.01421036486965
 20
270.013412460094
 30
0.0
 42
-0.00038547362
  0
VERTEX
  5
1675E
  8
AM_0
 10
705.01372036486998
 20
269.70227246009409
 30
0.0
 42
-0.00035501498
  0
VERTEX
  5
1675F
  8
AM_0
 10
705.01276036486968
 20
269.39117246009408
 30
0.0
 42
-0.00040118614
  0
VERTEX
  5
16760
  8
AM_0
 10
705.01134036486974
 20
269.07993246009403
 30
0.0
 42
-0.00038319871
  0
VERTEX
  5
16761
  8
AM_0
 10
705.00943036486956
 20
268.76880246009409
 30
0.0
 42
-0.00040742136
  0
VERTEX
  5
16762
  8
AM_0
 10
705.00703036486971
 20
268.45757246009413
 30
0.0
 42
-0.0003578071
  0
VERTEX
  5
16763
  8
AM_0
 10
705.00414036486973
 20
268.14646246009409
 30
0.0
  0
SEQEND
  5
16764
  8
AM_0
  0
POLYLINE
  5
16765
  8
AM_0
 66
     1
 10
0.0
 20
0.0
 30
0.0
  0
VERTEX
  5
16766
  8
AM_0
 10
705.00719036486964
 20
271.8801124600941
 30
0.0
 42
0.00039106653
  0
VERTEX
  5
16767
  8
AM_0
 10
705.00955036486971
 20
272.19124246009397
 30
0.0
 42
0.00040574511
  0
VERTEX
  5
16768
  8
AM_0
 10
705.01142036486965
 20
272.50235246009407
 30
0.0
 42
0.00035346331
  0
VERTEX
  5
16769
  8
AM_0
 10
705.01281036486955
 20
272.81346246009412
 30
0.0
 42
0.00034406545
  0
VERTEX
  5
1676A
  8
AM_0
 10
705.01379036486946
 20
273.12460246009408
 30
0.0
 42
0.00045699059
  0
VERTEX
  5
1676B
  8
AM_0
 10
705.01425036486967
 20
273.43570246009398
 30
0.0
 42
0.00035573431
  0
VERTEX
  5
1676C
  8
AM_0
 10
705.01421036486965
 20
273.7468024600941
 30
0.0
 42
0.00038545888
  0
VERTEX
  5
1676D
  8
AM_0
 10
705.01372036486998
 20
274.05794246009413
 30
0.0
 42
0.00035501203
  0
VERTEX
  5
1676E
  8
AM_0
 10
705.01276036486968
 20
274.369052460094
 30
0.0
 42
0.00040120778
  0
VERTEX
  5
1676F
  8
AM_0
 10
705.01134036486974
 20
274.68028246009408
 30
0.0
 42
0.00038317821
  0
VERTEX
  5
16770
  8
AM_0
 10
705.00943036486956
 20
274.99141246009412
 30
0.0
 42
0.00040741862
  0
VERTEX
  5
16771
  8
AM_0
 10
705.00703036486971
 20
275.30264246009398
 30
0.0
 42
0.00035783324
  0
VERTEX
  5
16772
  8
AM_0
 10
705.00414036486973
 20
275.61375246009408
 30
0.0
  0
SEQEND
  5
16773
  8
AM_0
  0
ARC
  5
16774
  8
AM_0
 10
706.03716036486969
 20
286.89012246009412
 30
0.0
 40
1.3300049999999981
 50
270.0
 51
89.999996999999041
  0
POLYLINE
  5
16775
  8
AM_0
 66
     1
 10
0.0
 20
0.0
 30
0.0
  0
VERTEX
  5
16776
  8
AM_0
 10
704.9631303648697
 20
278.15049246009397
 30
0.0
 42
0.00076691987
  0
VERTEX
  5
16777
  8
AM_0
 10
704.94833036486955
 20
278.76825246009412
 30
0.0
 42
0.00073262795
  0
VERTEX
  5
16778
  8
AM_0
 10
704.93169036486995
 20
279.3858524600941
 30
0.0
 42
0.0007652954
  0
VERTEX
  5
16779
  8
AM_0
 10
704.91320036487002
 20
280.00352246009408
 30
0.0
 42
0.00077334627
  0
VERTEX
  5
1677A
  8
AM_0
 10
704.89279036486982
 20
280.62112246009411
 30
0.0
 42
0.00073282897
  0
VERTEX
  5
1677B
  8
AM_0
 10
704.87053036486964
 20
281.2385424600941
 30
0.0
 42
0.0007571179
  0
VERTEX
  5
1677C
  8
AM_0
 10
704.84643036486955
 20
281.85606246009411
 30
0.0
 42
0.00073783152
  0
VERTEX
  5
1677D
  8
AM_0
 10
704.82049036486956
 20
282.47345246009411
 30
0.0
 42
0.0007835518
  0
VERTEX
  5
1677E
  8
AM_0
 10
704.79266036486956
 20
283.09072246009413
 30
0.0
 42
0.00074826133
  0
VERTEX
  5
1677F
  8
AM_0
 10
704.7629303648697
 20
283.70811246009401
 30
0.0
 42
0.00074893555
  0
VERTEX
  5
16780
  8
AM_0
 10
704.73137036487003
 20
284.32524246009399
 30
0.0
 42
0.00076039841
  0
VERTEX
  5
16781
  8
AM_0
 10
704.69795036486971
 20
284.9422724600941
 30
0.0
 42
0.00075618789
  0
VERTEX
  5
16782
  8
AM_0
 10
704.66265036486959
 20
285.5593024600941
 30
0.0
  0
SEQEND
  5
16783
  8
AM_0
  0
ARC
  5
16784
  8
AM_0
 10
704.82256036486956
 20
286.8801124600941
 30
0.0
 40
1.0000138999999999
 50
269.69165999999939
 51
90.308340000000754
  0
ARC
  5
1678C
  8
AM_0
 10
717.36700036486957
 20
244.88023246009399
 30
0.0
 40
0.9998239899999999
 50
89.989922999999536
 51
180.01008000000471
  0
LINE
  5
1678D
  8
AM_0
 10
721.36718036486957
 20
223.86009246009399
 30
0.0
 11
721.36718036486957
 21
266.8801124600941
 31
0.0
  0
LINE
  5
1678F
  8
AM_0
 10
719.57720036486967
 20
223.390092460094
 30
0.0
 11
720.8171903648697
 21
224.02009246009399
 31
0.0
  0
LINE
  5
16790
  8
AM_0
 10
719.36718036486968
 20
222.3801124600941
 30
0.0
 11
719.36718036486968
 21
222.91014246009411
 31
0.0
  0
LINE
  5
16791
  8
AM_0
 10
719.59716036486986
 20
222.270122460094
 30
0.0
 11
720.86712036486983
 21
223.0001024600941
 31
0.0
  0
ARC
  5
16792
  8
AM_0
 10
720.36956036486959
 20
223.86472246009399
 30
0.0
 40
0.9976310099999999
 50
299.92075999999929
 51
359.73219000000142
  0
ARC
  5
16793
  8
AM_0
 10
719.08648036486989
 20
223.13120246009399
 30
0.0
 40
1.001123999999999
 50
270.61232000000132
 51
300.67217999999917
  0
ARC
  5
16794
  8
AM_0
 10
719.12133036487
 20
224.27940246009399
 30
0.0
 40
0.9993420200000001
 50
270.3345399999983
 51
297.1380000000006
  0
ARC
  5
16795
  8
AM_0
 10
716.86669036486967
 20
221.63059246009399
 30
0.0
 40
0.49952301
 50
89.945226000000403
 51
180.0547699999986
  0
ARC
  5
16796
  8
AM_0
 10
716.87054036486984
 20
223.783552460094
 30
0.0
 40
0.5033929900000002
 50
180.38490000000181
 51
269.61508999999938
  0
LINE
  5
16797
  8
AM_0
 10
716.36718036486957
 20
221.8801124600941
 30
0.0
 11
715.36718036486968
 21
221.8801124600941
 31
0.0
  0
LINE
  5
16798
  8
AM_0
 10
719.09716036486964
 20
222.1301124600941
 30
0.0
 11
716.86718036486957
 21
222.1301124600941
 31
0.0
  0
LINE
  5
16799
  8
AM_0
 10
719.12719036486965
 20
223.28013246009399
 30
0.0
 11
716.86718036486957
 21
223.28013246009399
 31
0.0
  0
ARC
  5
1679A
  8
AM_0
 10
720.3714503648697
 20
224.91050246009411
 30
0.0
 40
0.9956849800000001
 50
296.59085999999968
 51
359.97886999999997
  0
LINE
  5
1679B
  8
AM_0
 10
719.61724036486964
 20
228.92008246009399
 30
0.0
 11
720.91723036486974
 21
229.77009246009399
 31
0.0
  0
LINE
  5
1679C
  8
AM_0
 10
719.36718036486968
 20
229.05015246009401
 30
0.0
 11
719.36718036486968
 21
229.52012246009409
 31
0.0
  0
LINE
  5
1679D
  8
AM_0
 10
719.59716036486986
 20
230.030162460094
 30
0.0
 11
720.87713036486969
 21
230.78013246009399
 31
0.0
  0
ARC
  5
1679E
  8
AM_0
 10
720.36809036486954
 20
230.60484246009409
 30
0.0
 40
0.9990889999999998
 50
303.33790999999752
 51
0.3049100000035238
  0
LINE
  5
1679F
  8
AM_0
 10
720.87719036486965
 20
230.7801024600941
 30
0.0
 11
720.89721036486958
 21
230.790082460094
 31
0.0
  0
ARC
  5
167A0
  8
AM_0
 10
720.36870036486948
 20
231.63938246009411
 30
0.0
 40
0.9984580299999999
 50
300.61343000000079
 51
0.0404200000014761
  0
ARC
  5
167A1
  8
AM_0
 10
720.36870036486948
 20
231.63938246009411
 30
0.0
 40
0.9984580299999999
 50
300.61343000000079
 51
0.0404200000014761
  0
ARC
  5
167A2
  8
AM_0
 10
719.10381036486956
 20
230.90110246009411
 30
0.0
 40
1.001044999999998
 50
269.62029000000052
 51
299.52812999999918
  0
LINE
  5
167A3
  8
AM_0
 10
719.5871503648699
 20
225.5001024600941
 30
0.0
 11
720.8371503648699
 21
226.16010246009409
 31
0.0
  0
LINE
  5
167A4
  8
AM_0
 10
719.60711036486998
 20
224.3801124600941
 30
0.0
 11
720.88714036486965
 21
225.150132460094
 31
0.0
  0
ARC
  5
167A5
  8
AM_0
 10
720.3684003648699
 20
226.003642460094
 30
0.0
 40
0.9987969999999998
 50
301.2920499999999
 51
0.3727199999990191
  0
ARC
  5
167A6
  8
AM_0
 10
720.36944036486955
 20
227.04136246009409
 30
0.0
 40
0.9977070099999998
 50
297.95518999999922
 51
359.925979999996
  0
LINE
  5
167A7
  8
AM_0
 10
719.36718036486968
 20
224.480082460094
 30
0.0
 11
719.36718036486968
 21
225.03013246009399
 31
0.0
  0
ARC
  5
167A8
  8
AM_0
 10
719.11199036486983
 20
226.38072246009409
 30
0.0
 40
1.0006820000000001
 50
270.29607000000112
 51
298.34937999999829
  0
ARC
  5
167A9
  8
AM_0
 10
719.09576036486965
 20
225.2437524600941
 30
0.0
 40
1.003743999999998
 50
269.50809999999939
 51
300.62887000000268
  0
ARC
  5
167AA
  8
AM_0
 10
719.07439036486971
 20
229.76060246009411
 30
0.0
 40
1.000521999999999
 50
269.58655999999962
 51
302.85382000000021
  0
ARC
  5
167AB
  8
AM_0
 10
717.36962036487
 20
230.90257246009409
 30
0.0
 40
1.002470999999999
 50
180.14107000000001
 51
269.85892999999987
  0
ARC
  5
167AC
  8
AM_0
 10
717.37041036486937
 20
230.906842460094
 30
0.0
 40
1.0032760000000001
 50
180.38188999999531
 51
205.80189999999499
  0
ARC
  5
167AD
  8
AM_0
 10
717.37127036486959
 20
226.38426246009411
 30
0.0
 40
1.0041199999999999
 50
180.23461
 51
269.76539000000002
  0
LINE
  5
167AE
  8
AM_0
 10
719.09716036486964
 20
229.900132460094
 30
0.0
 11
717.36718036486957
 21
229.900132460094
 31
0.0
  0
LINE
  5
167AF
  8
AM_0
 10
719.06713036486985
 20
228.76011246009409
 30
0.0
 11
716.36718036486957
 21
228.76011246009409
 31
0.0
  0
LINE
  5
167B0
  8
AM_0
 10
719.0871503648699
 20
224.24009246009399
 30
0.0
 11
716.36718036486957
 21
224.24009246009399
 31
0.0
  0
LINE
  5
167B1
  8
AM_0
 10
719.11718036486957
 20
225.3801124600941
 30
0.0
 11
717.36718036486957
 21
225.3801124600941
 31
0.0
  0
ARC
  5
167B2
  8
AM_0
 10
720.37066036486965
 20
237.70860246009411
 30
0.0
 40
0.9965090199999998
 50
292.82154999999977
 51
0.086250000003428
  0
LINE
  5
167B3
  8
AM_0
 10
719.55712036486977
 20
236.2701524600941
 30
0.0
 11
720.75713036486968
 21
236.79017246009411
 31
0.0
  0
LINE
  5
167B4
  8
AM_0
 10
719.36718036486968
 20
236.49009246009399
 30
0.0
 11
719.36718036486968
 21
237.55015246009401
 31
0.0
  0
LINE
  5
167B5
  8
AM_0
 10
719.50719036486964
 20
238.1800924600941
 30
0.0
 11
720.6571603648697
 21
238.54011246009409
 31
0.0
  0
ARC
  5
167B6
  8
AM_0
 10
720.37078036486969
 20
239.49449246009399
 30
0.0
 40
0.99638802
 50
286.70335999999969
 51
359.75009000000108
  0
ARC
  5
167B7
  8
AM_0
 10
719.16418036486971
 20
237.19529246009401
 30
0.0
 40
1.005233
 50
270.17075000000051
 51
293.0136099999998
  0
ARC
  5
167B8
  8
AM_0
 10
719.22661036486954
 20
239.14280246009409
 30
0.0
 40
1.002699
 50
269.45935999999892
 51
286.24727999999777
  0
ARC
  5
167B9
  8
AM_0
 10
717.06664036486973
 20
235.4907024600941
 30
0.0
 40
0.6994530000000001
 50
89.95517099999924
 51
180.04482999999919
  0
ARC
  5
167BA
  8
AM_0
 10
717.37054036486984
 20
239.143412460094
 30
0.0
 40
1.003352
 50
180.1910999999989
 51
269.80888999999979
  0
LINE
  5
167BB
  8
AM_0
 10
719.16717036486966
 20
236.19016246009409
 30
0.0
 11
717.06719036486959
 21
236.19016246009409
 31
0.0
  0
LINE
  5
167BC
  8
AM_0
 10
719.21715036487001
 20
238.14012246009401
 30
0.0
 11
717.36718036486957
 21
238.14012246009401
 31
0.0
  0
ARC
  5
167BD
  8
AM_0
 10
720.37206036486964
 20
266.884992460094
 30
0.0
 40
0.9950770099999999
 50
359.7158599999994
 51
90.284140000000534
  0
LINE
  5
167BE
  8
AM_0
 10
719.36718036486968
 20
266.27012246009411
 30
0.0
 11
719.36718036486968
 21
267.43015246009412
 31
0.0
  0
LINE
  5
167BF
  8
AM_0
 10
723.86107684924468
 20
256.65828018470347
 30
0.0
 11
723.86107684924468
 21
287.1019142179066
 31
0.0
  0
LINE
  5
167C0
  8
AM_0
 10
723.86104633166667
 20
256.65828018470347
 30
0.0
 11
723.36104633166644
 21
253.8882911710316
 31
0.0
  0
ARC
  5
167C1
  8
AM_0
 10
720.36693036486975
 20
256.88035246009412
 30
0.0
 40
1.000199999999998
 50
270.01145999999858
 51
359.98854000000131
  0
LINE
  5
167C2
  8
AM_0
 10
719.36718036486968
 20
256.27012246009411
 30
0.0
 11
719.36718036486968
 21
257.4900924600941
 31
0.0
  0
LINE
  5
167C3
  8
AM_0
 10
723.36107684924468
 20
253.8882911710316
 30
0.0
 11
722.86104633166644
 21
253.92829971595339
 31
0.0
  0
LINE
  5
167C4
  8
AM_0
 10
722.86718036486968
 20
251.88008246009409
 30
0.0
 11
721.36718036486957
 21
251.75007246009409
 31
0.0
  0
LINE
  5
167C5
  8
AM_0
 10
722.86718036486968
 20
254.60008246009409
 30
0.0
 11
721.36718036486957
 21
254.60008246009409
 31
0.0
  0
ARC
  5
167C6
  8
AM_0
 10
720.36693036486975
 20
246.880352460094
 30
0.0
 40
1.0001959999999981
 50
270.01124999999951
 51
359.98875000000061
  0
ARC
  5
167C7
  8
AM_0
 10
720.37206036486964
 20
246.884992460094
 30
0.0
 40
0.9950849999999999
 50
359.71628000000078
 51
90.283717000000564
  0
LINE
  5
167C8
  8
AM_0
 10
719.36718036486968
 20
246.2501024600941
 30
0.0
 11
719.36718036486968
 21
247.6201024600941
 31
0.0
  0
ARC
  5
167C9
  8
AM_0
 10
717.36700036486957
 20
254.88023246009399
 30
0.0
 40
0.9998210099999999
 50
89.989718000001702
 51
180.01028000000201
  0
ARC
  5
167CA
  8
AM_0
 10
717.37212036486972
 20
248.884992460094
 30
0.0
 40
1.0049469
 50
180.2813699999993
 51
269.71863000000081
  0
LINE
  5
167CB
  8
AM_0
 10
717.36718036486957
 20
255.8801124600941
 30
0.0
 11
720.36718036486957
 21
255.8801124600941
 31
0.0
  0
LINE
  5
167CC
  8
AM_0
 10
717.36718036486957
 20
247.8801124600941
 30
0.0
 11
720.36718036486957
 21
247.8801124600941
 31
0.0
  0
LINE
  5
167CD
  8
AM_0
 10
717.36718036486957
 20
245.8801124600941
 30
0.0
 11
720.36718036486957
 21
245.8801124600941
 31
0.0
  0
ARC
  5
167CE
  8
AM_0
 10
720.36693036486975
 20
266.880352460094
 30
0.0
 40
1.0002040000000001
 50
270.01167999999927
 51
359.98834000000318
  0
ARC
  5
167CF
  8
AM_0
 10
720.37206036486964
 20
256.884992460094
 30
0.0
 40
0.9950810099999999
 50
359.71607999999549
 51
90.283927999999861
  0
LINE
  5
167D0
  8
AM_0
 10
722.86718036486968
 20
256.73008246009408
 30
0.0
 11
721.36718036486957
 21
256.73008246009408
 31
0.0
  0
ARC
  5
167D1
  8
AM_0
 10
717.36700036486957
 20
264.88023246009402
 30
0.0
 40
0.9998279799999998
 50
89.990161999999827
 51
180.00984000000301
  0
ARC
  5
167D2
  8
AM_0
 10
717.37212036486972
 20
258.884992460094
 30
0.0
 40
1.004939
 50
180.28092999999899
 51
269.71906000000018
  0
LINE
  5
167D3
  8
AM_0
 10
717.36718036486957
 20
265.8801124600941
 30
0.0
 11
720.36718036486957
 21
265.8801124600941
 31
0.0
  0
LINE
  5
167D4
  8
AM_0
 10
717.36718036486957
 20
257.8801124600941
 30
0.0
 11
720.36718036486957
 21
257.8801124600941
 31
0.0
  0
ARC
  5
167D5
  8
AM_0
 10
717.37212036486972
 20
278.88499246009411
 30
0.0
 40
1.0049469
 50
180.28133999999929
 51
269.71864999999963
  0
ARC
  5
167D6
  8
AM_0
 10
720.37206036486964
 20
276.88499246009411
 30
0.0
 40
0.9950849999999999
 50
359.71631000000031
 51
90.283688999999086
  0
ARC
  5
167D7
  8
AM_0
 10
720.36693036486975
 20
276.88035246009412
 30
0.0
 40
1.0001959999999981
 50
270.01121999999913
 51
359.98878000000411
  0
LINE
  5
167D8
  8
AM_0
 10
719.36718036486968
 20
277.49009246009399
 30
0.0
 11
719.36718036486968
 21
276.33006246009398
 31
0.0
  0
ARC
  5
167D9
  8
AM_0
 10
717.36700036486957
 20
274.88023246009402
 30
0.0
 40
0.9998249999999999
 50
89.989949999998785
 51
180.01005000000109
  0
ARC
  5
167DA
  8
AM_0
 10
717.37212036486972
 20
268.884992460094
 30
0.0
 40
1.004942999999999
 50
180.28113000000181
 51
269.71886000000057
  0
LINE
  5
167DB
  8
AM_0
 10
717.36718036486957
 20
277.8801124600941
 30
0.0
 11
720.36718036486957
 21
277.8801124600941
 31
0.0
  0
LINE
  5
167DC
  8
AM_0
 10
717.36718036486957
 20
275.8801124600941
 30
0.0
 11
720.36718036486957
 21
275.8801124600941
 31
0.0
  0
LINE
  5
167DD
  8
AM_0
 10
717.36718036486957
 20
267.8801124600941
 30
0.0
 11
720.36718036486957
 21
267.8801124600941
 31
0.0
  0
ARC
  5
167DE
  8
AM_0
 10
720.36693036486975
 20
286.88035246009412
 30
0.0
 40
1.000199999999998
 50
270.01143000000161
 51
359.98856999999839
  0
LINE
  5
167DF
  8
AM_0
 10
719.36718036486968
 20
287.49009246009399
 30
0.0
 11
719.36718036486968
 21
286.28013246009402
 31
0.0
  0
ARC
  5
167E0
  8
AM_0
 10
720.37206036486964
 20
286.88499246009411
 30
0.0
 40
0.99508202
 50
359.716090000002
 51
90.283901000001777
  0
LINE
  5
167E1
  8
AM_0
 10
722.86718036486968
 20
287.03013246009402
 30
0.0
 11
721.36718036486957
 21
287.03013246009402
 31
0.0
  0
ARC
  5
167E2
  8
AM_0
 10
717.36700036486957
 20
284.88023246009402
 30
0.0
 40
0.9998210099999999
 50
89.989745000000994
 51
180.01024999999851
  0
ARC
  5
167E3
  8
AM_0
 10
717.37212036486972
 20
288.88499246009411
 30
0.0
 40
1.004939
 50
180.2809000000002
 51
269.71908999999908
  0
LINE
  5
167E4
  8
AM_0
 10
717.36718036486957
 20
285.8801124600941
 30
0.0
 11
720.36718036486957
 21
285.8801124600941
 31
0.0
  0
LINE
  5
167E5
  8
AM_0
 10
717.36718036486957
 20
287.8801124600941
 30
0.0
 11
720.36718036486957
 21
287.8801124600941
 31
0.0
  0
LINE
  5
167E6
  8
AM_0
 10
715.36718036486968
 20
324.8801124600941
 30
0.0
 11
707.36718036486957
 21
324.8801124600941
 31
0.0
  0
LINE
  5
167E7
  8
AM_0
 10
705.90716036486958
 20
295.4401624600942
 30
0.0
 11
602.33294036486973
 21
295.4401624600942
 31
0.0
  0
LINE
  5
167E8
  8
AM_0
 10
705.68719036486971
 20
308.60008246009409
 30
0.0
 11
602.54717036486966
 21
308.60008246009409
 31
0.0
  0
LINE
  5
167E9
  8
AM_0
 10
606.03435036486997
 20
295.8801124600941
 30
0.0
 11
705.00719036486964
 21
295.8801124600941
 31
0.0
  0
LINE
  5
167EA
  8
AM_0
 10
606.02715036486984
 20
305.8801124600941
 30
0.0
 11
705.00719036486964
 21
305.8801124600941
 31
0.0
  0
LINE
  5
167EB
  8
AM_0
 10
606.02715036486984
 20
307.8801124600941
 30
0.0
 11
705.00719036486964
 21
307.8801124600941
 31
0.0
  0
LINE
  5
167EC
  8
AM_0
 10
705.90716036486958
 20
298.37010246009407
 30
0.0
 11
638.3671803648698
 21
298.37010246009407
 31
0.0
  0
LINE
  5
167ED
  8
AM_0
 10
705.68719036486971
 20
305.25010246009413
 30
0.0
 11
638.34716036486986
 21
305.25010246009413
 31
0.0
  0
LINE
  5
167EE
  8
AM_0
 10
638.3671803648698
 20
297.8801124600941
 30
0.0
 11
705.00719036486964
 21
297.8801124600941
 31
0.0
  0
LINE
  5
167EF
  8
AM_0
 10
704.07714036486971
 20
333.770122460094
 30
0.0
 11
607.23711036486964
 21
333.770122460094
 31
0.0
  0
LINE
  5
167F0
  8
AM_0
 10
704.09716036486964
 20
332.86009246009422
 30
0.0
 11
607.23717036486983
 21
332.86009246009422
 31
0.0
  0
LINE
  5
167F1
  8
AM_0
 10
704.1571603648697
 20
328.16014246009411
 30
0.0
 11
607.23717036486983
 21
328.16014246009411
 31
0.0
  0
LINE
  5
167F2
  8
AM_0
 10
704.11718036486968
 20
331.01011246009409
 30
0.0
 11
607.23717036486983
 21
331.01011246009409
 31
0.0
  0
ARC
  5
167F3
  8
AM_0
 10
607.2420003648698
 20
331.76536246009402
 30
0.0
 40
2.0047290000000002
 50
90.138321999999846
 51
164.8265040000035
  0
ARC
  5
167F4
  8
AM_0
 10
607.2420003648698
 20
330.85533246009402
 30
0.0
 40
2.0047290000000002
 50
90.138321999999846
 51
164.8265040000035
  0
LINE
  5
167F5
  8
AM_0
 10
620.36718036486968
 20
298.37010246009407
 30
0.0
 11
602.32146036486972
 21
298.37010246009407
 31
0.0
  0
LINE
  5
167F6
  8
AM_0
 10
620.38714036486965
 20
305.2400924600941
 30
0.0
 11
602.54717036486966
 21
305.2400924600941
 31
0.0
  0
LINE
  5
167F7
  8
AM_0
 10
606.02001036486968
 20
297.8801124600941
 30
0.0
 11
620.36718036486968
 21
297.8801124600941
 31
0.0
  0
ARC
  5
167F8
  8
AM_0
 10
601.26718036486966
 20
311.58009246009419
 30
0.0
 40
1.699996899999999
 50
270.00000300000102
 51
359.99998000000448
  0
LINE
  5
167F9
  8
AM_0
 10
599.36718036486968
 20
309.58009246009408
 30
0.0
 11
599.36718036486968
 21
317.18010246009419
 31
0.0
  0
LINE
  5
167FA
  8
AM_0
 10
600.3671803648698
 20
309.58009246009408
 30
0.0
 11
600.3671803648698
 21
317.18010246009419
 31
0.0
  0
LINE
  5
167FB
  8
AM_0
 10
599.36718036486968
 20
303.82005246009419
 30
0.0
 11
591.36718036486968
 21
303.82005246009419
 31
0.0
  0
ARC
  5
167FC
  8
AM_0
 10
606.02721036486969
 20
296.8801124600941
 30
0.0
 40
1.0000255999999981
 50
89.589468999998957
 51
270.41053000000011
  0
ARC
  5
167FD
  8
AM_0
 10
602.32720036486967
 20
296.91014246009411
 30
0.0
 40
1.460011199999999
 50
89.775249999999915
 51
270.22475000000009
  0
ARC
  5
167FE
  8
AM_0
 10
606.02715036486984
 20
306.8801124600941
 30
0.0
 40
1.0
 50
89.999996999999041
 51
270.000010000001
  0
ARC
  5
167FF
  8
AM_0
 10
602.54717036486966
 20
306.92515246009413
 30
0.0
 40
1.6750020000000001
 50
89.999996999999041
 51
270.000010000001
  0
LINE
  5
16800
  8
AM_0
 10
600.3671803648698
 20
309.58009246009408
 30
0.0
 11
599.36718036486968
 21
309.58009246009408
 31
0.0
  0
LINE
  5
16801
  8
AM_0
 10
600.3671803648698
 20
309.88011246009398
 30
0.0
 11
601.26718036486966
 21
309.88011246009398
 31
0.0
  0
LINE
  5
16802
  8
AM_0
 10
599.36718036486968
 20
317.8801124600941
 30
0.0
 11
591.36718036486968
 21
317.8801124600941
 31
0.0
  0
LINE
  5
16803
  8
AM_0
 10
599.36718036486968
 20
327.8801124600941
 30
0.0
 11
591.36718036486968
 21
327.8801124600941
 31
0.0
  0
LINE
  5
16804
  8
AM_0
 10
601.16143036486972
 20
316.80900246009412
 30
0.0
 11
605.3071503648697
 21
332.29011246009412
 31
0.0
  0
LINE
  5
16805
  8
AM_0
 10
601.88814304148025
 20
316.76263463172808
 30
0.0
 11
605.30718036486974
 21
329.53016246009412
 31
0.0
  0
LINE
  5
16806
  8
AM_0
 10
601.42229250897265
 20
316.87301206865328
 30
0.0
 11
605.30718036486974
 21
331.3801124600941
 31
0.0
  0
LINE
  5
16807
  8
AM_0
 10
602.53179653758184
 20
316.31621365875162
 30
0.0
 11
605.30712036486977
 21
326.6800924600941
 31
0.0
  0
LINE
  5
16808
  8
AM_0
 10
602.96716036486976
 20
311.58009246009419
 30
0.0
 11
602.96716036486976
 21
315.18010246009419
 31
0.0
  0
ARC
  5
16809
  8
AM_0
 10
601.26718036486966
 20
315.18010246009419
 30
0.0
 40
1.7000007999999991
 50
0.0000100000010064
 51
89.999979999998004
  0
LINE
  5
1680A
  8
AM_0
 10
600.3671803648698
 20
317.18010246009419
 30
0.0
 11
599.36718036486968
 21
317.18010246009419
 31
0.0
  0
LINE
  5
1680B
  8
AM_0
 10
599.36718036486968
 20
313.60274246009408
 30
0.0
 11
600.3671803648698
 21
314.18010246009408
 31
0.0
  0
LINE
  5
1680C
  8
AM_0
 10
599.36718036486968
 20
312.60274246009419
 30
0.0
 11
600.3671803648698
 21
313.18010246009419
 31
0.0
  0
LINE
  5
1680D
  8
AM_0
 10
600.3671803648698
 20
316.8801124600941
 30
0.0
 11
601.26718036486966
 21
316.8801124600941
 31
0.0
  0
ARC
  5
1680E
  8
AM_0
 10
607.23705036486979
 20
326.16184246009408
 30
0.0
 40
1.9982919999999991
 50
89.997367999998644
 51
164.96745200000379
  0
ARC
  5
1680F
  8
AM_0
 10
607.2420003648698
 20
329.00535246009412
 30
0.0
 40
2.0047290000000002
 50
90.138321999999846
 51
164.8265040000035
  0
LINE
  5
16810
  8
AM_0
 10
603.3228104047505
 20
324.8801124600941
 30
0.0
 11
599.36718036486968
 21
324.8801124600941
 31
0.0
  0
CIRCLE
  5
16811
  8
AM_0
 10
631.86718036486968
 20
300.3801124600941
 30
0.0
 40
1.149999999999999
  0
CIRCLE
  5
16812
  8
AM_0
 10
631.86718036486968
 20
300.3801124600941
 30
0.0
 40
1.1000000000000001
  0
CIRCLE
  5
16813
  8
AM_0
 10
626.8671803648698
 20
300.3801124600941
 30
0.0
 40
1.0
  0
LINE
  5
16814
  8
AM_0
 10
621.8671803648698
 20
299.3801124600941
 30
0.0
 11
621.8671803648698
 21
304.3801124600941
 31
0.0
  0
LINE
  5
16815
  8
AM_0
 10
621.38714036486965
 20
299.3801124600941
 30
0.0
 11
621.38714036486965
 21
304.24009246009399
 31
0.0
  0
ARC
  5
16816
  8
AM_0
 10
620.36718036486968
 20
299.3801124600941
 30
0.0
 40
1.5
 50
270.0
 51
0.0000100000010064
  0
ARC
  5
16817
  8
AM_0
 10
620.36718036486968
 20
299.3801124600941
 30
0.0
 40
1.02
 50
270.0
 51
0.0000100000010064
  0
ARC
  5
16818
  8
AM_0
 10
620.36718036486968
 20
304.3801124600941
 30
0.0
 40
1.5
 50
359.999989999999
 51
89.999996999999041
  0
ARC
  5
16819
  8
AM_0
 10
620.38714036486965
 20
304.24009246009399
 30
0.0
 40
1.0
 50
359.999989999999
 51
89.999996999999041
  0
LINE
  5
1681A
  8
AM_0
 10
637.34716036486975
 20
299.3801124600941
 30
0.0
 11
637.34716036486975
 21
304.24009246009399
 31
0.0
  0
LINE
  5
1681B
  8
AM_0
 10
636.86718036486968
 20
299.3801124600941
 30
0.0
 11
636.86718036486968
 21
304.3801124600941
 31
0.0
  0
ARC
  5
1681C
  8
AM_0
 10
638.3671803648698
 20
299.3801124600941
 30
0.0
 40
1.5
 50
179.99999931675049
 51
270.000010000001
  0
ARC
  5
1681D
  8
AM_0
 10
638.3671803648698
 20
299.3801124600941
 30
0.0
 40
1.02
 50
179.999999316757
 51
270.000010000001
  0
ARC
  5
1681E
  8
AM_0
 10
638.3671803648698
 20
304.3801124600941
 30
0.0
 40
1.5
 50
89.999996999999041
 51
180.0
  0
ARC
  5
1681F
  8
AM_0
 10
638.34716036486986
 20
304.24009246009399
 30
0.0
 40
1.0
 50
89.999996999999041
 51
180.0
  0
ARC
  5
16820
  8
AM_0
 10
704.10259036486946
 20
330.86338246009399
 30
0.0
 40
1.9967330000000001
 50
8.5461199999961224
 51
90.156033000001074
  0
ARC
  5
16821
  8
AM_0
 10
704.08068036486964
 20
331.774512460094
 30
0.0
 40
1.995633
 50
7.9388700000004286
 51
90.100292000000948
  0
LINE
  5
16822
  8
AM_0
 10
702.00713036486968
 20
308.53013246009402
 30
0.0
 11
707.36712036486983
 21
319.98011246009401
 31
0.0
  0
POLYLINE
  5
16823
  8
AM_0
 66
     1
 10
0.0
 20
0.0
 30
0.0
  0
VERTEX
  5
16824
  8
AM_0
 10
703.50628036486955
 20
298.36314246009408
 30
0.0
 42
0.00068898283
  0
VERTEX
  5
16825
  8
AM_0
 10
703.43540036486968
 20
298.93789246009408
 30
0.0
 42
0.00070644357
  0
VERTEX
  5
16826
  8
AM_0
 10
703.36290036486957
 20
299.51258246009411
 30
0.0
 42
0.00069248074
  0
VERTEX
  5
16827
  8
AM_0
 10
703.28881036486973
 20
300.08689246009408
 30
0.0
 42
0.0006958566
  0
VERTEX
  5
16828
  8
AM_0
 10
703.21313036486958
 20
300.66103246009402
 30
0.0
 42
0.00071687219
  0
VERTEX
  5
16829
  8
AM_0
 10
703.13582036487003
 20
301.23503246009409
 30
0.0
 42
0.00069760022
  0
VERTEX
  5
1682A
  8
AM_0
 10
703.0568803648697
 20
301.80882246009412
 30
0.0
 42
0.00071002302
  0
VERTEX
  5
1682B
  8
AM_0
 10
702.97634036486966
 20
302.38229246009411
 30
0.0
 42
0.00069954889
  0
VERTEX
  5
1682C
  8
AM_0
 10
702.89420036486968
 20
302.95539246009412
 30
0.0
 42
0.00071887947
  0
VERTEX
  5
1682D
  8
AM_0
 10
702.81042036486974
 20
303.52842246009408
 30
0.0
 42
0.00071266929
  0
VERTEX
  5
1682E
  8
AM_0
 10
702.72499036486965
 20
304.10119246009413
 30
0.0
 42
0.00071614429
  0
VERTEX
  5
1682F
  8
AM_0
 10
702.63796036486974
 20
304.67353246009412
 30
0.0
 42
0.00072288978
  0
VERTEX
  5
16830
  8
AM_0
 10
702.54925036486964
 20
305.24583246009411
 30
0.0
  0
SEQEND
  5
16831
  8
AM_0
  0
ARC
  5
16832
  8
AM_0
 10
705.90716036486958
 20
296.90513246009402
 30
0.0
 40
1.465004
 50
270.0
 51
89.999996999999041
  0
ARC
  5
16833
  8
AM_0
 10
704.82256036486956
 20
296.8801124600941
 30
0.0
 40
1.0000138999999999
 50
269.69165999999939
 51
90.308340000000754
  0
ARC
  5
16834
  8
AM_0
 10
705.69457036486972
 20
306.92515246009413
 30
0.0
 40
1.6750160000000001
 50
269.74612999999908
 51
90.253854999998765
  0
ARC
  5
16835
  8
AM_0
 10
704.82256036486956
 20
306.8801124600941
 30
0.0
 40
1.0000138999999999
 50
269.69165999999939
 51
90.308340000000754
  0
LINE
  5
16836
  8
AM_0
 10
707.36712036486983
 20
321.32014246009408
 30
0.0
 11
706.0871503648699
 21
329.33009246009408
 31
0.0
  0
LINE
  5
16837
  8
AM_0
 10
707.36718036486957
 20
319.98017246009408
 30
0.0
 11
706.12719036486965
 21
326.5401724600942
 31
0.0
  0
LINE
  5
16838
  8
AM_0
 10
714.66717036486966
 20
315.07005246009408
 30
0.0
 11
708.43719036486971
 21
315.07005246009408
 31
0.0
  0
ARC
  5
16839
  8
AM_0
 10
704.16845036486973
 20
326.16599246009412
 30
0.0
 40
1.994108999999999
 50
10.81223000000116
 51
90.324452000000534
  0
LINE
  5
1683A
  8
AM_0
 10
707.36718036486957
 20
322.670112460094
 30
0.0
 11
706.05718036486985
 21
332.05015246009413
 31
0.0
  0
LINE
  5
1683B
  8
AM_0
 10
707.36712036486983
 20
322.67008246009402
 30
0.0
 11
706.07714036486982
 21
331.16017246009409
 31
0.0
  0
ARC
  5
1683C
  8
AM_0
 10
704.11693036486975
 20
329.01487246009413
 30
0.0
 40
1.9952829999999999
 50
9.0916499999993174
 51
89.993795999999861
  0
LINE
  5
1683D
  8
AM_0
 10
723.36104633166644
 20
289.8719337491566
 30
0.0
 11
722.86107684924468
 21
289.83192520423472
 31
0.0
  0
ARC
  5
1683E
  8
AM_0
 10
720.36693036486975
 20
296.88035246009412
 30
0.0
 40
1.000203
 50
270.01164999999878
 51
359.98835000000429
  0
ARC
  5
1683F
  8
AM_0
 10
720.37206036486964
 20
296.88499246009411
 30
0.0
 40
0.99507803
 50
359.71589000000017
 51
90.284112999998655
  0
LINE
  5
16840
  8
AM_0
 10
719.36718036486968
 20
297.51011246009409
 30
0.0
 11
719.36718036486968
 21
296.14012246009401
 31
0.0
  0
LINE
  5
16841
  8
AM_0
 10
722.86718036486968
 20
289.16014246009411
 30
0.0
 11
721.36718036486957
 21
289.16014246009411
 31
0.0
  0
LINE
  5
16842
  8
AM_0
 10
722.86718036486968
 20
291.88008246009412
 30
0.0
 11
721.36718036486957
 21
292.01008246009411
 31
0.0
  0
ARC
  5
16843
  8
AM_0
 10
717.36700036486957
 20
294.88023246009402
 30
0.0
 40
0.9998289899999999
 50
89.990188999999049
 51
180.00980999999959
  0
ARC
  5
16844
  8
AM_0
 10
717.37212036486972
 20
298.88499246009411
 30
0.0
 40
1.004942999999999
 50
180.28111000000001
 51
269.71888999999999
  0
LINE
  5
16845
  8
AM_0
 10
717.36718036486957
 20
295.8801124600941
 30
0.0
 11
720.36718036486957
 21
295.8801124600941
 31
0.0
  0
LINE
  5
16846
  8
AM_0
 10
717.36718036486957
 20
297.8801124600941
 30
0.0
 11
720.36718036486957
 21
297.8801124600941
 31
0.0
  0
LINE
  5
16847
  8
AM_0
 10
719.50719036486964
 20
305.5801524600941
 30
0.0
 11
720.6571603648697
 21
305.2301424600941
 31
0.0
  0
LINE
  5
16848
  8
AM_0
 10
719.55718036486974
 20
307.49012246009408
 30
0.0
 11
720.75713036486968
 21
306.98011246009412
 31
0.0
  0
ARC
  5
16849
  8
AM_0
 10
720.37078036486969
 20
306.0616224600941
 30
0.0
 40
0.9963999999999998
 50
359.9095800000004
 51
67.182639999998941
  0
LINE
  5
1684A
  8
AM_0
 10
719.36718036486968
 20
307.27012246009411
 30
0.0
 11
719.36718036486968
 21
306.21006246009398
 31
0.0
  0
ARC
  5
1684B
  8
AM_0
 10
719.22802036486974
 20
304.62742246009412
 30
0.0
 40
0.9927430199999999
 50
73.667929999997895
 51
90.625445000001221
  0
ARC
  5
1684C
  8
AM_0
 10
719.16619036486952
 20
306.57469246009413
 30
0.0
 40
0.9954450099999999
 50
66.872549999999563
 51
89.943095000000326
  0
ARC
  5
1684D
  8
AM_0
 10
720.37090036486984
 20
304.27586246009412
 30
0.0
 40
0.9962710099999999
 50
359.66994999999997
 51
73.302080000000245
  0
ARC
  5
1684E
  8
AM_0
 10
717.07171036486955
 20
308.27464246009413
 30
0.0
 40
0.704566
 50
180.37009000000211
 51
269.62990000000002
  0
ARC
  5
1684F
  8
AM_0
 10
717.36547036486957
 20
304.62180246009399
 30
0.0
 40
0.9982839799999999
 50
89.901423999998656
 51
180.09857999999991
  0
LINE
  5
16850
  8
AM_0
 10
719.16717036486966
 20
307.57005246009408
 30
0.0
 11
717.06719036486959
 21
307.57005246009408
 31
0.0
  0
LINE
  5
16851
  8
AM_0
 10
719.21715036487001
 20
305.62010246009407
 30
0.0
 11
717.36718036486957
 21
305.62010246009407
 31
0.0
  0
ARC
  5
16852
  8
AM_0
 10
719.10515036486981
 20
320.63426246009408
 30
0.0
 40
0.9959030199999999
 50
60.392830000001112
 51
90.458733000000876
  0
LINE
  5
16853
  8
AM_0
 10
719.60723036486968
 20
319.38017246009412
 30
0.0
 11
720.88720036486973
 21
318.61015246009413
 31
0.0
  0
ARC
  5
16854
  8
AM_0
 10
720.37157036486974
 20
318.85984246009411
 30
0.0
 40
0.995579
 50
0.0173600000000184
 51
63.412910000002221
  0
LINE
  5
16855
  8
AM_0
 10
719.36718036486968
 20
319.28013246009402
 30
0.0
 11
719.36718036486968
 21
318.73008246009408
 31
0.0
  0
LINE
  5
16856
  8
AM_0
 10
719.5871503648699
 20
318.2701524600941
 30
0.0
 11
720.8371503648699
 21
317.60014246009422
 31
0.0
  0
ARC
  5
16857
  8
AM_0
 10
720.37273036486965
 20
317.75913246009412
 30
0.0
 40
0.9944329899999999
 50
0.0594900000009355
 51
58.847870000000363
  0
ARC
  5
16858
  8
AM_0
 10
720.37395036486964
 20
316.72154246009421
 30
0.0
 40
0.9932109699999999
 50
359.91813000000002
 51
62.200680000000879
  0
ARC
  5
16859
  8
AM_0
 10
720.37395036486964
 20
319.89805246009411
 30
0.0
 40
0.99319202
 50
0.1204100000019381
 51
60.226619999999812
  0
LINE
  5
1685A
  8
AM_0
 10
719.57720036486967
 20
320.3801124600941
 30
0.0
 11
720.8171903648697
 21
319.75010246009413
 31
0.0
  0
LINE
  5
1685B
  8
AM_0
 10
719.59716036486986
 20
321.50007246009409
 30
0.0
 11
720.86712036486983
 21
320.76008246009411
 31
0.0
  0
LINE
  5
1685C
  8
AM_0
 10
719.36718036486968
 20
321.3801124600941
 30
0.0
 11
719.36718036486968
 21
320.85008246009409
 31
0.0
  0
ARC
  5
1685D
  8
AM_0
 10
719.13207036486972
 20
317.38474246009412
 30
0.0
 40
0.99545902
 50
62.796180000001051
 51
90.858709000000076
  0
ARC
  5
1685E
  8
AM_0
 10
719.14239036486947
 20
319.48606246009399
 30
0.0
 40
0.99411702
 50
64.065019999999919
 51
90.877356000001427
  0
ARC
  5
1685F
  8
AM_0
 10
719.09832036486966
 20
318.525862460094
 30
0.0
 40
0.99427301
 50
59.219089999998332
 51
90.643933999999973
  0
LINE
  5
16860
  8
AM_0
 10
719.59722036486971
 20
313.73014246009421
 30
0.0
 11
720.87719036486965
 21
312.98014246009421
 31
0.0
  0
LINE
  5
16861
  8
AM_0
 10
719.61724036486964
 20
314.84013246009408
 30
0.0
 11
720.91723036486974
 21
313.99015246009412
 31
0.0
  0
ARC
  5
16862
  8
AM_0
 10
720.37310036486974
 20
312.12327246009409
 30
0.0
 40
0.99404597
 50
359.81435999999962
 51
59.531799999999571
  0
ARC
  5
16863
  8
AM_0
 10
720.37237036486965
 20
313.1576924600941
 30
0.0
 40
0.9948369899999999
 50
359.56214000000188
 51
56.795039999997378
  0
LINE
  5
16864
  8
AM_0
 10
719.36718036486968
 20
314.71006246009398
 30
0.0
 11
719.36718036486968
 21
314.24009246009422
 31
0.0
  0
ARC
  5
16865
  8
AM_0
 10
719.08776036486984
 20
312.87364246009417
 30
0.0
 40
0.99648702
 50
59.25623000000212
 51
89.459279000001388
  0
ARC
  5
16866
  8
AM_0
 10
719.06054036486955
 20
314.0138924600941
 30
0.0
 40
0.99617702
 50
56.029510000002702
 51
89.618682000000817
  0
ARC
  5
16867
  8
AM_0
 10
717.36620036487
 20
317.38108246009398
 30
0.0
 40
0.9990100299999999
 50
89.943190999999956
 51
180.05680999999871
  0
ARC
  5
16868
  8
AM_0
 10
716.86547036486957
 20
319.98179246009408
 30
0.0
 40
0.4983060100000002
 50
89.804892999999964
 51
180.1951100000021
  0
ARC
  5
16869
  8
AM_0
 10
717.36950036486974
 20
312.86778246009408
 30
0.0
 40
1.002353
 50
90.134327000000596
 51
179.86567318000149
  0
LINE
  5
1686A
  8
AM_0
 10
719.11718036486957
 20
318.3801124600941
 30
0.0
 11
717.36718036486957
 21
318.3801124600941
 31
0.0
  0
LINE
  5
1686B
  8
AM_0
 10
719.12719036486965
 20
320.48008246009408
 30
0.0
 11
716.86718036486957
 21
320.48008246009408
 31
0.0
  0
LINE
  5
1686C
  8
AM_0
 10
719.0871503648699
 20
319.520122460094
 30
0.0
 11
716.36718036486957
 21
319.520122460094
 31
0.0
  0
LINE
  5
1686D
  8
AM_0
 10
719.06713036486985
 20
315.01011246009409
 30
0.0
 11
716.36718036486957
 21
315.01011246009409
 31
0.0
  0
LINE
  5
1686E
  8
AM_0
 10
719.09716036486964
 20
313.87010246009407
 30
0.0
 11
717.36718036486957
 21
313.87010246009407
 31
0.0
  0
ARC
  5
1686F
  8
AM_0
 10
716.87176036486971
 20
322.13474246009412
 30
0.0
 40
0.50463498
 50
180.5238300000004
 51
269.47616999999963
  0
LINE
  5
16870
  8
AM_0
 10
716.36718036486957
 20
321.8801124600941
 30
0.0
 11
715.36718036486968
 21
321.8801124600941
 31
0.0
  0
LINE
  5
16871
  8
AM_0
 10
719.09716036486964
 20
321.6301124600941
 30
0.0
 11
716.86718036486957
 21
321.6301124600941
 31
0.0
  0
LINE
  5
16872
  8
ﾁｭｳｼﾝｾﾝ1
 10
559.96408582651929
 20
271.88011055692948
 30
0.0
 11
728.86107684924457
 21
271.88009720130498
 31
0.0
  0
ARC
  5
16B52
  8
AM_0
 10
477.36717748894552
 20
255.3801124600941
 30
0.0
 40
12.0
 50
109.4712206344888
 51
70.528779365511184
  0
CIRCLE
  5
16B53
  8
AM_0
 10
477.36717748894557
 20
255.3801124600939
 30
0.0
 40
19.999800629214029
  0
LINE
  5
16B54
  8
AM_0
 10
473.36717748894552
 20
270.3801124600941
 30
0.0
 11
481.36717748894552
 21
270.3801124600941
 31
0.0
  0
CIRCLE
  5
16B55
  8
ｽﾝﾎﾟｳｾﾝ
 10
477.36717748894557
 20
255.38011246009401
 30
0.0
 40
4.0
  0
LINE
  5
16B56
  8
AM_0
 10
481.36717748894552
 20
263.3801124600941
 30
0.0
 11
473.36717748894552
 21
263.3801124600941
 31
0.0
  0
LINE
  5
16B57
  8
AM_0
 10
473.36717748894552
 20
263.3801124600941
 30
0.0
 11
473.36717748894552
 21
270.3801124600941
 31
0.0
  0
LINE
  5
16B58
  8
AM_0
 10
481.36717748894552
 20
270.3801124600941
 30
0.0
 11
481.36717748894552
 21
263.3801124600941
 31
0.0
  0
LINE
  5
16B86
  8
0
 10
260.1595980566899
 20
275.37991306764309
 30
0.0
 11
275.1595962870561
 21
270.38011243842942
 31
0.0
  0
LINE
  5
16B87
  8
0
 10
260.1595980566899
 20
235.38031187556211
 30
0.0
 11
275.1595962870561
 21
240.38011243842939
 31
0.0
  0
LINE
  5
16B88
  8
0
 10
275.1595962870561
 20
240.38011243842939
 30
0.0
 11
275.1595962870561
 21
270.38011243842942
 31
0.0
  0
LINE
  5
16B89
  8
0
 10
315.15959628705588
 20
270.38011242316099
 30
0.0
 11
283.15959632989762
 21
270.38011242316099
 31
0.0
  0
LINE
  5
16B8A
  8
0
 10
315.15959628705588
 20
267.38011242316099
 30
0.0
 11
275.1595962870561
 21
267.38011241714798
 31
0.0
  0
LINE
  5
16B8B
  8
0
 10
315.15959628705588
 20
243.38011242316099
 30
0.0
 11
275.1595962870561
 21
243.38011242316099
 31
0.0
  0
LINE
  5
16B8C
  8
0
 10
283.15959632989762
 20
270.38011242316099
 30
0.0
 11
283.15959633034851
 21
267.38011241835068
 31
0.0
  0
LINE
  5
16B8D
  8
0
 10
315.15959625278271
 20
243.38011242316071
 30
0.0
 11
315.15959632989768
 21
270.38011242316082
 31
0.0
  0
ARC
  5
16B8E
  8
AM_0
 10
207.15959628705579
 20
271.88011246009393
 30
0.0
 40
56.5
 50
2.3832490535852671
 51
35.018628262081592
  0
LINE
  5
16F39
  8
0
 10
439.3671774889454
 20
202.3801124600939
 30
0.0
 11
439.3671774889454
 21
195.3801124600937
 31
0.0
  0
LINE
  5
16F3A
  8
0
 10
450.3671774889454
 20
202.3801124600939
 30
0.0
 11
450.3671774889454
 21
195.3801124600937
 31
0.0
  0
LINE
  5
16F3C
  8
0
  6
CONTINUOUS
 62
     7
 10
447.86717748894552
 20
200.6480567960316
 30
0.0
 11
447.86717748894552
 21
204.11216812415651
 31
0.0
  0
ARC
  5
16F3D
  8
0
  6
CONTINUOUS
 62
     7
 10
460.87498998894557
 20
206.38011246009361
 30
0.0
 40
4.9999999999999742
 50
194.02966532410429
 51
270.00000250447852
  0
LINE
  5
16F3E
  8
0
  6
CONTINUOUS
 62
     7
 10
441.8671774889454
 20
200.6480567960316
 30
0.0
 11
441.8671774889454
 21
204.11216812415651
 31
0.0
  0
CIRCLE
  5
16F3F
  8
0
  6
CONTINUOUS
 62
     7
 10
444.8671774889454
 20
202.38011246009401
 30
0.0
 40
4.9999999999999991
  0
ARC
  5
16F40
  8
0
  6
CONTINUOUS
 62
     7
 10
547.72682714714847
 20
206.38011246009361
 30
0.0
 40
5.0000000000000018
 50
270.00000250447852
 51
350.27356974404807
  0
LINE
  5
16F41
  8
0
  6
CONTINUOUS
 62
     7
 10
444.86717748894529
 20
198.9160163907581
 30
0.0
 11
447.86717748894552
 21
200.6480567960316
 31
0.0
  0
LINE
  5
16F42
  8
0
  6
CONTINUOUS
 62
     7
 10
441.8671774889454
 20
200.6480567960316
 30
0.0
 11
444.86717748894529
 21
198.9160163907581
 31
0.0
  0
LINE
  5
16F43
  8
0
  6
CONTINUOUS
 62
     7
 10
547.72682714714836
 20
201.3801124600937
 30
0.0
 11
460.8749899889454
 21
201.3801124600937
 31
0.0
  0
LINE
  5
16F44
  8
0
  6
CONTINUOUS
 62
     7
 10
547.72682714714836
 20
309.38011246009398
 30
0.0
 11
460.87498998894557
 21
309.3801124600941
 31
0.0
  0
LINE
  5
16F45
  8
0
  6
CONTINUOUS
 62
     7
 10
425.8671774889454
 20
221.52046280189089
 30
0.0
 11
425.8671774889454
 21
289.2397697476917
 31
0.0
  0
LINE
  5
16F46
  8
0
  6
CONTINUOUS
 62
     7
 10
444.86717748894529
 20
205.84420852942989
 30
0.0
 11
447.86717748894552
 21
204.11216812415651
 31
0.0
  0
ARC
  5
16F47
  8
0
  6
CONTINUOUS
 62
     7
 10
444.8671774889454
 20
202.38011246009401
 30
0.0
 40
11.49999999999998
 50
14.0296679991116
 51
80.273569060800796
  0
ARC
  5
16F49
  8
0
  6
CONTINUOUS
 62
     7
 10
444.8671774889454
 20
202.38011246009401
 30
0.0
 40
5.4999999999999991
 50
0.0
 51
180.0
  0
LINE
  5
16F4A
  8
0
  6
CONTINUOUS
 62
     7
 10
446.81001806511711
 20
213.71481399817989
 30
0.0
 11
430.0224509264454
 21
216.5923316983754
 31
0.0
  0
ARC
  5
16F4B
  8
0
  6
CONTINUOUS
 62
     7
 10
430.86717748894557
 20
221.520462801891
 30
0.0
 40
4.9999999999999991
 50
180.0
 51
260.27356723957189
  0
LINE
  5
16F4C
  8
0
  6
CONTINUOUS
 62
     7
 10
441.8671774889454
 20
204.11216812415651
 30
0.0
 11
444.86717748894529
 21
205.84420852942989
 31
0.0
  0
LINE
  5
16F4D
  8
0
  6
CONTINUOUS
 62
     7
 10
444.86717748894529
 20
304.91601639075799
 30
0.0
 11
447.86717748894552
 21
306.64806442542613
 31
0.0
  0
ARC
  5
16F4E
  8
0
  6
CONTINUOUS
 62
     7
 10
444.86717748894557
 20
308.3801124600941
 30
0.0
 40
11.499999999999989
 50
279.72643093919919
 51
345.97033200088208
  0
LINE
  5
16F50
  8
0
  6
CONTINUOUS
 62
     7
 10
444.86717748894529
 20
311.84421615882439
 30
0.0
 11
447.86717748894552
 21
310.1121681241566
 31
0.0
  0
ARC
  5
16F51
  8
0
  6
CONTINUOUS
 62
     7
 10
444.86717748894557
 20
308.3801124600941
 30
0.0
 40
5.4999999999999991
 50
180.0
 51
0.0000050089569292
  0
CIRCLE
  5
16F52
  8
0
  6
CONTINUOUS
 62
     7
 10
444.86717748894557
 20
308.3801124600941
 30
0.0
 40
4.9999999999999991
  0
LINE
  5
16F54
  8
0
  6
CONTINUOUS
 62
     7
 10
439.3671774889454
 20
315.3801124600941
 30
0.0
 11
439.3671774889454
 21
308.38011246009398
 31
0.0
  0
LINE
  5
16F55
  8
0
  6
CONTINUOUS
 62
     7
 10
441.8671774889454
 20
306.64806442542613
 30
0.0
 11
441.8671774889454
 21
310.1121681241566
 31
0.0
  0
LINE
  5
16F56
  8
0
  6
CONTINUOUS
 62
     7
 10
446.81001806511711
 20
297.04541855140269
 30
0.0
 11
430.0224509264454
 21
294.16789322181279
 31
0.0
  0
ARC
  5
16F57
  8
0
  6
CONTINUOUS
 62
     7
 10
430.86717748894557
 20
289.23976974769192
 30
0.0
 40
4.9999999999999947
 50
99.726432760428096
 51
180.0
  0
LINE
  5
16F58
  8
0
  6
CONTINUOUS
 62
     7
 10
441.8671774889454
 20
306.64806442542613
 30
0.0
 11
444.86717748894529
 21
304.91601639075799
 31
0.0
  0
LINE
  5
16F59
  8
0
  6
CONTINUOUS
 62
     7
 10
441.8671774889454
 20
310.1121681241566
 30
0.0
 11
444.86717748894529
 21
311.84421615882439
 31
0.0
  0
LINE
  5
16F5A
  8
0
  6
CONTINUOUS
 62
     7
 10
450.3671774889454
 20
315.3801124600941
 30
0.0
 11
450.3671774889454
 21
308.38011246009398
 31
0.0
  0
LINE
  5
16F5B
  8
0
  6
CONTINUOUS
 62
     7
 10
447.86717748894552
 20
306.64806442542613
 30
0.0
 11
447.86717748894552
 21
310.1121681241566
 31
0.0
  0
ARC
  5
16F5C
  8
0
  6
CONTINUOUS
 62
     7
 10
460.87498998894557
 20
304.38011246009393
 30
0.0
 40
5.0000000000000018
 50
89.999997495521541
 51
165.97033467589571
  0
LINE
  5
16F5D
  8
0
  6
CONTINUOUS
 62
     7
 10
566.86717748894534
 20
286.91601639075782
 30
0.0
 11
569.86717748894534
 21
288.64806442542601
 31
0.0
  0
ARC
  5
16F5E
  8
0
  6
CONTINUOUS
 62
     7
 10
566.86717748894534
 20
290.38011246009398
 30
0.0
 40
5.5000000000000044
 50
89.999997495521541
 51
270.00000250447852
  0
CIRCLE
  5
16F5F
  8
0
  6
CONTINUOUS
 62
     7
 10
566.86717748894534
 20
290.38011246009398
 30
0.0
 40
4.9999999999999991
  0
ARC
  5
16F60
  8
0
  6
CONTINUOUS
 62
     7
 10
566.86717748894534
 20
290.38011246009398
 30
0.0
 40
11.5
 50
189.72643355735741
 51
255.97033632659949
  0
LINE
  5
16F61
  8
0
  6
CONTINUOUS
 62
     7
 10
563.86717748894557
 20
288.64806442542601
 30
0.0
 11
566.86717748894534
 21
286.91601639075782
 31
0.0
  0
LINE
  5
16F63
  8
0
  6
CONTINUOUS
 62
     7
 10
567.86717748894557
 20
236.3879249600937
 30
0.0
 11
567.86717748894557
 21
274.37229996009393
 31
0.0
  0
LINE
  5
16F64
  8
0
  6
CONTINUOUS
 62
     7
 10
566.86717748894523
 20
223.84420852942981
 30
0.0
 11
569.86717748894523
 21
222.1121681241564
 31
0.0
  0
ARC
  5
16F65
  8
0
  6
CONTINUOUS
 62
     7
 10
566.86717748894534
 20
220.3801124600939
 30
0.0
 40
5.5000000000000044
 50
89.999997495521541
 51
270.00000250447852
  0
CIRCLE
  5
16F66
  8
0
  6
CONTINUOUS
 62
     7
 10
566.86717748894534
 20
220.3801124600939
 30
0.0
 40
4.9999999999999991
  0
LINE
  5
16F68
  8
0
  6
CONTINUOUS
 62
     7
 10
563.86717748894523
 20
222.1121681241564
 30
0.0
 11
566.86717748894523
 21
223.84420852942981
 31
0.0
  0
ARC
  5
16F69
  8
0
  6
CONTINUOUS
 62
     7
 10
566.86717748894534
 20
220.3801124600939
 30
0.0
 40
11.499999999999989
 50
104.02966367340041
 51
170.27356644264239
  0
LINE
  5
16F6B
  8
0
  6
CONTINUOUS
 62
     7
 10
563.86717748894523
 20
218.64805679603151
 30
0.0
 11
566.86717748894523
 21
216.9160163907581
 31
0.0
  0
LINE
  5
16F6C
  8
0
  6
CONTINUOUS
 62
     7
 10
555.53246069207034
 20
222.32296829505481
 30
0.0
 11
552.65495825066409
 21
205.5354011563829
 31
0.0
  0
LINE
  5
16F6D
  8
0
  6
CONTINUOUS
 62
     7
 10
563.86717748894523
 20
218.64805679603151
 30
0.0
 11
563.86717748894523
 21
222.1121681241564
 31
0.0
  0
LINE
  5
16F6E
  8
0
  6
CONTINUOUS
 62
     7
 10
573.86717748894523
 20
214.88011246009401
 30
0.0
 11
566.86717748894523
 21
214.88011246009401
 31
0.0
  0
LINE
  5
16F6F
  8
0
  6
CONTINUOUS
 62
     7
 10
566.86717748894523
 20
216.9160163907581
 30
0.0
 11
569.86717748894523
 21
218.64805679603151
 31
0.0
  0
LINE
  5
16F70
  8
0
  6
CONTINUOUS
 62
     7
 10
569.86717748894523
 20
218.64805679603151
 30
0.0
 11
569.86717748894523
 21
222.1121681241564
 31
0.0
  0
ARC
  5
16F71
  8
0
  6
CONTINUOUS
 62
     7
 10
562.86717748894534
 20
236.3879249600939
 30
0.0
 40
5.0000000000000089
 50
284.02966868235637
 51
0.0000050089569292
  0
LINE
  5
16F72
  8
0
  6
CONTINUOUS
 62
     7
 10
573.86717748894523
 20
225.8801124600939
 30
0.0
 11
566.86717748894523
 21
225.8801124600939
 31
0.0
  0
ARC
  5
16F73
  8
0
  6
CONTINUOUS
 62
     7
 10
562.86717748894534
 20
274.37229996009398
 30
0.0
 40
5.000000000000016
 50
0.0000050089569292
 51
75.970327675174289
  0
LINE
  5
16F74
  8
0
  6
CONTINUOUS
 62
     7
 10
573.86717748894523
 20
284.8801124600937
 30
0.0
 11
566.86717748894534
 21
284.8801124600937
 31
0.0
  0
ARC
  5
16F75
  8
0
  6
CONTINUOUS
 62
     7
 10
547.72682714714847
 20
304.38011246009393
 30
0.0
 40
4.9999999999999876
 50
9.7264302559517546
 51
89.999997495521541
  0
LINE
  5
16F77
  8
0
  6
CONTINUOUS
 62
     7
 10
563.86717748894557
 20
292.11216812415648
 30
0.0
 11
566.86717748894534
 21
293.84421615882428
 31
0.0
  0
LINE
  5
16F78
  8
0
  6
CONTINUOUS
 62
     7
 10
555.53246069207034
 20
288.43725662513282
 30
0.0
 11
552.65495825066409
 21
305.22483139319951
 31
0.0
  0
LINE
  5
16F79
  8
0
  6
CONTINUOUS
 62
     7
 10
563.86717748894557
 20
288.64806442542601
 30
0.0
 11
563.86717748894557
 21
292.11216812415648
 31
0.0
  0
LINE
  5
16F7A
  8
0
  6
CONTINUOUS
 62
     7
 10
573.86717748894523
 20
295.88011246009398
 30
0.0
 11
566.86717748894534
 21
295.88011246009398
 31
0.0
  0
LINE
  5
16F7B
  8
0
  6
CONTINUOUS
 62
     7
 10
566.86717748894534
 20
293.84421615882428
 30
0.0
 11
569.86717748894534
 21
292.11216812415648
 31
0.0
  0
LINE
  5
16F7C
  8
0
  6
CONTINUOUS
 62
     7
 10
569.86717748894534
 20
288.64806442542601
 30
0.0
 11
569.86717748894534
 21
292.11216812415648
 31
0.0
  0
CIRCLE
  5
17115
  8
AM_0
 10
477.36717748894552
 20
255.3801124600941
 30
0.0
 40
3.399999999999999
  0
LINE
  5
172F5
  8
AM_0
 10
602.96713036486983
 20
555.57031773727317
 30
0.0
 11
602.96713036486983
 21
559.17032773727351
 31
0.0
  0
LINE
  5
172F6
  8
AM_0
 10
600.36715036486964
 20
553.5703177372734
 30
0.0
 11
600.36715036486964
 21
561.1703277372734
 31
0.0
  0
LINE
  5
172F7
  8
AM_0
 10
599.36715036486964
 20
553.5703177372734
 30
0.0
 11
599.36715036486964
 21
561.1703277372734
 31
0.0
  0
ARC
  5
172F8
  8
AM_0
 10
601.26715036486962
 20
559.17032773727351
 30
0.0
 40
1.7000007999999991
 50
0.0000100000009873
 51
89.999980000001216
  0
LINE
  5
172F9
  8
AM_0
 10
600.36715036486964
 20
560.8703377372733
 30
0.0
 11
601.26715036486962
 21
560.8703377372733
 31
0.0
  0
LINE
  5
172FA
  8
AM_0
 10
600.36715036486964
 20
561.1703277372734
 30
0.0
 11
599.36715036486964
 21
561.1703277372734
 31
0.0
  0
ARC
  5
172FB
  8
AM_0
 10
601.26715036486962
 20
555.57031773727317
 30
0.0
 40
1.699996899999999
 50
270.00000300000102
 51
359.99998000000448
  0
LINE
  5
172FC
  8
AM_0
 10
600.36715036486964
 20
553.87033773727319
 30
0.0
 11
601.26715036486962
 21
553.87033773727319
 31
0.0
  0
LINE
  5
172FD
  8
AM_0
 10
599.36715036486964
 20
556.59296773727306
 30
0.0
 11
600.36715036486964
 21
557.17032773727328
 31
0.0
  0
LINE
  5
172FE
  8
AM_0
 10
599.36715036486964
 20
557.59296773727328
 30
0.0
 11
600.36715036486964
 21
558.17032773727351
 31
0.0
  0
LINE
  5
172FF
  8
AM_0
 10
600.36715036486964
 20
553.5703177372734
 30
0.0
 11
599.36715036486964
 21
553.5703177372734
 31
0.0
  0
ARC
  5
17300
  8
AM_0
 10
601.26715036486974
 20
472.57034773727332
 30
0.0
 40
1.7000007999999991
 50
270.000020000002
 51
359.999989999999
  0
LINE
  5
17301
  8
AM_0
 10
600.36715036486964
 20
478.17035773727309
 30
0.0
 11
600.36715036486964
 21
470.57034773727332
 31
0.0
  0
LINE
  5
17302
  8
AM_0
 10
599.36715036486964
 20
478.17035773727309
 30
0.0
 11
599.36715036486964
 21
470.57034773727332
 31
0.0
  0
LINE
  5
17303
  8
AM_0
 10
602.96713036486983
 20
476.17035773727309
 30
0.0
 11
602.96713036486983
 21
472.57034773727332
 31
0.0
  0
LINE
  5
17304
  8
AM_0
 10
599.36715036486964
 20
475.14770773727332
 30
0.0
 11
600.36715036486964
 21
474.57034773727332
 31
0.0
  0
LINE
  5
17305
  8
AM_0
 10
599.36715036486964
 20
474.14770773727332
 30
0.0
 11
600.36715036486964
 21
473.57034773727332
 31
0.0
  0
LINE
  5
17306
  8
AM_0
 10
600.36715036486964
 20
477.87033773727342
 30
0.0
 11
601.26715036486974
 21
477.87033773727342
 31
0.0
  0
LINE
  5
17307
  8
AM_0
 10
600.36715036486964
 20
478.17035773727309
 30
0.0
 11
599.36715036486964
 21
478.17035773727309
 31
0.0
  0
ARC
  5
17308
  8
AM_0
 10
601.26715036486974
 20
476.17035773727309
 30
0.0
 40
1.699996899999999
 50
0.0000199999954997
 51
89.999996999999027
  0
LINE
  5
17309
  8
AM_0
 10
600.36715036486964
 20
470.87033773727319
 30
0.0
 11
601.26715036486974
 21
470.87033773727319
 31
0.0
  0
LINE
  5
1730A
  8
AM_0
 10
600.36715036486964
 20
470.57034773727332
 30
0.0
 11
599.36715036486964
 21
470.57034773727332
 31
0.0
  0
LINE
  5
1730C
  8
AM_0
 10
439.86717637135882
 20
564.87039106662337
 30
0.0
 11
514.86717860653255
 21
564.87039106662337
 31
0.0
  0
LINE
  5
1730D
  8
AM_0
 10
421.08904415698743
 20
560.87039094741419
 30
0.0
 11
572.64533972644824
 21
560.87039094741385
 31
0.0
  0
LINE
  5
1730E
  8
AM_0
 10
439.86717637135882
 20
466.87038814599589
 30
0.0
 11
514.86717860653255
 21
466.87038814599578
 31
0.0
  0
LINE
  5
1730F
  8
AM_0
 10
573.51805926435702
 20
470.87038826520478
 30
0.0
 11
420.21629687582458
 21
470.87038826520512
 31
0.0
  0
LINE
  5
17310
  8
AM_0
 10
419.86717577531198
 20
490.87038865263531
 30
0.0
 11
573.86718036486968
 21
490.87038865263509
 31
0.0
  0
LINE
  5
17311
  8
ﾁｭｳｼﾝｾﾝ1
 10
727.86718036486968
 20
515.87035368584986
 30
0.0
 11
414.86717577531198
 21
515.87039713542504
 31
0.0
1001
GENIUS_GENODEF_13
1002
{
1000
HIER
1070
     0
1002
}
1002
{
1000
MANEDIT
1070
     0
1002
}
1002
{
1000
NOSEL
1070
     0
1002
}
1002
{
1000
BEHIND
1070
     0
1002
}
1002
{
1000
REACTOR
1002
}
1001
GENIUS_GENOBJ-N-CEN_13
1002
{
1000
OWNER
1000
GEN
1002
}
  0
LINE
  5
17312
  8
AM_0
 10
573.86718036486968
 20
490.87038865263509
 30
0.0
 11
572.64533972644824
 21
560.87039094741385
 31
0.0
  0
LINE
  5
17313
  8
ｶｸﾚｾﾝ2
 10
558.86717991783485
 20
560.87039094741385
 30
0.0
 11
558.86717991783485
 21
470.87038826520489
 31
0.0
  0
LINE
  5
17314
  8
ｶｸﾚｾﾝ2
 10
567.86718018605575
 20
560.87039094741385
 30
0.0
 11
567.86718018605575
 21
470.87038826520489
 31
0.0
  0
LINE
  5
17315
  8
ﾁｭｳｼﾝｾﾝ1
 10
563.3671800519453
 20
563.87039094741408
 30
0.0
 11
563.3671800519453
 21
467.87038826520501
 31
0.0
  0
LINE
  5
17316
  8
AM_0
 10
582.7296031893552
 20
571.40246216426056
 30
0.0
 11
582.72958793124076
 21
460.33828439178438
 31
0.0
  0
LINE
  5
17317
  8
AM_0
 10
591.36718036486968
 20
571.87038368585013
 30
0.0
 11
591.36718036486968
 21
459.87036268585001
 31
0.0
  0
LINE
  5
17318
  8
AM_0
 10
582.0455472563915
 20
461.5230796550706
 30
0.0
 11
576.66388356687708
 21
492.0440366890856
 31
0.0
1001
GENIUS_GENODEF_13
1002
{
1000
HIER
1070
     0
1002
}
1002
{
1000
MANEDIT
1070
     0
1002
}
1002
{
1000
NOSEL
1070
     0
1002
}
1002
{
1000
BEHIND
1070
     0
1002
}
1002
{
1000
REACTOR
1002
}
1001
GENIUS_GENOBJ-N-CEN_13
1002
{
1000
OWNER
1000
GEN
1002
}
  0
LINE
  5
17319
  8
AM_0
 10
591.36718036486968
 20
459.87037318584981
 30
0.0
 11
584.01516326046055
 21
459.87037318584981
 31
0.0
  0
ARC
  5
1731A
  8
AM_0
 10
584.01516326046055
 20
461.87037318584999
 30
0.0
 40
2.0
 50
189.9999917840739
 51
270.0
1001
GENIUS_GENOBJ-N-CEN_13
1002
{
1000
OWNER
1000
GEN
1002
}
1001
GENIUS_GENODEF_13
1002
{
1000
HIER
1070
     0
1002
}
1002
{
1000
MANEDIT
1070
     0
1002
}
1002
{
1000
NOSEL
1070
     0
1002
}
1002
{
1000
BEHIND
1070
     0
1002
}
1002
{
1000
OTHER
1070
     0
1002
}
1002
{
1000
REACTOR
1002
}
1001
GENIUS_GENOBJ-N-FIL_13
1002
{
1000
OWNER
1000
GEN
1002
}
  0
LINE
  5
1731B
  8
AM_0
 10
591.36718036486968
 20
483.93291568584988
 30
0.0
 11
582.72959117239179
 21
483.9307006906925
 31
0.0
  0
LINE
  5
1731C
  8
AM_0
 10
591.36718036486968
 20
469.87034768584999
 30
0.0
 11
582.72958924076829
 21
469.87036682860941
 31
0.0
  0
LINE
  5
1731D
  8
AM_0
 10
573.51805926435702
 20
470.87038826520489
 30
0.0
 11
573.86718036486968
 21
490.87038865263509
 31
0.0
  0
LINE
  5
1731E
  8
AM_0
 10
574.8498778237456
 20
492.8703886526352
 30
0.0
 11
575.67907578896472
 21
492.8703886526352
 31
0.0
  0
ARC
  5
17320
  8
AM_0
 10
574.8498778237456
 20
491.87038865263531
 30
0.0
 40
1.0
 50
90.0
 51
180.9999885880236
1001
GENIUS_GENOBJ-N-FIL_13
1002
{
1000
OWNER
1000
GEN
1002
}
1001
GENIUS_GENODEF_13
1002
{
1000
HIER
1070
     0
1002
}
1002
{
1000
MANEDIT
1070
     0
1002
}
1002
{
1000
NOSEL
1070
     0
1002
}
1002
{
1000
BEHIND
1070
     0
1002
}
1002
{
1000
OTHER
1070
     0
1002
}
1002
{
1000
REACTOR
1002
}
  0
LINE
  5
17321
  8
AM_0
 10
514.86717860653255
 20
470.87038826520489
 30
0.0
 11
514.86717860653255
 21
466.87038814599578
 31
0.0
  0
LINE
  5
17322
  8
AM_0
 10
582.0455628426572
 20
570.21766982361703
 30
0.0
 11
580.33614617965304
 21
560.52309430964715
 31
0.0
1001
GENIUS_GENODEF_13
1002
{
1000
HIER
1070
     0
1002
}
1002
{
1000
MANEDIT
1070
     0
1002
}
1002
{
1000
NOSEL
1070
     0
1002
}
1002
{
1000
BEHIND
1070
     0
1002
}
1002
{
1000
REACTOR
1002
}
1001
GENIUS_GENOBJ-N-CEN_13
1002
{
1000
OWNER
1000
GEN
1002
}
  0
LINE
  5
17323
  8
AM_0
 10
591.36718036486968
 20
547.81032318584982
 30
0.0
 11
582.72959994824203
 21
547.81032318584982
 31
0.0
  0
LINE
  5
17324
  8
AM_0
 10
591.36718036486968
 20
561.87037318584999
 30
0.0
 11
582.72960187982653
 21
561.87037318584999
 31
0.0
  0
LINE
  5
17325
  8
AM_0
 10
574.6456443755817
 20
558.87039094741397
 30
0.0
 11
578.36653072342938
 21
558.87039094741408
 31
0.0
  0
ARC
  5
17326
  8
AM_0
 10
578.36653072342938
 20
560.87039094741385
 30
0.0
 40
2.0
 50
270.0
 51
349.99999178406978
1001
GENIUS_GENOBJ-N-CEN_13
1002
{
1000
OWNER
1000
GEN
1002
}
1001
GENIUS_GENODEF_13
1002
{
1000
HIER
1070
     0
1002
}
1002
{
1000
MANEDIT
1070
     0
1002
}
1002
{
1000
NOSEL
1070
     0
1002
}
1002
{
1000
BEHIND
1070
     0
1002
}
1002
{
1000
OTHER
1070
     0
1002
}
1002
{
1000
REACTOR
1002
}
1001
GENIUS_GENOBJ-N-FIL_13
1002
{
1000
OWNER
1000
GEN
1002
}
  0
LINE
  5
17328
  8
AM_0
 10
591.36718036486968
 20
571.87037318584976
 30
0.0
 11
584.01517829888121
 21
571.87037318584976
 31
0.0
  0
ARC
  5
17329
  8
AM_0
 10
584.01517829888121
 20
569.87037318584999
 30
0.0
 40
2.0
 50
90.0
 51
169.99999178406969
1001
GENIUS_GENOBJ-N-CEN_13
1002
{
1000
OWNER
1000
GEN
1002
}
1001
GENIUS_GENOBJ-N-FIL_13
1002
{
1000
OWNER
1000
GEN
1002
}
1001
GENIUS_GENODEF_13
1002
{
1000
HIER
1070
     0
1002
}
1002
{
1000
MANEDIT
1070
     0
1002
}
1002
{
1000
NOSEL
1070
     0
1002
}
1002
{
1000
BEHIND
1070
     0
1002
}
1002
{
1000
OTHER
1070
     0
1002
}
1002
{
1000
REACTOR
1002
}
  0
LINE
  5
1732A
  8
AM_0
 10
514.86717860653255
 20
560.87039094741385
 30
0.0
 11
514.86717860653255
 21
564.87039106662337
 31
0.0
  0
LINE
  5
1732B
  8
ﾁｭｳｼﾝｾﾝ1
 10
477.36717748894557
 20
402.87038738866289
 30
0.0
 11
477.36717748894557
 21
569.87038877278724
 31
0.0
  0
LINE
  5
1732C
  8
AM_0
 10
419.86717577531192
 20
490.87038865263531
 30
0.0
 11
421.08904415698743
 21
560.87039094741385
 31
0.0
  0
LINE
  5
1732D
  8
ｶｸﾚｾﾝ2
 10
434.86717622234681
 20
560.87039094741385
 30
0.0
 11
434.8671762223467
 21
470.87038826520512
 31
0.0
  0
LINE
  5
1732E
  8
ｶｸﾚｾﾝ2
 10
425.86717595412591
 20
560.87039094741385
 30
0.0
 11
425.8671759541258
 21
470.87038826520512
 31
0.0
  0
LINE
  5
1732F
  8
ﾁｭｳｼﾝｾﾝ1
 10
430.36717608823642
 20
563.87039094741408
 30
0.0
 11
430.36717608823608
 21
467.87038826520512
 31
0.0
  0
LINE
  5
17330
  8
AM_0
 10
439.86717637135882
 20
470.87038826520512
 30
0.0
 11
439.86717637135882
 21
466.87038814599589
 31
0.0
  0
LINE
  5
17331
  8
AM_0
 10
420.21629687582458
 20
470.87038826520512
 30
0.0
 11
419.86717577531198
 21
490.87038865263531
 31
0.0
  0
LINE
  5
17332
  8
AM_0
 10
439.86717637135882
 20
560.87039094741385
 30
0.0
 11
439.86717637135882
 21
564.87039106662337
 31
0.0
  0
LINE
  5
17333
  8
AM_0
 10
668.36715036486964
 20
575.7553297372732
 30
0.0
 11
668.36715036486964
 21
572.15533973727327
 31
0.0
  0
ARC
  5
17334
  8
AM_0
 10
670.36758036486981
 20
572.99491973727311
 30
0.0
 40
2.000407899999999
 50
90.011649999998838
 51
179.98835099999931
  0
LINE
  5
17335
  8
AM_0
 10
707.36709036486968
 20
566.65535973727322
 30
0.0
 11
706.07711036486955
 21
575.14534973727325
 31
0.0
  0
LINE
  5
17336
  8
AM_0
 10
707.36715036486964
 20
566.65531973727343
 30
0.0
 11
706.0571503648697
 21
576.03532973727317
 31
0.0
  0
ARC
  5
17337
  8
AM_0
 10
704.11874036486984
 20
573.00219973727314
 30
0.0
 40
1.9931281000000001
 50
9.0388199999997951
 51
90.046626999999489
  0
LINE
  5
17338
  8
AM_0
 10
704.11715036486964
 20
574.9953397372733
 30
0.0
 11
670.36715036486964
 21
574.9953397372733
 31
0.0
  0
LINE
  5
17339
  8
AM_0
 10
704.09713036486971
 20
576.84533973727321
 30
0.0
 11
670.36715036486964
 21
576.84533973727321
 31
0.0
  0
LINE
  5
1733A
  8
AM_0
 10
704.07717036486974
 20
577.75534973727315
 30
0.0
 11
670.36715036486964
 21
577.75534973727315
 31
0.0
  0
ARC
  5
1733B
  8
AM_0
 10
704.08248036486964
 20
575.7618597372732
 30
0.0
 40
1.9934921000000001
 50
7.8852599999973876
 51
90.153908999998592
  0
ARC
  5
1733C
  8
AM_0
 10
704.10445036486988
 20
574.85076973727325
 30
0.0
 40
1.994588
 50
8.492910000005347
 51
90.209247000000843
  0
ARC
  5
1733D
  8
AM_0
 10
670.36843036486982
 20
575.75404973727325
 30
0.0
 40
2.001287899999999
 50
90.036873999998761
 51
179.96312800099781
  0
ARC
  5
1733E
  8
AM_0
 10
670.36874036486984
 20
574.84378973727326
 30
0.0
 40
2.0015439999999991
 50
90.044216000000915
 51
179.9557860009991
  0
LINE
  5
1733F
  8
AM_0
 10
715.36715036486964
 20
568.8703397372733
 30
0.0
 11
707.36715036486964
 21
568.8703397372733
 31
0.0
  0
LINE
  5
17340
  8
AM_0
 10
715.36715036486964
 20
568.86534973727316
 30
0.0
 11
707.36715036486964
 21
568.86534973727316
 31
0.0
  0
LINE
  5
17341
  8
AM_0
 10
714.6771503648697
 20
559.05532973727315
 30
0.0
 11
708.44717036486986
 21
559.05532973727315
 31
0.0
  0
LINE
  5
17342
  8
AM_0
 10
715.36715036486964
 20
462.87033573727319
 30
0.0
 11
707.36715036486964
 21
462.87033573727319
 31
0.0
  0
LINE
  5
17343
  8
AM_0
 10
715.36715036486964
 20
462.86534673727328
 30
0.0
 11
707.36715036486964
 21
462.86534673727328
 31
0.0
  0
LINE
  5
17344
  8
AM_0
 10
714.6771503648697
 20
472.67533573727309
 30
0.0
 11
708.44717036486986
 21
472.67533573727309
 31
0.0
  0
LINE
  5
17345
  8
AM_0
 10
719.36718036486968
 20
510.25707306088259
 30
0.0
 11
719.36718036486968
 21
511.41796306088258
 31
0.0
  0
ARC
  5
17346
  8
AM_0
 10
720.36718036486957
 20
510.87036306088271
 30
0.0
 40
1.0
 50
359.999989999999
 51
89.999996999999027
  0
LINE
  5
17347
  8
AM_0
 10
715.36718036486968
 20
568.87034306088265
 30
0.0
 11
715.36718036486968
 21
462.8703620608826
 31
0.0
  0
LINE
  5
17348
  8
AM_0
 10
722.86718036486968
 20
535.87034306088265
 30
0.0
 11
722.86718036486968
 21
495.87036306088271
 31
0.0
  0
LINE
  5
17349
  8
AM_0
 10
716.36718036486957
 20
565.87034306088265
 30
0.0
 11
716.36718036486957
 21
464.7471240608827
 31
0.0
  0
LINE
  5
1734A
  8
AM_0
 10
723.86107684924468
 20
500.64852078549211
 30
0.0
 11
723.86107684924468
 21
531.09215481869524
 31
0.0
  0
ARC
  5
1734B
  8
AM_0
 10
717.36718036486957
 20
542.87035306088262
 30
0.0
 40
1.0
 50
180.0
 51
270.0
  0
LINE
  5
1734C
  8
AM_0
 10
721.36718036486957
 20
563.8867130608827
 30
0.0
 11
721.36718036486957
 21
520.87034306088265
 31
0.0
  0
LINE
  5
1734D
  8
AM_0
 10
719.36718036486968
 20
558.70080306088266
 30
0.0
 11
719.36718036486968
 21
558.22861306088271
 31
0.0
  0
LINE
  5
1734E
  8
AM_0
 10
719.61693036486975
 20
558.83150306088271
 30
0.0
 11
720.91552036486974
 21
557.97994306088276
 31
0.0
  0
LINE
  5
1734F
  8
AM_0
 10
719.59936036486965
 20
565.48546306088258
 30
0.0
 11
720.86754036486968
 21
564.75251306088273
 31
0.0
  0
LINE
  5
17350
  8
AM_0
 10
719.60473036486974
 20
563.36945306088273
 30
0.0
 11
720.88177036486979
 21
562.60315306088273
 31
0.0
  0
LINE
  5
17351
  8
AM_0
 10
719.58050036486986
 20
564.36516306088265
 30
0.0
 11
720.81975036486972
 21
563.73614306088268
 31
0.0
  0
LINE
  5
17352
  8
AM_0
 10
719.58684036486954
 20
562.25551306088266
 30
0.0
 11
720.83550036486974
 21
561.59365306088273
 31
0.0
  0
ARC
  5
17353
  8
AM_0
 10
720.36718036486957
 20
563.8867130608827
 30
0.0
 40
1.0
 50
359.999989999999
 51
59.973600000000573
  0
ARC
  5
17354
  8
AM_0
 10
720.36718036486957
 20
562.84441306088252
 30
0.0
 40
1.0
 50
359.999989999999
 51
63.088740000001138
  0
ARC
  5
17355
  8
AM_0
 10
720.36718036486957
 20
561.74566306088275
 30
0.0
 40
1.0
 50
359.999989999999
 51
59.033399999998721
  0
ARC
  5
17356
  8
AM_0
 10
720.36718036486957
 20
560.71006306088236
 30
0.0
 40
1.0
 50
359.999989999999
 51
62.073399999999232
  0
ARC
  5
17357
  8
AM_0
 10
719.09899036486968
 20
564.6197330608826
 30
0.0
 40
1.0
 50
59.973600000000573
 51
89.999996999999027
  0
ARC
  5
17358
  8
AM_0
 10
719.12792036486985
 20
563.47344306088257
 30
0.0
 40
1.0
 50
63.088740000001138
 51
89.999996999999027
  0
ARC
  5
17359
  8
AM_0
 10
719.09014036486974
 20
562.51195306088266
 30
0.0
 40
1.0
 50
59.033399999998721
 51
89.999996999999027
  0
ARC
  5
1735A
  8
AM_0
 10
719.1185203648696
 20
561.37198306088237
 30
0.0
 40
1.0
 50
62.073399999999232
 51
89.999996999999027
  0
LINE
  5
1735B
  8
AM_0
 10
719.36718036486968
 20
563.26690306088256
 30
0.0
 11
719.36718036486968
 21
562.72082306088271
 31
0.0
  0
LINE
  5
1735C
  8
AM_0
 10
719.36718036486968
 20
565.36651306088265
 30
0.0
 11
719.36718036486968
 21
564.84073306088271
 31
0.0
  0
ARC
  5
1735D
  8
AM_0
 10
716.86718036486957
 20
563.97344306088257
 30
0.0
 40
0.5
 50
89.999996999999027
 51
180.0
  0
ARC
  5
1735E
  8
AM_0
 10
716.86718036486957
 20
566.1197330608826
 30
0.0
 40
0.5
 50
180.0
 51
270.0
  0
LINE
  5
1735F
  8
AM_0
 10
719.09899036486968
 20
565.61974306088257
 30
0.0
 11
716.86718036486957
 21
565.61974306088257
 31
0.0
  0
LINE
  5
17360
  8
AM_0
 10
719.09014036486974
 20
563.51194306088269
 30
0.0
 11
716.36718036486957
 21
563.51194306088269
 31
0.0
  0
LINE
  5
17361
  8
AM_0
 10
719.1185203648696
 20
562.37200306088266
 30
0.0
 11
717.36718036486957
 21
562.37200306088266
 31
0.0
  0
LINE
  5
17362
  8
AM_0
 10
719.12792036486974
 20
564.47342306088274
 30
0.0
 11
716.86718036486957
 21
564.47342306088274
 31
0.0
  0
LINE
  5
17363
  8
AM_0
 10
716.36718036486957
 20
565.87034306088265
 30
0.0
 11
715.36718036486968
 21
565.87034306088265
 31
0.0
  0
ARC
  5
17364
  8
AM_0
 10
719.06853036486973
 20
557.9952330608827
 30
0.0
 40
1.0
 50
56.745270000001042
 51
89.999996999999027
  0
LINE
  5
17365
  8
AM_0
 10
719.06853036486973
 20
558.99523306088258
 30
0.0
 11
716.36718036486957
 21
558.99523306088258
 31
0.0
  0
ARC
  5
17366
  8
AM_0
 10
717.36718036486957
 20
561.37198306088237
 30
0.0
 40
1.0
 50
89.999996999999027
 51
180.0
  0
LINE
  5
17367
  8
AM_0
 10
719.36718036486968
 20
551.26323306088273
 30
0.0
 11
719.36718036486968
 21
550.20328306088265
 31
0.0
  0
ARC
  5
17368
  8
AM_0
 10
720.36718036486957
 20
550.04508306088258
 30
0.0
 40
1.0
 50
359.999989999999
 51
66.872970000001402
  0
LINE
  5
17369
  8
AM_0
 10
719.60131036486973
 20
557.71813306088256
 30
0.0
 11
720.87261036486973
 21
556.97346306088275
 31
0.0
  0
LINE
  5
1736A
  8
AM_0
 10
719.5553503648697
 20
551.47924306088271
 30
0.0
 11
720.75994036486964
 21
550.96477306088275
 31
0.0
  0
ARC
  5
1736B
  8
AM_0
 10
720.36718036486957
 20
556.11059306088248
 30
0.0
 40
1.0
 50
359.999989999999
 51
59.640499999998582
  0
ARC
  5
1736C
  8
AM_0
 10
720.36718036486957
 20
557.14367306088263
 30
0.0
 40
1.0
 50
359.999989999999
 51
56.745270000001042
  0
ARC
  5
1736D
  8
AM_0
 10
719.09588036486969
 20
556.8552830608827
 30
0.0
 40
1.0
 50
59.640499999998582
 51
89.999996999999027
  0
ARC
  5
1736E
  8
AM_0
 10
717.36718036486957
 20
556.8552830608827
 30
0.0
 40
1.0
 50
89.999996999999027
 51
180.0
  0
LINE
  5
1736F
  8
AM_0
 10
719.09588036486969
 20
557.85526306088275
 30
0.0
 11
717.36718036486957
 21
557.85526306088275
 31
0.0
  0
ARC
  5
17370
  8
AM_0
 10
719.16253036486989
 20
550.55956306088262
 30
0.0
 40
1.0
 50
66.872970000001402
 51
89.999996999999027
  0
ARC
  5
17371
  8
AM_0
 10
717.06719036486959
 20
552.25956306088256
 30
0.0
 40
0.6999999900000002
 50
180.0
 51
270.0
  0
LINE
  5
17372
  8
AM_0
 10
719.16253036486955
 20
551.55955306088265
 30
0.0
 11
717.06719036486959
 21
551.55955306088265
 31
0.0
  0
LINE
  5
17373
  8
AM_0
 10
719.5108603648697
 20
549.56928306088275
 30
0.0
 11
720.66118036486955
 21
549.21544306088265
 31
0.0
  0
ARC
  5
17374
  8
AM_0
 10
720.36718036486957
 20
548.25962306088275
 30
0.0
 40
1.0
 50
359.999989999999
 51
72.902369999999578
  0
ARC
  5
17375
  8
AM_0
 10
719.21685036486974
 20
548.61345306088265
 30
0.0
 40
1.0
 50
72.902369999999578
 51
89.999996999999027
  0
ARC
  5
17376
  8
AM_0
 10
717.36718036486957
 20
548.61345306088265
 30
0.0
 40
1.0
 50
89.999996999999027
 51
180.0
  0
LINE
  5
17377
  8
AM_0
 10
719.21685036486974
 20
549.61345306088265
 30
0.0
 11
717.36718036486957
 21
549.61345306088265
 31
0.0
  0
LINE
  5
17378
  8
AM_0
 10
717.36718036486957
 20
541.87034306088265
 30
0.0
 11
720.36718036486957
 21
541.87034306088265
 31
0.0
  0
LINE
  5
17379
  8
AM_0
 10
717.36718036486957
 20
539.87035306088274
 30
0.0
 11
720.36718036486957
 21
539.87035306088274
 31
0.0
  0
ARC
  5
1737A
  8
AM_0
 10
720.36718036486957
 20
540.87035306088262
 30
0.0
 40
1.0
 50
359.999989999999
 51
89.999996999999027
  0
ARC
  5
1737B
  8
AM_0
 10
720.36718036486957
 20
540.87035306088262
 30
0.0
 40
1.0
 50
270.0
 51
0.0000100000009873
  0
LINE
  5
1737C
  8
AM_0
 10
722.86718036486968
 20
535.87034306088265
 30
0.0
 11
721.36718036486957
 21
536.00156306088275
 31
0.0
  0
LINE
  5
1737D
  8
AM_0
 10
719.36718036486968
 20
541.49651306088265
 30
0.0
 11
719.36718036486968
 21
540.13372306088274
 31
0.0
  0
ARC
  5
1737E
  8
AM_0
 10
717.36718036486957
 20
538.87034306088265
 30
0.0
 40
1.0
 50
89.999996999999027
 51
180.0
  0
LINE
  5
1737F
  8
AM_0
 10
717.36718036486957
 20
531.87035306088274
 30
0.0
 11
720.36718036486957
 21
531.87035306088274
 31
0.0
  0
LINE
  5
17380
  8
AM_0
 10
717.36718036486957
 20
529.87034306088265
 30
0.0
 11
720.36718036486957
 21
529.87034306088265
 31
0.0
  0
LINE
  5
17381
  8
AM_0
 10
722.86718036486968
 20
531.02038306088275
 30
0.0
 11
718.18969036486965
 21
531.02038306088275
 31
0.0
  0
ARC
  5
17382
  8
AM_0
 10
720.36718036486957
 20
530.87035306088262
 30
0.0
 40
1.0
 50
359.999989999999
 51
89.999996999999027
  0
LINE
  5
17383
  8
AM_0
 10
722.86718036486968
 20
533.15232306088274
 30
0.0
 11
721.36718036486957
 21
533.15232306088274
 31
0.0
  0
LINE
  5
17384
  8
AM_0
 10
723.86107684924468
 20
531.09218533627325
 30
0.0
 11
723.36107684924468
 21
533.86217434994524
 31
0.0
  0
LINE
  5
17385
  8
AM_0
 10
723.36104633166644
 20
533.86217434994524
 30
0.0
 11
722.86107684924468
 21
533.82216580502325
 31
0.0
  0
ARC
  5
17386
  8
AM_0
 10
720.36718036486957
 20
530.87035306088262
 30
0.0
 40
1.0
 50
270.0
 51
0.0000100000009873
  0
LINE
  5
17387
  8
AM_0
 10
719.36718036486968
 20
531.47745306088257
 30
0.0
 11
719.36718036486968
 21
530.26603306088259
 31
0.0
  0
ARC
  5
17388
  8
AM_0
 10
717.36718036486957
 20
532.87034306088265
 30
0.0
 40
1.0
 50
180.0
 51
270.0
  0
ARC
  5
17389
  8
AM_0
 10
717.36718036486957
 20
528.87035306088274
 30
0.0
 40
1.0
 50
89.999996999999027
 51
180.0
  0
ARC
  5
1738A
  8
AM_0
 10
717.36718036486957
 20
518.87035306088274
 30
0.0
 40
1.0
 50
89.999996999999027
 51
180.0
  0
LINE
  5
1738B
  8
AM_0
 10
717.36718036486957
 20
521.87035306088274
 30
0.0
 11
720.36718036486957
 21
521.87035306088274
 31
0.0
  0
LINE
  5
1738C
  8
AM_0
 10
717.36718036486957
 20
519.87035306088274
 30
0.0
 11
720.36718036486957
 21
519.87035306088274
 31
0.0
  0
ARC
  5
1738D
  8
AM_0
 10
720.36718036486957
 20
520.87034306088265
 30
0.0
 40
1.0
 50
270.0
 51
0.0000100000009873
  0
ARC
  5
1738E
  8
AM_0
 10
720.36718036486957
 20
520.87034306088265
 30
0.0
 40
1.0
 50
359.999989999999
 51
89.999996999999027
  0
LINE
  5
1738F
  8
AM_0
 10
719.36718036486968
 20
521.48356306088272
 30
0.0
 11
719.36718036486968
 21
520.32267306088272
 31
0.0
  0
ARC
  5
17390
  8
AM_0
 10
717.36718036486957
 20
522.87035306088274
 30
0.0
 40
1.0
 50
180.0
 51
270.0
  0
LINE
  5
17391
  8
AM_0
 10
717.36718036486957
 20
511.87034306088282
 30
0.0
 11
720.36718036486957
 21
511.87034306088282
 31
0.0
  0
ARC
  5
17392
  8
AM_0
 10
717.36718036486957
 20
512.87035306088274
 30
0.0
 40
1.0
 50
180.0
 51
270.0
  0
LINE
  5
17393
  8
AM_0
 10
721.36718036486957
 20
467.85394406088261
 30
0.0
 11
721.36718036486957
 21
510.87036306088271
 31
0.0
  0
LINE
  5
17394
  8
AM_0
 10
717.36718036486957
 20
509.87035306088279
 30
0.0
 11
720.36718036486957
 21
509.87035306088279
 31
0.0
  0
ARC
  5
17395
  8
AM_0
 10
720.36718036486957
 20
510.87036306088271
 30
0.0
 40
1.0
 50
270.0
 51
0.0000100000009873
  0
ARC
  5
17396
  8
AM_0
 10
717.36718036486957
 20
508.8703430608827
 30
0.0
 40
1.0
 50
89.999996999999027
 51
180.0
  0
LINE
  5
17397
  8
AM_0
 10
717.36718036486957
 20
499.87034306088259
 30
0.0
 11
720.36718036486957
 21
499.87034306088259
 31
0.0
  0
LINE
  5
17398
  8
AM_0
 10
717.36718036486957
 20
501.8703630608826
 30
0.0
 11
720.36718036486957
 21
501.8703630608826
 31
0.0
  0
LINE
  5
17399
  8
AM_0
 10
722.86718036486968
 20
500.72032306088272
 30
0.0
 11
719.57348036486974
 21
500.72032306088272
 31
0.0
  0
ARC
  5
1739A
  8
AM_0
 10
720.36718036486957
 20
500.87035306088268
 30
0.0
 40
1.0
 50
270.0
 51
0.0000100000009873
  0
LINE
  5
1739B
  8
AM_0
 10
722.86718036486968
 20
498.58831306088268
 30
0.0
 11
721.36718036486957
 21
498.58831306088268
 31
0.0
  0
ARC
  5
1739C
  8
AM_0
 10
720.36718036486957
 20
500.87035306088268
 30
0.0
 40
1.0
 50
359.999989999999
 51
89.999996999999027
  0
LINE
  5
1739D
  8
AM_0
 10
722.86712036486972
 20
495.87036306088271
 30
0.0
 11
721.36718036486957
 21
495.73913306088258
 31
0.0
  0
LINE
  5
1739E
  8
AM_0
 10
723.36107684924468
 20
497.87853177182018
 30
0.0
 11
722.86104633166644
 21
497.91854031674211
 31
0.0
  0
LINE
  5
1739F
  8
AM_0
 10
723.86104633166667
 20
500.64852078549211
 30
0.0
 11
723.36104633166644
 21
497.87853177182018
 31
0.0
  0
LINE
  5
173A0
  8
AM_0
 10
719.36718036486968
 20
500.26324306088259
 30
0.0
 11
719.36718036486968
 21
501.4746030608826
 31
0.0
  0
ARC
  5
173A1
  8
AM_0
 10
717.36718036486957
 20
498.87036306088271
 30
0.0
 40
1.0
 50
89.999996999999027
 51
180.0
  0
ARC
  5
173A2
  8
AM_0
 10
717.36718036486957
 20
502.87034306088259
 30
0.0
 40
1.0
 50
180.0
 51
270.0
  0
LINE
  5
173A3
  8
AM_0
 10
717.36718036486957
 20
491.87035306088268
 30
0.0
 11
720.36718036486957
 21
491.87035306088268
 31
0.0
  0
LINE
  5
173A4
  8
AM_0
 10
717.36718036486957
 20
489.87036306088271
 30
0.0
 11
720.36718036486957
 21
489.87036306088271
 31
0.0
  0
ARC
  5
173A5
  8
AM_0
 10
720.36718036486957
 20
490.87034306088259
 30
0.0
 40
1.0
 50
359.999989999999
 51
89.999996999999027
  0
ARC
  5
173A6
  8
AM_0
 10
720.36718036486957
 20
490.87034306088259
 30
0.0
 40
1.0
 50
270.0
 51
0.0000100000009873
  0
ARC
  5
173A7
  8
AM_0
 10
717.36718036486957
 20
492.8703630608826
 30
0.0
 40
1.0
 50
180.0
 51
270.0
  0
LINE
  5
173A8
  8
AM_0
 10
719.36718036486968
 20
490.2441230608826
 30
0.0
 11
719.36718036486968
 21
491.60698306088261
 31
0.0
  0
ARC
  5
173A9
  8
AM_0
 10
717.36718036486957
 20
488.87035306088268
 30
0.0
 40
1.0
 50
89.999996999999027
 51
180.0
  0
LINE
  5
173AA
  8
AM_0
 10
719.5108603648697
 20
482.17141806088262
 30
0.0
 11
720.66125036486972
 21
482.52526906088258
 31
0.0
  0
LINE
  5
173AB
  8
AM_0
 10
719.55529036486973
 20
480.26145206088262
 30
0.0
 11
720.76000036486971
 21
480.77596406088259
 31
0.0
  0
ARC
  5
173AC
  8
AM_0
 10
720.36718036486957
 20
483.48108006088268
 30
0.0
 40
1.0
 50
287.09763000000049
 51
0.0000100000009873
  0
ARC
  5
173AD
  8
AM_0
 10
720.36718036486957
 20
481.69561806088251
 30
0.0
 40
1.0
 50
293.1270199999982
 51
0.0000100000009873
  0
ARC
  5
173AE
  8
AM_0
 10
719.16253036486955
 20
481.18109206088269
 30
0.0
 40
1.0
 50
270.0
 51
293.12702999999863
  0
LINE
  5
173AF
  8
AM_0
 10
719.36718036486968
 20
480.4774630608826
 30
0.0
 11
719.36718036486968
 21
481.53741506088272
 31
0.0
  0
ARC
  5
173B0
  8
AM_0
 10
717.06719036486959
 20
479.48114106088269
 30
0.0
 40
0.6999999900000002
 50
89.999996999999027
 51
180.0
  0
LINE
  5
173B1
  8
AM_0
 10
719.16253036486955
 20
480.18108406088271
 30
0.0
 11
717.06719036486959
 21
480.18108406088271
 31
0.0
  0
LINE
  5
173B2
  8
AM_0
 10
719.21685036486974
 20
482.12719806088262
 30
0.0
 11
717.36718036486957
 21
482.12719806088262
 31
0.0
  0
ARC
  5
173B3
  8
AM_0
 10
719.21685036486974
 20
483.12718306088283
 30
0.0
 40
1.0
 50
270.0
 51
287.09763000000049
  0
ARC
  5
173B4
  8
AM_0
 10
717.36718036486957
 20
483.12718306088283
 30
0.0
 40
1.0
 50
180.0
 51
270.0
  0
LINE
  5
173B5
  8
AM_0
 10
719.61693036486975
 20
472.90918806088268
 30
0.0
 11
720.91558036486958
 21
473.76075106088268
 31
0.0
  0
LINE
  5
173B6
  8
AM_0
 10
719.60125036486988
 20
474.02252306088258
 30
0.0
 11
720.87261036486973
 21
474.76720506088259
 31
0.0
  0
ARC
  5
173B7
  8
AM_0
 10
720.36718036486957
 20
475.6301120608826
 30
0.0
 40
1.0
 50
300.35951000000171
 51
0.0000100000009873
  0
ARC
  5
173B8
  8
AM_0
 10
720.36718036486957
 20
475.6301120608826
 30
0.0
 40
1.0
 50
300.35951000000171
 51
0.0000100000009873
  0
LINE
  5
173B9
  8
AM_0
 10
720.87261036486973
 20
474.76724306088272
 30
0.0
 11
720.8961703648697
 21
474.78106806088272
 31
0.0
  0
ARC
  5
173BA
  8
AM_0
 10
720.36718036486957
 20
474.59698606088273
 30
0.0
 40
1.0
 50
303.25472000000133
 51
0.0000100000009873
  0
ARC
  5
173BB
  8
AM_0
 10
717.36718036486957
 20
474.8854220608826
 30
0.0
 40
1.0
 50
180.0
 51
205.3632400000005
  0
ARC
  5
173BC
  8
AM_0
 10
719.06853036486973
 20
473.7454080608826
 30
0.0
 40
1.0
 50
270.0
 51
303.25472999999891
  0
ARC
  5
173BD
  8
AM_0
 10
719.09588036486969
 20
474.8854220608826
 30
0.0
 40
1.0
 50
270.0
 51
300.35950000000139
  0
LINE
  5
173BE
  8
AM_0
 10
719.36718036486968
 20
473.03990206088258
 30
0.0
 11
719.36718036486968
 21
473.51201706088273
 31
0.0
  0
LINE
  5
173BF
  8
AM_0
 10
719.06853036486973
 20
472.74542306088262
 30
0.0
 11
716.36718036486957
 21
472.74542306088262
 31
0.0
  0
LINE
  5
173C0
  8
AM_0
 10
719.09588036486969
 20
473.88543806088268
 30
0.0
 11
717.36718036486957
 21
473.88543806088268
 31
0.0
  0
ARC
  5
173C1
  8
AM_0
 10
717.36718036486957
 20
474.8854220608826
 30
0.0
 40
1.0
 50
180.0
 51
270.0
  0
LINE
  5
173C2
  8
AM_0
 10
719.60473036486974
 20
468.3712620608826
 30
0.0
 11
720.88164036486967
 21
469.13750506088257
 31
0.0
  0
LINE
  5
173C3
  8
AM_0
 10
719.58056036486971
 20
467.37561906088263
 30
0.0
 11
720.81982036486988
 21
468.00464706088269
 31
0.0
  0
LINE
  5
173C4
  8
AM_0
 10
719.58684036486954
 20
469.48515406088262
 30
0.0
 11
720.83544036486956
 21
470.1470190608826
 31
0.0
  0
LINE
  5
173C5
  8
AM_0
 10
719.59942036486973
 20
466.25519606088261
 30
0.0
 11
720.86761036486985
 21
466.98817506088261
 31
0.0
  0
ARC
  5
173C6
  8
AM_0
 10
720.36718036486957
 20
467.85394406088261
 30
0.0
 40
1.0
 50
300.0263900000017
 51
0.0000100000009873
  0
ARC
  5
173C7
  8
AM_0
 10
720.36718036486957
 20
468.89629406088261
 30
0.0
 40
1.0
 50
296.91125000000022
 51
0.0000100000009873
  0
ARC
  5
173C8
  8
AM_0
 10
720.36718036486957
 20
471.03057206088249
 30
0.0
 40
1.0
 50
297.9265899999989
 51
0.0000100000009873
  0
ARC
  5
173C9
  8
AM_0
 10
720.36718036486957
 20
469.99499606088261
 30
0.0
 40
1.0
 50
300.96660000000128
 51
0.0000100000009873
  0
LINE
  5
173CA
  8
AM_0
 10
719.36718036486968
 20
466.37420006088257
 30
0.0
 11
719.36718036486968
 21
466.89996406088261
 31
0.0
  0
ARC
  5
173CB
  8
AM_0
 10
719.12792036486974
 20
468.26725806088263
 30
0.0
 40
1.0
 50
270.0
 51
296.91125999999889
  0
ARC
  5
173CC
  8
AM_0
 10
719.09014036486974
 20
469.22869906088272
 30
0.0
 40
1.0
 50
270.0
 51
300.96660000000128
  0
ARC
  5
173CD
  8
AM_0
 10
719.1185203648696
 20
470.36871406088272
 30
0.0
 40
1.0
 50
270.0
 51
297.92660000000069
  0
LINE
  5
173CE
  8
AM_0
 10
719.36718036486968
 20
468.47380106088258
 30
0.0
 11
719.36718036486968
 21
469.01982206088257
 31
0.0
  0
ARC
  5
173CF
  8
AM_0
 10
717.36718036486957
 20
470.36871406088272
 30
0.0
 40
1.0
 50
180.0
 51
270.0
  0
ARC
  5
173D0
  8
AM_0
 10
716.86718036486957
 20
467.7672660608826
 30
0.0
 40
0.5
 50
180.0
 51
270.0
  0
LINE
  5
173D1
  8
AM_0
 10
719.09014036486974
 20
468.22869206088262
 30
0.0
 11
716.36718036486957
 21
468.22869206088262
 31
0.0
  0
LINE
  5
173D2
  8
AM_0
 10
719.1185203648696
 20
469.36870606088269
 30
0.0
 11
717.36718036486957
 21
469.36870606088269
 31
0.0
  0
LINE
  5
173D3
  8
AM_0
 10
719.12792036486974
 20
467.2672740608827
 30
0.0
 11
716.86718036486957
 21
467.2672740608827
 31
0.0
  0
ARC
  5
173D4
  8
AM_0
 10
719.09899036486968
 20
467.12097206088259
 30
0.0
 40
1.0
 50
270.0
 51
300.0263999999994
  0
ARC
  5
173D5
  8
AM_0
 10
716.86718036486957
 20
465.62097206088259
 30
0.0
 40
0.5
 50
89.999996999999027
 51
180.0
  0
LINE
  5
173D6
  8
AM_0
 10
719.09899036486968
 20
466.12096506088261
 30
0.0
 11
716.86718036486957
 21
466.12096506088261
 31
0.0
  0
LINE
  5
173D7
  8
AM_0
 10
716.36718036486957
 20
465.87036206088243
 30
0.0
 11
715.36718036486968
 21
465.87036206088243
 31
0.0
  0
LINE
  5
173D8
  8
AM_0
 10
704.16714036486974
 20
459.58533273727329
 30
0.0
 11
607.24718036486968
 21
459.58533273727329
 31
0.0
  0
LINE
  5
173D9
  8
AM_0
 10
681.86715036486976
 20
477.64534473727309
 30
0.0
 11
602.11237389142389
 21
477.64534473727309
 31
0.0
  0
LINE
  5
173DA
  8
AM_0
 10
681.86715036486976
 20
554.09532973727323
 30
0.0
 11
602.11237214633559
 21
554.09532973727323
 31
0.0
  0
LINE
  5
173DB
  8
AM_0
 10
606.02715036486973
 20
479.87037164683312
 30
0.0
 11
705.00719036486964
 21
479.87037164683312
 31
0.0
  0
LINE
  5
173DC
  8
AM_0
 10
606.02715036486973
 20
481.87037164683312
 30
0.0
 11
705.00719036486964
 21
481.87037164683312
 31
0.0
  0
LINE
  5
173DD
  8
AM_0
 10
606.03435036486974
 20
491.87037164683312
 30
0.0
 11
705.00719036486964
 21
491.87037164683312
 31
0.0
  0
LINE
  5
173DE
  8
AM_0
 10
705.68719036486971
 20
479.1504016468329
 30
0.0
 11
602.54717036486966
 21
479.1504016468329
 31
0.0
  0
LINE
  5
173DF
  8
AM_0
 10
705.90716036486958
 20
492.31031164683321
 30
0.0
 11
602.33294036486973
 21
492.31031164683321
 31
0.0
  0
LINE
  5
173E0
  8
AM_0
 10
705.90716036486958
 20
489.38038164683309
 30
0.0
 11
602.3215203648698
 21
489.38038164683309
 31
0.0
  0
LINE
  5
173E1
  8
AM_0
 10
606.02001036486945
 20
489.87037164683318
 30
0.0
 11
705.00719036486964
 21
489.87037164683318
 31
0.0
  0
LINE
  5
173E2
  8
AM_0
 10
705.68719036486971
 20
482.50038164683309
 30
0.0
 11
602.54717036486966
 21
482.50038164683332
 31
0.0
  0
LINE
  5
173E3
  8
AM_0
 10
706.03716036486969
 20
499.53041164683299
 30
0.0
 11
602.03858240846944
 21
499.53041164683299
 31
0.0
  0
LINE
  5
173E4
  8
AM_0
 10
706.03716036486969
 20
502.1903216468333
 30
0.0
 11
602.19010790687605
 21
502.1903216468333
 31
0.0
  0
LINE
  5
173E5
  8
AM_0
 10
706.09716036486964
 20
509.6003516468333
 30
0.0
 11
601.98106111136269
 21
509.6003516468333
 31
0.0
  0
LINE
  5
173E6
  8
AM_0
 10
706.09716036486964
 20
512.13038164683326
 30
0.0
 11
602.14434838886041
 21
512.13038164683292
 31
0.0
  0
LINE
  5
173E7
  8
AM_0
 10
606.02381407145833
 20
511.87037164683312
 30
0.0
 11
705.00719036486964
 21
511.87037164683312
 31
0.0
  0
LINE
  5
173E8
  8
AM_0
 10
606.02381407145833
 20
509.87037164683318
 30
0.0
 11
705.00719036486964
 21
509.87037164683318
 31
0.0
  0
LINE
  5
173E9
  8
AM_0
 10
606.02381407146208
 20
501.87037164683318
 30
0.0
 11
705.00719036486964
 21
501.87037164683318
 31
0.0
  0
LINE
  5
173EA
  8
AM_0
 10
606.02381407143707
 20
499.87037164683329
 30
0.0
 11
705.00719036486964
 21
499.87037164683312
 31
0.0
  0
LINE
  5
173EB
  8
AM_0
 10
606.02381802133016
 20
531.87037000352063
 30
0.0
 11
705.00719431475954
 21
531.87034556766105
 31
0.0
  0
LINE
  5
173EC
  8
AM_0
 10
606.02381752761823
 20
529.87037000352063
 30
0.0
 11
705.00719382102295
 21
529.87034556766105
 31
0.0
  0
LINE
  5
173ED
  8
AM_0
 10
606.02381555266811
 20
521.87037000352086
 30
0.0
 11
705.00719184607624
 21
521.8703455676615
 31
0.0
  0
LINE
  5
173EE
  8
AM_0
 10
606.02381505893163
 20
519.8703700035212
 30
0.0
 11
705.00719135233965
 21
519.87034556766162
 31
0.0
  0
LINE
  5
173EF
  8
AM_0
 10
706.0971612881516
 20
519.61033529858253
 30
0.0
 11
602.14434931214521
 21
519.61036096123848
 31
0.0
  0
LINE
  5
173F0
  8
AM_0
 10
706.09716191273571
 20
522.14036529858231
 30
0.0
 11
601.98106265923195
 21
522.14039100154855
 31
0.0
  0
LINE
  5
173F1
  8
AM_0
 10
706.03716374203736
 20
529.55039531339412
 30
0.0
 11
602.19011128404713
 21
529.55042094994133
 31
0.0
  0
LINE
  5
173F2
  8
AM_0
 10
706.03716439868469
 20
532.21030531339409
 30
0.0
 11
602.03858644228762
 21
532.21033098734813
 31
0.0
  0
LINE
  5
173F3
  8
AM_0
 10
705.68719860285967
 20
549.24033539978996
 30
0.0
 11
602.54717860286303
 21
549.24036086179331
 31
0.0
  0
LINE
  5
173F4
  8
AM_0
 10
606.02001678344573
 20
541.87037000445935
 30
0.0
 11
705.00719678344274
 21
541.87034556766093
 31
0.0
  0
LINE
  5
173F5
  8
AM_0
 10
705.90716690440581
 20
542.36033534548676
 30
0.0
 11
602.32152690440876
 21
542.36036091749952
 31
0.0
  0
LINE
  5
173F6
  8
AM_0
 10
705.90716618109889
 20
539.43040534548675
 30
0.0
 11
602.33294618110199
 21
539.4304309146803
 31
0.0
  0
LINE
  5
173F7
  8
AM_0
 10
705.68719942986377
 20
552.59031539979014
 30
0.0
 11
602.5471794298669
 21
552.59034086179327
 31
0.0
  0
LINE
  5
173F8
  8
AM_0
 10
606.03435628970919
 20
539.87037000091925
 30
0.0
 11
705.00719628970614
 21
539.87034556766093
 31
0.0
  0
LINE
  5
173F9
  8
AM_0
 10
606.02715875839226
 20
549.87037000269663
 30
0.0
 11
705.00719875838911
 21
549.87034556766071
 31
0.0
  0
LINE
  5
173FA
  8
AM_0
 10
606.02715925212885
 20
551.87037000269652
 30
0.0
 11
705.00719925212582
 21
551.87034556766048
 31
0.0
  0
LINE
  5
173FB
  8
AM_0
 10
704.16714036486974
 20
572.15533973727327
 30
0.0
 11
607.24718036486968
 21
572.15533973727327
 31
0.0
  0
LINE
  5
173FC
  8
ｶｸﾚｾﾝ2
 10
618.86715036486987
 20
487.37037528711909
 30
0.0
 11
618.86715036486987
 21
544.37037528711926
 31
0.0
  0
LINE
  5
173FD
  8
ｶｸﾚｾﾝ2
 10
698.86715036486976
 20
544.37037528711926
 30
0.0
 11
698.86715036486964
 21
487.37037528711909
 31
0.0
  0
LINE
  5
173FE
  8
AM_0
 10
707.36715036486964
 20
568.86534973727316
 30
0.0
 11
707.36715036486964
 21
466.42535173727327
 31
0.0
  0
LINE
  5
173FF
  8
ﾁｭｳｼﾝｾﾝ1
 10
650.36715036486964
 20
556.49536655196994
 30
0.0
 11
650.36715036486964
 21
475.24536355196977
 31
0.0
  0
ARC
  5
17400
  8
AM_0
 10
706.10302036486974
 20
510.86537164683318
 30
0.0
 40
1.2650129999999991
 50
269.73557899999849
 51
90.264409999999273
  0
ARC
  5
17401
  8
AM_0
 10
704.82256036486956
 20
510.87037164683312
 30
0.0
 40
1.0000138999999999
 50
269.69165999999939
 51
90.308340000000726
  0
LINE
  5
17402
  8
ｶｸﾚｾﾝ2
 10
621.86715036486999
 20
547.37037528711915
 30
0.0
 11
695.86715036486999
 21
547.37037528711915
 31
0.0
  0
POLYLINE
  5
17403
  8
AM_0
 66
     1
 10
0.0
 20
0.0
 30
0.0
  0
VERTEX
  5
17404
  8
AM_0
 10
703.50628690268763
 20
542.35337593818781
 30
0.0
 42
0.00068898288
  0
VERTEX
  5
17405
  8
AM_0
 10
703.43540704457507
 20
542.92812595568591
 30
0.0
 42
0.00070644354
  0
VERTEX
  5
17406
  8
AM_0
 10
703.36290718644796
 20
543.50281597358367
 30
0.0
 42
0.00069248071
  0
VERTEX
  5
17407
  8
AM_0
 10
703.28881732822708
 20
544.07712599187437
 30
0.0
 42
0.00069585665
  0
VERTEX
  5
17408
  8
AM_0
 10
703.21313746996384
 20
544.65126601055726
 30
0.0
 42
0.00068980191
  0
VERTEX
  5
17409
  8
AM_0
 10
703.13583761166637
 20
545.22526602964024
 30
0.0
 42
0.00072080104
  0
VERTEX
  5
1740A
  8
AM_0
 10
703.05694775331665
 20
545.79905604911562
 30
0.0
 42
0.00071002307
  0
VERTEX
  5
1740B
  8
AM_0
 10
702.97640789488844
 20
546.37252606899835
 30
0.0
 42
0.00072659056
  0
VERTEX
  5
1740C
  8
AM_0
 10
702.89424803636871
 20
546.94562608928095
 30
0.0
 42
0.00069570481
  0
VERTEX
  5
1740D
  8
AM_0
 10
702.81042817783168
 20
547.51865610997368
 30
0.0
 42
0.00071266935
  0
VERTEX
  5
1740E
  8
AM_0
 10
702.72499831923017
 20
548.09142613106326
 30
0.0
 42
0.00071614426
  0
VERTEX
  5
1740F
  8
AM_0
 10
702.63796846052321
 20
548.66376615254842
 30
0.0
 42
0.00072288975
  0
VERTEX
  5
17410
  8
AM_0
 10
702.54925860180583
 20
549.23606617444818
 30
0.0
  0
SEQEND
  5
17411
  8
AM_0
  0
LINE
  5
17412
  8
AM_0
 10
681.86721036486972
 20
554.09533973727321
 30
0.0
 11
702.04464036486968
 21
552.59533973727332
 31
0.0
  0
LINE
  5
17413
  8
AM_0
 10
702.04226314855771
 20
552.59031629960941
 30
0.0
 11
707.36715036486964
 21
563.96533973727321
 31
0.0
  0
LINE
  5
17414
  8
AM_0
 10
707.36715036486964
 20
563.9653497372733
 30
0.0
 11
706.12716036486972
 21
570.52534973727325
 31
0.0
  0
LINE
  5
17415
  8
AM_0
 10
707.36715036486964
 20
565.30534973727322
 30
0.0
 11
706.08718036486971
 21
573.31533973727323
 31
0.0
  0
ARC
  5
17416
  8
AM_0
 10
704.16427036486971
 20
570.15843973727328
 30
0.0
 40
1.9969039999999989
 50
10.587439999998571
 51
89.916526000000346
  0
ARC
  5
17417
  8
AM_0
 10
704.82256900525772
 20
550.87034561323981
 30
0.0
 40
1.0000138999999999
 50
269.69164585548492
 51
90.308325855486345
  0
ARC
  5
17418
  8
AM_0
 10
705.69457901637668
 20
550.91538539796818
 30
0.0
 40
1.6750160000000001
 50
269.74611585548553
 51
90.253840855485208
  0
ARC
  5
17419
  8
ｶｸﾚｾﾝ2
 10
695.86715036486999
 20
544.37037528711915
 30
0.0
 40
3.0
 50
0.0
 51
90.0
  0
POLYLINE
  5
1741A
  8
AM_0
 66
     1
 10
0.0
 20
0.0
 30
0.0
  0
VERTEX
  5
1741B
  8
AM_0
 10
704.96313191282468
 20
522.14072557853831
 30
0.0
 42
0.00076691992
  0
VERTEX
  5
1741C
  8
AM_0
 10
704.94833206533281
 20
522.75849558219204
 30
0.0
 42
0.00073262792
  0
VERTEX
  5
1741D
  8
AM_0
 10
704.9316922177959
 20
523.37608558629995
 30
0.0
 42
0.00076529537
  0
VERTEX
  5
1741E
  8
AM_0
 10
704.91320237027924
 20
523.99375559086445
 30
0.0
 42
0.00075141097
  0
VERTEX
  5
1741F
  8
AM_0
 10
704.89283252274504
 20
524.6113555958932
 30
0.0
 42
0.00075841687
  0
VERTEX
  5
17420
  8
AM_0
 10
704.87060267516893
 20
525.22878560138088
 30
0.0
 42
0.00075711788
  0
VERTEX
  5
17421
  8
AM_0
 10
704.84649282761279
 20
525.8462956073331
 30
0.0
 42
0.00075976003
  0
VERTEX
  5
17422
  8
AM_0
 10
704.82050298002639
 20
526.46368561374913
 30
0.0
 42
0.00075797311
  0
VERTEX
  5
17423
  8
AM_0
 10
704.79266313241351
 20
527.08096562062178
 30
0.0
 42
0.0007482613
  0
VERTEX
  5
17424
  8
AM_0
 10
704.76293328482495
 20
527.69834562796132
 30
0.0
 42
0.00074893561
  0
VERTEX
  5
17425
  8
AM_0
 10
704.73137343717497
 20
528.31547563575225
 30
0.0
 42
0.00076039839
  0
VERTEX
  5
17426
  8
AM_0
 10
704.69795358950012
 20
528.93250564400273
 30
0.0
 42
0.00075618786
  0
VERTEX
  5
17427
  8
AM_0
 10
704.66265374182774
 20
529.54954565271726
 30
0.0
  0
SEQEND
  5
17428
  8
AM_0
  0
POLYLINE
  5
17429
  8
AM_0
 66
     1
 10
0.0
 20
0.0
 30
0.0
  0
VERTEX
  5
1742A
  8
AM_0
 10
704.48894439883566
 20
532.21091569560065
 30
0.0
 42
0.0007337051
  0
VERTEX
  5
1742B
  8
AM_0
 10
704.44480454755387
 20
532.81333570649747
 30
0.0
 42
0.00075211323
  0
VERTEX
  5
1742C
  8
AM_0
 10
704.39886469626515
 20
533.4157257178382
 30
0.0
 42
0.0007297491
  0
VERTEX
  5
1742D
  8
AM_0
 10
704.35113484492922
 20
534.01792572962154
 30
0.0
 42
0.00073593041
  0
VERTEX
  5
1742E
  8
AM_0
 10
704.30165499354143
 20
534.61991574183639
 30
0.0
 42
0.00074742739
  0
VERTEX
  5
1742F
  8
AM_0
 10
704.25038514212406
 20
535.22178575449334
 30
0.0
 42
0.00073217363
  0
VERTEX
  5
17430
  8
AM_0
 10
704.19732529068949
 20
535.82358576759214
 30
0.0
 42
0.00073754168
  0
VERTEX
  5
17431
  8
AM_0
 10
704.1425054391907
 20
536.42512578112553
 30
0.0
 42
0.00073075073
  0
VERTEX
  5
17432
  8
AM_0
 10
704.08592558764724
 20
537.02648579509321
 30
0.0
 42
0.00074550816
  0
VERTEX
  5
17433
  8
AM_0
 10
704.02758573603012
 20
537.6275458094957
 30
0.0
 42
0.00074288416
  0
VERTEX
  5
17434
  8
AM_0
 10
703.96743588440279
 20
538.22856582434474
 30
0.0
 42
0.00072504001
  0
VERTEX
  5
17435
  8
AM_0
 10
703.90552603270885
 20
538.82931583962807
 30
0.0
 42
0.00074640667
  0
VERTEX
  5
17436
  8
AM_0
 10
703.84185618097797
 20
539.42991585534617
 30
0.0
  0
SEQEND
  5
17437
  8
AM_0
  0
ARC
  5
17438
  8
AM_0
 10
704.82256653657453
 20
540.87034561324015
 30
0.0
 40
1.0000138999999999
 50
269.69164585548492
 51
90.308325855486345
  0
ARC
  5
17439
  8
AM_0
 10
705.90716654275116
 20
540.89536534548665
 30
0.0
 40
1.465004
 50
269.99998585548531
 51
89.999982855484276
  0
ARC
  5
1743A
  8
AM_0
 10
704.82256406789122
 20
530.87034561324037
 30
0.0
 40
1.0000138999999999
 50
269.69164585548492
 51
90.308325855486345
  0
ARC
  5
1743B
  8
AM_0
 10
706.03716407036245
 20
530.88035531339403
 30
0.0
 40
1.3300049999999981
 50
269.99998585548531
 51
89.999982855484276
  0
POLYLINE
  5
1743C
  8
AM_0
 66
     1
 10
0.0
 20
0.0
 30
0.0
  0
VERTEX
  5
1743D
  8
AM_0
 10
705.00719036486635
 20
515.87034556766162
 30
0.0
 42
0.00039106649
  0
VERTEX
  5
1743E
  8
AM_0
 10
705.00955044167483
 20
516.18147556707913
 30
0.0
 42
0.00035488198
  0
VERTEX
  5
1743F
  8
AM_0
 10
705.0114405184778
 20
516.49258556661232
 30
0.0
 42
0.00039706113
  0
VERTEX
  5
17440
  8
AM_0
 10
705.01287059528124
 20
516.80369556625942
 30
0.0
 42
0.00038765718
  0
VERTEX
  5
17441
  8
AM_0
 10
705.01380067209163
 20
517.1148355660298
 30
0.0
 42
0.00040613432
  0
VERTEX
  5
17442
  8
AM_0
 10
705.01425074889255
 20
517.42593556591862
 30
0.0
 42
0.00035573434
  0
VERTEX
  5
17443
  8
AM_0
 10
705.01421082569561
 20
517.73704556592861
 30
0.0
 42
0.00038545884
  0
VERTEX
  5
17444
  8
AM_0
 10
705.01372090250379
 20
518.04817556604951
 30
0.0
 42
0.00035501205
  0
VERTEX
  5
17445
  8
AM_0
 10
705.0127609793069
 20
518.35928556628642
 30
0.0
 42
0.00040120779
  0
VERTEX
  5
17446
  8
AM_0
 10
705.01134105613983
 20
518.67051556663694
 30
0.0
 42
0.00038317817
  0
VERTEX
  5
17447
  8
AM_0
 10
705.00943113294795
 20
518.98164556710844
 30
0.0
 42
0.00035656084
  0
VERTEX
  5
17448
  8
AM_0
 10
705.0070512097833
 20
519.29288556769586
 30
0.0
 42
0.00040143615
  0
VERTEX
  5
17449
  8
AM_0
 10
705.00420128658402
 20
519.60398556839971
 30
0.0
  0
SEQEND
  5
1744A
  8
AM_0
  0
ARC
  5
1744B
  8
AM_0
 10
704.82256159920803
 20
520.87034561324072
 30
0.0
 40
1.0000138999999999
 50
269.69164585548492
 51
90.308325855486345
  0
ARC
  5
1744C
  8
AM_0
 10
706.1030216004425
 20
520.87534529713571
 30
0.0
 40
1.2650129999999991
 50
269.73557585548838
 51
90.264406855489256
  0
POLYLINE
  5
1744D
  8
AM_0
 66
     1
 10
0.0
 20
0.0
 30
0.0
  0
VERTEX
  5
1744E
  8
AM_0
 10
705.00719036486964
 20
515.87037164683295
 30
0.0
 42
-0.00039106649
  0
VERTEX
  5
1744F
  8
AM_0
 10
705.00955036486971
 20
515.55924164683313
 30
0.0
 42
-0.00035488198
  0
VERTEX
  5
17450
  8
AM_0
 10
705.01144036486971
 20
515.24813164683314
 30
0.0
 42
-0.00039706113
  0
VERTEX
  5
17451
  8
AM_0
 10
705.01287036486974
 20
514.93702164683305
 30
0.0
 42
-0.00038765718
  0
VERTEX
  5
17452
  8
AM_0
 10
705.01380036486955
 20
514.62588164683314
 30
0.0
 42
-0.00040613432
  0
VERTEX
  5
17453
  8
AM_0
 10
705.01425036486967
 20
514.31478164683324
 30
0.0
 42
-0.00035573434
  0
VERTEX
  5
17454
  8
AM_0
 10
705.01421036486965
 20
514.00367164683314
 30
0.0
 42
-0.00038545884
  0
VERTEX
  5
17455
  8
AM_0
 10
705.01372036486987
 20
513.69254164683321
 30
0.0
 42
-0.00035501205
  0
VERTEX
  5
17456
  8
AM_0
 10
705.01276036486968
 20
513.38143164683322
 30
0.0
 42
-0.00040120779
  0
VERTEX
  5
17457
  8
AM_0
 10
705.01134036486974
 20
513.07020164683308
 30
0.0
 42
-0.00038317817
  0
VERTEX
  5
17458
  8
AM_0
 10
705.00943036486956
 20
512.75907164683315
 30
0.0
 42
-0.00035656084
  0
VERTEX
  5
17459
  8
AM_0
 10
705.00705036486966
 20
512.44783164683315
 30
0.0
 42
-0.00040143615
  0
VERTEX
  5
1745A
  8
AM_0
 10
705.00420036486958
 20
512.13673164683314
 30
0.0
  0
SEQEND
  5
1745B
  8
AM_0
  0
ARC
  5
1745C
  8
ｶｸﾚｾﾝ2
 10
621.86715036486987
 20
544.37037528711915
 30
0.0
 40
3.0
 50
90.0
 51
180.0
  0
LINE
  5
1745D
  8
ｶｸﾚｾﾝ2
 10
621.86715036486987
 20
484.37037528711909
 30
0.0
 11
695.86715036486964
 21
484.37037528711909
 31
0.0
  0
ARC
  5
1745E
  8
AM_0
 10
705.69457036486972
 20
480.82533164683321
 30
0.0
 40
1.6750160000000001
 50
269.74614500000121
 51
90.253870000000916
  0
POLYLINE
  5
1745F
  8
AM_0
 66
     1
 10
0.0
 20
0.0
 30
0.0
  0
VERTEX
  5
17460
  8
AM_0
 10
704.48894036486968
 20
499.52980164683311
 30
0.0
 42
-0.0007337051
  0
VERTEX
  5
17461
  8
AM_0
 10
704.44480036486971
 20
498.92738164683311
 30
0.0
 42
-0.00075211323
  0
VERTEX
  5
17462
  8
AM_0
 10
704.39886036486973
 20
498.3249916468331
 30
0.0
 42
-0.0007297491
  0
VERTEX
  5
17463
  8
AM_0
 10
704.35113036486973
 20
497.72279164683312
 30
0.0
 42
-0.00073593041
  0
VERTEX
  5
17464
  8
AM_0
 10
704.30165036486972
 20
497.12080164683312
 30
0.0
 42
-0.00074742739
  0
VERTEX
  5
17465
  8
AM_0
 10
704.25038036486956
 20
496.51893164683321
 30
0.0
 42
-0.00073217363
  0
VERTEX
  5
17466
  8
AM_0
 10
704.19732036486971
 20
495.91713164683313
 30
0.0
 42
-0.00073754168
  0
VERTEX
  5
17467
  8
AM_0
 10
704.14250036486965
 20
495.31559164683318
 30
0.0
 42
-0.00073075073
  0
VERTEX
  5
17468
  8
AM_0
 10
704.08592036486971
 20
494.71423164683313
 30
0.0
 42
-0.00074550816
  0
VERTEX
  5
17469
  8
AM_0
 10
704.02758036486966
 20
494.11317164683322
 30
0.0
 42
-0.00074288416
  0
VERTEX
  5
1746A
  8
AM_0
 10
703.96743036486964
 20
493.51215164683288
 30
0.0
 42
-0.00072504001
  0
VERTEX
  5
1746B
  8
AM_0
 10
703.90552036486986
 20
492.91140164683299
 30
0.0
 42
-0.00074640667
  0
VERTEX
  5
1746C
  8
AM_0
 10
703.84185036486974
 20
492.31080164683311
 30
0.0
  0
SEQEND
  5
1746D
  8
AM_0
  0
POLYLINE
  5
1746E
  8
AM_0
 66
     1
 10
0.0
 20
0.0
 30
0.0
  0
VERTEX
  5
1746F
  8
AM_0
 10
704.9631303648697
 20
509.59999164683319
 30
0.0
 42
-0.00076691992
  0
VERTEX
  5
17470
  8
AM_0
 10
704.94833036486989
 20
508.98222164683312
 30
0.0
 42
-0.00073262792
  0
VERTEX
  5
17471
  8
AM_0
 10
704.93169036486972
 20
508.36463164683312
 30
0.0
 42
-0.00076529537
  0
VERTEX
  5
17472
  8
AM_0
 10
704.91320036486979
 20
507.74696164683331
 30
0.0
 42
-0.00075141097
  0
VERTEX
  5
17473
  8
AM_0
 10
704.89283036486972
 20
507.12936164683322
 30
0.0
 42
-0.00075841687
  0
VERTEX
  5
17474
  8
AM_0
 10
704.87060036486957
 20
506.5119316468332
 30
0.0
 42
-0.00075711788
  0
VERTEX
  5
17475
  8
AM_0
 10
704.84649036486985
 20
505.89442164683311
 30
0.0
 42
-0.00075976003
  0
VERTEX
  5
17476
  8
AM_0
 10
704.82050036486964
 20
505.27703164683322
 30
0.0
 42
-0.00075797311
  0
VERTEX
  5
17477
  8
AM_0
 10
704.79266036486956
 20
504.65975164683312
 30
0.0
 42
-0.0007482613
  0
VERTEX
  5
17478
  8
AM_0
 10
704.76293036486959
 20
504.0423716468332
 30
0.0
 42
-0.00074893561
  0
VERTEX
  5
17479
  8
AM_0
 10
704.7313703648698
 20
503.42524164683311
 30
0.0
 42
-0.00076039839
  0
VERTEX
  5
1747A
  8
AM_0
 10
704.69795036486971
 20
502.80821164683317
 30
0.0
 42
-0.00075618786
  0
VERTEX
  5
1747B
  8
AM_0
 10
704.66265036486959
 20
502.19117164683308
 30
0.0
  0
SEQEND
  5
1747C
  8
AM_0
  0
ARC
  5
1747D
  8
AM_0
 10
706.03716036486969
 20
500.86036164683321
 30
0.0
 40
1.3300049999999981
 50
270.00000300000102
 51
90.0
  0
ARC
  5
1747E
  8
AM_0
 10
704.82256036486956
 20
500.87037164683312
 30
0.0
 40
1.0000138999999999
 50
269.69165999999939
 51
90.308340000000726
  0
POLYLINE
  5
1747F
  8
AM_0
 66
     1
 10
0.0
 20
0.0
 30
0.0
  0
VERTEX
  5
17480
  8
AM_0
 10
703.50628036486955
 20
489.38734164683308
 30
0.0
 42
-0.00068898288
  0
VERTEX
  5
17481
  8
AM_0
 10
703.43540036486968
 20
488.81259164683308
 30
0.0
 42
-0.00070644354
  0
VERTEX
  5
17482
  8
AM_0
 10
703.36290036486957
 20
488.237901646833
 30
0.0
 42
-0.00069248071
  0
VERTEX
  5
17483
  8
AM_0
 10
703.28881036486973
 20
487.66359164683308
 30
0.0
 42
-0.00069585665
  0
VERTEX
  5
17484
  8
AM_0
 10
703.21313036486958
 20
487.08945164683308
 30
0.0
 42
-0.00068980191
  0
VERTEX
  5
17485
  8
AM_0
 10
703.13583036486989
 20
486.51545164683313
 30
0.0
 42
-0.00072080104
  0
VERTEX
  5
17486
  8
AM_0
 10
703.05694036486955
 20
485.9416616468331
 30
0.0
 42
-0.00071002307
  0
VERTEX
  5
17487
  8
AM_0
 10
702.97640036486973
 20
485.36819164683311
 30
0.0
 42
-0.00072659056
  0
VERTEX
  5
17488
  8
AM_0
 10
702.89424036486969
 20
484.7950916468331
 30
0.0
 42
-0.00069570481
  0
VERTEX
  5
17489
  8
AM_0
 10
702.81042036486974
 20
484.22206164683308
 30
0.0
 42
-0.00071266935
  0
VERTEX
  5
1748A
  8
AM_0
 10
702.72499036486965
 20
483.64929164683309
 30
0.0
 42
-0.00071614426
  0
VERTEX
  5
1748B
  8
AM_0
 10
702.63796036486974
 20
483.07695164683321
 30
0.0
 42
-0.00072288975
  0
VERTEX
  5
1748C
  8
AM_0
 10
702.54925036486964
 20
482.50465164683311
 30
0.0
  0
SEQEND
  5
1748D
  8
AM_0
  0
ARC
  5
1748E
  8
AM_0
 10
704.82256036486956
 20
490.87037164683301
 30
0.0
 40
1.0000138999999999
 50
269.69165999999939
 51
90.308340000000726
  0
ARC
  5
1748F
  8
AM_0
 10
705.90716036486958
 20
490.84535164683308
 30
0.0
 40
1.465004
 50
270.00000300000102
 51
90.0
  0
ARC
  5
17490
  8
AM_0
 10
704.82256036486956
 20
480.87037164683318
 30
0.0
 40
1.0000138999999999
 50
269.69165999999939
 51
90.308340000000726
  0
ARC
  5
17491
  8
ｶｸﾚｾﾝ2
 10
695.86715036486999
 20
487.37037528711909
 30
0.0
 40
3.0
 50
270.0
 51
0.0
  0
LINE
  5
17492
  8
AM_0
 10
704.11715036486964
 20
456.7353417372733
 30
0.0
 11
670.36715036486964
 21
456.7353417372733
 31
0.0
  0
LINE
  5
17493
  8
AM_0
 10
704.09713036486971
 20
454.89533773727328
 30
0.0
 11
670.36715036486964
 21
454.89533773727328
 31
0.0
  0
LINE
  5
17494
  8
AM_0
 10
704.07717036486974
 20
453.97534673727313
 30
0.0
 11
670.36715036486964
 21
453.97534673727313
 31
0.0
  0
LINE
  5
17495
  8
AM_0
 10
681.86715036486976
 20
477.64534473727309
 30
0.0
 11
702.04000036486957
 21
479.14534473727321
 31
0.0
  0
LINE
  5
17496
  8
AM_0
 10
707.36715036486964
 20
467.77532673727319
 30
0.0
 11
706.12716036486972
 21
461.21532973727329
 31
0.0
  0
LINE
  5
17497
  8
AM_0
 10
707.36715036486964
 20
466.42533573727309
 30
0.0
 11
706.08718036486971
 21
458.42534373727329
 31
0.0
  0
LINE
  5
17498
  8
AM_0
 10
707.36709036486968
 20
465.0853397372731
 30
0.0
 11
706.07711036486955
 21
456.5853477372732
 31
0.0
  0
LINE
  5
17499
  8
AM_0
 10
707.36715036486964
 20
465.08536273727327
 30
0.0
 11
706.0571503648697
 21
455.70535773727329
 31
0.0
  0
LINE
  5
1749A
  8
AM_0
 10
702.03760302558578
 20
479.1504016468329
 30
0.0
 11
707.36721036486961
 21
467.77536473727332
 31
0.0
  0
ARC
  5
1749B
  8
AM_0
 10
704.07503036486969
 20
455.97581973727313
 30
0.0
 40
2.0004758999999992
 50
270.0603100000007
 51
352.22953999999908
  0
ARC
  5
1749C
  8
AM_0
 10
704.10360036486964
 20
456.89267473727313
 30
0.0
 40
1.9973480999999991
 50
269.81531999999919
 51
351.14853000000028
  0
ARC
  5
1749D
  8
AM_0
 10
704.11117036486974
 20
458.7355167372732
 30
0.0
 40
2.0001840999999998
 50
270.1714700000008
 51
351.07899999999728
  0
ARC
  5
1749E
  8
AM_0
 10
704.16250036486974
 20
461.58434073727329
 30
0.0
 40
1.9990078999999989
 50
270.13345000000032
 51
349.36259000000302
  0
ARC
  5
1749F
  8
AM_0
 10
670.37514036486982
 20
455.98334973727339
 30
0.0
 40
2.0080360999999991
 50
180.22878999999941
 51
269.77121000000062
  0
ARC
  5
174A0
  8
AM_0
 10
670.37044036486975
 20
456.89862573727328
 30
0.0
 40
2.003279899999999
 50
180.09378999999711
 51
269.90620999999959
  0
ARC
  5
174A1
  8
AM_0
 10
670.37435036486977
 20
458.74252073727308
 30
0.0
 40
2.0071799999999991
 50
180.2046199999977
 51
269.79537999999911
  0
LINE
  5
174A2
  8
AM_0
 10
668.36715036486964
 20
455.97533973727332
 30
0.0
 11
668.36715036486964
 21
459.58533273727329
 31
0.0
  0
ARC
  5
174A3
  8
ｶｸﾚｾﾝ2
 10
621.86715036486987
 20
487.37037528711909
 30
0.0
 40
3.0
 50
180.0
 51
270.0
  0
LINE
  5
174A4
  8
AM_0
 10
599.36715036486964
 20
571.8703397372733
 30
0.0
 11
599.36715036486964
 21
459.87033573727331
 31
0.0
  0
ARC
  5
174A5
  8
AM_0
 10
602.14025396486966
 20
510.8603616468331
 30
0.0
 40
1.2700266
 50
89.629319999999979
 51
270.37067000000138
  0
ARC
  5
174A6
  8
AM_0
 10
606.02719046486982
 20
510.87037164683312
 30
0.0
 40
1.000005699999998
 50
89.999989999999016
 51
270.00000300000102
  0
LINE
  5
174A7
  8
AM_0
 10
599.36715036486964
 20
571.8703397372733
 30
0.0
 11
591.36718036486968
 21
571.8703397372733
 31
0.0
  0
LINE
  5
174A8
  8
AM_0
 10
599.36715036486964
 20
547.81034973727333
 30
0.0
 11
591.36718036486968
 21
547.81034973727333
 31
0.0
  0
LINE
  5
174A9
  8
AM_0
 10
599.36715036486964
 20
561.87033973727318
 30
0.0
 11
591.36718036486968
 21
561.87033973727318
 31
0.0
  0
LINE
  5
174AA
  8
AM_0
 10
602.53536562824536
 20
560.30241994453456
 30
0.0
 11
605.31713036486974
 21
570.66534973727323
 31
0.0
  0
ARC
  5
174AB
  8
AM_0
 10
607.24996036486982
 20
570.15673973727326
 30
0.0
 40
1.9986041000000001
 50
90.080483999998904
 51
165.25728400000051
  0
LINE
  5
174AC
  8
AM_0
 10
604.82717036486974
 20
568.86534973727316
 30
0.0
 11
599.36715036486964
 21
568.86534973727316
 31
0.0
  0
ARC
  5
174AD
  8
AM_0
 10
606.02715900526073
 20
550.8703700026964
 30
0.0
 40
1.0
 50
89.999982855484276
 51
269.9999958554863
  0
ARC
  5
174AE
  8
AM_0
 10
602.54719918413969
 20
550.91538686178762
 30
0.0
 40
1.675026000120903
 50
90.000672712195325
 51
269.99929599881978
  0
ARC
  5
174AF
  8
AM_0
 10
606.02719416789432
 20
530.87037000268731
 30
0.0
 40
1.000005699999998
 50
89.999982855484276
 51
269.9999958554863
  0
ARC
  5
174B0
  8
AM_0
 10
606.02721653657727
 20
540.87037000268185
 30
0.0
 40
1.0000255999999981
 50
89.589454855485855
 51
270.41051585548701
  0
ARC
  5
174B1
  8
AM_0
 10
602.32720654399111
 20
540.90040091609706
 30
0.0
 40
1.460011199999999
 50
89.775235855487026
 51
270.22473585548732
  0
ARC
  5
174B2
  8
AM_0
 10
602.20220767159992
 20
530.88538094695514
 30
0.0
 40
1.3350147999999999
 50
89.730429855483649
 51
270.26955585548518
  0
ARC
  5
174B3
  8
AM_0
 10
606.02719169921113
 20
520.87037000268765
 30
0.0
 40
1.000005699999998
 50
89.999982855484276
 51
269.9999958554863
  0
ARC
  5
174B4
  8
AM_0
 10
602.14025520168241
 20
520.88038096224909
 30
0.0
 40
1.2700266
 50
89.629315855484137
 51
270.3706658554857
  0
ARC
  5
174B5
  8
AM_0
 10
602.54719053263534
 20
480.82535564683383
 30
0.0
 40
1.675026000120903
 50
90.000689856665389
 51
269.99931314329001
  0
LINE
  5
174B6
  8
AM_0
 10
599.36715036486964
 20
483.93034873727328
 30
0.0
 11
591.36718036486968
 21
483.93034873727328
 31
0.0
  0
ARC
  5
174B7
  8
AM_0
 10
606.02719046486982
 20
500.87037164683312
 30
0.0
 40
1.000005699999998
 50
89.999989999999016
 51
270.00000300000102
  0
ARC
  5
174B8
  8
AM_0
 10
602.2022039648698
 20
500.85536164683322
 30
0.0
 40
1.3350147999999999
 50
89.730429999999885
 51
270.26955600000139
  0
ARC
  5
174B9
  8
AM_0
 10
606.02721036486969
 20
490.87037164683312
 30
0.0
 40
1.0000255999999981
 50
89.589469999999977
 51
270.41053100000101
  0
ARC
  5
174BA
  8
AM_0
 10
606.02715036486973
 20
480.87037164683318
 30
0.0
 40
1.0
 50
89.999989999999016
 51
270.00000300000102
  0
ARC
  5
174BB
  8
AM_0
 10
602.32720036486967
 20
490.84034164683328
 30
0.0
 40
1.460011199999999
 50
89.775249999999943
 51
270.22475000000009
  0
LINE
  5
174BC
  8
AM_0
 10
599.36715036486964
 20
459.87033573727331
 30
0.0
 11
591.36718036486968
 21
459.87033573727331
 31
0.0
  0
LINE
  5
174BD
  8
AM_0
 10
599.36715036486964
 20
469.87034373727312
 30
0.0
 11
591.36718036486968
 21
469.87034373727312
 31
0.0
  0
LINE
  5
174BE
  8
AM_0
 10
602.53363222176563
 20
471.43631668560209
 30
0.0
 11
605.31716036486966
 21
461.06535073727332
 31
0.0
  0
ARC
  5
174BF
  8
AM_0
 10
607.25002036486967
 20
461.58747573727328
 30
0.0
 40
2.0021281000000002
 50
195.11669999999501
 51
269.9184800000001
  0
LINE
  5
174C0
  8
AM_0
 10
604.82717036486974
 20
462.86534673727328
 30
0.0
 11
599.36715036486964
 21
462.86534673727328
 31
0.0
  0
LINE
  5
174C1
  8
AM_0
 10
457.36737687668301
 20
462.87038561902898
 30
0.0
 11
457.36737687668301
 21
466.87038573823821
 31
0.0
  0
LINE
  5
174C2
  8
AM_0
 10
457.36737687668301
 20
462.87038561902898
 30
0.0
 11
497.3669780687639
 21
462.87038561902898
 31
0.0
  0
LINE
  5
174C3
  8
AM_0
 10
457.36737687668301
 20
462.87038561902898
 30
0.0
 11
462.36717750589668
 21
447.870387388663
 31
0.0
  0
LINE
  5
174C4
  8
AM_0
 10
492.36717750589662
 20
447.870387388663
 30
0.0
 11
462.36717750589668
 21
447.870387388663
 31
0.0
  0
LINE
  5
174C5
  8
AM_0
 10
497.3669780687639
 20
462.87038561902898
 30
0.0
 11
492.36717750589662
 21
447.870387388663
 31
0.0
  0
LINE
  5
174C6
  8
AM_0
 10
497.3669780687639
 20
462.87038561902898
 30
0.0
 11
497.3669780687639
 21
466.87038573823821
 31
0.0
  0
LINE
  5
174C7
  8
0
 10
489.3671775211651
 20
407.8703874229364
 30
0.0
 11
465.3671775211651
 21
407.87038735438972
 31
0.0
  0
LINE
  5
174C8
  8
0
 10
489.36717752116488
 20
407.87038738866312
 30
0.0
 11
489.36717752116488
 21
447.870387388663
 31
0.0
  0
LINE
  5
174C9
  8
0
 10
465.36717752116488
 20
407.87038738866312
 30
0.0
 11
465.36717752717789
 21
447.870387388663
 31
0.0
  0
LINE
  5
174CA
  8
0
 10
473.36717748894557
 20
439.8703873453706
 30
0.0
 11
481.36717748894552
 21
439.87038734537049
 31
0.0
  0
LINE
  5
174CB
  8
AM_0
 10
473.36717748894557
 20
407.8703873772385
 30
0.0
 11
473.36717748894557
 21
439.8703873453706
 31
0.0
  0
LINE
  5
174CC
  8
AM_0
 10
481.36717748894552
 20
407.87038740008762
 30
0.0
 11
481.36717748894552
 21
439.8703873453706
 31
0.0
  0
ARC
  5
174CD
  8
AM_0
 10
477.36717748894557
 20
439.87038734537049
 30
0.0
 40
3.9999999999999432
 50
0.0
 51
180.0
  0
ARC
  5
176E0
  8
AM_0
 10
574.6456443755817
 20
560.87039094741385
 30
0.0
 40
2.0
 50
180.99998858802229
 51
270.0
1001
GENIUS_GENODEF_13
1002
{
1000
HIER
1070
     0
1002
}
1002
{
1000
MANEDIT
1070
     0
1002
}
1002
{
1000
NOSEL
1070
     0
1002
}
1002
{
1000
BEHIND
1070
     0
1002
}
1002
{
1000
OTHER
1070
     0
1002
}
1002
{
1000
REACTOR
1002
}
1001
GENIUS_GENOBJ-N-FIL_13
1002
{
1000
OWNER
1000
GEN
1002
}
  0
ARC
  5
176E6
  8
AM_0
 10
575.67907578896472
 20
491.87038865263509
 30
0.0
 40
1.0
 50
9.9999917840687935
 51
90.0
1001
GENIUS_GENODEF_13
1002
{
1000
HIER
1070
     0
1002
}
1002
{
1000
MANEDIT
1070
     0
1002
}
1002
{
1000
NOSEL
1070
     0
1002
}
1002
{
1000
BEHIND
1070
     0
1002
}
1002
{
1000
OTHER
1070
     0
1002
}
1002
{
1000
REACTOR
1002
}
1001
GENIUS_GENOBJ-N-FIL_13
1002
{
1000
OWNER
1000
GEN
1002
}
  0
TEXT
  5
1799B
  8
AM_0
 10
131.90235733988831
 20
535.20207694182182
 30
0.0
 40
10.0
  1
VC01-080MR~VC01-240MR
1001
ACAD
1000
MTEXTBEGIN
1070
    73
1070
     1
1070
    44
1040
1.0
1070
    74
1070
     0
1000
MTEXTEND
  0
VIEWPORT
  5
89
 67
     1
  8
0
 10
210.0
 20
148.5
 30
0.0
 40
420.0
 41
297.0
 68
     1
 69
     1
1001
ACAD
1000
MVIEW
1002
{
1070
    16
1010
0.0
1020
0.0
1030
0.0
1010
0.0
1020
0.0
1030
1.0
1040
0.0
1040
297.0
1040
221.70154043645701
1040
148.5
1040
50.0
1040
0.0
1040
0.0
1070
     0
1070
   100
1070
     1
1070
     1
1070
     0
1070
     0
1070
     0
1070
     0
1040
0.0
1040
0.0
1040
0.0
1040
10.0
1040
10.0
1040
10.0
1040
10.0
1070
     0
1002
{
1002
}
1002
}
1001
GENIUS_GENOREF_13
1005
1B94
1001
GENIUS_GENSCREG_15
1000
PF
1040
1.0
1000
DF
1040
1.0
1000
MIN
1011
0.0
1021
0.0
1031
0.0
1021
0.0
1031
0.0
1000
MAX
1011
420.0
1021
0.0
1031
0.0
1021
297.0
1031
0.0
1000
FLAGS
1070
     4
  0
ENDSEC
  0
EOF
