  0
SECTION
  2
HEADER
  9
$ACADVER
  1
AC1009
  9
$INSBASE
 10
0.0
 20
0.0
 30
0.0
  9
$EXTMIN
 10
92.700395771884814
 20
167.762909613044
 30
-0.0015258207003583
  9
$EXTMAX
 10
754.41815372733163
 20
617.93095536054579
 30
0.0000000349246037
  9
$LIMMIN
 10
0.0
 20
0.0
  9
$LIMMAX
 10
853.5
 20
555.00000000000011
  9
$ORTHOMODE
 70
     0
  9
$REGENMODE
 70
     1
  9
$FILLMODE
 70
     1
  9
$QTEXTMODE
 70
     0
  9
$MIRRTEXT
 70
     1
  9
$DRAGMODE
 70
     2
  9
$LTSCALE
 40
3.0
  9
$OSMODE
 70
   551
  9
$ATTMODE
 70
     1
  9
$TEXTSIZE
 40
2.5
  9
$TRACEWID
 40
1.0
  9
$TEXTSTYLE
  7
STANDARD
  9
$CLAYER
  8
AM_0
  9
$CELTYPE
  6
BYLAYER
  9
$CECOLOR
 62
   256
  9
$DIMSCALE
 40
3.0
  9
$DIMASZ
 40
2.5
  9
$DIMEXO
 40
1.0
  9
$DIMDLI
 40
7.0
  9
$DIMRND
 40
0.0
  9
$DIMDLE
 40
0.0
  9
$DIMEXE
 40
1.0
  9
$DIMTP
 40
0.1
  9
$DIMTM
 40
0.1000000001
  9
$DIMTXT
 40
2.5
  9
$DIMCEN
 40
0.0
  9
$DIMTSZ
 40
0.0
  9
$DIMTOL
 70
     0
  9
$DIMLIM
 70
     0
  9
$DIMTIH
 70
     0
  9
$DIMTOH
 70
     0
  9
$DIMSE1
 70
     0
  9
$DIMSE2
 70
     0
  9
$DIMTAD
 70
     3
  9
$DIMZIN
 70
     8
  9
$DIMBLK
  1

  9
$DIMASO
 70
     1
  9
$DIMSHO
 70
     1
  9
$DIMPOST
  1

  9
$DIMAPOST
  1
"
  9
$DIMALT
 70
     0
  9
$DIMALTD
 70
     2
  9
$DIMALTF
 40
0.0393701
  9
$DIMLFAC
 40
1.0
  9
$DIMTOFL
 70
     1
  9
$DIMTVP
 40
0.0
  9
$DIMTIX
 70
     0
  9
$DIMSOXD
 70
     0
  9
$DIMSAH
 70
     0
  9
$DIMBLK1
  1

  9
$DIMBLK2
  1

  9
$DIMSTYLE
  2
AM_JIS
  9
$DIMCLRD
 70
   256
  9
$DIMCLRE
 70
   256
  9
$DIMCLRT
 70
     4
  9
$DIMTFAC
 40
0.71
  9
$DIMGAP
 40
1.0
  9
$LUNITS
 70
     2
  9
$LUPREC
 70
     2
  9
$SKETCHINC
 40
1.0
  9
$FILLETRAD
 40
5.0
  9
$AUNITS
 70
     0
  9
$AUPREC
 70
     3
  9
$MENU
  1
.
  9
$ELEVATION
 40
0.0
  9
$PELEVATION
 40
0.0
  9
$THICKNESS
 40
0.0
  9
$LIMCHECK
 70
     0
  9
$BLIPMODE
 70
     0
  9
$CHAMFERA
 40
7.5
  9
$CHAMFERB
 40
7.5
  9
$SKPOLY
 70
     0
  9
$TDCREATE
 40
2452753.643349607
  9
$TDUPDATE
 40
2458543.424198762
  9
$TDINDWG
 40
0.413265544
  9
$TDUSRTIMER
 40
0.4132653472
  9
$USRTIMER
 70
     1
  9
$ANGBASE
 50
0.0
  9
$ANGDIR
 70
     0
  9
$PDMODE
 70
     0
  9
$PDSIZE
 40
0.0
  9
$PLINEWID
 40
0.0
  9
$COORDS
 70
     1
  9
$SPLFRAME
 70
     0
  9
$SPLINETYPE
 70
     6
  9
$SPLINESEGS
 70
     8
  9
$ATTDIA
 70
     1
  9
$ATTREQ
 70
     1
  9
$HANDLING
 70
     1
  9
$HANDSEED
  5
1718F
  9
$SURFTAB1
 70
     6
  9
$SURFTAB2
 70
     6
  9
$SURFTYPE
 70
     6
  9
$SURFU
 70
     6
  9
$SURFV
 70
     6
  9
$UCSNAME
  2

  9
$UCSORG
 10
0.0
 20
0.0
 30
0.0
  9
$UCSXDIR
 10
1.0
 20
0.0
 30
0.0
  9
$UCSYDIR
 10
0.0
 20
1.0
 30
0.0
  9
$PUCSNAME
  2

  9
$PUCSORG
 10
0.0
 20
0.0
 30
0.0
  9
$PUCSXDIR
 10
1.0
 20
0.0
 30
0.0
  9
$PUCSYDIR
 10
0.0
 20
1.0
 30
0.0
  9
$USERI1
 70
     0
  9
$USERI2
 70
     0
  9
$USERI3
 70
     0
  9
$USERI4
 70
     0
  9
$USERI5
 70
     0
  9
$USERR1
 40
0.0
  9
$USERR2
 40
0.0
  9
$USERR3
 40
0.0
  9
$USERR4
 40
0.0
  9
$USERR5
 40
0.0
  9
$WORLDVIEW
 70
     1
  9
$SHADEDGE
 70
     3
  9
$SHADEDIF
 70
    70
  9
$TILEMODE
 70
     1
  9
$MAXACTVP
 70
    48
  9
$PLIMCHECK
 70
     0
  9
$PEXTMIN
 10
1.0000000000000000E+020
 20
1.0000000000000000E+020
 30
1.0000000000000000E+020
  9
$PEXTMAX
 10
-1.0000000000000000E+020
 20
-1.0000000000000000E+020
 30
-1.0000000000000000E+020
  9
$PLIMMIN
 10
0.0
 20
0.0
  9
$PLIMMAX
 10
420.0
 20
297.0
  9
$UNITMODE
 70
     0
  9
$VISRETAIN
 70
     1
  9
$PLINEGEN
 70
     0
  9
$PSLTSCALE
 70
     1
  0
ENDSEC
  0
SECTION
  2
TABLES
  0
TABLE
  2
VPORT
 70
     1
  0
VPORT
  2
*ACTIVE
 70
     0
 10
0.0
 20
0.0
 11
1.0
 21
1.0
 12
423.55927474960811
 22
392.84693248679491
 13
0.0
 23
0.0
 14
7.5
 24
7.5
 15
30.0
 25
30.0
 16
0.0
 26
0.0
 36
1.0
 17
0.0
 27
0.0
 37
0.0
 40
453.2584442308941
 41
1.7571592210767459
 42
50.0
 43
0.0
 44
0.0
 50
0.0
 51
0.0
 71
    16
 72
   100
 73
     1
 74
     1
 75
     0
 76
     0
 77
     0
 78
     0
  0
ENDTAB
  0
TABLE
  2
LTYPE
 70
    21
  0
LTYPE
  2
CONTINUOUS
 70
     0
  3
Solid line
 72
    65
 73
     0
 40
0.0
  0
LTYPE
  2
PHANTOM2
 70
     0
  3
Phantom (.5x) ___ _ _ ___ _ _ ___ _ _ ___ _ _
 72
    65
 73
     6
 40
31.75
 49
15.875
 49
-3.174999999999998
 49
3.174999999999998
 49
-3.174999999999998
 49
3.174999999999998
 49
-3.174999999999998
  0
LTYPE
  2
CENTER
 70
     0
  3
Center ____ _ ____ _ ____ _ ____ _ ____ _ ____
 72
    65
 73
     4
 40
50.799999999999997
 49
31.75
 49
-6.3499999999999979
 49
6.3499999999999979
 49
-6.3499999999999979
  0
LTYPE
  2
ACANSTGBM
 70
     0
  3
__ . . __ . .
 72
    65
 73
     6
 40
9.0
 49
4.0
 49
-1.0
 49
1.0
 49
-1.0
 49
1.0
 49
-1.0
  0
LTYPE
  2
ACANSTGLM
 70
     0
  3
_ _ _ _ _
 72
    65
 73
     2
 40
3.0
 49
2.0
 49
-1.0
  0
LTYPE
  2
GEN3B
 70
     0
  3
 - - - - -
 72
    65
 73
     2
 40
1.0
 49
0.5
 49
-0.5
  0
LTYPE
  2
GEN7A
 70
     0
  3
__ . __ . __
 72
    65
 73
     4
 40
7.375
 49
4.75
 49
-0.875
 49
0.875
 49
-0.875
  0
LTYPE
  2
AM_ISO02W050
 70
     0
  3
__ __ __ __ __ __ __ __ __ __ __ __ __ __ __
 72
    65
 73
     2
 40
7.5
 49
6.0
 49
-1.5
  0
LTYPE
  2
AM_ISO08W050
 70
     0
  3
____ . ____ . ____ . ____ . ____ . ____ . ____
 72
    65
 73
     4
 40
18.0
 49
12.0
 49
-1.5
 49
3.0
 49
-1.5
  0
LTYPE
  2
AM_ISO09W050
 70
     0
  3
_____ . . _____ . . _____ . . ____ .. ____
 72
    65
 73
     6
 40
22.5
 49
12.0
 49
-1.5
 49
3.0
 49
-1.5
 49
3.0
 49
-1.5
  0
LTYPE
  2
AMCONSTR
 70
     0
  3
_______________________
 72
    65
 73
     2
 40
9999.0
 49
9999.0
 49
0.0
  0
LTYPE
  2
AM_ISO02W050X2
 70
     0
  3
 _ _ _ _ _ _ _ _ _ _ _ _
 72
    65
 73
     2
 40
3.75
 49
3.0
 49
-0.75
  0
LTYPE
  2
AM_ISO08W050X2
 70
     0
  3
__ . __ . __ . __ . __ . __
 72
    65
 73
     4
 40
9.0
 49
6.0
 49
-0.75
 49
1.5
 49
-0.75
  0
LTYPE
  2
AMZIGZAG
 70
     0
  3
/\/-/\/-/\/-/\/-/\/-/\/
 72
    65
 73
     2
 40
11.0001
 49
0.0001
 49
-11.0
  0
LTYPE
  2
ACJISTGB
 70
     0
  3
__ . . __ . .
 72
    65
 73
     6
 40
9.0
 49
4.0
 49
-1.0
 49
1.0
 49
-1.0
 49
1.0
 49
-1.0
  0
LTYPE
  2
ACJISTGL
 70
     0
  3
_ _ _ _ _
 72
    65
 73
     2
 40
3.0
 49
2.0
 49
-1.0
  0
LTYPE
  2
ACISOWELD
 70
     0
  3
_ _ _ _ _
 72
    65
 73
     2
 40
2.0
 49
2.0
 49
-1.0
  0
LTYPE
  2
ACISOTGB
 70
     0
  3
__ . . __ . .
 72
    65
 73
     6
 40
9.0
 49
4.0
 49
-1.0
 49
1.0
 49
-1.0
 49
1.0
 49
-1.0
  0
LTYPE
  2
ACISOTGL
 70
     0
  3
_ _ _ _ _
 72
    65
 73
     2
 40
3.0
 49
2.0
 49
-1.0
  0
LTYPE
  2
HIDDEN
 70
     0
  3
Hidden __ __ __ __ __ __ __ __ __ __ __ __ __ _
 72
    65
 73
     2
 40
9.5249999999999968
 49
6.3499999999999979
 49
-3.174999999999998
  0
ENDTAB
  0
TABLE
  2
LAYER
 70
     8
  0
LAYER
  2
0
 70
     0
 62
     7
  6
CONTINUOUS
  0
LAYER
  2
ｽﾝﾎﾟｳｾﾝ
 70
     0
 62
     2
  6
CONTINUOUS
  0
LAYER
  2
DEFPOINTS
 70
     0
 62
     7
  6
CONTINUOUS
  0
LAYER
  2
ｶｸﾚｾﾝ2
 70
     0
 62
     3
  6
GEN3B
  0
LAYER
  2
ﾁｭｳｼﾝｾﾝ1
 70
     0
 62
     1
  6
GEN7A
  0
LAYER
  2
AM_0
 70
     0
 62
     7
  6
CONTINUOUS
  0
LAYER
  2
AM_0N
 70
     0
 62
     7
  6
CONTINUOUS
  0
LAYER
  2
AM_5
 70
     0
 62
     2
  6
CONTINUOUS
  0
ENDTAB
  0
TABLE
  2
STYLE
 70
     8
  0
STYLE
  2
STANDARD
 70
     0
 40
0.0
 41
0.8299999999999999
 50
0.0
 71
     0
 42
2.5
  3
txt.shx
  4
bigfont.shx
  0
STYLE
  2
ACANSTS
 70
     0
 40
1.0
 41
1.0
 50
0.0
 71
     0
 42
2.5
  3
romans.shx
  4
bigfont.shx
  0
STYLE
  2
ACANSGDT
 70
     0
 40
0.0
 41
1.0
 50
0.0
 71
     0
 42
2.5
  3
amgdtans.shx
  4

  0
STYLE
  2

 70
     1
 40
0.0
 41
1.0
 50
0.0
 71
     0
 42
2.5
  3
ltypeshp.shx
  4

  0
STYLE
  2
ACJISTS
 70
     0
 40
1.0
 41
1.0
 50
0.0
 71
     0
 42
2.5
  3
isocp.shx
  4
bigfont.shx
  0
STYLE
  2
ACJISGDT
 70
     0
 40
0.0
 41
1.0
 50
0.0
 71
     0
 42
2.5
  3
amgdt.shx
  4

  0
STYLE
  2
ACISOTS
 70
     0
 40
3.0
 41
1.0
 50
0.0
 71
     0
 42
2.5
  3
isocp.shx
  4
extfont.shx
  0
STYLE
  2
ACISOGDT
 70
     0
 40
0.0
 41
1.0
 50
0.0
 71
     0
 42
2.5
  3
amgdt.shx
  4

  0
ENDTAB
  0
TABLE
  2
VIEW
 70
    12
  0
VIEW
  2
GEN1
 70
     0
 40
95.824742268041234
 10
71.5
 20
137.08762886597941
 41
143.0
 11
0.0
 21
0.0
 31
1.0
 12
0.0
 22
0.0
 32
0.0
 42
50.0
 43
0.0
 44
0.0
 50
0.0
 71
     0
  0
VIEW
  2
GEN2
 70
     0
 40
95.824742268041234
 10
214.5
 20
137.08762886597941
 41
143.0
 11
0.0
 21
0.0
 31
1.0
 12
0.0
 22
0.0
 32
0.0
 42
50.0
 43
0.0
 44
0.0
 50
0.0
 71
     0
  0
VIEW
  2
GEN3
 70
     0
 40
95.824742268041234
 10
71.5
 20
47.912371134020603
 41
143.0
 11
0.0
 21
0.0
 31
1.0
 12
0.0
 22
0.0
 32
0.0
 42
50.0
 43
0.0
 44
0.0
 50
0.0
 71
     0
  0
VIEW
  2
GEN4
 70
     0
 40
95.824742268041234
 10
214.5
 20
47.912371134020603
 41
143.0
 11
0.0
 21
0.0
 31
1.0
 12
0.0
 22
0.0
 32
0.0
 42
50.0
 43
0.0
 44
0.0
 50
0.0
 71
     0
  0
VIEW
  2
GEN5
 70
     0
 40
95.824742268041234
 10
143.0
 20
92.500000000000057
 41
143.0
 11
0.0
 21
0.0
 31
1.0
 12
0.0
 22
0.0
 32
0.0
 42
50.0
 43
0.0
 44
0.0
 50
0.0
 71
     0
  0
VIEW
  2
GEN6
 70
     0
 40
191.64756804123709
 10
143.0
 20
92.5
 41
285.99714
 11
0.0
 21
0.0
 31
1.0
 12
0.0
 22
0.0
 32
0.0
 42
50.0
 43
0.0
 44
0.0
 50
0.0
 71
     0
  0
VIEW
  2
AM_VIEW1
 70
     0
 40
277.50000000000011
 10
249.64779005524869
 20
416.25000000000011
 41
499.29558011049721
 11
0.0
 21
0.0
 31
1.0
 12
0.0
 22
0.0
 32
0.0
 42
50.0
 43
0.0
 44
0.0
 50
0.0
 71
    16
  0
VIEW
  2
AM_VIEW2
 70
     0
 40
277.50000000000011
 10
603.85220994475117
 20
416.25000000000011
 41
499.29558011049721
 11
0.0
 21
0.0
 31
1.0
 12
0.0
 22
0.0
 32
0.0
 42
50.0
 43
0.0
 44
0.0
 50
0.0
 71
    16
  0
VIEW
  2
AM_VIEW3
 70
     0
 40
277.50000000000011
 10
249.64779005524869
 20
138.75
 41
499.29558011049721
 11
0.0
 21
0.0
 31
1.0
 12
0.0
 22
0.0
 32
0.0
 42
50.0
 43
0.0
 44
0.0
 50
0.0
 71
    16
  0
VIEW
  2
AM_VIEW4
 70
     0
 40
277.50000000000011
 10
603.85220994475117
 20
138.75
 41
499.29558011049721
 11
0.0
 21
0.0
 31
1.0
 12
0.0
 22
0.0
 32
0.0
 42
50.0
 43
0.0
 44
0.0
 50
0.0
 71
    16
  0
VIEW
  2
AM_VIEW5
 70
     0
 40
277.50000000000011
 10
426.75
 20
277.50000000000011
 41
499.2955801104971
 11
0.0
 21
0.0
 31
1.0
 12
0.0
 22
0.0
 32
0.0
 42
50.0
 43
0.0
 44
0.0
 50
0.0
 71
    16
  0
VIEW
  2
AM_VIEW6
 70
     0
 40
554.99445000000014
 10
426.75
 20
277.5
 41
998.5811743093924
 11
0.0
 21
0.0
 31
1.0
 12
0.0
 22
0.0
 32
0.0
 42
50.0
 43
0.0
 44
0.0
 50
0.0
 71
    16
  0
ENDTAB
  0
TABLE
  2
UCS
 70
     0
  0
ENDTAB
  0
TABLE
  2
APPID
 70
    97
  0
APPID
  2
ACAD
 70
     0
  0
APPID
  2
MCAD_NO_VIS
 70
     0
  0
APPID
  2
ACAD_TEMP_GRAPHIC
 70
     0
  0
APPID
  2
AD_DRAW
 70
     0
  0
APPID
  2
DESIGNERASSEMBLIES
 70
     0
  0
APPID
  2
ASURF_PCURVE_APPNAME
 70
     0
  0
APPID
  2
GENIUS_GE3SECT_13
 70
     0
  0
APPID
  2
GENIUS_GENCFG_13
 70
     0
  0
APPID
  2
GENIUS_GE3CFG0_13
 70
     0
  0
APPID
  2
GENIUS_GENCFG0_13
 70
     0
  0
APPID
  2
GENIUS_GENCFG1_13
 70
     0
  0
APPID
  2
GENIUS_GENCFG2_13
 70
     0
  0
APPID
  2
GENIUS_GENCFG3_13
 70
     0
  0
APPID
  2
GENIUS_GENCFG4_13
 70
     0
  0
APPID
  2
GENIUS_GEVCFG0_13
 70
     0
  0
APPID
  2
GENIUS_GENOENT_13
 70
     0
  0
APPID
  2
GENIUS_GENREC_14
 70
     0
  0
APPID
  2
GENIUS_GENODEF_13
 70
     0
  0
APPID
  2
GENIUS_GENOBJ-N-REC_13
 70
     0
  0
APPID
  2
GENIUS_GENHINW_13
 70
     0
  0
APPID
  2
GENIUS_FIRSTVISTXT_14
 70
     0
  0
APPID
  2
GENIUS_GENOBJ-N-LEADER_13
 70
     0
  0
APPID
  2
GENIUS_GENOREF_13
 70
     0
  0
APPID
  2
GENIUS_GENOLIS_13
 70
     0
  0
APPID
  2
GEV_VCCNULL_SWITCH_OFF
 70
     0
  0
APPID
  2
GENIUS_GENDTOL_13
 70
     0
  0
APPID
  2
GENIUS_GEFCFG0_13
 70
     0
  0
APPID
  2
GENIUS_GENOBJ-N-TIT_13
 70
     0
  0
APPID
  2
GENIUS_GENTITLE_13
 70
     0
  0
APPID
  2
GENIUS_GENZVEED_13
 70
     0
  0
APPID
  2
GENIUS_GENOBJ-N-SDF_13
 70
     0
  0
APPID
  2
GENIUS_GENSCREG_13
 70
     0
  0
APPID
  2
GENIUS_DUMCFG0_13
 70
     0
  0
APPID
  2
GEVID936201362
 70
     0
  0
APPID
  2
GEVDC
 70
     0
  0
APPID
  2
GEVCON
 70
     0
  0
APPID
  2
VCC
 70
     0
  0
APPID
  2
GEVPT
 70
     0
  0
APPID
  2
GEVIT
 70
     0
  0
APPID
  2
GENBH
 70
     0
  0
APPID
  2
GEVMK
 70
     0
  0
APPID
  2
GENIUS_GENBH_13
 70
     0
  0
APPID
  2
GENIUS_GENOBJ-NBEHI-BHF_13
 70
     0
  0
APPID
  2
GENIUS_GENOBJ-NBEHI-BHB_13
 70
     0
  0
APPID
  2
GENIUS_GENOBJ-F-DESC_13
 70
     0
  0
APPID
  2
GENIUS_GEFDESC_14
 70
     0
  0
APPID
  2
GENIUS_GENOBJ-F-PART_13
 70
     0
  0
APPID
  2
GENIUS_GEFSTDP_13
 70
     0
  0
APPID
  2
GENIUS_GEFPARTINS_13
 70
     0
  0
APPID
  2
GENIUS_GENTRA_14
 70
     0
  0
APPID
  2
GENIUS_GENINF13_13
 70
     0
  0
APPID
  2
GENIUS_GENOBJ-N-INFOPT_13
 70
     0
  0
APPID
  2
GENIUS_GENOBJ-N-RSSYM_13
 70
     0
  0
APPID
  2
GENIUS_GENSYMENT_13
 70
     0
  0
APPID
  2
GENIUS_GENSCSYM_13
 70
     0
  0
APPID
  2
GENIUS_GEFINFNAM_13
 70
     0
  0
APPID
  2
GENIUS_GENSCREG_15
 70
     0
  0
APPID
  2
GENIUS_GENOBJ-N-CEN_13
 70
     0
  0
APPID
  2
GENIUS_GENOBJ-N-CRS_13
 70
     0
  0
APPID
  2
GENIUS_GENOBJ-N-CRC_13
 70
     0
  0
APPID
  2
GENIUS_GENCRC_14
 70
     0
  0
APPID
  2
GEVID942827039
 70
     0
  0
APPID
  2
GEVID942827040
 70
     0
  0
APPID
  2
GEVID942827041
 70
     0
  0
APPID
  2
GENIUS_GENOBJ-F-SCPASSM_13
 70
     0
  0
APPID
  2
GENIUS_GENDIMSH_14
 70
     0
  0
APPID
  2
GENIUS_GENFIL_13
 70
     0
  0
APPID
  2
GENIUS_GENOBJ-N-CHA_13
 70
     0
  0
APPID
  2
GENIUS_GENOBJ-N-FIL_13
 70
     0
  0
APPID
  2
GEVID942827042
 70
     0
  0
APPID
  2
GEVID946020473
 70
     0
  0
APPID
  2
GEVID946020474
 70
     0
  0
APPID
  2
GEVID946020475
 70
     0
  0
APPID
  2
GENIUS_GENOBJ-N-HTC_13
 70
     0
  0
APPID
  2
GENIUS_GENHATCH_13
 70
     0
  0
APPID
  2
GEVID948854295
 70
     0
  0
APPID
  2
GEVID939402019
 70
     0
  0
APPID
  2
GEVID952919491
 70
     0
  0
APPID
  2
GEVID952919492
 70
     0
  0
APPID
  2
GENIUS_GEFWELD_13
 70
     0
  0
APPID
  2
GENIUS_GENOBJ-F-WELS_13
 70
     0
  0
APPID
  2
GEVID952919493
 70
     0
  0
APPID
  2
GENIUS_GENOBJ-N-RSBK_13
 70
     0
  0
APPID
  2
GENIUS_GENOBJ-N-LIB_13
 70
     0
  0
APPID
  2
GENIUS_GENSCALE_13
 70
     0
  0
APPID
  2
GEVID986376691
 70
     0
  0
APPID
  2
ACATTRIBSERVICES
 70
     0
  0
APPID
  2
DCO15
 70
     0
  0
APPID
  2
GEVID1088155249
 70
     0
  0
APPID
  2
ACADM_DIM_EDIT
 70
     0
  0
APPID
  2
AMDT_DM_ADJ
 70
     0
  0
APPID
  2
ACAD_MLEADERVER
 70
     0
  0
APPID
  2
ACAD_DSTYLE_DIMBREAK
 70
     0
  0
APPID
  2
ACAD_DSTYLE_DIMJAG
 70
     0
  0
APPID
  2
ACAD_NAV_VCDISPLAY
 70
     0
  0
APPID
  2
ACADANNOPO
 70
     0
  0
APPID
  2
ACAD_EXEMPT_FROM_CAD_STANDARDS
 70
     0
  0
ENDTAB
  0
TABLE
  2
DIMSTYLE
 70
    16
  0
DIMSTYLE
  2
STANDARD
 70
     0
  3

  4

  5

  6

  7

 40
1.0
 41
0.18
 42
0.0625
 43
0.38
 44
0.18
 45
0.0
 46
0.0
 47
0.0
 48
0.0
140
0.18
141
0.09
142
0.0
143
25.399999999999999
144
1.0
145
0.0
146
1.0
147
0.09
 71
     0
 72
     0
 73
     1
 74
     1
 75
     0
 76
     0
 77
     0
 78
     0
170
     0
171
     2
172
     0
173
     0
174
     0
175
     0
176
     0
177
     0
178
     0
  0
DIMSTYLE
  2
AM_JIS
 70
     0
  3

  4
"
  5

  6

  7

 40
1.0
 41
2.5
 42
1.0
 43
7.0
 44
1.0
 45
0.0
 46
0.0
 47
0.1
 48
0.1000000001
140
2.5
141
0.0
142
0.0
143
0.0393701
144
1.0
145
0.0
146
0.71
147
1.0
 71
     0
 72
     0
 73
     0
 74
     0
 75
     0
 76
     0
 77
     3
 78
     8
170
     0
171
     2
172
     1
173
     0
174
     0
175
     0
176
   256
177
   256
178
     4
  0
DIMSTYLE
  2
AM_JIS$3
 70
     0
  3

  4
"
  5

  6

  7

 40
1.0
 41
2.5
 42
1.0
 43
7.0
 44
1.0
 45
0.0
 46
0.0
 47
0.1
 48
0.1000000001
140
2.5
141
0.0
142
0.0
143
0.0393701
144
1.0
145
0.0
146
0.71
147
1.0
 71
     0
 72
     0
 73
     0
 74
     1
 75
     0
 76
     0
 77
     3
 78
     8
170
     0
171
     2
172
     0
173
     0
174
     0
175
     0
176
   256
177
   256
178
     4
  0
DIMSTYLE
  2
AM_JIS$4
 70
     0
  3

  4
"
  5

  6

  7

 40
1.0
 41
2.5
 42
1.0
 43
7.0
 44
1.0
 45
0.0
 46
0.0
 47
0.1
 48
0.1000000001
140
2.5
141
0.0
142
0.0
143
0.0393701
144
1.0
145
0.0
146
0.71
147
1.0
 71
     0
 72
     0
 73
     0
 74
     0
 75
     0
 76
     0
 77
     3
 78
     8
170
     0
171
     2
172
     0
173
     0
174
     0
175
     0
176
   256
177
   256
178
     4
  0
DIMSTYLE
  2
AM_JIS$6
 70
     0
  3

  4
"
  5

  6

  7

 40
1.0
 41
2.5
 42
1.0
 43
7.0
 44
1.0
 45
0.0
 46
0.0
 47
0.1
 48
0.1000000001
140
2.5
141
0.0
142
0.0
143
0.0393701
144
1.0
145
0.0
146
0.71
147
1.0
 71
     0
 72
     0
 73
     0
 74
     0
 75
     0
 76
     0
 77
     0
 78
     8
170
     0
171
     2
172
     1
173
     0
174
     0
175
     0
176
   256
177
   256
178
     4
  0
DIMSTYLE
  2
AM_JIS$7
 70
     0
  3

  4
"
  5

  6

  7

 40
1.0
 41
2.5
 42
1.0
 43
7.0
 44
1.0
 45
0.0
 46
0.0
 47
0.1
 48
0.1000000001
140
2.5
141
0.0
142
0.0
143
0.0393701
144
1.0
145
0.0
146
0.71
147
1.0
 71
     0
 72
     0
 73
     0
 74
     0
 75
     0
 76
     0
 77
     3
 78
     8
170
     0
171
     2
172
     1
173
     0
174
     0
175
     0
176
   256
177
   256
178
     4
  0
DIMSTYLE
  2
AM_JIS$SF
 70
     0
  3

  4
"
  5
OPEN30
  6
OPEN30
  7
OPEN30
 40
1.0
 41
2.5
 42
1.0
 43
10.0
 44
1.0
 45
0.0
 46
0.0
 47
0.1
 48
0.1
140
3.5
141
0.0
142
0.0
143
0.0393701
144
1.0
145
0.0
146
0.71
147
1.5
 71
     0
 72
     0
 73
     0
 74
     0
 75
     1
 76
     1
 77
     3
 78
     8
170
     0
171
     2
172
     1
173
     0
174
     0
175
     0
176
   256
177
   256
178
     4
  0
DIMSTYLE
  2
AM_JIS$SH
 70
     0
  3

  4
"
  5

  6
NONE
  7

 40
1.0
 41
2.5
 42
1.0
 43
10.0
 44
1.0
 45
0.0
 46
0.0
 47
0.1
 48
0.1
140
3.5
141
0.0
142
0.0
143
0.0393701
144
1.0
145
0.0
146
0.71
147
1.5
 71
     0
 72
     0
 73
     0
 74
     0
 75
     1
 76
     0
 77
     3
 78
     8
170
     0
171
     2
172
     1
173
     1
174
     0
175
     0
176
   256
177
   256
178
     4
  0
DIMSTYLE
  2
AM_ISO
 70
     0
  3

  4
"
  5

  6

  7

 40
1.0
 41
2.5
 42
1.0
 43
10.0
 44
1.0
 45
0.0
 46
0.0
 47
0.0
 48
0.000000001
140
3.0
141
0.0
142
0.0
143
0.0393701
144
1.0
145
0.0
146
0.71
147
1.299999999999998
 71
     1
 72
     0
 73
     0
 74
     0
 75
     0
 76
     0
 77
     1
 78
     8
170
     0
171
     2
172
     1
173
     0
174
     0
175
     0
176
   256
177
   256
178
     4
  0
DIMSTYLE
  2
AM_ISO$3
 70
     0
  3

  4
"
  5

  6

  7

 40
1.0
 41
2.5
 42
1.0
 43
10.0
 44
1.0
 45
0.0
 46
0.0
 47
0.0
 48
0.000000001
140
2.5
141
0.0
142
0.0
143
0.0393701
144
1.0
145
0.0
146
0.71
147
1.299999999999998
 71
     1
 72
     0
 73
     0
 74
     1
 75
     0
 76
     0
 77
     1
 78
     8
170
     0
171
     2
172
     0
173
     0
174
     0
175
     0
176
   256
177
   256
178
     4
  0
DIMSTYLE
  2
AM_ISO$4
 70
     0
  3

  4
"
  5

  6

  7

 40
1.0
 41
2.5
 42
1.0
 43
10.0
 44
1.0
 45
0.0
 46
0.0
 47
0.0
 48
0.000000001
140
2.5
141
0.0
142
0.0
143
0.0393701
144
1.0
145
0.0
146
0.71
147
1.299999999999998
 71
     1
 72
     0
 73
     0
 74
     1
 75
     0
 76
     0
 77
     1
 78
     8
170
     0
171
     2
172
     0
173
     0
174
     0
175
     0
176
   256
177
   256
178
     4
  0
DIMSTYLE
  2
AM_ISO$6
 70
     0
  3

  4
"
  5

  6

  7

 40
1.0
 41
2.5
 42
1.0
 43
10.0
 44
1.0
 45
0.0
 46
0.0
 47
0.0
 48
0.000000001
140
2.5
141
0.0
142
0.0
143
0.0393701
144
1.0
145
0.0
146
0.71
147
1.299999999999998
 71
     1
 72
     0
 73
     0
 74
     0
 75
     0
 76
     0
 77
     0
 78
     8
170
     0
171
     2
172
     1
173
     0
174
     0
175
     0
176
   256
177
   256
178
     4
  0
DIMSTYLE
  2
AM_ISO$7
 70
     0
  3

  4
"
  5

  6

  7

 40
1.0
 41
2.5
 42
1.0
 43
10.0
 44
1.0
 45
0.0
 46
0.0
 47
0.0
 48
0.000000001
140
2.5
141
0.0
142
0.0
143
0.0393701
144
1.0
145
0.0
146
0.71
147
1.299999999999998
 71
     1
 72
     0
 73
     0
 74
     0
 75
     0
 76
     0
 77
     1
 78
     8
170
     0
171
     2
172
     1
173
     0
174
     0
175
     0
176
   256
177
   256
178
     4
  0
DIMSTYLE
  2
AM_ISO$SF
 70
     0
  3

  4
"
  5

  6

  7

 40
1.0
 41
2.5
 42
1.0
 43
10.0
 44
1.0
 45
0.0
 46
0.0
 47
0.1
 48
0.1
140
3.5
141
0.0
142
0.0
143
0.0393701
144
1.0
145
0.0
146
0.71
147
1.5
 71
     0
 72
     0
 73
     0
 74
     0
 75
     1
 76
     1
 77
     1
 78
     8
170
     0
171
     2
172
     1
173
     0
174
     0
175
     0
176
   256
177
   256
178
     4
  0
DIMSTYLE
  2
AM_ISO$SH
 70
     0
  3

  4
"
  5

  6
GENAXEH
  7

 40
1.0
 41
2.5
 42
1.0
 43
10.0
 44
1.0
 45
0.0
 46
0.0
 47
0.1
 48
0.1
140
3.5
141
0.0
142
0.0
143
0.0393701
144
2.0
145
0.0
146
0.71
147
1.5
 71
     0
 72
     0
 73
     0
 74
     0
 75
     1
 76
     1
 77
     1
 78
     8
170
     0
171
     2
172
     1
173
     1
174
     0
175
     0
176
   256
177
   256
178
     4
  0
DIMSTYLE
  2
AM_JIS$0
 70
     0
  3

  4
"
  5

  6

  7

 40
1.0
 41
2.5
 42
1.0
 43
7.0
 44
1.0
 45
0.0
 46
0.0
 47
0.1
 48
0.1000000001
140
2.5
141
0.0
142
0.0
143
0.0393701
144
1.0
145
0.0
146
0.71
147
1.0
 71
     0
 72
     0
 73
     0
 74
     0
 75
     0
 76
     0
 77
     3
 78
     8
170
     0
171
     2
172
     1
173
     0
174
     0
175
     0
176
   256
177
   256
178
     4
  0
ENDTAB
  0
ENDSEC
  0
SECTION
  2
BLOCKS
  0
BLOCK
  8
0
  2
$MODEL_SPACE
 70
     0
 10
0.0
 20
0.0
 30
0.0
  3
$MODEL_SPACE
  1

  0
ENDBLK
  5
1A
  8
0
  0
BLOCK
 67
     1
  8
0
  2
$PAPER_SPACE
 70
     0
 10
0.0
 20
0.0
 30
0.0
  3
$PAPER_SPACE
  1

  0
ENDBLK
  5
17
 67
     1
  8
0
  0
BLOCK
  8
0
  2
_OPEN30
 70
     0
 10
0.0
 20
0.0
 30
0.0
  3
_OPEN30
  1

  0
LINE
  5
21C5
  8
0
 62
     0
 10
-1.0
 20
0.26794919
 30
0.0
 11
0.0
 21
0.0
 31
0.0
  0
LINE
  5
21C6
  8
0
 62
     0
 10
0.0
 20
0.0
 30
0.0
 11
-1.0
 21
-0.26794919
 31
0.0
  0
LINE
  5
21C7
  8
0
 62
     0
 10
0.0
 20
0.0
 30
0.0
 11
-1.0
 21
0.0
 31
0.0
  0
ENDBLK
  5
21C9
  8
0
  0
BLOCK
  8
0
  2
GENAXEH
 70
     0
 10
0.0
 20
0.0
 30
0.0
  3
GENAXEH
  1

  0
LINE
  5
21D0
  8
0
 10
-1.0
 20
0.0
 30
0.0
 11
1.0
 21
0.0
 31
0.0
  0
ENDBLK
  5
21D2
  8
0
  0
BLOCK
  8
0
  2
_NONE
 70
     0
 10
0.0
 20
0.0
 30
0.0
  3
_NONE
  1

  0
ENDBLK
  5
8193
  8
0
  0
BLOCK
  8
0
  2
NEW_BLOCK
 70
     0
 10
0.0
 20
0.0
 30
0.0
  3
NEW_BLOCK
  1

  0
LINE
  5
15FAB
  8
AM_0
 10
-0.899999999999977
 20
37.800000000000011
 30
0.0
 11
-0.899999999999977
 21
28.800000000000011
 31
0.0
  0
LINE
  5
15FAC
  8
AM_0
 10
-6.2999999999999527
 20
27.900000000000009
 30
0.0
 11
-6.2999999999999527
 21
38.700000000000031
 31
0.0
  0
LINE
  5
15FAD
  8
AM_0
 10
-0.899999999999977
 20
28.800000000000011
 30
0.0
 11
-6.2999999999999527
 21
28.800000000000011
 31
0.0
  0
LINE
  5
15FAE
  8
AM_0
 10
0.0
 20
27.900000000000009
 30
0.0
 11
-6.2999999999999527
 21
27.900000000000009
 31
0.0
  0
LINE
  5
15FAF
  8
AM_0
 10
-6.2999999999999527
 20
37.800000000000011
 30
0.0
 11
-0.899999999999977
 21
37.800000000000011
 31
0.0
  0
LINE
  5
15FB0
  8
AM_0
 10
0.0
 20
38.700000000000031
 30
0.0
 11
-6.2999999999999527
 21
38.700000000000031
 31
0.0
  0
LINE
  5
15FB1
  8
AM_0
 10
-6.2999999999999527
 20
-27.900000000000009
 30
0.0
 11
-6.2999999999999527
 21
-38.700000000000031
 31
0.0
  0
LINE
  5
15FB2
  8
AM_0
 10
-0.899999999999977
 20
-37.800000000000011
 30
0.0
 11
-0.899999999999977
 21
-28.800000000000011
 31
0.0
  0
LINE
  5
15FB3
  8
AM_0
 10
0.0
 20
-38.700000000000031
 30
0.0
 11
-6.2999999999999527
 21
-38.700000000000031
 31
0.0
  0
LINE
  5
15FB4
  8
AM_0
 10
-6.2999999999999527
 20
-37.800000000000011
 30
0.0
 11
-0.899999999999977
 21
-37.800000000000011
 31
0.0
  0
LINE
  5
15FB5
  8
AM_0
 10
0.0
 20
-27.900000000000009
 30
0.0
 11
-6.2999999999999527
 21
-27.900000000000009
 31
0.0
  0
LINE
  5
15FB6
  8
AM_0
 10
-0.899999999999977
 20
-28.800000000000011
 30
0.0
 11
-6.2999999999999527
 21
-28.800000000000011
 31
0.0
  0
ENDBLK
  5
15FB8
  8
0
  0
ENDSEC
  0
SECTION
  2
ENTITIES
  0
POINT
  5
1B94
  8
0
 10
0.0
 20
0.0
 30
0.0
1001
GENIUS_GENODEF_13
1002
{
1000
HIER
1070
     1
1002
}
1002
{
1000
MANEDIT
1070
     0
1002
}
1002
{
1000
NOSEL
1070
     0
1002
}
1002
{
1000
BEHIND
1070
     0
1002
}
1002
{
1000
REACTOR
1002
}
1001
GENIUS_GENOBJ-N-SDF_13
1002
{
1000
OWNER
1000
GEN
1002
}
1001
GENIUS_GENOENT_13
1002
{
1000
MYREF
1005
1B94
1002
}
1002
{
1000
GRP
1005
0
1002
}
1001
GENIUS_GENOLIS_13
1002
{
1000
ENT
1005
89
1002
}
  0
LINE
  5
154A5
  8
ﾁｭｳｼﾝｾﾝ1
 10
753.14644097236055
 20
274.03176871639118
 30
0.0
 11
370.15250532878218
 21
274.0317687163909
 31
0.0
  0
CIRCLE
  5
154A9
  8
AM_0
 10
438.15250720632821
 20
274.03176871639101
 30
0.0
 40
22.50000067055224
  0
LINE
  5
155F9
  8
AM_0
 10
630.1525409723605
 20
301.03173871639098
 30
0.0
 11
630.1525409723605
 21
306.40173871639098
 31
0.0
  0
LINE
  5
155FA
  8
AM_0
 10
615.15254097236061
 20
301.03173871639098
 30
0.0
 11
615.15254097236061
 21
306.40173871639098
 31
0.0
  0
LINE
  5
155FC
  8
AM_0
 10
593.65254097236061
 20
213.531738716391
 30
0.0
 11
593.65254122860824
 21
337.03173901669868
 31
0.0
  0
LINE
  5
155FD
  8
AM_0
 10
739.65254097236027
 20
331.45171871639099
 30
0.0
 11
739.65254097236027
 21
216.60171871639099
 31
0.0
  0
LINE
  5
155FE
  8
AM_0
 10
745.6525409723605
 20
322.05132871639103
 30
0.0
 11
745.6525409723605
 21
279.03173871639109
 31
0.0
  0
LINE
  5
15606
  8
AM_0
 10
584.6525409723605
 20
210.03177326427431
 30
0.0
 11
584.6525409723605
 21
338.03176326427388
 31
0.0
  0
LINE
  5
15608
  8
AM_0
 10
631.15254097236061
 20
300.03173871639098
 30
0.0
 11
732.10252097236071
 21
300.03173871639098
 31
0.0
  0
LINE
  5
15609
  8
AM_0
 10
596.72775488583522
 20
298.03173871639109
 30
0.0
 11
732.10252097236071
 21
298.03173871639098
 31
0.0
  0
LINE
  5
1560A
  8
AM_0
 10
733.19252097236074
 20
297.60171871639102
 30
0.0
 11
595.80778482380481
 21
297.60171871639102
 31
0.0
  0
LINE
  5
1560B
  8
AM_0
 10
733.19252097236074
 20
300.52172871639112
 30
0.0
 11
630.29237250054825
 21
300.52172871639112
 31
0.0
  0
LINE
  5
1560C
  8
AM_0
 10
733.32253097236071
 20
287.72173871639092
 30
0.0
 11
660.92251430264491
 21
287.72173871639092
 31
0.0
  0
LINE
  5
1560D
  8
AM_0
 10
662.21250877791385
 20
288.03173871639092
 30
0.0
 11
732.10252097236071
 21
288.03173871639092
 31
0.0
  0
LINE
  5
1560E
  8
AM_0
 10
662.21250877791385
 20
290.03173871639098
 30
0.0
 11
732.10252097236071
 21
290.03173871639098
 31
0.0
  0
LINE
  5
1560F
  8
AM_0
 10
733.32253097236071
 20
290.38171871639122
 30
0.0
 11
660.92251430264491
 21
290.38171871639122
 31
0.0
  0
LINE
  5
15610
  8
AM_0
 10
692.6525409723605
 20
227.68172871639101
 30
0.0
 11
729.6525409723605
 21
229.8277305558212
 31
0.0
  0
LINE
  5
15612
  8
AM_0
 10
693.65254097236027
 20
227.69179871639091
 30
0.0
 11
599.83253097236025
 21
227.69179871639091
 31
0.0
  0
LINE
  5
15613
  8
AM_0
 10
631.14158668553307
 20
248.031738716391
 30
0.0
 11
723.10252097236071
 21
248.031738716391
 31
0.0
  0
LINE
  5
15614
  8
AM_0
 10
596.72775488583522
 20
250.031738716391
 30
0.0
 11
723.10252097236071
 21
250.031738716391
 31
0.0
  0
LINE
  5
15615
  8
AM_0
 10
724.19252097236028
 20
247.5417187163909
 30
0.0
 11
630.2923191442253
 21
247.54171871639099
 31
0.0
  0
LINE
  5
15616
  8
AM_0
 10
724.19252097236028
 20
250.471738716391
 30
0.0
 11
595.63775493819526
 21
250.471738716391
 31
0.0
  0
LINE
  5
15617
  8
AM_0
 10
723.97252097236071
 20
237.31173871639109
 30
0.0
 11
659.6525409723605
 21
237.31173871639109
 31
0.0
  0
LINE
  5
15618
  8
AM_0
 10
714.65254097236027
 20
208.1117287163909
 30
0.0
 11
673.65254097236073
 21
208.11172871639079
 31
0.0
  0
LINE
  5
15619
  8
AM_0
 10
714.65254097236027
 20
208.79171871639099
 30
0.0
 11
673.65254097236073
 21
208.79171871639099
 31
0.0
  0
LINE
  5
1561A
  8
AM_0
 10
714.65254097236027
 20
210.14172871639099
 30
0.0
 11
673.65254097236073
 21
210.14172871639099
 31
0.0
  0
LINE
  5
1561B
  8
AM_0
 10
714.65254097236027
 20
212.17171871639101
 30
0.0
 11
659.6525409723605
 21
212.1717187163911
 31
0.0
  0
LINE
  5
1561C
  8
AM_0
 10
659.6525409723605
 20
238.031738716391
 30
0.0
 11
723.10252097236071
 21
238.031738716391
 31
0.0
  0
LINE
  5
1561D
  8
AM_0
 10
733.39253097236053
 20
277.77172871639101
 30
0.0
 11
660.92251430264491
 21
277.77172871639101
 31
0.0
  0
LINE
  5
1561E
  8
AM_0
 10
662.21250877791385
 20
278.03173871639098
 30
0.0
 11
732.10252097236071
 21
278.03173871639098
 31
0.0
  0
LINE
  5
1561F
  8
AM_0
 10
662.21250877791385
 20
280.03173871639098
 30
0.0
 11
732.10252097236071
 21
280.03173871639098
 31
0.0
  0
LINE
  5
15620
  8
AM_0
 10
733.39253097236053
 20
280.31173871639112
 30
0.0
 11
660.92251430264491
 21
280.31173871639112
 31
0.0
  0
LINE
  5
15621
  8
AM_0
 10
662.21078102874765
 20
258.03173871639098
 30
0.0
 11
732.09251097236051
 21
258.03173871639098
 31
0.0
  0
LINE
  5
15622
  8
AM_0
 10
662.20985752898105
 20
260.03173871639098
 30
0.0
 11
732.09251097236051
 21
260.03173871639098
 31
0.0
  0
LINE
  5
15623
  8
AM_0
 10
662.21251218335055
 20
268.03173871639098
 30
0.0
 11
732.09251097236051
 21
268.03173871639098
 31
0.0
  0
LINE
  5
15624
  8
AM_0
 10
662.21251218335215
 20
270.03173871639098
 30
0.0
 11
732.09251097236051
 21
270.03173871639098
 31
0.0
  0
LINE
  5
15625
  8
AM_0
 10
723.97252097236071
 20
240.661748716391
 30
0.0
 11
659.6525409723605
 21
240.661748716391
 31
0.0
  0
LINE
  5
15626
  8
AM_0
 10
733.32253097236071
 20
257.691738716391
 30
0.0
 11
661.11732770482365
 21
257.69173871639111
 31
0.0
  0
LINE
  5
15627
  8
AM_0
 10
733.32253097236071
 20
260.35171871639102
 30
0.0
 11
661.11732770482365
 21
260.35171871639102
 31
0.0
  0
LINE
  5
15628
  8
AM_0
 10
733.38252097236045
 20
267.76171871639099
 30
0.0
 11
661.11732770482365
 21
267.76171871639099
 31
0.0
  0
LINE
  5
15629
  8
AM_0
 10
733.38252097236045
 20
270.29171871639102
 30
0.0
 11
661.11732770482365
 21
270.29171871639102
 31
0.0
  0
LINE
  5
1562A
  8
AM_0
 10
659.6525409723605
 20
240.031738716391
 30
0.0
 11
723.10252097236071
 21
240.031738716391
 31
0.0
  0
LINE
  5
1566B
  8
AM_0
 10
597.89253097236065
 20
213.67179871639109
 30
0.0
 11
595.15672097236063
 21
223.871798716391
 31
0.0
  0
LINE
  5
1566C
  8
AM_0
 10
659.6525409723605
 20
212.17180871639101
 30
0.0
 11
599.83253097236025
 21
212.17180871639101
 31
0.0
  0
LINE
  5
1566D
  8
AM_0
 10
625.84854097236075
 20
174.03176871639101
 30
0.0
 11
661.45654097236047
 21
174.03176871639101
 31
0.0
  0
LINE
  5
1566E
  8
AM_0
 10
612.15254097236073
 20
193.53176871639101
 30
0.0
 11
669.65254097236073
 21
193.53176871639101
 31
0.0
  0
LINE
  5
1566F
  8
AM_0
 10
614.65254097236073
 20
177.03176871639101
 30
0.0
 11
689.65254097236073
 21
177.0317687163909
 31
0.0
  0
LINE
  5
15670
  8
AM_0
 10
692.15254097236061
 20
197.0317687163909
 30
0.0
 11
612.15254097236073
 21
197.03176871639101
 31
0.0
  0
LINE
  5
15671
  8
AM_0
 10
612.15254097236073
 20
200.5317687163909
 30
0.0
 11
692.15254097236061
 21
200.5317687163909
 31
0.0
  0
ARC
  5
15672
  8
AM_0
 10
592.6525409723605
 20
211.03173871639109
 30
0.0
 40
0.9999999999999998
 50
270.00000299999761
 51
0.000010000000991
  0
LINE
  5
15673
  8
0
  6
CONTINUOUS
 62
     7
 10
593.65260256695922
 20
210.0317377811734
 30
0.0
 11
584.6525409723605
 21
210.0317377811734
 31
0.0
  0
LINE
  5
15677
  8
AM_0
 10
584.6525409723605
 20
210.03174326427401
 30
0.0
 11
584.6525409723605
 21
214.03174326427421
 31
0.0
  0
LINE
  5
15678
  8
AM_0
 10
613.65254097236073
 20
193.53176871639101
 30
0.0
 11
613.65254097236073
 21
178.03176871639101
 31
0.0
  0
ARC
  5
15679
  8
AM_0
 10
614.65254097236073
 20
178.0317687163909
 30
0.0
 40
1.0
 50
180.0
 51
270.0
  0
LINE
  5
1567A
  8
AM_0
 10
620.65254097236073
 20
177.03176871639101
 30
0.0
 11
625.84854097236075
 21
174.03176871639101
 31
0.0
  0
LINE
  5
1567B
  8
AM_0
 10
613.6525409723605
 20
205.0317687163909
 30
0.0
 11
601.35181967611231
 21
205.0317687163909
 31
0.0
  0
ARC
  5
1567C
  8
AM_0
 10
599.84218097236055
 20
214.18879871639101
 30
0.0
 40
2.0170177999999992
 50
194.85160000000491
 51
269.7262999999972
  0
LINE
  5
1567D
  8
AM_0
 10
593.65254097236061
 20
211.03173871639109
 30
0.0
 11
593.65254097236061
 21
213.531738716391
 31
0.0
  0
LINE
  5
1567E
  8
AM_0
 10
593.65254097236061
 20
210.03173876875121
 30
0.0
 11
601.35181967611231
 21
205.0317687163909
 31
0.0
  0
LINE
  5
1567F
  8
AM_0
 10
597.93254097236058
 20
213.53180871639111
 30
0.0
 11
593.65254097236073
 21
213.53180871639111
 31
0.0
  0
LINE
  5
15680
  8
AM_0
 10
613.6525409723605
 20
200.5317687163909
 30
0.0
 11
613.65254097236073
 21
205.0317687163909
 31
0.0
  0
LINE
  5
15681
  8
AM_0
 10
612.15254097236073
 20
200.5317687163909
 30
0.0
 11
612.15254097236073
 21
193.53176871639101
 31
0.0
  0
ARC
  5
15682
  8
AM_0
 10
688.65254097236073
 20
192.5317687163911
 30
0.0
 40
1.0
 50
89.999999999999986
 51
180.0
  0
LINE
  5
15683
  8
AM_0
 10
690.65254097236073
 20
193.53176871639101
 30
0.0
 11
690.65254097236073
 21
178.03176871639101
 31
0.0
  0
LINE
  5
15684
  8
AM_0
 10
686.65254097236073
 20
197.0317687163909
 30
0.0
 11
686.65254097236073
 21
189.5317687163909
 31
0.0
  0
LINE
  5
15685
  8
AM_0
 10
692.15254097236061
 20
200.5317687163909
 30
0.0
 11
692.15254097236061
 21
181.03176871639101
 31
0.0
  0
ARC
  5
15686
  8
AM_0
 10
679.15254097236073
 20
189.5317687163909
 30
0.0
 40
3.9999999999999978
 50
180.0
 51
0.0
  0
ARC
  5
15687
  8
AM_0
 10
669.65254097236073
 20
192.5317687163911
 30
0.0
 40
1.0
 50
0.0
 51
89.999999999999986
  0
LINE
  5
15688
  8
AM_0
 10
683.15254097236073
 20
197.0317687163909
 30
0.0
 11
683.15254097236073
 21
189.5317687163909
 31
0.0
  0
LINE
  5
15689
  8
AM_0
 10
671.65254097236073
 20
189.5317687163909
 30
0.0
 11
671.65254097236073
 21
197.0317687163909
 31
0.0
  0
LINE
  5
1568A
  8
AM_0
 10
675.15254097236073
 20
197.0317687163909
 30
0.0
 11
675.15254097236073
 21
189.5317687163909
 31
0.0
  0
ARC
  5
1568B
  8
AM_0
 10
679.15254097236073
 20
189.5317687163909
 30
0.0
 40
7.5000000000000018
 50
180.0
 51
0.0
  0
ARC
  5
1568C
  8
AM_0
 10
678.15254097236073
 20
188.53176871639101
 30
0.0
 40
7.4999999999999956
 50
180.0
 51
270.0
  0
LINE
  5
1568D
  8
AM_0
 10
661.45654097236047
 20
174.03176871639101
 30
0.0
 11
666.64531648256389
 21
177.0317687163909
 31
0.0
  0
LINE
  5
1568E
  8
AM_0
 10
670.65254097236073
 20
188.53176871639101
 30
0.0
 11
670.65254097236073
 21
192.5317687163911
 31
0.0
  0
ARC
  5
1568F
  8
AM_0
 10
680.15254097236073
 20
188.53176871639101
 30
0.0
 40
7.499999999999992
 50
270.0
 51
0.0
  0
LINE
  5
15690
  8
AM_0
 10
678.15254097236073
 20
181.03176871639101
 30
0.0
 11
680.15254097236073
 21
181.03176871639101
 31
0.0
  0
ARC
  5
15691
  8
AM_0
 10
689.65254097236073
 20
178.03176871639101
 30
0.0
 40
1.0
 50
270.0
 51
0.0
  0
LINE
  5
15692
  8
AM_0
 10
692.15254097236061
 20
181.03176871639101
 30
0.0
 11
690.65254097236073
 21
181.03176871639101
 31
0.0
  0
LINE
  5
15693
  8
AM_0
 10
687.65254097236073
 20
192.5317687163911
 30
0.0
 11
687.65254097236073
 21
188.53176871639101
 31
0.0
  0
LINE
  5
15694
  8
AM_0
 10
673.65254097236061
 20
200.53176871639079
 30
0.0
 11
673.65254097236073
 21
212.1718087163907
 31
0.0
  0
LINE
  5
15695
  8
AM_0
 10
692.15254097236061
 20
193.53176871639101
 30
0.0
 11
688.65254097236073
 21
193.53176871639101
 31
0.0
  0
LINE
  5
15696
  8
AM_0
 10
615.15254097236061
 20
240.6617987163911
 30
0.0
 11
630.1525409723605
 21
240.6617987163911
 31
0.0
  0
LINE
  5
15697
  8
AM_0
 10
615.15254097236061
 20
240.6617987163909
 30
0.0
 11
630.1525409723605
 21
240.6617987163909
 31
0.0
  0
LINE
  5
15698
  8
AM_0
 10
599.83253097236025
 20
240.03179871639099
 30
0.0
 11
659.6525409723605
 21
240.03179871639099
 31
0.0
  0
LINE
  5
15699
  8
AM_0
 10
599.83253097236025
 20
238.03179871639091
 30
0.0
 11
659.6525409723605
 21
238.03179871639091
 31
0.0
  0
LINE
  5
1569A
  8
AM_0
 10
659.6525409723605
 20
237.30181871639101
 30
0.0
 11
599.83253097236025
 21
237.30181871639101
 31
0.0
  0
ARC
  5
1569B
  8
AM_0
 10
592.64412097236061
 20
223.000208716391
 30
0.0
 40
1.008444499999998
 50
270.4777999999996
 51
350.45392999999598
  0
LINE
  5
1569E
  8
0
  6
CONTINUOUS
 62
     7
 10
592.6525409723605
 20
221.9918074436431
 30
0.0
 11
584.6525409723605
 21
221.9918074436431
 31
0.0
  0
LINE
  5
156A1
  8
0
  6
CONTINUOUS
 62
     7
 10
592.6525409723605
 20
236.89181744364319
 30
0.0
 11
584.6525409723605
 21
236.89181744364319
 31
0.0
  0
LINE
  5
156A2
  8
AM_0
 10
593.65254097236061
 20
231.1718087163909
 30
0.0
 11
593.65254097236061
 21
223.57180871639099
 31
0.0
  0
LINE
  5
156A3
  8
AM_0
 10
594.65254097236061
 20
231.1718087163909
 30
0.0
 11
594.65254097236061
 21
223.57180871639099
 31
0.0
  0
LINE
  5
156A4
  8
AM_0
 10
597.25252097236046
 20
229.1718087163911
 30
0.0
 11
597.25252097236046
 21
225.57180871639099
 31
0.0
  0
ARC
  5
156A5
  8
AM_0
 10
595.55254097236048
 20
225.57180871639099
 30
0.0
 40
1.7000007999999991
 50
270.000020000002
 51
359.999989999999
  0
LINE
  5
156A6
  8
AM_0
 10
594.65254097236061
 20
223.57180871639099
 30
0.0
 11
593.65254097236061
 21
223.57180871639099
 31
0.0
  0
LINE
  5
156A7
  8
AM_0
 10
594.65254097236061
 20
223.871808716391
 30
0.0
 11
595.55254097236048
 21
223.871808716391
 31
0.0
  0
LINE
  5
156A8
  8
AM_0
 10
599.83253097236025
 20
227.69179871639091
 30
0.0
 11
597.25252097236046
 21
227.69179871639091
 31
0.0
  0
ARC
  5
156A9
  8
AM_0
 10
595.55254097236048
 20
229.1718087163911
 30
0.0
 40
1.699996899999999
 50
0.0000199999954837
 51
89.999996999995773
  0
LINE
  5
156AA
  8
AM_0
 10
594.65254097236061
 20
231.1718087163909
 30
0.0
 11
593.65254097236061
 21
231.1718087163909
 31
0.0
  0
LINE
  5
156AB
  8
AM_0
 10
593.65254097236061
 20
228.14916871639099
 30
0.0
 11
594.65254097236061
 21
227.57183871639111
 31
0.0
  0
LINE
  5
156AC
  8
AM_0
 10
593.65254097236061
 20
227.14916871639099
 30
0.0
 11
594.65254097236061
 21
226.5718087163909
 31
0.0
  0
ARC
  5
156AD
  8
AM_0
 10
592.99168097236065
 20
226.20501871639101
 30
0.0
 40
1.4868058999999989
 50
14.282739999999089
 51
63.610220000000879
  0
LINE
  5
156AE
  8
AM_0
 10
594.65254097236061
 20
230.87179871639091
 30
0.0
 11
595.55254097236048
 21
230.87179871639091
 31
0.0
  0
LINE
  5
156AF
  8
AM_0
 10
615.01276280049547
 20
247.54171871639099
 30
0.0
 11
595.63883752771812
 21
247.54171871639099
 31
0.0
  0
LINE
  5
156B0
  8
AM_0
 10
596.72775488583522
 20
248.031738716391
 30
0.0
 11
614.16349525918531
 21
248.031738716391
 31
0.0
  0
LINE
  5
156B1
  8
AM_0
 10
599.83253097236025
 20
240.6617987163911
 30
0.0
 11
614.15254097236038
 21
240.6617987163911
 31
0.0
  0
ARC
  5
156B2
  8
AM_0
 10
599.31252097236052
 20
239.03179871639099
 30
0.0
 40
1.0000073999999981
 50
89.999996999995773
 51
270.0
  0
LINE
  5
156B3
  8
AM_0
 10
595.83253097236025
 20
240.6617987163911
 30
0.0
 11
599.83253097236025
 21
240.6617987163911
 31
0.0
  0
LINE
  5
156B4
  8
AM_0
 10
599.31252097236052
 20
238.03179871639091
 30
0.0
 11
599.83253097236025
 21
238.03179871639091
 31
0.0
  0
LINE
  5
156B5
  8
AM_0
 10
599.31252097236052
 20
240.03179871639099
 30
0.0
 11
599.83253097236025
 21
240.03179871639099
 31
0.0
  0
LINE
  5
156B6
  8
AM_0
 10
599.83253097236025
 20
237.30181871639101
 30
0.0
 11
593.65254102168046
 21
237.30181871639101
 31
0.0
  0
ARC
  5
156B7
  8
AM_0
 10
595.83864097236062
 20
238.98180871639099
 30
0.0
 40
1.680010999999999
 50
90.208030999999565
 51
269.79197000000192
  0
ARC
  5
156B8
  8
AM_0
 10
596.72775493819529
 20
249.03173871639109
 30
0.0
 40
1.0000031999999981
 50
89.999999999999986
 51
269.99999700000228
  0
ARC
  5
156B9
  8
AM_0
 10
595.63775493819526
 20
249.00671871639099
 30
0.0
 40
1.465000399999999
 50
89.999999999999986
 51
269.99999700000228
  0
ARC
  5
156BA
  8
AM_0
 10
614.15254097236038
 20
247.03179871639091
 30
0.0
 40
0.9999999999999998
 50
0.0
 51
89.999999999999986
1001
GENIUS_GENOBJ-N-FIL_13
1002
{
1000
OWNER
1000
GEN
1002
}
1001
GENIUS_GENODEF_13
1002
{
1000
HIER
1070
     0
1002
}
1002
{
1000
MANEDIT
1070
     0
1002
}
1002
{
1000
NOSEL
1070
     0
1002
}
1002
{
1000
BEHIND
1070
     0
1002
}
1002
{
1000
OTHER
1070
     0
1002
}
1002
{
1000
REACTOR
1002
}
  0
ARC
  5
156BB
  8
AM_0
 10
614.15254097236038
 20
241.66179871639099
 30
0.0
 40
0.9999999999999998
 50
270.0
 51
0.0
1001
GENIUS_GENOBJ-N-FIL_13
1002
{
1000
OWNER
1000
GEN
1002
}
1001
GENIUS_GENODEF_13
1002
{
1000
HIER
1070
     0
1002
}
1002
{
1000
MANEDIT
1070
     0
1002
}
1002
{
1000
NOSEL
1070
     0
1002
}
1002
{
1000
BEHIND
1070
     0
1002
}
1002
{
1000
OTHER
1070
     0
1002
}
1002
{
1000
REACTOR
1002
}
  0
LINE
  5
156BC
  8
AM_0
 10
615.15254097236061
 20
247.03179871639091
 30
0.0
 11
615.15254097236061
 21
241.66179871639099
 31
0.0
  0
CIRCLE
  5
156BD
  8
AM_0
 10
625.15254097236061
 20
245.5317687163911
 30
0.0
 40
0.75
  0
CIRCLE
  5
156BE
  8
AM_0
 10
620.15254097236061
 20
245.5317687163911
 30
0.0
 40
0.75
  0
LINE
  5
156BF
  8
AM_0
 10
615.01270944417308
 20
300.52172871639118
 30
0.0
 11
595.65402957797176
 21
300.52172871639118
 31
0.0
  0
LINE
  5
156C0
  8
AM_0
 10
596.72775488583522
 20
300.03173871639109
 30
0.0
 11
614.15254097236038
 21
300.03173871639109
 31
0.0
  0
ARC
  5
156C1
  8
AM_0
 10
596.72775493819529
 20
299.03179871639099
 30
0.0
 40
1.0000031999999981
 50
90.000002999997605
 51
270.0
  0
ARC
  5
156C2
  8
AM_0
 10
595.63775493819526
 20
299.05681871639098
 30
0.0
 40
1.465000399999999
 50
90.000002999997605
 51
270.0
  0
ARC
  5
156C3
  8
AM_0
 10
614.15254097236038
 20
301.03173871639098
 30
0.0
 40
0.9999999999999998
 50
270.0
 51
0.0
1001
GENIUS_GENOBJ-N-FIL_13
1002
{
1000
OWNER
1000
GEN
1002
}
1001
GENIUS_GENODEF_13
1002
{
1000
HIER
1070
     0
1002
}
1002
{
1000
MANEDIT
1070
     0
1002
}
1002
{
1000
NOSEL
1070
     0
1002
}
1002
{
1000
BEHIND
1070
     0
1002
}
1002
{
1000
OTHER
1070
     0
1002
}
1002
{
1000
REACTOR
1002
}
  0
ARC
  5
156C4
  8
AM_0
 10
660.98250430264477
 20
259.02172871639101
 30
0.0
 40
1.330000999999998
 50
89.999999999999986
 51
269.99999700000228
  0
ARC
  5
156C5
  8
AM_0
 10
662.20379430264484
 20
259.03173871639092
 30
0.0
 40
1.000037999999998
 50
89.500710000004887
 51
270.49928399999988
  0
LINE
  5
156C6
  8
AM_0
 10
631.15254097236061
 20
240.6617987163911
 30
0.0
 11
659.6525409723605
 21
240.6617987163911
 31
0.0
  0
ARC
  5
156C7
  8
AM_0
 10
631.15254097236061
 20
247.03179871639111
 30
0.0
 40
0.9999999999999998
 50
89.999999999999986
 51
180.0
1001
GENIUS_GENOBJ-N-FIL_13
1002
{
1000
OWNER
1000
GEN
1002
}
1001
GENIUS_GENODEF_13
1002
{
1000
HIER
1070
     0
1002
}
1002
{
1000
MANEDIT
1070
     0
1002
}
1002
{
1000
NOSEL
1070
     0
1002
}
1002
{
1000
BEHIND
1070
     0
1002
}
1002
{
1000
OTHER
1070
     0
1002
}
1002
{
1000
REACTOR
1002
}
  0
ARC
  5
156C8
  8
AM_0
 10
631.15254097236061
 20
241.66179871639099
 30
0.0
 40
0.9999999999999998
 50
180.0
 51
270.0
1001
GENIUS_GENOBJ-N-FIL_13
1002
{
1000
OWNER
1000
GEN
1002
}
1001
GENIUS_GENODEF_13
1002
{
1000
HIER
1070
     0
1002
}
1002
{
1000
MANEDIT
1070
     0
1002
}
1002
{
1000
NOSEL
1070
     0
1002
}
1002
{
1000
BEHIND
1070
     0
1002
}
1002
{
1000
OTHER
1070
     0
1002
}
1002
{
1000
REACTOR
1002
}
  0
LINE
  5
156C9
  8
AM_0
 10
630.1525409723605
 20
247.03179871639091
 30
0.0
 11
630.1525409723605
 21
241.66179871639099
 31
0.0
  0
ARC
  5
156CA
  8
AM_0
 10
662.20379430264472
 20
249.03173871639109
 30
0.0
 40
1.000037999999998
 50
89.500710000004887
 51
270.49928399999988
  0
ARC
  5
156CB
  8
AM_0
 10
660.98250430264477
 20
289.0418087163909
 30
0.0
 40
1.330000999999998
 50
90.000002999997605
 51
270.0
  0
ARC
  5
156CC
  8
AM_0
 10
660.92251430264491
 20
279.03679871639088
 30
0.0
 40
1.265004999999999
 50
90.000002999997605
 51
270.0
  0
ARC
  5
156CD
  8
AM_0
 10
660.92251430264491
 20
269.02673871639098
 30
0.0
 40
1.265004999999999
 50
89.999999999999986
 51
269.99999700000228
  0
ARC
  5
156CE
  8
AM_0
 10
631.15254097236061
 20
301.03173871639098
 30
0.0
 40
0.9999999999999998
 50
180.0
 51
270.0
1001
GENIUS_GENOBJ-N-FIL_13
1002
{
1000
OWNER
1000
GEN
1002
}
1001
GENIUS_GENODEF_13
1002
{
1000
HIER
1070
     0
1002
}
1002
{
1000
MANEDIT
1070
     0
1002
}
1002
{
1000
NOSEL
1070
     0
1002
}
1002
{
1000
BEHIND
1070
     0
1002
}
1002
{
1000
OTHER
1070
     0
1002
}
1002
{
1000
REACTOR
1002
}
  0
ARC
  5
156CF
  8
AM_0
 10
662.20379430264484
 20
279.03179871639088
 30
0.0
 40
1.000037999999998
 50
89.500716000000111
 51
270.49928999999509
  0
ARC
  5
156D0
  8
AM_0
 10
662.20379430264484
 20
269.03173871639109
 30
0.0
 40
1.000037999999998
 50
89.500710000004887
 51
270.49928399999988
  0
ARC
  5
156D1
  8
AM_0
 10
662.20379430264484
 20
289.03179871639088
 30
0.0
 40
1.000037999999998
 50
89.500716000000111
 51
270.49928999999509
  0
ARC
  5
156D2
  8
AM_0
 10
662.20379430264484
 20
299.03173868579591
 30
0.0
 40
1.000037999999998
 50
89.500716000000111
 51
270.49928999999509
  0
LINE
  5
156D4
  8
AM_0
 10
733.46251097236052
 20
213.90173871639101
 30
0.0
 11
734.38252097236045
 21
217.78173871639109
 31
0.0
  0
LINE
  5
156D5
  8
AM_0
 10
733.48250097236053
 20
212.24172871639101
 30
0.0
 11
734.36250097236064
 21
215.77172871639101
 31
0.0
  0
LINE
  5
156D6
  8
AM_0
 10
716.65254097236073
 20
212.1417287163911
 30
0.0
 11
716.65254097236073
 21
219.55172871639101
 31
0.0
  0
ARC
  5
156D7
  8
AM_0
 10
718.15431097236035
 20
214.2599187163911
 30
0.0
 40
1.5017978999999979
 50
90.068549999998893
 51
179.93145000000101
  0
LINE
  5
156D8
  8
AM_0
 10
731.51253097236054
 20
212.3617287163911
 30
0.0
 11
718.15254097236038
 21
212.3617287163911
 31
0.0
  0
LINE
  5
156D9
  8
AM_0
 10
731.54253097236051
 20
210.73171871639099
 30
0.0
 11
718.04253097236017
 21
210.73171871639099
 31
0.0
  0
ARC
  5
156DA
  8
AM_0
 10
714.65532097236064
 20
212.1389487163911
 30
0.0
 40
1.9972083999999981
 50
269.91985700000038
 51
0.0801399999989048
  0
ARC
  5
156DB
  8
AM_0
 10
714.65004097236033
 20
210.10656871639111
 30
0.0
 40
1.994845199999999
 50
270.07165800000439
 51
345.63719999999978
  0
ARC
  5
156DC
  8
AM_0
 10
714.65797097236066
 20
210.78628871639111
 30
0.0
 40
1.9945768999999991
 50
269.84400800000009
 51
0.1559900000027699
  0
ARC
  5
156DD
  8
AM_0
 10
714.6561409723605
 20
214.16811871639109
 30
0.0
 40
1.9963852999999989
 50
269.896163
 51
0.1038400000025922
  0
ARC
  5
156DE
  8
AM_0
 10
718.03889097236026
 20
209.224858716391
 30
0.0
 40
1.5068882999999991
 50
89.862229999999485
 51
165.12307000000069
  0
ARC
  5
156DF
  8
AM_0
 10
718.15636097236063
 20
210.8578787163911
 30
0.0
 40
1.5038474999999989
 50
90.146399999996433
 51
179.85360000000341
  0
ARC
  5
156E0
  8
AM_0
 10
731.54521097236045
 20
212.729528716391
 30
0.0
 40
1.9977811999999979
 50
269.92308099999781
 51
345.86776999999688
  0
ARC
  5
156E1
  8
AM_0
 10
731.51973097236055
 20
214.357208716391
 30
0.0
 40
1.995482299999999
 50
269.79345799999908
 51
346.80592000000109
  0
LINE
  5
156E9
  8
AM_0
 10
748.14644097236055
 20
258.80990871639108
 30
0.0
 11
747.64644097236044
 21
256.0399187163909
 31
0.0
  0
ARC
  5
156EA
  8
AM_0
 10
740.64351097236033
 20
257.04076871639103
 30
0.0
 40
0.9910124499999998
 50
89.478000000004286
 51
180.5220023800002
  0
ARC
  5
156EB
  8
AM_0
 10
732.10124097236042
 20
259.03173871639092
 30
0.0
 40
1.000037999999998
 50
269.50071600000012
 51
90.499289999994986
  0
ARC
  5
156EC
  8
AM_0
 10
733.32253097236071
 20
259.0217287163909
 30
0.0
 40
1.330000999999998
 50
270.00000299999761
 51
89.999999999999986
  0
ARC
  5
156ED
  8
AM_0
 10
744.64345097236026
 20
259.04082871639099
 30
0.0
 40
1.009131199999999
 50
270.51612600000101
 51
359.48387000000042
  0
ARC
  5
156EE
  8
AM_0
 10
715.65254097236073
 20
259.03173871639092
 30
0.0
 40
1.0000031999999981
 50
270.00000299999761
 51
89.999999999999986
  0
LINE
  5
156EF
  8
AM_0
 10
745.6525409723605
 20
226.012118716391
 30
0.0
 11
745.6525409723605
 21
269.03173871639109
 31
0.0
  0
LINE
  5
156F0
  8
AM_0
 10
747.1525409723605
 20
294.03173871639109
 30
0.0
 11
747.1525409723605
 21
254.03173871639109
 31
0.0
  0
ARC
  5
156F1
  8
AM_0
 10
730.03134497300755
 20
236.36367871639101
 30
0.0
 40
6.0039071999999978
 50
225.22369300000389
 51
266.3827139999957
  0
LINE
  5
156F2
  8
AM_0
 10
731.48253097236034
 20
215.7617187163911
 30
0.0
 11
718.15254097236038
 21
215.7617187163911
 31
0.0
  0
LINE
  5
156F3
  8
AM_0
 10
731.42253097236073
 20
221.0517287163911
 30
0.0
 11
718.15254097236038
 21
221.0517287163911
 31
0.0
  0
ARC
  5
156F4
  8
AM_0
 10
730.48757497300733
 20
232.43395871639109
 30
0.0
 40
5.0078935999999974
 50
99.598720000001094
 51
174.52532000000039
  0
ARC
  5
156F5
  8
AM_0
 10
718.15819097236033
 20
219.546048716391
 30
0.0
 40
1.5056744999999989
 50
90.215519999998804
 51
179.78447000000099
  0
ARC
  5
156F6
  8
AM_0
 10
726.50262497300753
 20
232.82156871639111
 30
0.0
 40
1.0041366999999981
 50
174.84883999999539
 51
225.7974360000041
  0
ARC
  5
156F7
  8
AM_0
 10
715.65254097236073
 20
239.03173871639109
 30
0.0
 40
1.0000031999999981
 50
270.00000299999761
 51
89.999999999999986
  0
ARC
  5
156F8
  8
AM_0
 10
723.10252097236071
 20
239.03173871639109
 30
0.0
 40
1.0000031999999981
 50
270.00000299999761
 51
89.999999999999986
  0
ARC
  5
156F9
  8
AM_0
 10
723.97252097236071
 20
238.9867287163911
 30
0.0
 40
1.6750062999999991
 50
270.00000299999761
 51
89.999999999999986
  0
ARC
  5
156FA
  8
AM_0
 10
715.65254097236073
 20
249.03173871639109
 30
0.0
 40
1.0000031999999981
 50
270.00000299999761
 51
89.999999999999986
  0
ARC
  5
156FB
  8
AM_0
 10
724.19252097236028
 20
249.00671871639099
 30
0.0
 40
1.465000399999999
 50
270.00000299999761
 51
89.999999999999986
  0
ARC
  5
156FC
  8
AM_0
 10
723.10252097236071
 20
249.03173871639109
 30
0.0
 40
1.0000031999999981
 50
270.00000299999761
 51
89.999999999999986
  0
LINE
  5
156FD
  8
AM_0
 10
729.6525409723605
 20
225.68172871639101
 30
0.0
 11
729.6525409723605
 21
239.72173871639089
 31
0.0
  0
ARC
  5
156FE
  8
AM_0
 10
743.34688097236051
 20
231.922028716391
 30
0.0
 40
1.0103179999999981
 50
270.32013999999481
 51
302.6885800000012
  0
ARC
  5
156FF
  8
AM_0
 10
743.36028097236056
 20
233.05837871639099
 30
0.0
 40
1.0067359999999981
 50
270.69806099999852
 51
300.58643000000149
  0
ARC
  5
15700
  8
AM_0
 10
743.39424097236054
 20
228.54491871639101
 30
0.0
 40
1.0131911999999981
 50
269.90372399999882
 51
298.1687600000007
  0
ARC
  5
15701
  8
AM_0
 10
743.36165097236074
 20
225.29348871639101
 30
0.0
 40
1.001807999999998
 50
270.62281999999732
 51
300.66166999999479
  0
ARC
  5
15702
  8
AM_0
 10
743.37495097236069
 20
226.43615871639099
 30
0.0
 40
1.005138299999998
 50
272.14229099999739
 51
298.36794000000208
  0
ARC
  5
15703
  8
AM_0
 10
743.35902097236055
 20
227.40282871639101
 30
0.0
 40
1.0112084999999991
 50
270.7656869999991
 51
300.5188099999977
  0
LINE
  5
15704
  8
AM_0
 10
735.86253097236056
 20
222.99172871639109
 30
0.0
 11
733.44252097236051
 21
222.99172871639109
 31
0.0
  0
ARC
  5
15705
  8
AM_0
 10
735.82423097236017
 20
215.40462871639099
 30
0.0
 40
1.507096899999999
 50
90.064819999995194
 51
165.90217999999581
  0
LINE
  5
15706
  8
AM_0
 10
735.82253097236048
 20
216.911748716391
 30
0.0
 11
734.17253097236051
 21
216.911748716391
 31
0.0
  0
ARC
  5
15707
  8
AM_0
 10
735.84334097236047
 20
217.42892871639111
 30
0.0
 40
1.5028080999999991
 50
90.03078999999498
 51
166.4221799999971
  0
LINE
  5
15708
  8
AM_0
 10
735.84251097236029
 20
218.93172871639101
 30
0.0
 11
733.78252097236054
 21
218.93172871639101
 31
0.0
  0
ARC
  5
15709
  8
AM_0
 10
735.86131097236034
 20
221.487578716391
 30
0.0
 40
1.504139799999999
 50
89.954249999998524
 51
167.5552500000029
  0
LINE
  5
1570A
  8
AM_0
 10
739.65254097236027
 20
225.68172871639089
 30
0.0
 11
729.6525409723605
 21
225.68172871639101
 31
0.0
  0
LINE
  5
1570B
  8
AM_0
 10
739.65254097236027
 20
216.6513510185348
 30
0.0
 11
734.83253097236047
 21
216.53173871639109
 31
0.0
  0
ARC
  5
1570C
  8
AM_0
 10
731.43068097236073
 20
223.04513871639119
 30
0.0
 40
1.9934333999999989
 50
269.76588399999918
 51
349.78803000000022
  0
LINE
  5
1570D
  8
AM_0
 10
733.93251097236055
 20
225.68169871639091
 30
0.0
 11
733.39250097236072
 21
222.69170871639099
 31
0.0
  0
LINE
  5
1570E
  8
AM_0
 10
733.43251097236055
 20
217.34173871639109
 30
0.0
 11
734.39253097236065
 21
221.81173871639109
 31
0.0
  0
ARC
  5
1570F
  8
AM_0
 10
731.48085097236026
 20
217.757108716391
 30
0.0
 40
1.995389499999999
 50
270.04806699999779
 51
347.98461999999989
  0
LINE
  5
15710
  8
AM_0
 10
743.41252097236065
 20
225.43172871639109
 30
0.0
 11
740.15254097236073
 21
225.43172871639109
 31
0.0
  0
LINE
  5
15711
  8
AM_0
 10
743.37254097236053
 20
224.2917187163909
 30
0.0
 11
740.15254097236073
 21
224.2917187163909
 31
0.0
  0
LINE
  5
15712
  8
AM_0
 10
739.65254097236027
 20
231.34173871639101
 30
0.0
 11
729.6525409723605
 21
231.34173871639101
 31
0.0
  0
LINE
  5
15713
  8
AM_0
 10
743.35252097236048
 20
230.91174871639089
 30
0.0
 11
739.65254097236027
 21
230.91174871639089
 31
0.0
  0
ARC
  5
15714
  8
AM_0
 10
740.65794097236051
 20
233.05712871639091
 30
0.0
 40
1.005422699999998
 50
180.30819238000211
 51
269.69181099999952
  0
LINE
  5
15715
  8
AM_0
 10
743.37254097236053
 20
226.39172871639099
 30
0.0
 11
739.65254097236027
 21
226.39172871639099
 31
0.0
  0
ARC
  5
15716
  8
AM_0
 10
740.65959097236043
 20
228.538788716391
 30
0.0
 40
1.0070831999999981
 50
180.40157798000081
 51
269.59842200000139
  0
LINE
  5
15717
  8
AM_0
 10
743.37254097236053
 20
232.05172871639101
 30
0.0
 11
740.6525409723605
 21
232.05172871639101
 31
0.0
  0
LINE
  5
15718
  8
AM_0
 10
743.39253097236053
 20
227.531738716391
 30
0.0
 11
740.6525409723605
 21
227.531738716391
 31
0.0
  0
ARC
  5
15719
  8
AM_0
 10
744.64537097236064
 20
226.02190871639101
 30
0.0
 40
1.007194199999998
 50
300.23341999999798
 51
0.5576799999999365
  0
LINE
  5
1571A
  8
AM_0
 10
743.85252097236071
 20
225.55172871639101
 30
0.0
 11
745.09254097236055
 21
226.1717187163909
 31
0.0
  0
LINE
  5
1571B
  8
AM_0
 10
743.65254097236027
 20
224.5517287163909
 30
0.0
 11
743.65254097236027
 21
225.0717187163911
 31
0.0
  0
LINE
  5
1571C
  8
AM_0
 10
743.8725109723606
 20
224.43172871639101
 30
0.0
 11
745.15251097236046
 21
225.15173871639101
 31
0.0
  0
ARC
  5
1571D
  8
AM_0
 10
744.65080097236046
 20
232.77435871639111
 30
0.0
 40
1.0017338999999981
 50
302.73763000000417
 51
359.85046000000261
  0
ARC
  5
1571E
  8
AM_0
 10
744.64699097236064
 20
233.80099871639101
 30
0.0
 40
1.005592899999999
 50
300.18133000000012
 51
359.47162000000122
  0
ARC
  5
1571F
  8
AM_0
 10
744.64754097236073
 20
229.20275871639089
 30
0.0
 40
1.0050607999999981
 50
297.55881000000392
 51
359.37160000000108
  0
ARC
  5
15720
  8
AM_0
 10
744.65355097236045
 20
228.17718871639099
 30
0.0
 40
0.9989832599999996
 50
299.96536000000339
 51
359.68761000000097
  0
LINE
  5
15721
  8
AM_0
 10
743.65254097236027
 20
231.21172871639109
 30
0.0
 11
743.65254097236027
 21
231.69173871639089
 31
0.0
  0
LINE
  5
15722
  8
AM_0
 10
743.65254097236027
 20
226.65173871639109
 30
0.0
 11
743.65254097236027
 21
227.191738716391
 31
0.0
  0
LINE
  5
15723
  8
AM_0
 10
743.8725109723606
 20
232.19173871639089
 30
0.0
 11
745.15251097236046
 21
232.93176871639099
 31
0.0
  0
LINE
  5
15724
  8
AM_0
 10
743.87254097236064
 20
226.53170871639099
 30
0.0
 11
745.1525409723605
 21
227.311708716391
 31
0.0
  0
LINE
  5
15725
  8
AM_0
 10
743.89253097236065
 20
231.07171871639099
 30
0.0
 11
745.19255097236055
 21
231.93169871639091
 31
0.0
  0
LINE
  5
15726
  8
AM_0
 10
743.87254097236064
 20
227.65173871639089
 30
0.0
 11
745.11253097236056
 21
228.31170871639091
 31
0.0
  0
ARC
  5
15727
  8
AM_0
 10
744.64949097236035
 20
227.0716287163909
 30
0.0
 40
1.003051899999998
 50
296.21265000000159
 51
0.0057699999976855
  0
LINE
  5
15728
  8
AM_0
 10
740.6525409723605
 20
250.031738716391
 30
0.0
 11
744.6525409723605
 21
250.031738716391
 31
0.0
  0
LINE
  5
15729
  8
AM_0
 10
740.6525409723605
 20
258.03173871639092
 30
0.0
 11
744.6525409723605
 21
258.03173871639092
 31
0.0
  0
ARC
  5
1572A
  8
AM_0
 10
743.43929097236037
 20
239.357938716391
 30
0.0
 40
1.0062370999999981
 50
269.61524400000241
 51
293.00461999999879
  0
ARC
  5
1572B
  8
AM_0
 10
743.50987097236055
 20
241.30672871639089
 30
0.0
 40
1.015145099999998
 50
269.02161899999908
 51
286.1676699999993
  0
LINE
  5
1572C
  8
AM_0
 10
740.6525409723605
 20
248.031738716391
 30
0.0
 11
744.6525409723605
 21
248.031738716391
 31
0.0
  0
ARC
  5
1572D
  8
AM_0
 10
740.64351097236033
 20
247.040768716391
 30
0.0
 40
0.9910124499999998
 50
89.478000000004286
 51
180.5220023800002
  0
LINE
  5
1572E
  8
AM_0
 10
739.65254097236027
 20
239.72173871639089
 30
0.0
 11
729.6525409723605
 21
239.72173871639089
 31
0.0
  0
LINE
  5
1572F
  8
AM_0
 10
743.43254097236047
 20
238.35171871639099
 30
0.0
 11
740.35252097236071
 21
238.35171871639099
 31
0.0
  0
ARC
  5
15730
  8
AM_0
 10
740.65883097236065
 20
241.29803871639109
 30
0.0
 40
1.0063294999999981
 50
180.3592537599973
 51
269.64074800000088
  0
LINE
  5
15731
  8
AM_0
 10
743.49254097236064
 20
240.29171871639099
 30
0.0
 11
740.6525409723605
 21
240.29171871639099
 31
0.0
  0
ARC
  5
15732
  8
AM_0
 10
740.6604209723605
 20
251.039608716391
 30
0.0
 40
1.0079203999999991
 50
180.4484899600013
 51
269.55151199999528
  0
ARC
  5
15733
  8
AM_0
 10
744.65300097236059
 20
239.8764087163909
 30
0.0
 40
0.9995326999999996
 50
292.3150500000005
 51
359.73186999999979
  0
LINE
  5
15734
  8
AM_0
 10
743.65254097236027
 20
238.65173871639089
 30
0.0
 11
743.65254097236027
 21
239.71172871639109
 31
0.0
  0
LINE
  5
15735
  8
AM_0
 10
743.79253097236074
 20
240.33172871639101
 30
0.0
 11
744.93254097236058
 21
240.69170871639091
 31
0.0
  0
ARC
  5
15736
  8
AM_0
 10
744.64809097236048
 20
241.6550587163909
 30
0.0
 40
1.004450099999999
 50
286.45035000000331
 51
359.80985000000021
  0
LINE
  5
15737
  8
AM_0
 10
743.83253097236047
 20
238.43172871639089
 30
0.0
 11
745.03252097236054
 21
238.95171871639101
 31
0.0
  0
LINE
  5
15738
  8
AM_0
 10
747.1525409723605
 20
254.03170871639099
 30
0.0
 11
745.6525409723605
 21
253.9117087163909
 31
0.0
  0
LINE
  5
15739
  8
AM_0
 10
747.64644097236044
 20
256.0399187163909
 30
0.0
 11
747.14641097236051
 21
256.07992871639101
 31
0.0
  0
LINE
  5
1573A
  8
AM_0
 10
743.65254097236027
 20
248.41174871639089
 30
0.0
 11
743.65254097236027
 21
249.7717287163911
 31
0.0
  0
ARC
  5
1573B
  8
AM_0
 10
744.66032097236052
 20
249.0395487163909
 30
0.0
 40
0.9922232599999995
 50
359.54915999999707
 51
90.450850000000827
  0
ARC
  5
1573C
  8
AM_0
 10
744.64345097236026
 20
249.04082871639091
 30
0.0
 40
1.009131199999999
 50
270.51612600000101
 51
359.48387000000042
  0
ARC
  5
1573D
  8
AM_0
 10
715.65254097236073
 20
279.03173871639109
 30
0.0
 40
1.000000699999998
 50
270.00000299999761
 51
89.999999999999986
  0
ARC
  5
1573E
  8
AM_0
 10
715.65254097236073
 20
269.03173871639109
 30
0.0
 40
1.0000031999999981
 50
270.00000299999761
 51
89.999999999999986
  0
ARC
  5
1573F
  8
AM_0
 10
715.65254097236073
 20
289.03173871639092
 30
0.0
 40
1.000000699999998
 50
270.00000299999761
 51
89.999999999999986
  0
ARC
  5
15740
  8
AM_0
 10
715.65254097236073
 20
299.0317387163912
 30
0.0
 40
1.000000699999998
 50
270.00000299999761
 51
89.999999999999986
  0
ARC
  5
15741
  8
AM_0
 10
744.64345097236026
 20
279.02264871639102
 30
0.0
 40
1.009131199999999
 50
0.5161299999995606
 51
89.483870000000366
  0
ARC
  5
15742
  8
AM_0
 10
733.38240097236053
 20
279.02172871639101
 30
0.0
 40
1.270038399999998
 50
269.5548109999998
 51
90.445189999999073
  0
ARC
  5
15743
  8
AM_0
 10
732.09251097236051
 20
279.03173871639109
 30
0.0
 40
1.000012399999999
 50
270.00000299999761
 51
89.999999999999986
  0
ARC
  5
15744
  8
AM_0
 10
740.64351097236033
 20
281.02270871639109
 30
0.0
 40
0.9910124499999998
 50
179.47800000000419
 51
270.52199999999573
  0
LINE
  5
15745
  8
AM_0
 10
748.14644097236055
 20
258.80987871639093
 30
0.0
 11
748.14644097236055
 21
289.25350871639108
 31
0.0
  0
LINE
  5
15746
  8
AM_0
 10
740.6525409723605
 20
270.03173871639098
 30
0.0
 11
744.6525409723605
 21
270.03173871639098
 31
0.0
  0
LINE
  5
15747
  8
AM_0
 10
740.6525409723605
 20
278.03173871639098
 30
0.0
 11
744.6525409723605
 21
278.03173871639098
 31
0.0
  0
LINE
  5
15748
  8
AM_0
 10
740.6525409723605
 20
268.03173871639098
 30
0.0
 11
744.6525409723605
 21
268.03173871639098
 31
0.0
  0
LINE
  5
15749
  8
AM_0
 10
740.6525409723605
 20
260.03173871639098
 30
0.0
 11
744.6525409723605
 21
260.03173871639098
 31
0.0
  0
ARC
  5
1574A
  8
AM_0
 10
732.10124097236042
 20
269.03173871639109
 30
0.0
 40
1.000037999999998
 50
269.50071600000012
 51
90.499289999994986
  0
ARC
  5
1574B
  8
AM_0
 10
733.38252097236045
 20
269.02673871639098
 30
0.0
 40
1.265004999999999
 50
270.00000299999761
 51
89.999999999999986
  0
ARC
  5
1574C
  8
AM_0
 10
740.6604209723605
 20
261.039608716391
 30
0.0
 40
1.0079203999999991
 50
180.4484899600013
 51
269.55151199999528
  0
ARC
  5
1574D
  8
AM_0
 10
740.64351097236033
 20
267.04076871639103
 30
0.0
 40
0.9910124499999998
 50
89.478000000004286
 51
180.5220023800002
  0
ARC
  5
1574E
  8
AM_0
 10
740.6604209723605
 20
277.02383871639108
 30
0.0
 40
1.0079203999999991
 50
90.448489999997136
 51
179.55151000000279
  0
ARC
  5
1574F
  8
AM_0
 10
740.6604209723605
 20
271.039608716391
 30
0.0
 40
1.0079203999999991
 50
180.4484899600013
 51
269.55151199999528
  0
LINE
  5
15750
  8
AM_0
 10
743.65254097236027
 20
268.43172871639092
 30
0.0
 11
743.65254097236027
 21
269.59173871639098
 31
0.0
  0
ARC
  5
15751
  8
AM_0
 10
744.66032097236052
 20
269.03954871639093
 30
0.0
 40
0.9922232599999995
 50
359.54915999999707
 51
90.450850000000827
  0
ARC
  5
15752
  8
AM_0
 10
744.66032097236052
 20
259.0395487163911
 30
0.0
 40
0.9922232599999995
 50
359.54915999999707
 51
90.450850000000827
  0
ARC
  5
15753
  8
AM_0
 10
744.64345097236026
 20
269.04082871639099
 30
0.0
 40
1.009131199999999
 50
270.51612600000101
 51
359.48387000000042
  0
LINE
  5
15754
  8
AM_0
 10
743.65254097236027
 20
258.43172871639098
 30
0.0
 11
743.65254097236027
 21
259.65173871639098
 31
0.0
  0
POINT
  5
15755
  8
AM_0
 10
748.14644097236044
 20
274.03173871639109
 30
0.0
  0
LINE
  5
15756
  8
AM_0
 10
743.65254097236027
 20
279.63171871639099
 30
0.0
 11
743.65254097236027
 21
278.47173871639109
 31
0.0
  0
ARC
  5
15757
  8
AM_0
 10
744.66032097236052
 20
279.02392871639103
 30
0.0
 40
0.9922232599999995
 50
269.54915499999811
 51
0.4508500000008747
  0
LINE
  5
15758
  8
AM_0
 10
740.6525409723605
 20
298.03173871639098
 30
0.0
 11
744.6525409723605
 21
298.03173871639098
 31
0.0
  0
LINE
  5
15759
  8
AM_0
 10
740.6525409723605
 20
300.03173871639098
 30
0.0
 11
744.6525409723605
 21
300.03173871639098
 31
0.0
  0
LINE
  5
1575A
  8
AM_0
 10
740.6525409723605
 20
288.03173871639092
 30
0.0
 11
744.6525409723605
 21
288.03173871639092
 31
0.0
  0
LINE
  5
1575B
  8
AM_0
 10
740.6525409723605
 20
290.03173871639098
 30
0.0
 11
744.6525409723605
 21
290.03173871639098
 31
0.0
  0
LINE
  5
1575C
  8
AM_0
 10
740.6525409723605
 20
280.03173871639098
 30
0.0
 11
744.6525409723605
 21
280.03173871639098
 31
0.0
  0
ARC
  5
1575D
  8
AM_0
 10
740.64351097236033
 20
291.02270871639098
 30
0.0
 40
0.9910124499999998
 50
179.47800000000419
 51
270.52199999999573
  0
ARC
  5
1575E
  8
AM_0
 10
733.32039097236054
 20
289.04171871639102
 30
0.0
 40
1.3300231999999981
 50
269.66153200000082
 51
90.338480000003955
  0
ARC
  5
1575F
  8
AM_0
 10
732.09251097236051
 20
289.03173871639092
 30
0.0
 40
1.000012399999999
 50
270.00000299999761
 51
89.999999999999986
  0
ARC
  5
15760
  8
AM_0
 10
740.6604209723605
 20
287.0238387163912
 30
0.0
 40
1.0079203999999991
 50
90.448489999997136
 51
179.55151000000279
  0
ARC
  5
15761
  8
AM_0
 10
732.10133097236064
 20
299.0317387163912
 30
0.0
 40
1.0000386999999991
 50
269.4956679999986
 51
90.504339999996859
  0
ARC
  5
15762
  8
AM_0
 10
733.18983097236037
 20
299.05172871639098
 30
0.0
 40
1.460102599999999
 50
269.32100700000188
 51
90.678999999997785
  0
ARC
  5
15763
  8
AM_0
 10
740.64351097236033
 20
301.02270871639098
 30
0.0
 40
0.9910124499999998
 50
179.47800000000419
 51
270.52199999999573
  0
ARC
  5
15764
  8
AM_0
 10
740.6604209723605
 20
297.02383871639108
 30
0.0
 40
1.0079203999999991
 50
90.448489999997136
 51
179.55151000000279
  0
LINE
  5
15765
  8
AM_0
 10
748.14644097236055
 20
289.25350871639108
 30
0.0
 11
747.64644097236044
 21
292.02352871639101
 31
0.0
  0
LINE
  5
15766
  8
AM_0
 10
743.65254097236027
 20
289.63171871639099
 30
0.0
 11
743.65254097236027
 21
288.41174871639112
 31
0.0
  0
ARC
  5
15767
  8
AM_0
 10
744.66032097236052
 20
289.02392871639103
 30
0.0
 40
0.9922232599999995
 50
269.54915499999811
 51
0.4508500000008747
  0
ARC
  5
15768
  8
AM_0
 10
744.64345097236026
 20
289.02264871639102
 30
0.0
 40
1.009131199999999
 50
0.5161299999995606
 51
89.483870000000366
  0
LINE
  5
15769
  8
AM_0
 10
747.64644097236044
 20
292.02352871639101
 30
0.0
 11
747.14644097236044
 21
291.98351871639102
 31
0.0
  0
LINE
  5
1576A
  8
AM_0
 10
747.1525409723605
 20
294.03173871639109
 30
0.0
 11
745.6525409723605
 21
294.15173871639121
 31
0.0
  0
LINE
  5
1576B
  8
AM_0
 10
743.65254097236027
 20
299.65173871639098
 30
0.0
 11
743.65254097236027
 21
298.29171871639102
 31
0.0
  0
ARC
  5
1576C
  8
AM_0
 10
744.64345097236026
 20
299.0226487163909
 30
0.0
 40
1.009131199999999
 50
0.5161299999995606
 51
89.483870000000366
  0
ARC
  5
1576D
  8
AM_0
 10
744.66032097236052
 20
299.02392871639103
 30
0.0
 40
0.9922232599999995
 50
269.54915499999811
 51
0.4508500000008747
  0
LINE
  5
15770
  8
AM_0
 10
693.65254097236027
 20
320.37173871639112
 30
0.0
 11
599.83253097236059
 21
320.37173871639112
 31
0.0
  0
LINE
  5
15771
  8
AM_0
 10
714.65254097236073
 20
337.911728716391
 30
0.0
 11
599.85277084565701
 21
337.91172871639122
 31
0.0
  0
LINE
  5
15772
  8
AM_0
 10
714.65254097236073
 20
339.27172871639101
 30
0.0
 11
599.85277084565701
 21
339.27172871639101
 31
0.0
  0
LINE
  5
15773
  8
AM_0
 10
714.65254097236073
 20
339.93172871639098
 30
0.0
 11
599.85277084565701
 21
339.93172871639098
 31
0.0
  0
LINE
  5
15774
  8
AM_0
 10
732.09252849146014
 20
308.03173875747711
 30
0.0
 11
659.6525409723605
 21
308.03173875747711
 31
0.0
  0
LINE
  5
15775
  8
AM_0
 10
732.98253097236045
 20
307.40173871639098
 30
0.0
 11
659.6525409723605
 21
307.40173871639098
 31
0.0
  0
LINE
  5
15776
  8
AM_0
 10
732.98253097236045
 20
310.76171871639099
 30
0.0
 11
659.6525409723605
 21
310.76171871639099
 31
0.0
  0
LINE
  5
15777
  8
AM_0
 10
659.6525409723605
 20
310.03173871639098
 30
0.0
 11
732.10252097236071
 21
310.03173871639098
 31
0.0
  0
LINE
  5
15778
  8
AM_0
 10
714.65254097236073
 20
335.89172871639101
 30
0.0
 11
659.6525409723605
 21
335.89172871639101
 31
0.0
  0
LINE
  5
157A8
  8
AM_0
 10
615.15254097236061
 20
307.40173871639098
 30
0.0
 11
630.1525409723605
 21
307.40173871639098
 31
0.0
  0
LINE
  5
157A9
  8
AM_0
 10
599.83253097236059
 20
310.03173871639098
 30
0.0
 11
659.6525409723605
 21
310.03173871639098
 31
0.0
  0
LINE
  5
157AA
  8
AM_0
 10
599.83253097236059
 20
308.03173871639098
 30
0.0
 11
659.6525409723605
 21
308.03173871639098
 31
0.0
  0
LINE
  5
157AB
  8
AM_0
 10
659.6525409723605
 20
335.89172871639101
 30
0.0
 11
599.83253097236059
 21
335.89172871639113
 31
0.0
  0
LINE
  5
157AC
  8
AM_0
 10
659.6525409723605
 20
310.76171871639099
 30
0.0
 11
599.83253097236059
 21
310.76171871639099
 31
0.0
  0
ARC
  5
157AD
  8
AM_0
 10
592.64345097236048
 20
337.02264871639102
 30
0.0
 40
1.009131199999999
 50
0.5161299999995606
 51
89.483870000000366
  0
ARC
  5
157AE
  8
AM_0
 10
592.64412097236061
 20
325.06332871639103
 30
0.0
 40
1.008444499999998
 50
9.546070000003926
 51
89.522200000000396
  0
LINE
  5
157B0
  8
0
  6
CONTINUOUS
 62
     7
 10
592.6525409723605
 20
311.17171778117358
 30
0.0
 11
584.6525409723605
 21
311.17171778117358
 31
0.0
  0
LINE
  5
157B5
  8
0
  6
CONTINUOUS
 62
     7
 10
592.6525409723605
 20
326.07172778117359
 30
0.0
 11
584.6525409723605
 21
326.07172778117359
 31
0.0
  0
LINE
  5
157B6
  8
0
  6
CONTINUOUS
 62
     7
 10
592.6525409723605
 20
338.03172778117369
 30
0.0
 11
584.6525409723605
 21
338.03172778117369
 31
0.0
  0
LINE
  5
157B7
  8
AM_0
 10
594.65254097236061
 20
316.89172871639119
 30
0.0
 11
594.65254097236061
 21
324.49172871639109
 31
0.0
  0
LINE
  5
157B8
  8
AM_0
 10
593.65254097236061
 20
316.89172871639119
 30
0.0
 11
593.65254097236061
 21
324.49172871639109
 31
0.0
  0
ARC
  5
157B9
  8
AM_0
 10
595.55254097236048
 20
322.49172871639098
 30
0.0
 40
1.7000007999999991
 50
0.000010000000991
 51
89.999979999997976
  0
LINE
  5
157BA
  8
AM_0
 10
599.83253097236059
 20
307.40173871639098
 30
0.0
 11
614.15254097236038
 21
307.40173871639098
 31
0.0
  0
ARC
  5
157BB
  8
AM_0
 10
599.31252097236063
 20
309.03173871639109
 30
0.0
 40
1.0000073999999981
 50
89.999999999999986
 51
270.00000299999761
  0
LINE
  5
157BC
  8
AM_0
 10
595.83253097236059
 20
307.40173871639098
 30
0.0
 11
599.83253097236059
 21
307.40173871639098
 31
0.0
  0
LINE
  5
157BD
  8
AM_0
 10
599.31252097236063
 20
310.03173871639098
 30
0.0
 11
599.83253097236059
 21
310.03173871639098
 31
0.0
  0
LINE
  5
157BE
  8
AM_0
 10
599.31252097236063
 20
308.03173871639098
 30
0.0
 11
599.83253097236059
 21
308.03173871639098
 31
0.0
  0
LINE
  5
157BF
  8
AM_0
 10
599.83253097236059
 20
310.76171871639099
 30
0.0
 11
593.65254117410086
 21
310.76171871639099
 31
0.0
  0
ARC
  5
157C0
  8
AM_0
 10
595.83864097236062
 20
309.08172871639113
 30
0.0
 40
1.680010999999999
 50
90.208029999998075
 51
269.79196900000039
  0
LINE
  5
157C1
  8
AM_0
 10
599.83253097236059
 20
320.37173871639112
 30
0.0
 11
597.25252097236046
 21
320.37173871639112
 31
0.0
  0
ARC
  5
157C2
  8
AM_0
 10
595.55254097236048
 20
318.89172871639113
 30
0.0
 40
1.699996899999999
 50
270.00000299999761
 51
359.99998000000448
  0
LINE
  5
157C3
  8
AM_0
 10
597.25252097236046
 20
318.89172871639113
 30
0.0
 11
597.25252097236046
 21
322.49172871639098
 31
0.0
  0
LINE
  5
157C4
  8
AM_0
 10
594.65254097236061
 20
316.89172871639119
 30
0.0
 11
593.65254097236061
 21
316.89172871639119
 31
0.0
  0
LINE
  5
157C5
  8
AM_0
 10
593.65254097236061
 20
319.9143687163911
 30
0.0
 11
594.65254097236061
 21
320.491698716391
 31
0.0
  0
ARC
  5
157C6
  8
AM_0
 10
592.99168097236065
 20
321.85851871639102
 30
0.0
 40
1.4868058999999989
 50
296.38977999999901
 51
345.71726000000092
  0
LINE
  5
157C7
  8
AM_0
 10
593.65254097236061
 20
320.91436871639098
 30
0.0
 11
594.65254097236061
 21
321.49172871639121
 31
0.0
  0
LINE
  5
157C8
  8
AM_0
 10
594.65254097236061
 20
317.19173871639123
 30
0.0
 11
595.55254097236048
 21
317.19173871639123
 31
0.0
  0
ARC
  5
157C9
  8
AM_0
 10
614.15254097236038
 20
306.40173871639098
 30
0.0
 40
0.9999999999999998
 50
0.0
 51
89.999999999999986
1001
GENIUS_GENOBJ-N-FIL_13
1002
{
1000
OWNER
1000
GEN
1002
}
1001
GENIUS_GENODEF_13
1002
{
1000
HIER
1070
     0
1002
}
1002
{
1000
MANEDIT
1070
     0
1002
}
1002
{
1000
NOSEL
1070
     0
1002
}
1002
{
1000
BEHIND
1070
     0
1002
}
1002
{
1000
OTHER
1070
     0
1002
}
1002
{
1000
REACTOR
1002
}
  0
CIRCLE
  5
157CA
  8
AM_0
 10
625.15254097236061
 20
302.5317687163909
 30
0.0
 40
0.75
  0
CIRCLE
  5
157CB
  8
AM_0
 10
620.15254097236061
 20
302.53176871639101
 30
0.0
 40
0.75
  0
LINE
  5
157CC
  8
AM_0
 10
597.89253097236065
 20
334.39173871639099
 30
0.0
 11
595.15672097236063
 21
324.191738716391
 31
0.0
  0
LINE
  5
157CD
  8
AM_0
 10
597.89253097236065
 20
338.43173871639101
 30
0.0
 11
596.3373785131522
 21
332.63361856772252
 31
0.0
  0
LINE
  5
157CE
  8
AM_0
 10
597.89253097236065
 20
337.77173871639093
 30
0.0
 11
595.96723683098514
 21
330.5936085677223
 31
0.0
  0
LINE
  5
157CF
  8
AM_0
 10
597.89253097236065
 20
336.41173871639103
 30
0.0
 11
595.24305183098522
 21
326.53360856772252
 31
0.0
  0
LINE
  5
157D0
  8
AM_0
 10
594.65254097236061
 20
324.49172871639109
 30
0.0
 11
593.65254097236061
 21
324.49172871639109
 31
0.0
  0
ARC
  5
157D1
  8
AM_0
 10
594.40565609221676
 20
333.15173871639098
 30
0.0
 40
2.0
 50
270.0
 51
344.98570240157682
1001
GENIUS_GENOBJ-N-FIL_13
1002
{
1000
OWNER
1000
GEN
1002
}
1001
GENIUS_GENODEF_13
1002
{
1000
HIER
1070
     0
1002
}
1002
{
1000
MANEDIT
1070
     0
1002
}
1002
{
1000
NOSEL
1070
     0
1002
}
1002
{
1000
BEHIND
1070
     0
1002
}
1002
{
1000
OTHER
1070
     0
1002
}
1002
{
1000
REACTOR
1002
}
  0
LINE
  5
157D2
  8
AM_0
 10
595.93454662352724
 20
329.11172871639099
 30
0.0
 11
594.03551441004993
 21
329.11172871639099
 31
0.0
  0
LINE
  5
157D3
  8
AM_0
 10
596.11693663902724
 20
331.15173871639098
 30
0.0
 11
594.40565609221676
 21
331.15173871639098
 31
0.0
  0
ARC
  5
157D4
  8
AM_0
 10
593.31132941005001
 20
327.05172871639098
 30
0.0
 40
2.0
 50
279.82304903972192
 51
344.98570240157682
1001
GENIUS_GENOBJ-N-FIL_13
1002
{
1000
OWNER
1000
GEN
1002
}
1001
GENIUS_GENODEF_13
1002
{
1000
HIER
1070
     0
1002
}
1002
{
1000
MANEDIT
1070
     0
1002
}
1002
{
1000
NOSEL
1070
     0
1002
}
1002
{
1000
BEHIND
1070
     0
1002
}
1002
{
1000
OTHER
1070
     0
1002
}
1002
{
1000
REACTOR
1002
}
  0
LINE
  5
157D5
  8
AM_0
 10
595.38738462352705
 20
325.05172871639098
 30
0.0
 11
593.65254120375096
 21
325.05172871639121
 31
0.0
  0
LINE
  5
157D6
  8
AM_0
 10
594.65254097236061
 20
324.19172871639103
 30
0.0
 11
595.55254097236048
 21
324.19172871639103
 31
0.0
  0
ARC
  5
157D7
  8
AM_0
 10
594.03551441005015
 20
331.11172871639099
 30
0.0
 40
2.0
 50
270.0
 51
344.98570240157682
1001
GENIUS_GENODEF_13
1002
{
1000
HIER
1070
     0
1002
}
1002
{
1000
MANEDIT
1070
     0
1002
}
1002
{
1000
NOSEL
1070
     0
1002
}
1002
{
1000
BEHIND
1070
     0
1002
}
1002
{
1000
OTHER
1070
     0
1002
}
1002
{
1000
REACTOR
1002
}
1001
GENIUS_GENOBJ-N-FIL_13
1002
{
1000
OWNER
1000
GEN
1002
}
  0
ARC
  5
157D8
  8
AM_0
 10
599.84218097236055
 20
337.9147387163909
 30
0.0
 40
2.0170177999999992
 50
90.273700000002734
 51
165.14839999999501
  0
ARC
  5
157D9
  8
AM_0
 10
599.84218097236055
 20
337.25473871639099
 30
0.0
 40
2.0170177999999992
 50
90.273700000002734
 51
165.14839999999501
  0
ARC
  5
157DA
  8
AM_0
 10
599.84218097236055
 20
335.89473871639098
 30
0.0
 40
2.0170177999999992
 50
90.273700000002734
 51
165.14839999999501
  0
LINE
  5
157DB
  8
AM_0
 10
596.84648329019365
 20
334.531728716391
 30
0.0
 11
593.65254122342083
 21
334.531728716391
 31
0.0
  0
ARC
  5
157DC
  8
AM_0
 10
599.84218097236055
 20
333.87473871639099
 30
0.0
 40
2.0170177999999992
 50
90.273700000002734
 51
165.14839999999501
  0
LINE
  5
157DD
  8
AM_0
 10
631.15254097236061
 20
307.40173871639098
 30
0.0
 11
659.6525409723605
 21
307.40173871639098
 31
0.0
  0
ARC
  5
157DE
  8
AM_0
 10
631.15254097236061
 20
306.40173871639098
 30
0.0
 40
0.9999999999999998
 50
89.999999999999986
 51
180.0
1001
GENIUS_GENOBJ-N-FIL_13
1002
{
1000
OWNER
1000
GEN
1002
}
1001
GENIUS_GENODEF_13
1002
{
1000
HIER
1070
     0
1002
}
1002
{
1000
MANEDIT
1070
     0
1002
}
1002
{
1000
NOSEL
1070
     0
1002
}
1002
{
1000
BEHIND
1070
     0
1002
}
1002
{
1000
OTHER
1070
     0
1002
}
1002
{
1000
REACTOR
1002
}
  0
LINE
  5
15819
  8
AM_0
 10
731.47252097236071
 20
332.29173871639102
 30
0.0
 11
718.15254097236038
 21
332.29173871639102
 31
0.0
  0
LINE
  5
1581A
  8
AM_0
 10
731.41252097236065
 20
327.01173871639088
 30
0.0
 11
718.15254097236038
 21
327.01173871639088
 31
0.0
  0
LINE
  5
1581B
  8
AM_0
 10
731.53252097236043
 20
337.33172871639101
 30
0.0
 11
718.03252097236054
 21
337.33172871639101
 31
0.0
  0
LINE
  5
1581C
  8
AM_0
 10
731.51253097236054
 20
335.69172871639091
 30
0.0
 11
718.15254097236038
 21
335.69172871639091
 31
0.0
  0
ARC
  5
1581D
  8
AM_0
 10
730.0131549730072
 20
311.67117871639113
 30
0.0
 40
6.0113901999999966
 50
93.439150000000865
 51
134.59596000000141
  0
ARC
  5
1581E
  8
AM_0
 10
730.46896497300725
 20
315.623318716391
 30
0.0
 40
4.9987220999999984
 50
185.4135635000037
 51
260.5999409999983
  0
LINE
  5
1581F
  8
AM_0
 10
693.65254097236027
 20
320.37173871639112
 30
0.0
 11
729.6525409723605
 21
318.71899843456151
 31
0.0
  0
ARC
  5
15820
  8
AM_0
 10
715.65254097236073
 20
309.03173871639109
 30
0.0
 40
1.000000699999998
 50
270.00000299999761
 51
89.999999999999986
  0
ARC
  5
15821
  8
AM_0
 10
726.50231497300751
 20
315.22930871639102
 30
0.0
 40
1.0127640999999981
 50
134.49466000000089
 51
184.39325279999781
  0
ARC
  5
15822
  8
AM_0
 10
714.64320097236055
 20
333.88239871639092
 30
0.0
 40
2.0093488999999991
 50
0.2659600000003289
 51
89.734039999999638
  0
LINE
  5
15823
  8
AM_0
 10
716.65254097236073
 20
335.911728716391
 30
0.0
 11
716.65254097236073
 21
328.51173871639099
 31
0.0
  0
ARC
  5
15824
  8
AM_0
 10
718.14522097236056
 20
328.50442871639098
 30
0.0
 40
1.4927157999999989
 50
179.71971999999951
 51
270.28027900000012
  0
ARC
  5
15825
  8
AM_0
 10
718.1463809723607
 20
333.78556871639103
 30
0.0
 40
1.4938501999999989
 50
179.7636399999989
 51
270.23636099999788
  0
ARC
  5
15826
  8
AM_0
 10
714.64461097236074
 20
337.93604871639099
 30
0.0
 40
1.9956942999999989
 50
14.97487999999842
 51
89.772649999998436
  0
ARC
  5
15827
  8
AM_0
 10
714.64503097236025
 20
337.26423871639111
 30
0.0
 40
2.007501099999998
 50
0.213699999997808
 51
89.78631000000108
  0
ARC
  5
15828
  8
AM_0
 10
714.64738097236057
 20
335.90656871639089
 30
0.0
 40
2.0051612999999988
 50
0.1472899999997176
 51
89.852710000000229
  0
ARC
  5
15829
  8
AM_0
 10
718.14839097236074
 20
337.18760871639103
 30
0.0
 40
1.4958794999999989
 50
179.84196000000071
 51
270.1580459999978
  0
ARC
  5
1582A
  8
AM_0
 10
718.02061097236071
 20
338.82778871639101
 30
0.0
 40
1.4961156999999989
 50
194.55818600000069
 51
270.45650499999601
  0
LINE
  5
1582B
  8
AM_0
 10
743.65254097236027
 20
323.51173871639099
 30
0.0
 11
743.65254097236027
 21
322.99172871639092
 31
0.0
  0
LINE
  5
1582C
  8
AM_0
 10
743.87254097236064
 20
323.63172871639102
 30
0.0
 11
745.15251097236046
 21
322.911748716391
 31
0.0
  0
LINE
  5
1582D
  8
AM_0
 10
733.91252097236065
 20
322.37173871639089
 30
0.0
 11
733.39253097236053
 21
325.35172871639099
 31
0.0
  0
ARC
  5
1582E
  8
AM_0
 10
743.35902097236055
 20
320.66061871639101
 30
0.0
 40
1.0112084999999991
 50
59.481190000002343
 51
89.234310000002381
  0
ARC
  5
1582F
  8
AM_0
 10
743.37495097236069
 20
321.62728871639098
 30
0.0
 40
1.005138299999998
 50
61.6320599999979
 51
87.857709999999315
  0
ARC
  5
15830
  8
AM_0
 10
743.36028097236056
 20
315.00506871639101
 30
0.0
 40
1.0067359999999981
 50
59.413569999998458
 51
89.301939999998908
  0
ARC
  5
15831
  8
AM_0
 10
743.34688097236051
 20
316.141418716391
 30
0.0
 40
1.0103179999999981
 50
57.311419999998783
 51
89.679859999998698
  0
ARC
  5
15832
  8
AM_0
 10
743.39424097236054
 20
319.51852871639102
 30
0.0
 40
1.0131911999999981
 50
61.831239999999241
 51
90.096279999999368
  0
ARC
  5
15833
  8
AM_0
 10
743.43929097236037
 20
308.70550871639108
 30
0.0
 40
1.0062370999999981
 50
66.995380000001106
 51
90.384759999995637
  0
ARC
  5
15834
  8
AM_0
 10
743.50987097236055
 20
306.75674871639097
 30
0.0
 40
1.015145099999998
 50
73.832330000000681
 51
90.978379999996932
  0
LINE
  5
15835
  8
AM_0
 10
729.6525409723605
 20
313.5317387163912
 30
0.0
 11
729.6525409723605
 21
310.751738716391
 31
0.0
  0
LINE
  5
15836
  8
AM_0
 10
729.6525409723605
 20
322.37173871639089
 30
0.0
 11
729.6525409723605
 21
310.76171871639099
 31
0.0
  0
LINE
  5
15837
  8
AM_0
 10
739.65254097236027
 20
308.33172871639101
 30
0.0
 11
734.48077011355042
 21
308.33172871639101
 31
0.0
  0
ARC
  5
15838
  8
AM_0
 10
732.10133097236064
 20
309.03173871639109
 30
0.0
 40
1.0000386999999991
 50
269.4956679999986
 51
90.504339999996859
  0
ARC
  5
15839
  8
AM_0
 10
732.97252097236048
 20
309.07171871639099
 30
0.0
 40
1.6800001999999989
 50
270.00000299999761
 51
89.999999999999986
  0
LINE
  5
1583A
  8
AM_0
 10
743.43254097236047
 20
309.71172871639112
 30
0.0
 11
740.35252097236071
 21
309.71172871639112
 31
0.0
  0
ARC
  5
1583B
  8
AM_0
 10
740.65883097236065
 20
306.76540871639099
 30
0.0
 40
1.0063294999999981
 50
90.359249999995995
 51
179.640750000004
  0
LINE
  5
1583C
  8
AM_0
 10
743.49254097236064
 20
307.77172871639101
 30
0.0
 11
740.6525409723605
 21
307.77172871639101
 31
0.0
  0
ARC
  5
1583D
  8
AM_0
 10
740.34810097236073
 20
310.40728871639089
 30
0.0
 40
0.69557893
 50
179.63466000000051
 51
270.36533599999723
  0
LINE
  5
1583E
  8
AM_0
 10
739.65254097236027
 20
316.71172871639112
 30
0.0
 11
729.6525409723605
 21
316.71172871639112
 31
0.0
  0
LINE
  5
1583F
  8
AM_0
 10
739.65254097236027
 20
322.37173871639089
 30
0.0
 11
729.6525409723605
 21
322.37173871639089
 31
0.0
  0
LINE
  5
15840
  8
AM_0
 10
743.41252097236065
 20
322.63172871639119
 30
0.0
 11
740.15254097236073
 21
322.63172871639119
 31
0.0
  0
LINE
  5
15841
  8
AM_0
 10
743.37254097236053
 20
321.67171871639113
 30
0.0
 11
739.65254097236027
 21
321.67171871639113
 31
0.0
  0
ARC
  5
15842
  8
AM_0
 10
740.65959097236043
 20
319.524658716391
 30
0.0
 40
1.0070831999999981
 50
90.401579999998404
 51
179.59842000000151
  0
LINE
  5
15843
  8
AM_0
 10
743.35252097236048
 20
317.15173871639098
 30
0.0
 11
739.65254097236027
 21
317.15173871639098
 31
0.0
  0
ARC
  5
15844
  8
AM_0
 10
740.65794097236051
 20
315.00631871639092
 30
0.0
 40
1.005422699999998
 50
90.308189999996685
 51
179.69181000000319
  0
LINE
  5
15845
  8
AM_0
 10
743.37254097236053
 20
316.0117187163911
 30
0.0
 11
740.6525409723605
 21
316.0117187163911
 31
0.0
  0
LINE
  5
15846
  8
AM_0
 10
743.39253097236053
 20
320.53173871639098
 30
0.0
 11
740.6525409723605
 21
320.53173871639098
 31
0.0
  0
ARC
  5
15847
  8
AM_0
 10
740.15889097236061
 20
322.12536871639088
 30
0.0
 40
0.50640076
 50
90.719699999998198
 51
179.28029999999521
  0
ARC
  5
15848
  8
AM_0
 10
744.65300097236059
 20
308.1870387163911
 30
0.0
 40
0.9995326999999996
 50
0.2681300000001308
 51
67.684949999999489
  0
LINE
  5
15849
  8
AM_0
 10
743.65254097236027
 20
309.411748716391
 30
0.0
 11
743.65254097236027
 21
308.35171871639102
 31
0.0
  0
LINE
  5
1584A
  8
AM_0
 10
743.79256097236055
 20
307.73171871639101
 30
0.0
 11
744.93254097236058
 21
307.37170871639103
 31
0.0
  0
ARC
  5
1584B
  8
AM_0
 10
744.64809097236048
 20
306.40838871639102
 30
0.0
 40
1.004450099999999
 50
0.1901499999997262
 51
73.549649999996703
  0
LINE
  5
1584C
  8
AM_0
 10
743.83253097236047
 20
309.63171871639099
 30
0.0
 11
745.03252097236054
 21
309.11172871639099
 31
0.0
  0
ARC
  5
1584D
  8
AM_0
 10
744.64537097236064
 20
322.04153871639102
 30
0.0
 40
1.007194199999998
 50
359.44232
 51
59.766580000002023
  0
ARC
  5
1584E
  8
AM_0
 10
744.64754097236073
 20
318.86071871639098
 30
0.0
 40
1.0050607999999981
 50
0.6283999999989116
 51
62.441189999996062
  0
ARC
  5
1584F
  8
AM_0
 10
744.65080097236046
 20
315.28912871639102
 30
0.0
 40
1.0017338999999981
 50
0.1495399999973931
 51
57.262370000003038
  0
ARC
  5
15850
  8
AM_0
 10
744.64699097236064
 20
314.26244871639079
 30
0.0
 40
1.005592899999999
 50
0.5283799999988388
 51
59.818669999999848
  0
ARC
  5
15851
  8
AM_0
 10
744.65355097236045
 20
319.88628871639099
 30
0.0
 40
0.9989832599999996
 50
0.3123899999989832
 51
60.034639999996749
  0
ARC
  5
15852
  8
AM_0
 10
744.64949097236035
 20
320.99181871639098
 30
0.0
 40
1.003051899999998
 50
359.99423000000229
 51
63.787349999998312
  0
LINE
  5
15853
  8
AM_0
 10
743.65254097236027
 20
316.85171871639102
 30
0.0
 11
743.65254097236027
 21
316.37173871639101
 31
0.0
  0
LINE
  5
15854
  8
AM_0
 10
743.65254097236027
 20
321.41174871639112
 30
0.0
 11
743.65254097236027
 21
320.87173871639101
 31
0.0
  0
LINE
  5
15855
  8
AM_0
 10
743.8725109723606
 20
320.41174871639089
 30
0.0
 11
745.11253097236056
 21
319.75170871639102
 31
0.0
  0
LINE
  5
15856
  8
AM_0
 10
743.87254097236064
 20
315.87173871639101
 30
0.0
 11
745.1525409723605
 21
315.13171871639088
 31
0.0
  0
LINE
  5
15857
  8
AM_0
 10
743.89253097236065
 20
316.99169871639089
 30
0.0
 11
745.19255097236055
 21
316.13171871639099
 31
0.0
  0
LINE
  5
15858
  8
AM_0
 10
743.85252097236071
 20
322.51173871639088
 30
0.0
 11
745.09251097236051
 21
321.89175871639111
 31
0.0
  0
LINE
  5
15859
  8
AM_0
 10
743.87254097236064
 20
321.53170871639099
 30
0.0
 11
745.15251097236046
 21
320.751738716391
 31
0.0
  0
ARC
  5
1585A
  8
AM_0
 10
743.36165097236074
 20
322.76997871639099
 30
0.0
 40
1.001807999999998
 50
59.338330000005243
 51
89.37717999999613
  0
LINE
  5
1585B
  8
AM_0
 10
733.45253097236059
 20
334.15173871639092
 30
0.0
 11
734.37251097236071
 21
330.27172871639101
 31
0.0
  0
LINE
  5
1585C
  8
AM_0
 10
733.47252097236071
 20
335.81170871639102
 30
0.0
 11
734.35252097236071
 21
332.27171871639092
 31
0.0
  0
ARC
  5
1585D
  8
AM_0
 10
735.80269097236044
 20
332.65049871639093
 30
0.0
 40
1.4987989999999991
 50
194.6381350000004
 51
270.37655799999698
  0
LINE
  5
1585E
  8
AM_0
 10
735.81252097236074
 20
331.15173871639098
 30
0.0
 11
734.17253097236051
 21
331.15173871639098
 31
0.0
  0
LINE
  5
1585F
  8
AM_0
 10
735.83253097236047
 20
329.11172871639093
 30
0.0
 11
733.7725409723605
 21
329.11172871639093
 31
0.0
  0
ARC
  5
15860
  8
AM_0
 10
735.86137097236053
 20
326.55067871639102
 30
0.0
 40
1.498966199999999
 50
191.5036759999999
 51
269.66153200000082
  0
LINE
  5
15861
  8
AM_0
 10
735.85252097236037
 20
325.05172871639098
 30
0.0
 11
733.43254097236047
 21
325.05172871639098
 31
0.0
  0
ARC
  5
15862
  8
AM_0
 10
735.83620097236064
 20
330.61512871639098
 30
0.0
 40
1.5034073999999991
 50
193.20385600000469
 51
269.86041400000022
  0
LINE
  5
15863
  8
AM_0
 10
739.65254097236027
 20
331.4094650464836
 30
0.0
 11
734.81255097236055
 21
331.51171871639099
 31
0.0
  0
ARC
  5
15864
  8
AM_0
 10
731.47343097236035
 20
330.28715871639088
 30
0.0
 40
2.0045697999999992
 50
12.227909999996781
 51
90.025959999996459
  0
ARC
  5
15865
  8
AM_0
 10
731.41612097236055
 20
325.00517871639101
 30
0.0
 40
2.0065659999999981
 50
9.9456800000009853
 51
90.102469999995733
  0
LINE
  5
15866
  8
AM_0
 10
733.43251097236055
 20
330.71171871639098
 30
0.0
 11
734.39253097236065
 21
326.25172871639103
 31
0.0
  0
LINE
  5
15867
  8
AM_0
 10
743.37254097236053
 20
323.77172871639101
 30
0.0
 11
740.15254097236073
 21
323.77172871639101
 31
0.0
  0
ARC
  5
15868
  8
AM_0
 10
740.14818097236048
 20
324.26737871639091
 30
0.0
 40
0.4956644499999998
 50
179.49662000000049
 51
270.5033810000005
  0
ARC
  5
15869
  8
AM_0
 10
731.52525097236071
 20
335.32439871639087
 30
0.0
 40
2.007332599999998
 50
14.05006000000024
 51
89.792179999998822
  0
ARC
  5
1586A
  8
AM_0
 10
731.5062409723605
 20
333.69184871639089
 30
0.0
 40
1.9998908999999989
 50
13.29430000000143
 51
89.819579999998538
  0
ARC
  5
15D7B
  8
AM_0
 10
438.15250720632821
 20
274.03176871639101
 30
0.0
 40
14.0
 50
106.6015495990211
 51
73.398450400978902
  0
CIRCLE
  5
15D7C
  8
ｽﾝﾎﾟｳｾﾝ
 10
438.15250720632821
 20
274.03176871639101
 30
0.0
 40
4.0
  0
LINE
  5
15D7D
  8
AM_0
 10
434.15250720632832
 20
291.03176871639101
 30
0.0
 11
442.15250720632821
 21
291.03176871639101
 31
0.0
  0
LINE
  5
15D7E
  8
AM_0
 10
442.15250720632821
 20
284.03176871639101
 30
0.0
 11
434.15250720632832
 21
284.03176871639101
 31
0.0
  0
LINE
  5
15D7F
  8
AM_0
 10
434.15250720632832
 20
284.03176871639101
 30
0.0
 11
434.15250720632832
 21
291.03176871639101
 31
0.0
  0
LINE
  5
15D80
  8
AM_0
 10
442.15250720632821
 20
291.03176871639101
 30
0.0
 11
442.15250720632821
 21
284.03176871639101
 31
0.0
  0
LINE
  5
15EB9
  8
0
  6
CONTINUOUS
 62
     7
 10
455.66056384695321
 20
216.03176871639121
 30
0.0
 11
404.35132922781258
 21
216.03176871639121
 31
0.0
  0
ARC
  5
15EBA
  8
0
  6
CONTINUOUS
 62
     7
 10
438.15250720632821
 20
274.03176871639101
 30
0.0
 40
37.5
 50
180.0
 51
0.0
  0
LINE
  5
15EBB
  8
0
  6
CONTINUOUS
 62
     7
 10
455.66056384695321
 20
332.03176871639113
 30
0.0
 11
404.35132922781258
 21
332.03176871639113
 31
0.0
  0
ARC
  5
15EBC
  8
0
  6
CONTINUOUS
 62
     7
 10
438.15250720632821
 20
274.03176871639101
 30
0.0
 40
37.5
 50
0.0
 51
180.0
  0
LINE
  5
15EBD
  8
0
  6
CONTINUOUS
 62
     7
 10
541.15250720632821
 20
252.52369681697701
 30
0.0
 11
541.15250720632821
 21
295.53984061580508
 31
0.0
  0
LINE
  5
15EBE
  8
0
  6
CONTINUOUS
 62
     7
 10
517.95368518484383
 20
332.03176871639113
 30
0.0
 11
486.64445056570338
 21
332.03176871639113
 31
0.0
  0
ARC
  5
15EBF
  8
0
  6
CONTINUOUS
 62
     7
 10
540.15250720632832
 20
311.03176871639113
 30
0.0
 40
10.999999999999989
 50
198.43494865478681
 51
255.52248765290841
  0
ARC
  5
15EC0
  8
0
  6
CONTINUOUS
 62
     7
 10
536.15250720632798
 20
295.53984061580508
 30
0.0
 40
5.000000000000016
 50
359.99999499104308
 51
75.522489474143015
  0
ARC
  5
15EC1
  8
0
  6
CONTINUOUS
 62
     7
 10
517.95368518484383
 20
327.03176871639113
 30
0.0
 40
5.0000000000000107
 50
18.434948768476399
 51
89.999997495521541
  0
LINE
  5
15EC2
  8
0
  6
CONTINUOUS
 62
     7
 10
529.71699084890645
 20
307.55326835018019
 30
0.0
 11
522.69712390554685
 21
328.6129073272308
 31
0.0
  0
LINE
  5
15EC3
  8
0
  6
CONTINUOUS
 62
     7
 10
540.15250720632832
 20
314.49586478572701
 30
0.0
 11
537.15250720632832
 21
312.76382438045363
 31
0.0
  0
LINE
  5
15EC4
  8
0
  6
CONTINUOUS
 62
     7
 10
540.15250720632832
 20
307.56767264705508
 30
0.0
 11
537.15250720632832
 21
309.29971305232851
 31
0.0
  0
CIRCLE
  5
15EC5
  8
0
  6
CONTINUOUS
 62
     7
 10
540.15250720632832
 20
311.03176871639113
 30
0.0
 40
4.9999999999999991
  0
ARC
  5
15EC6
  8
0
  6
CONTINUOUS
 62
     7
 10
540.15250720632832
 20
311.03176871639113
 30
0.0
 40
5.5000000000000044
 50
89.999997495521541
 51
270.00000250447852
  0
LINE
  5
15EC7
  8
0
  6
CONTINUOUS
 62
     7
 10
543.15250720632832
 20
309.29971305232851
 30
0.0
 11
543.15250720632832
 21
312.76382438045363
 31
0.0
  0
LINE
  5
15EC8
  8
0
  6
CONTINUOUS
 62
     7
 10
547.15250720632821
 20
316.53176871639113
 30
0.0
 11
540.15250720632832
 21
316.53176871639113
 31
0.0
  0
LINE
  5
15EC9
  8
0
  6
CONTINUOUS
 62
     7
 10
543.15250720632832
 20
312.76382438045363
 30
0.0
 11
540.15250720632832
 21
314.49586478572701
 31
0.0
  0
LINE
  5
15ECA
  8
0
  6
CONTINUOUS
 62
     7
 10
547.15250720632821
 20
305.53176871639101
 30
0.0
 11
540.15250720632832
 21
305.53176871639101
 31
0.0
  0
LINE
  5
15ECB
  8
0
  6
CONTINUOUS
 62
     7
 10
543.15250720632832
 20
309.29971305232851
 30
0.0
 11
540.15250720632832
 21
307.56767264705508
 31
0.0
  0
LINE
  5
15ECC
  8
0
  6
CONTINUOUS
 62
     7
 10
537.15250720632832
 20
309.29971305232851
 30
0.0
 11
537.15250720632832
 21
312.76382438045363
 31
0.0
  0
ARC
  5
15ECD
  8
0
  6
CONTINUOUS
 62
     7
 10
471.15250720632838
 20
331.03176871639101
 30
0.0
 40
11.0
 50
194.47751143647409
 51
345.52249015738431
  0
LINE
  5
15ECE
  8
0
  6
CONTINUOUS
 62
     7
 10
472.88456287039071
 20
328.03176871639101
 30
0.0
 11
469.4204515422656
 21
328.03176871639101
 31
0.0
  0
LINE
  5
15ECF
  8
0
  6
CONTINUOUS
 62
     7
 10
472.88456287039071
 20
334.03176871639101
 30
0.0
 11
469.4204515422656
 21
334.03176871639101
 31
0.0
  0
CIRCLE
  5
15ED0
  8
0
  6
CONTINUOUS
 62
     7
 10
471.15250720632838
 20
331.03176871639101
 30
0.0
 40
4.9999999999999991
  0
ARC
  5
15ED1
  8
0
  6
CONTINUOUS
 62
     7
 10
471.15250720632838
 20
331.03176871639101
 30
0.0
 40
5.4999999999999991
 50
180.0
 51
0.0000050089536519
  0
LINE
  5
15ED2
  8
0
  6
CONTINUOUS
 62
     7
 10
476.65250720632832
 20
338.03176871639113
 30
0.0
 11
476.65250720632832
 21
331.03176871639101
 31
0.0
  0
LINE
  5
15ED3
  8
0
  6
CONTINUOUS
 62
     7
 10
472.88456287039071
 20
334.03176871639101
 30
0.0
 11
474.61661853445338
 21
331.03176871639101
 31
0.0
  0
ARC
  5
15ED4
  8
0
  6
CONTINUOUS
 62
     7
 10
486.64445056570338
 20
327.03176871639113
 30
0.0
 40
5.0000000000000018
 50
89.999997495521541
 51
165.5224885635258
  0
LINE
  5
15ED5
  8
0
  6
CONTINUOUS
 62
     7
 10
474.61661853445338
 20
331.03176871639101
 30
0.0
 11
472.88456287039071
 21
328.03176871639101
 31
0.0
  0
LINE
  5
15ED6
  8
0
  6
CONTINUOUS
 62
     7
 10
465.65250720632821
 20
338.03176871639113
 30
0.0
 11
465.65250720632821
 21
331.03176871639101
 31
0.0
  0
LINE
  5
15ED7
  8
0
  6
CONTINUOUS
 62
     7
 10
469.4204515422656
 20
334.03176871639101
 30
0.0
 11
467.68839587820321
 21
331.03176871639101
 31
0.0
  0
ARC
  5
15ED8
  8
0
  6
CONTINUOUS
 62
     7
 10
455.66056384695321
 20
327.03176871639113
 30
0.0
 40
5.0000000000000089
 50
14.477509842612401
 51
89.999997495521541
  0
LINE
  5
15ED9
  8
0
  6
CONTINUOUS
 62
     7
 10
467.68839587820321
 20
331.03176871639101
 30
0.0
 11
469.4204515422656
 21
328.03176871639101
 31
0.0
  0
LINE
  5
15EDA
  8
0
  6
CONTINUOUS
 62
     7
 10
517.95368518484383
 20
216.03176871639121
 30
0.0
 11
486.64445056570338
 21
216.03176871639121
 31
0.0
  0
ARC
  5
15EDB
  8
0
  6
CONTINUOUS
 62
     7
 10
517.95368518484383
 20
221.0317687163911
 30
0.0
 40
5.0000000000000018
 50
270.00000250447852
 51
341.56505123152363
  0
LINE
  5
15EDC
  8
0
  6
CONTINUOUS
 62
     7
 10
540.15250720632832
 20
233.56767264705519
 30
0.0
 11
537.15250720632832
 21
235.2997130523286
 31
0.0
  0
LINE
  5
15EDD
  8
0
  6
CONTINUOUS
 62
     7
 10
543.15250720632832
 20
235.2997130523286
 30
0.0
 11
540.15250720632832
 21
233.56767264705519
 31
0.0
  0
ARC
  5
15EDE
  8
0
  6
CONTINUOUS
 62
     7
 10
540.15250720632832
 20
237.03176871639121
 30
0.0
 40
5.5000000000000044
 50
89.999997495521541
 51
270.00000250447852
  0
CIRCLE
  5
15EDF
  8
0
  6
CONTINUOUS
 62
     7
 10
540.15250720632832
 20
237.03176871639121
 30
0.0
 40
4.9999999999999991
  0
LINE
  5
15EE0
  8
0
  6
CONTINUOUS
 62
     7
 10
529.71699084890645
 20
240.51026908260201
 30
0.0
 11
522.69712390554685
 21
219.4506377349457
 31
0.0
  0
LINE
  5
15EE1
  8
0
  6
CONTINUOUS
 62
     7
 10
540.15250720632832
 20
240.49586478572701
 30
0.0
 11
537.15250720632832
 21
238.76382438045351
 31
0.0
  0
ARC
  5
15EE2
  8
0
  6
CONTINUOUS
 62
     7
 10
540.15250720632832
 20
237.03176871639121
 30
0.0
 40
10.999999999999989
 50
104.4775123470916
 51
161.56505134521319
  0
ARC
  5
15EE3
  8
0
  6
CONTINUOUS
 62
     7
 10
536.15250720632798
 20
252.52369681697689
 30
0.0
 40
5.0000000000000044
 50
284.4775105258571
 51
0.0000050089536519
  0
LINE
  5
15EE4
  8
0
  6
CONTINUOUS
 62
     7
 10
547.15250720632821
 20
242.53176871639121
 30
0.0
 11
540.15250720632832
 21
242.53176871639121
 31
0.0
  0
LINE
  5
15EE5
  8
0
  6
CONTINUOUS
 62
     7
 10
543.15250720632832
 20
235.2997130523286
 30
0.0
 11
543.15250720632832
 21
238.76382438045351
 31
0.0
  0
LINE
  5
15EE6
  8
0
  6
CONTINUOUS
 62
     7
 10
543.15250720632832
 20
238.76382438045351
 30
0.0
 11
540.15250720632832
 21
240.49586478572701
 31
0.0
  0
LINE
  5
15EE7
  8
0
  6
CONTINUOUS
 62
     7
 10
537.15250720632832
 20
235.2997130523286
 30
0.0
 11
537.15250720632832
 21
238.76382438045351
 31
0.0
  0
LINE
  5
15EE8
  8
0
  6
CONTINUOUS
 62
     7
 10
547.15250720632821
 20
231.5317687163911
 30
0.0
 11
540.15250720632832
 21
231.5317687163911
 31
0.0
  0
CIRCLE
  5
15EE9
  8
0
  6
CONTINUOUS
 62
     7
 10
471.15250720632838
 20
217.03176871639121
 30
0.0
 40
4.9999999999999991
  0
ARC
  5
15EEA
  8
0
  6
CONTINUOUS
 62
     7
 10
471.15250720632838
 20
217.03176871639121
 30
0.0
 40
5.5000000000000178
 50
0.0000050089536519
 51
180.00001001791051
  0
LINE
  5
15EEB
  8
0
  6
CONTINUOUS
 62
     7
 10
476.65250720632832
 20
210.03176871639121
 30
0.0
 11
476.65250720632832
 21
217.03176871639121
 31
0.0
  0
LINE
  5
15EEC
  8
0
  6
CONTINUOUS
 62
     7
 10
465.65250720632821
 20
210.03176871639121
 30
0.0
 11
465.65250720632821
 21
217.03176871639121
 31
0.0
  0
LINE
  5
15EED
  8
0
  6
CONTINUOUS
 62
     7
 10
472.88456287039071
 20
220.03176871639121
 30
0.0
 11
469.4204515422656
 21
220.03176871639121
 31
0.0
  0
LINE
  5
15EEE
  8
0
  6
CONTINUOUS
 62
     7
 10
472.88456287039071
 20
214.03176871639121
 30
0.0
 11
469.4204515422656
 21
214.03176871639121
 31
0.0
  0
ARC
  5
15EEF
  8
0
  6
CONTINUOUS
 62
     7
 10
471.15250720632838
 20
217.03176871639121
 30
0.0
 40
11.0
 50
14.47750984261552
 51
165.5224885635258
  0
ARC
  5
15EF0
  8
0
  6
CONTINUOUS
 62
     7
 10
486.64445056570338
 20
221.0317687163911
 30
0.0
 40
5.0000000000000213
 50
194.47751143647409
 51
270.00000250447852
  0
LINE
  5
15EF1
  8
0
  6
CONTINUOUS
 62
     7
 10
472.88456287039071
 20
214.03176871639121
 30
0.0
 11
474.61661853445338
 21
217.03176871639121
 31
0.0
  0
LINE
  5
15EF2
  8
0
  6
CONTINUOUS
 62
     7
 10
474.61661853445338
 20
217.03176871639121
 30
0.0
 11
472.88456287039071
 21
220.03176871639121
 31
0.0
  0
LINE
  5
15EF3
  8
0
  6
CONTINUOUS
 62
     7
 10
469.4204515422656
 20
214.03176871639121
 30
0.0
 11
467.68839587820321
 21
217.03176871639121
 31
0.0
  0
LINE
  5
15EF4
  8
0
  6
CONTINUOUS
 62
     7
 10
467.68839587820321
 20
217.03176871639121
 30
0.0
 11
469.4204515422656
 21
220.03176871639121
 31
0.0
  0
ARC
  5
15EF5
  8
0
  6
CONTINUOUS
 62
     7
 10
455.66056384695321
 20
221.0317687163911
 30
0.0
 40
5.0000000000000018
 50
270.00000250447852
 51
345.52249015738761
  0
LINE
  5
15EF6
  8
0
  6
CONTINUOUS
 62
     7
 10
381.15250720632832
 20
252.52369681697701
 30
0.0
 11
381.15250720632832
 21
295.53984061580508
 31
0.0
  0
ARC
  5
15EF7
  8
0
  6
CONTINUOUS
 62
     7
 10
386.15250720632838
 20
295.53984061580508
 30
0.0
 40
4.999999999999984
 50
104.4775123470916
 51
180.0
  0
ARC
  5
15EF8
  8
0
  6
CONTINUOUS
 62
     7
 10
382.15250720632832
 20
311.03176871639113
 30
0.0
 40
10.999999999999989
 50
284.4775105258571
 51
341.56505123152363
  0
ARC
  5
15EF9
  8
0
  6
CONTINUOUS
 62
     7
 10
382.15250720632832
 20
311.03176871639113
 30
0.0
 40
5.5000000000000044
 50
270.00000250447852
 51
90.000000683246256
  0
LINE
  5
15EFA
  8
0
  6
CONTINUOUS
 62
     7
 10
399.60792102468758
 20
328.6129073272308
 30
0.0
 11
392.58802356375008
 21
307.55326835018019
 31
0.0
  0
ARC
  5
15EFB
  8
0
  6
CONTINUOUS
 62
     7
 10
404.35132922781258
 20
327.03176871639113
 30
0.0
 40
5.0000000000000018
 50
89.999997495521541
 51
161.56505134521319
  0
LINE
  5
15EFC
  8
0
  6
CONTINUOUS
 62
     7
 10
385.15250720632821
 20
309.29971305232851
 30
0.0
 11
385.15250720632821
 21
312.76382438045363
 31
0.0
  0
LINE
  5
15EFD
  8
0
  6
CONTINUOUS
 62
     7
 10
379.15250720632832
 20
309.29971305232851
 30
0.0
 11
379.15250720632832
 21
312.76382438045363
 31
0.0
  0
CIRCLE
  5
15EFE
  8
0
  6
CONTINUOUS
 62
     7
 10
382.15250720632832
 20
311.03176871639113
 30
0.0
 40
4.9999999999999991
  0
LINE
  5
15EFF
  8
0
  6
CONTINUOUS
 62
     7
 10
375.15250720632832
 20
316.53176871639113
 30
0.0
 11
382.15250720632832
 21
316.53176871639113
 31
0.0
  0
LINE
  5
15F00
  8
0
  6
CONTINUOUS
 62
     7
 10
385.15250720632821
 20
312.76382438045363
 30
0.0
 11
382.15250720632832
 21
314.49586478572701
 31
0.0
  0
LINE
  5
15F01
  8
0
  6
CONTINUOUS
 62
     7
 10
382.15250720632832
 20
314.49586478572701
 30
0.0
 11
379.15250720632832
 21
312.76382438045363
 31
0.0
  0
LINE
  5
15F02
  8
0
  6
CONTINUOUS
 62
     7
 10
375.15250720632832
 20
305.53176871639101
 30
0.0
 11
382.15250720632832
 21
305.53176871639101
 31
0.0
  0
LINE
  5
15F03
  8
0
  6
CONTINUOUS
 62
     7
 10
385.15250720632821
 20
309.29971305232851
 30
0.0
 11
382.15250720632832
 21
307.56767264705508
 31
0.0
  0
LINE
  5
15F04
  8
0
  6
CONTINUOUS
 62
     7
 10
382.15250720632832
 20
307.56767264705508
 30
0.0
 11
379.15250720632832
 21
309.29971305232851
 31
0.0
  0
ARC
  5
15F05
  8
0
  6
CONTINUOUS
 62
     7
 10
382.15250720632832
 20
237.03176871639121
 30
0.0
 40
11.000000000000011
 50
18.434948768476399
 51
75.522489474143015
  0
ARC
  5
15F06
  8
0
  6
CONTINUOUS
 62
     7
 10
382.15250720632832
 20
237.03176871639121
 30
0.0
 40
5.5000000000000044
 50
270.00000250447852
 51
90.000000683246256
  0
LINE
  5
15F07
  8
0
  6
CONTINUOUS
 62
     7
 10
399.60792102468758
 20
219.4506377349457
 30
0.0
 11
392.58802356375008
 21
240.51026908260201
 31
0.0
  0
ARC
  5
15F08
  8
0
  6
CONTINUOUS
 62
     7
 10
404.35132922781258
 20
221.0317687163911
 30
0.0
 40
4.999999999999984
 50
198.43494865478681
 51
270.00000250447852
  0
LINE
  5
15F09
  8
0
  6
CONTINUOUS
 62
     7
 10
385.15250720632821
 20
235.2997130523286
 30
0.0
 11
382.15250720632832
 21
233.56767264705519
 31
0.0
  0
LINE
  5
15F0A
  8
0
  6
CONTINUOUS
 62
     7
 10
382.15250720632832
 20
233.56767264705519
 30
0.0
 11
379.15250720632832
 21
235.2997130523286
 31
0.0
  0
CIRCLE
  5
15F0B
  8
0
  6
CONTINUOUS
 62
     7
 10
382.15250720632832
 20
237.03176871639121
 30
0.0
 40
4.9999999999999991
  0
ARC
  5
15F0C
  8
0
  6
CONTINUOUS
 62
     7
 10
386.15250720632838
 20
252.52369681697701
 30
0.0
 40
4.9999999999999991
 50
180.0
 51
255.52248765290841
  0
LINE
  5
15F0D
  8
0
  6
CONTINUOUS
 62
     7
 10
375.15250720632832
 20
242.53176871639121
 30
0.0
 11
382.15250720632832
 21
242.53176871639121
 31
0.0
  0
LINE
  5
15F0E
  8
0
  6
CONTINUOUS
 62
     7
 10
379.15250720632832
 20
235.2997130523286
 30
0.0
 11
379.15250720632832
 21
238.76382438045351
 31
0.0
  0
LINE
  5
15F0F
  8
0
  6
CONTINUOUS
 62
     7
 10
385.15250720632821
 20
235.2997130523286
 30
0.0
 11
385.15250720632821
 21
238.76382438045351
 31
0.0
  0
LINE
  5
15F10
  8
0
  6
CONTINUOUS
 62
     7
 10
385.15250720632821
 20
238.76382438045351
 30
0.0
 11
382.15250720632832
 21
240.49586478572701
 31
0.0
  0
LINE
  5
15F11
  8
0
  6
CONTINUOUS
 62
     7
 10
382.15250720632832
 20
240.49586478572701
 30
0.0
 11
379.15250720632832
 21
238.76382438045351
 31
0.0
  0
LINE
  5
15F12
  8
0
  6
CONTINUOUS
 62
     7
 10
375.15250720632832
 20
231.5317687163911
 30
0.0
 11
382.15250720632832
 21
231.5317687163911
 31
0.0
  0
LINE
  5
16157
  8
AM_0
 10
535.15254061473286
 20
338.03177062373982
 30
0.0
 11
387.15250568641028
 21
338.03177062373982
 31
0.0
  0
LINE
  5
16158
  8
AM_0
 10
535.15254061473286
 20
210.03176680904261
 30
0.0
 11
387.15250568641028
 21
210.03176680904261
 31
0.0
  0
LINE
  5
1615B
  8
ﾁｭｳｼﾝｾﾝ1
 10
438.15250720632821
 20
344.28177062373959
 30
0.0
 11
438.15250720632838
 21
203.7817668090423
 31
0.0
  0
ARC
  5
1615D
  8
AM_0
 10
160.9940144463576
 20
274.0317687163855
 30
0.0
 40
397.24800335175252
 50
353.33928567968309
 51
6.6607143203168917
  0
LINE
  5
1615E
  8
AM_0
 10
555.24201779811051
 20
319.76048735448529
 30
0.0
 11
555.24201779810915
 21
228.30305007829719
 31
0.0
  0
LINE
  5
1615F
  8
AM_0
 10
573.65254097236061
 20
335.53175871639138
 30
0.0
 11
573.65254097236061
 21
212.53177871639119
 31
0.0
  0
LINE
  5
16161
  8
AM_0
 10
547.1525409723605
 20
326.03177026611201
 30
0.0
 11
547.1525409723605
 21
222.03176716667031
 31
0.0
  0
LINE
  5
16163
  8
AM_0
 10
552.58100661867411
 20
225.3030500782973
 30
0.0
 11
548.15254097236061
 21
225.3030500782973
 31
0.0
  0
ARC
  5
16164
  8
AM_0
 10
535.15254061473286
 20
222.03176716667031
 30
0.0
 40
12.00000035762791
 50
269.999999316757
 51
359.99999499104308
  0
LINE
  5
16165
  8
AM_0
 10
570.65254097236073
 20
212.53177871639119
 30
0.0
 11
543.44411802379705
 21
212.53177871639161
 31
0.0
  0
LINE
  5
16166
  8
AM_0
 10
584.6525409723605
 20
210.03177871639119
 30
0.0
 11
575.52593814476495
 21
210.03177871639119
 31
0.0
  0
LINE
  5
16167
  8
AM_0
 10
584.6525409723605
 20
236.89178871639129
 30
0.0
 11
574.65254097236061
 21
236.89178871639129
 31
0.0
  0
LINE
  5
16168
  8
AM_0
 10
584.6525409723605
 20
221.9917787163912
 30
0.0
 11
574.65254097236061
 21
221.9917787163912
 31
0.0
  0
LINE
  5
16169
  8
AM_0
 10
584.65258223901105
 20
236.89177871641371
 30
0.0
 11
574.65258223901719
 21
236.89176760530239
 31
0.0
  0
LINE
  5
1616A
  8
AM_0
 10
584.6525987945779
 20
221.9917687164228
 30
0.0
 11
574.65259879458392
 21
221.99175760531159
 31
0.0
  0
LINE
  5
1616B
  8
AM_0
 10
584.6525409723605
 20
210.03173871639089
 30
0.0
 11
584.6525409723605
 21
214.031738716391
 31
0.0
  0
ARC
  5
1616C
  8
AM_0
 10
575.52593814476495
 20
213.03177871639119
 30
0.0
 40
2.9999999999999978
 50
215.68533471265459
 51
270.0
1001
GENIUS_GENOBJ-N-FIL_13
1002
{
1000
OWNER
1000
GEN
1002
}
1001
GENIUS_GENODEF_13
1002
{
1000
HIER
1070
     0
1002
}
1002
{
1000
MANEDIT
1070
     0
1002
}
1002
{
1000
NOSEL
1070
     0
1002
}
1002
{
1000
BEHIND
1070
     0
1002
}
1002
{
1000
OTHER
1070
     0
1002
}
1002
{
1000
REACTOR
1002
}
  0
ARC
  5
1616D
  8
AM_0
 10
570.65254097236073
 20
209.5317787163911
 30
0.0
 40
2.9999999999999978
 50
35.685334712654637
 51
90.0
1001
GENIUS_GENOBJ-N-FIL_13
1002
{
1000
OWNER
1000
GEN
1002
}
1001
GENIUS_GENODEF_13
1002
{
1000
HIER
1070
     0
1002
}
1002
{
1000
MANEDIT
1070
     0
1002
}
1002
{
1000
NOSEL
1070
     0
1002
}
1002
{
1000
BEHIND
1070
     0
1002
}
1002
{
1000
OTHER
1070
     0
1002
}
1002
{
1000
REACTOR
1002
}
  0
ARC
  5
1616E
  8
AM_0
 10
552.58100661867411
 20
228.30305007829719
 30
0.0
 40
2.9999999999999978
 50
270.0
 51
353.33928567968309
1001
GENIUS_GENOBJ-N-FIL_13
1002
{
1000
OWNER
1000
GEN
1002
}
1001
GENIUS_GENODEF_13
1002
{
1000
HIER
1070
     0
1002
}
1002
{
1000
MANEDIT
1070
     0
1002
}
1002
{
1000
NOSEL
1070
     0
1002
}
1002
{
1000
BEHIND
1070
     0
1002
}
1002
{
1000
OTHER
1070
     0
1002
}
1002
{
1000
REACTOR
1002
}
  0
LINE
  5
16172
  8
ﾁｭｳｼﾝｾﾝ1
 10
535.15254061473286
 20
230.53176741999019
 30
0.0
 11
535.15254061473286
 21
213.53176691335079
 31
0.0
  0
ARC
  5
16173
  8
AM_0
 10
543.44411802379705
 20
209.53177871639161
 30
0.0
 40
2.9999999999999978
 50
90.0
 51
123.55737886317171
1001
GENIUS_GENOBJ-N-FIL_13
1002
{
1000
OWNER
1000
GEN
1002
}
1001
GENIUS_GENODEF_13
1002
{
1000
HIER
1070
     0
1002
}
1002
{
1000
MANEDIT
1070
     0
1002
}
1002
{
1000
NOSEL
1070
     0
1002
}
1002
{
1000
BEHIND
1070
     0
1002
}
1002
{
1000
OTHER
1070
     0
1002
}
1002
{
1000
REACTOR
1002
}
  0
LINE
  5
16174
  8
ﾁｭｳｼﾝｾﾝ1
 10
543.6525408680526
 20
222.03176716667031
 30
0.0
 11
526.65250984383385
 21
222.03176716667031
 31
0.0
  0
CIRCLE
  5
16176
  8
AM_0
 10
535.15254061473286
 20
222.03176716667031
 30
0.0
 40
5.5000001639127731
  0
LINE
  5
16177
  8
AM_0
 10
552.58100661867275
 20
322.76048735448518
 30
0.0
 11
548.15254097236061
 21
322.76048735448512
 31
0.0
  0
ARC
  5
16178
  8
AM_0
 10
535.15254061473286
 20
326.03177026611201
 30
0.0
 40
12.000000357627879
 50
359.99999499104308
 51
89.999997495524809
  0
LINE
  5
16179
  8
AM_0
 10
570.65254097236073
 20
335.53175871639132
 30
0.0
 11
543.44411802379705
 21
335.53175871639093
 31
0.0
  0
LINE
  5
1617A
  8
AM_0
 10
584.6525409723605
 20
311.17174871639111
 30
0.0
 11
574.65254097236061
 21
311.17174871639111
 31
0.0
  0
ARC
  5
1617B
  8
AM_0
 10
552.58100661867275
 20
319.76048735448529
 30
0.0
 40
2.9999999999999978
 50
6.6607143203168917
 51
90.0
1001
GENIUS_GENODEF_13
1002
{
1000
HIER
1070
     0
1002
}
1002
{
1000
MANEDIT
1070
     0
1002
}
1002
{
1000
NOSEL
1070
     0
1002
}
1002
{
1000
BEHIND
1070
     0
1002
}
1002
{
1000
OTHER
1070
     0
1002
}
1002
{
1000
REACTOR
1002
}
1001
GENIUS_GENOBJ-N-FIL_13
1002
{
1000
OWNER
1000
GEN
1002
}
  0
LINE
  5
1617C
  8
AM_0
 10
584.6525409723605
 20
326.07175871639117
 30
0.0
 11
574.65254097236061
 21
326.07175871639117
 31
0.0
  0
LINE
  5
1617D
  8
AM_0
 10
584.6525409723605
 20
338.03175871639132
 30
0.0
 11
575.52593814476495
 21
338.03175871639132
 31
0.0
  0
ARC
  5
1617E
  8
AM_0
 10
575.52593814476495
 20
335.03175871639132
 30
0.0
 40
2.9999999999999978
 50
90.0
 51
144.31466528734541
1001
GENIUS_GENOBJ-N-FIL_13
1002
{
1000
OWNER
1000
GEN
1002
}
1001
GENIUS_GENODEF_13
1002
{
1000
HIER
1070
     0
1002
}
1002
{
1000
MANEDIT
1070
     0
1002
}
1002
{
1000
NOSEL
1070
     0
1002
}
1002
{
1000
BEHIND
1070
     0
1002
}
1002
{
1000
OTHER
1070
     0
1002
}
1002
{
1000
REACTOR
1002
}
  0
ARC
  5
1617F
  8
AM_0
 10
570.65254097236073
 20
338.53175871639121
 30
0.0
 40
2.9999999999999978
 50
270.0
 51
324.31466528734541
1001
GENIUS_GENOBJ-N-FIL_13
1002
{
1000
OWNER
1000
GEN
1002
}
1001
GENIUS_GENODEF_13
1002
{
1000
HIER
1070
     0
1002
}
1002
{
1000
MANEDIT
1070
     0
1002
}
1002
{
1000
NOSEL
1070
     0
1002
}
1002
{
1000
BEHIND
1070
     0
1002
}
1002
{
1000
OTHER
1070
     0
1002
}
1002
{
1000
REACTOR
1002
}
  0
LINE
  5
16183
  8
ﾁｭｳｼﾝｾﾝ1
 10
535.15254061473286
 20
334.53177051943157
 30
0.0
 11
535.15254061473286
 21
317.53177001279232
 31
0.0
  0
CIRCLE
  5
16184
  8
AM_0
 10
535.15254061473286
 20
326.03177026611201
 30
0.0
 40
5.5000001639127731
  0
LINE
  5
16187
  8
ﾁｭｳｼﾝｾﾝ1
 10
543.6525408680526
 20
326.03177026611201
 30
0.0
 11
526.65250984383385
 21
326.03177026611201
 31
0.0
  0
ARC
  5
16188
  8
AM_0
 10
543.44411802379705
 20
338.53175871639093
 30
0.0
 40
2.9999999999999978
 50
236.44262113682831
 51
270.0
1001
GENIUS_GENOBJ-N-FIL_13
1002
{
1000
OWNER
1000
GEN
1002
}
1001
GENIUS_GENODEF_13
1002
{
1000
HIER
1070
     0
1002
}
1002
{
1000
MANEDIT
1070
     0
1002
}
1002
{
1000
NOSEL
1070
     0
1002
}
1002
{
1000
BEHIND
1070
     0
1002
}
1002
{
1000
OTHER
1070
     0
1002
}
1002
{
1000
REACTOR
1002
}
  0
LINE
  5
16190
  8
AM_0
 10
375.15250532878218
 20
326.03177026611201
 30
0.0
 11
375.15250532878218
 21
222.03176716667031
 31
0.0
  0
ARC
  5
16195
  8
AM_0
 10
387.15250568641028
 20
222.03176716667031
 30
0.0
 40
12.000000357627879
 50
180.0
 51
270.0000025044817
  0
LINE
  5
16196
  8
ﾁｭｳｼﾝｾﾝ1
 10
395.65250593972991
 20
222.03176716667031
 30
0.0
 11
378.65250543309031
 21
222.03176716667031
 31
0.0
  0
CIRCLE
  5
16197
  8
AM_0
 10
387.15250568641028
 20
222.03176716667031
 30
0.0
 40
5.5000001639127731
  0
LINE
  5
16199
  8
ﾁｭｳｼﾝｾﾝ1
 10
387.15250568641028
 20
230.53176741999019
 30
0.0
 11
387.15250568641028
 21
213.53176691335079
 31
0.0
  0
LINE
  5
1619D
  8
ﾁｭｳｼﾝｾﾝ1
 10
387.15250568641028
 20
334.53177051943157
 30
0.0
 11
387.15250568641028
 21
317.53177001279232
 31
0.0
  0
CIRCLE
  5
1619E
  8
AM_0
 10
387.15250568641028
 20
326.03177026611201
 30
0.0
 40
5.5000001639127731
  0
ARC
  5
161A1
  8
AM_0
 10
387.15250568641028
 20
326.03177026611201
 30
0.0
 40
12.00000035762787
 50
89.999997495524809
 51
180.0
  0
LINE
  5
161A2
  8
ﾁｭｳｼﾝｾﾝ1
 10
395.65250593972991
 20
326.03177026611201
 30
0.0
 11
378.65250543309031
 21
326.03177026611201
 31
0.0
  0
INSERT
  5
161A4
  8
AM_0
  2
NEW_BLOCK
 10
225.79408254482269
 20
274.03176871639118
 30
0.0
 41
1.1111111111110841
 42
1.1111111111110841
 43
1.1111111111110841
  0
ARC
  5
161A5
  8
AM_0
 10
176.81099108450891
 20
274.02176871639119
 30
0.0
 40
64.003665999999996
 50
325.87476838391422
 51
340.9455918001122
  0
LINE
  5
161A6
  8
AM_0
 10
229.79409029342699
 20
236.53176759880409
 30
0.0
 11
229.79409029342699
 21
311.53176983397827
 31
0.0
  0
LINE
  5
161A7
  8
AM_0
 10
127.7940719948003
 20
211.3932780800875
 30
0.0
 11
127.7940719948003
 21
336.67028987027379
 31
0.0
  0
LINE
  5
161A8
  8
AM_0
 10
205.79408194877621
 20
210.03176680904261
 30
0.0
 11
205.79408194877621
 21
338.03177062373982
 31
0.0
  0
LINE
  5
161A9
  8
ﾁｭｳｼﾝｾﾝ1
 10
176.79408108450909
 20
167.78176871639121
 30
0.0
 11
176.79408108450909
 21
344.28176892895669
 31
0.0
  0
LINE
  5
161AA
  8
AM_0
 10
123.794079504986
 20
236.53176759880409
 30
0.0
 11
123.794079504986
 21
311.53176983397827
 31
0.0
  0
LINE
  5
161AB
  8
AM_0
 10
225.79408254482269
 20
210.38085739561819
 30
0.0
 11
225.79408254482269
 21
337.68268003716429
 31
0.0
  0
LINE
  5
161AD
  8
AM_0
 10
233.79409041263619
 20
296.53176938694349
 30
0.0
 11
233.79409041263619
 21
251.5317680458389
 31
0.0
  0
ARC
  5
161AE
  8
AM_0
 10
176.81099108450891
 20
274.02176871639119
 30
0.0
 40
64.014987999999974
 50
145.9137920481231
 51
214.08620795187679
  0
ARC
  5
161B2
  8
AM_0
 10
176.7674710845092
 20
274.02927871639127
 30
0.0
 40
63.989566999999987
 50
270.02382639558652
 51
276.22718035921912
  0
LINE
  5
161B3
  8
AM_0
 10
207.29408108450909
 20
195.5317687163913
 30
0.0
 11
146.29408108450889
 21
195.5317687163913
 31
0.0
  0
LINE
  5
161B4
  8
AM_0
 10
208.29408108450909
 20
202.03176871639121
 30
0.0
 11
145.29408108450889
 21
202.03176871639121
 31
0.0
  0
LINE
  5
161B5
  8
AM_0
 10
146.79408108450909
 20
204.03176871639121
 30
0.0
 11
206.8340610845089
 21
204.03176871639121
 31
0.0
  0
LINE
  5
161B6
  8
AM_0
 10
210.29408108450889
 20
199.03176871639121
 30
0.0
 11
143.29408108450909
 21
199.03176871639121
 31
0.0
  0
LINE
  5
161B7
  8
AM_0
 10
205.79408108450909
 20
177.03176871639141
 30
0.0
 11
147.79408108450889
 21
177.03176871639141
 31
0.0
  0
LINE
  5
161B8
  8
AM_0
 10
205.79408194877621
 20
210.03176680904261
 30
0.0
 11
127.7940719948003
 21
211.3932780800875
 31
0.0
  0
LINE
  5
161B9
  8
AM_0
 10
194.5940710845091
 20
174.03176871639121
 30
0.0
 11
158.98408108450889
 21
174.03176871639121
 31
0.0
  0
LINE
  5
161BA
  8
AM_0
 10
167.61066147759561
 20
210.6982632289525
 30
0.0
 11
183.70848056485849
 21
210.41727456433529
 31
0.0
  0
LINE
  5
161BB
  8
ﾁｭｳｼﾝｾﾝ1
 10
124.044075809498
 20
222.03176716667031
 30
0.0
 11
229.54408635952041
 21
222.03176716667039
 31
0.0
  0
LINE
  5
161BC
  8
ｶｸﾚｾﾝ2
 10
127.79407962419531
 20
227.53176733058331
 30
0.0
 11
225.7940901742177
 21
227.53176733058331
 31
0.0
  0
LINE
  5
161BD
  8
ｶｸﾚｾﾝ2
 10
127.79407962419531
 20
216.53176700275759
 30
0.0
 11
225.7940901742177
 21
216.53176700275759
 31
0.0
  0
LINE
  5
161BE
  8
ﾁｭｳｼﾝｾﾝ1
 10
106.546003865576
 20
274.0317687163913
 30
0.0
 11
293.86779121346581
 21
274.03176871639118
 31
0.0
  0
LINE
  5
161BF
  8
AM_0
 10
143.29408108450909
 20
199.03176871639121
 30
0.0
 11
143.29408108450909
 21
184.03176871639121
 31
0.0
  0
LINE
  5
161C0
  8
AM_0
 10
145.29408108450889
 20
184.03176871639121
 30
0.0
 11
145.29408108450889
 21
202.03176871639121
 31
0.0
  0
LINE
  5
161C1
  8
AM_0
 10
146.79408108450909
 20
178.0317687163913
 30
0.0
 11
146.79408108450909
 21
195.5317687163913
 31
0.0
  0
LINE
  5
161C2
  8
AM_0
 10
145.29408108450889
 20
184.03176871639121
 30
0.0
 11
143.29408108450909
 21
184.03176871639121
 31
0.0
  0
ARC
  5
161C3
  8
AM_0
 10
146.29408108450889
 20
184.03176871639121
 30
0.0
 40
0.9999999999999998
 50
180.00000299999761
 51
270.000010000001
  0
ARC
  5
161C4
  8
AM_0
 10
147.79408108450889
 20
178.0317687163913
 30
0.0
 40
0.9999999999999998
 50
180.00000299999761
 51
270.000010000001
  0
LINE
  5
161C5
  8
AM_0
 10
153.79408108450889
 20
177.03176871639141
 30
0.0
 11
158.98408108450889
 21
174.03176871639121
 31
0.0
  0
LINE
  5
161C6
  8
AM_0
 10
146.79408108450909
 20
183.0317687163913
 30
0.0
 11
146.29408108450889
 21
183.0317687163913
 31
0.0
  0
ARC
  5
161C7
  8
AM_0
 10
111.894821084509
 20
279.03135871639131
 30
0.0
 40
1.0004146999999981
 50
90.041480000001087
 51
267.66698999999528
  0
ARC
  5
161C8
  8
AM_0
 10
111.894991084509
 20
269.0321887163912
 30
0.0
 40
1.000418199999999
 50
92.342590000002204
 51
269.94893999999681
  0
ARC
  5
161C9
  8
AM_0
 10
144.62529108450909
 20
208.1094187163913
 30
0.0
 40
2.0097484999999988
 50
1.7779099999985699
 51
157.0903460000016
  0
ARC
  5
161CA
  8
AM_0
 10
141.79420108450901
 20
209.1389987163914
 30
0.0
 40
1.000226099999999
 50
179.2686670000009
 51
358.43981999999932
  0
LINE
  5
161CB
  8
AM_0
 10
140.72088143133169
 20
211.16762639834141
 30
0.0
 11
140.79408108450909
 21
209.11175871639131
 31
0.0
  0
LINE
  5
161CC
  8
AM_0
 10
142.8534752367716
 20
211.1304018101961
 30
0.0
 11
142.77409108450911
 21
208.89176871639131
 31
0.0
  0
ARC
  5
161CD
  8
AM_0
 10
130.304641084509
 20
227.5423167163913
 30
0.0
 40
5.010561899999999
 50
180.12064999999691
 51
239.9302709009238
  0
ARC
  5
161CE
  8
AM_0
 10
122.29409108450881
 20
235.04849285933579
 30
0.0
 40
2.9999999999999978
 50
0.0
 51
29.631860164016562
1001
GENIUS_GENOBJ-N-FIL_13
1002
{
1000
OWNER
1000
GEN
1002
}
1001
GENIUS_GENODEF_13
1002
{
1000
HIER
1070
     0
1002
}
1002
{
1000
MANEDIT
1070
     0
1002
}
1002
{
1000
NOSEL
1070
     0
1002
}
1002
{
1000
BEHIND
1070
     0
1002
}
1002
{
1000
OTHER
1070
     0
1002
}
1002
{
1000
REACTOR
1002
}
  0
LINE
  5
161CF
  8
AM_0
 10
123.794079504986
 20
236.53176759880409
 30
0.0
 11
127.79407962419531
 21
236.53176759880409
 31
0.0
  0
LINE
  5
161D0
  8
AM_0
 10
125.29409108450881
 20
227.53176571639119
 30
0.0
 11
125.29409108450881
 21
235.0484928593356
 31
0.0
  0
LINE
  5
161D1
  8
AM_0
 10
146.55240026569069
 20
211.06583679062661
 30
0.0
 11
146.794082596137
 21
202.03176871639141
 31
0.0
  0
ARC
  5
161D2
  8
AM_0
 10
146.29408108450889
 20
196.53176871639121
 30
0.0
 40
0.9999999999999998
 50
180.00000299999761
 51
270.000010000001
  0
ARC
  5
161D3
  8
AM_0
 10
176.7674710845092
 20
274.02927871639127
 30
0.0
 40
63.989566999999987
 50
261.77281830828713
 51
270.02382639558652
  0
ARC
  5
161D4
  8
AM_0
 10
112.5678810845088
 20
259.03199871639129
 30
0.0
 40
1.000333199999998
 50
91.936239999999714
 51
269.20963000000017
  0
ARC
  5
161D5
  8
AM_0
 10
113.92326108450899
 20
249.0323537163913
 30
0.0
 40
1.000625599999998
 50
92.817069999998438
 51
269.4744600000011
  0
ARC
  5
161D6
  8
AM_0
 10
116.39761108450899
 20
249.02219871639139
 30
0.0
 40
1.090437399999999
 50
92.287669999999238
 51
269.814680000002
  0
LINE
  5
161D7
  8
AM_0
 10
115.29409108450881
 20
249.03176571639131
 30
0.0
 11
115.29409108450881
 21
239.7717717163913
 31
0.0
  0
LINE
  5
161D8
  8
AM_0
 10
123.7940810845091
 20
237.7453048325643
 30
0.0
 11
115.93409108450891
 21
238.03177371639131
 31
0.0
  0
LINE
  5
161D9
  8
AM_0
 10
122.395567332846
 20
240.2508045947595
 30
0.0
 11
115.93409108450891
 21
240.03176571639119
 31
0.0
  0
LINE
  5
161DA
  8
AM_0
 10
115.29409108450881
 20
246.79176771639129
 30
0.0
 11
113.2740910845088
 21
246.6517687163913
 31
0.0
  0
LINE
  5
161DB
  8
AM_0
 10
115.29409108450881
 20
247.97176771639121
 30
0.0
 11
113.87410108450899
 21
248.03176571639131
 31
0.0
  0
ARC
  5
161DC
  8
AM_0
 10
113.29445108450911
 20
246.15182971639121
 30
0.0
 40
0.50035203
 50
92.331169999999688
 51
180.00710999999771
  0
LINE
  5
161DD
  8
AM_0
 10
112.79409108450881
 20
245.53176571639119
 30
0.0
 11
112.79409108450881
 21
246.1517687163913
 31
0.0
  0
ARC
  5
161DE
  8
AM_0
 10
115.97998108450901
 20
239.0322847163913
 30
0.0
 40
1.000534899999999
 50
92.628309999997001
 51
269.66321999999968
  0
LINE
  5
161DF
  8
AM_0
 10
115.2940810845089
 20
244.25176671639119
 30
0.0
 11
113.2740910845088
 21
244.3917667163912
 31
0.0
  0
ARC
  5
161E0
  8
AM_0
 10
113.3083210845088
 20
244.90501871639131
 30
0.0
 40
0.5143923799999999
 50
181.47632999999809
 51
266.1853900000005
  0
LINE
  5
161E1
  8
AM_0
 10
112.79409108450881
 20
245.53176571639119
 30
0.0
 11
112.79409108450881
 21
244.8917667163912
 31
0.0
  0
LINE
  5
161E2
  8
AM_0
 10
118.3486890593976
 20
247.8703990707422
 30
0.0
 11
116.3540910845088
 21
247.93176771639119
 31
0.0
  0
LINE
  5
161E4
  8
AM_0
 10
114.8143003882239
 20
257.95147930428851
 30
0.0
 11
112.5340810845089
 21
258.03176871639118
 31
0.0
  0
LINE
  5
161E5
  8
AM_0
 10
117.3802423302979
 20
250.15207372180529
 30
0.0
 11
113.874081084509
 21
250.03176571639119
 31
0.0
  0
LINE
  5
161E6
  8
AM_0
 10
113.05048209898681
 20
267.99051361672463
 30
0.0
 11
111.8540910845088
 21
268.0317687163913
 31
0.0
  0
LINE
  5
161E7
  8
AM_0
 10
114.2984145283221
 20
260.0926075384242
 30
0.0
 11
112.5340810845089
 21
260.0317687163913
 31
0.0
  0
LINE
  5
161E8
  8
AM_0
 10
112.8908116046746
 20
277.99240614423633
 30
0.0
 11
111.8540910845088
 21
278.0317687163913
 31
0.0
  0
LINE
  5
161E9
  8
AM_0
 10
113.0546586269533
 20
280.07316746614509
 30
0.0
 11
111.85408108450881
 21
280.03176871639118
 31
0.0
  0
LINE
  5
161EA
  8
AM_0
 10
112.8889025687597
 20
270.05796647548613
 30
0.0
 11
111.8540910845088
 21
270.03176871639118
 31
0.0
  0
LINE
  5
161EB
  8
AM_0
 10
208.29408108450909
 20
184.03176871639121
 30
0.0
 11
208.29408108450909
 21
202.03176871639121
 31
0.0
  0
LINE
  5
161EC
  8
AM_0
 10
210.29408108450889
 20
199.03176871639121
 30
0.0
 11
210.29408108450889
 21
184.03176871639121
 31
0.0
  0
LINE
  5
161ED
  8
AM_0
 10
206.79408108450909
 20
178.0317687163913
 30
0.0
 11
206.79408108450909
 21
195.5317687163913
 31
0.0
  0
LINE
  5
161EE
  8
AM_0
 10
199.79408108450909
 20
177.0317887163913
 30
0.0
 11
194.5940710845091
 21
174.03176871639121
 31
0.0
  0
ARC
  5
161EF
  8
AM_0
 10
207.29408108450909
 20
184.03176871639121
 30
0.0
 40
0.9999999999999998
 50
269.999989999999
 51
0.0
  0
ARC
  5
161F0
  8
AM_0
 10
205.79408108450909
 20
178.0317687163913
 30
0.0
 40
0.9999999999999998
 50
269.999989999999
 51
0.0
  0
LINE
  5
161F1
  8
AM_0
 10
207.29408108450909
 20
183.0317687163913
 30
0.0
 11
206.79408108450909
 21
183.0317687163913
 31
0.0
  0
LINE
  5
161F2
  8
AM_0
 10
208.29408108450909
 20
184.03176871639121
 30
0.0
 11
210.29408108450889
 21
184.03176871639121
 31
0.0
  0
ARC
  5
161F3
  8
AM_0
 10
211.79393108450901
 20
209.13967871639139
 30
0.0
 40
1.000231299999998
 50
181.598942999999
 51
0.6925799999989849
  0
LINE
  5
161F4
  8
AM_0
 10
225.79408254482269
 20
210.38085739561819
 30
0.0
 11
205.79408194877621
 21
210.03176680904261
 31
0.0
  0
LINE
  5
161F5
  8
AM_0
 10
205.79408108450909
 20
210.0317687163913
 30
0.0
 11
183.70848056485801
 21
210.41727456433529
 31
0.0
  0
LINE
  5
161F6
  8
AM_0
 10
206.9984224502941
 20
210.05279086233401
 30
0.0
 11
206.7940590496323
 21
202.03176871639141
 31
0.0
  0
ARC
  5
161F7
  8
AM_0
 10
207.29408108450909
 20
196.53176871639121
 30
0.0
 40
0.9999999999999998
 50
269.999989999999
 51
0.0
  0
ARC
  5
161F8
  8
AM_0
 10
208.95244108450899
 20
208.1137887163915
 30
0.0
 40
1.9992131999999989
 50
22.90132999999723
 51
178.33797800000431
  0
LINE
  5
161F9
  8
AM_0
 10
210.75055866729829
 20
210.1182855446487
 30
0.0
 11
210.79405108450919
 21
208.89176871639131
 31
0.0
  0
LINE
  5
161FA
  8
AM_0
 10
212.82956461895219
 20
210.15457522776751
 30
0.0
 11
212.79405108450891
 21
209.11176871639131
 31
0.0
  0
LINE
  5
161FB
  8
AM_0
 10
229.79409029342699
 20
236.53176759880409
 30
0.0
 11
225.7940901742177
 21
236.53176759880409
 31
0.0
  0
ARC
  5
161FC
  8
AM_0
 10
223.300431084509
 20
227.52541771639119
 30
0.0
 40
4.9936542999999984
 50
299.95791578702313
 51
0.0728599999961018
  0
ARC
  5
161FD
  8
AM_0
 10
231.29408108450889
 20
235.02068973783639
 30
0.0
 40
2.9999999999999978
 50
149.7553713069936
 51
180.0
1001
GENIUS_GENOBJ-N-FIL_13
1002
{
1000
OWNER
1000
GEN
1002
}
1001
GENIUS_GENODEF_13
1002
{
1000
HIER
1070
     0
1002
}
1002
{
1000
MANEDIT
1070
     0
1002
}
1002
{
1000
NOSEL
1070
     0
1002
}
1002
{
1000
BEHIND
1070
     0
1002
}
1002
{
1000
OTHER
1070
     0
1002
}
1002
{
1000
REACTOR
1002
}
  0
LINE
  5
161FE
  8
AM_0
 10
228.29408108450889
 20
235.02068973783639
 30
0.0
 11
228.29408108450889
 21
227.53176571639119
 31
0.0
  0
ARC
  5
16200
  8
AM_0
 10
239.69874108450881
 20
249.03207871639131
 30
0.0
 40
1.000317799999999
 50
269.73379000000142
 51
87.97469000000234
  0
ARC
  5
16201
  8
AM_0
 10
237.22438108450891
 20
249.02194671639131
 30
0.0
 40
1.0902267999999991
 50
269.45945999999799
 51
88.438189999999437
  0
LINE
  5
16202
  8
AM_0
 10
238.29408108450889
 20
249.03176571639131
 30
0.0
 11
238.29408108450889
 21
239.7717717163913
 31
0.0
  0
LINE
  5
16203
  8
AM_0
 10
235.1731010334741
 20
247.867735344821
 30
0.0
 11
237.2541010845089
 21
247.93176771639119
 31
0.0
  0
LINE
  5
16204
  8
AM_0
 10
229.79408108450889
 20
237.74456721160939
 30
0.0
 11
237.6740810845088
 21
238.03176571639119
 31
0.0
  0
LINE
  5
16205
  8
AM_0
 10
231.12917157569541
 20
240.25363383355199
 30
0.0
 11
237.6740810845088
 21
240.0317737163912
 31
0.0
  0
ARC
  5
16206
  8
AM_0
 10
240.31138108450889
 20
246.16927771639121
 30
0.0
 40
0.48302591
 50
357.92275099999972
 51
87.305360000000974
  0
LINE
  5
16207
  8
AM_0
 10
240.79408108450889
 20
245.53176571639119
 30
0.0
 11
240.79408108450889
 21
246.1517687163913
 31
0.0
  0
ARC
  5
16208
  8
AM_0
 10
240.29704108450889
 20
244.88747071639131
 30
0.0
 40
0.4970828599999999
 50
274.27614450000152
 51
0.4957440000002111
  0
LINE
  5
16209
  8
AM_0
 10
240.79408108450889
 20
245.53176571639119
 30
0.0
 11
240.79408108450889
 21
244.8917667163912
 31
0.0
  0
ARC
  5
1620A
  8
AM_0
 10
237.641131084509
 20
239.03033171639129
 30
0.0
 40
0.9985855199999996
 50
269.59630999999581
 51
70.522550000004287
  0
LINE
  5
1620B
  8
AM_0
 10
238.29408108450889
 20
244.25176671639119
 30
0.0
 11
240.3340910845088
 21
244.3917667163912
 31
0.0
  0
LINE
  5
1620C
  8
AM_0
 10
238.29411108450881
 20
246.79176771639129
 30
0.0
 11
240.3340910845088
 21
246.6517687163913
 31
0.0
  0
LINE
  5
1620D
  8
AM_0
 10
238.29408108450889
 20
247.97176771639121
 30
0.0
 11
239.73408108450889
 21
248.03177371639131
 31
0.0
  0
LINE
  5
1620E
  8
AM_0
 10
236.14389862059369
 20
250.1549580994334
 30
0.0
 11
239.7341110845089
 21
250.03176571639119
 31
0.0
  0
LINE
  5
1620F
  8
AM_0
 10
233.79409041263619
 20
251.5317680458389
 30
0.0
 11
229.79409029342699
 21
251.5317680458389
 31
0.0
  0
ARC
  5
16218
  8
AM_0
 10
176.784041084509
 20
274.0254187163909
 30
0.0
 40
64.006351000000123
 50
83.719456375074856
 51
89.991012616410785
  0
LINE
  5
16219
  8
AM_0
 10
205.79408194877621
 20
338.03177062373982
 30
0.0
 11
127.7940719948003
 21
336.67028987027379
 31
0.0
  0
LINE
  5
1621A
  8
ﾁｭｳｼﾝｾﾝ1
 10
124.0440758094976
 20
326.03177026611218
 30
0.0
 11
229.54408635952021
 21
326.03177026611218
 31
0.0
  0
LINE
  5
1621B
  8
ｶｸﾚｾﾝ2
 10
127.79407962419531
 20
331.53177043002472
 30
0.0
 11
225.7940901742177
 21
331.53177043002472
 31
0.0
  0
LINE
  5
1621C
  8
ｶｸﾚｾﾝ2
 10
127.79407962419531
 20
320.53177010219918
 30
0.0
 11
225.7940901742177
 21
320.53177010219918
 31
0.0
  0
ARC
  5
16223
  8
AM_0
 10
130.3004610845091
 20
320.52538871639121
 30
0.0
 40
5.0063781999999977
 50
120.04217682435279
 51
179.92705000000001
  0
LINE
  5
16224
  8
AM_0
 10
112.79409108450881
 20
302.53176871639118
 30
0.0
 11
112.79409108450881
 21
301.89176871639131
 31
0.0
  0
LINE
  5
16225
  8
AM_0
 10
115.29409108450881
 20
308.29177871639132
 30
0.0
 11
115.29409108450881
 21
299.03176871639118
 31
0.0
  0
LINE
  5
16226
  8
AM_0
 10
114.82580216994
 20
290.11246255254139
 30
0.0
 11
112.5340810845089
 21
290.0317687163913
 31
0.0
  0
LINE
  5
16227
  8
AM_0
 10
114.3081370072034
 20
287.97059463791061
 30
0.0
 11
112.5340810845089
 21
288.03176871639118
 31
0.0
  0
ARC
  5
16228
  8
AM_0
 10
112.567811084509
 20
289.03153871639131
 30
0.0
 40
1.000331199999998
 50
90.785589999996475
 51
268.06853999999981
  0
LINE
  5
1622A
  8
AM_0
 10
115.29409108450881
 20
300.07177871639129
 30
0.0
 11
113.87410108450899
 21
300.03176871639118
 31
0.0
  0
LINE
  5
1622B
  8
AM_0
 10
115.2940810845089
 20
301.25176871639133
 30
0.0
 11
113.2740910845088
 21
301.39176871639131
 31
0.0
  0
ARC
  5
1622C
  8
AM_0
 10
113.3083210845088
 20
301.90502871639109
 30
0.0
 40
0.5143923799999999
 50
181.47632999999809
 51
266.1853900000005
  0
ARC
  5
1622D
  8
AM_0
 10
113.923091084509
 20
299.03118871639123
 30
0.0
 40
1.0006207999999981
 50
90.515970000001047
 51
267.19250000000471
  0
ARC
  5
1622E
  8
AM_0
 10
116.39761108450899
 20
299.02219871639119
 30
0.0
 40
1.090437399999999
 50
92.287669999999238
 51
269.81468999999669
  0
LINE
  5
1622F
  8
AM_0
 10
117.39765664724899
 20
297.91086180538099
 30
0.0
 11
113.87410108450899
 21
298.0317687163913
 31
0.0
  0
LINE
  5
16230
  8
AM_0
 10
118.36657565936569
 20
300.18917226697653
 30
0.0
 11
116.3540910845088
 21
300.11176871639123
 31
0.0
  0
LINE
  5
16231
  8
AM_0
 10
125.29409108450881
 20
312.99504457344682
 30
0.0
 11
125.29409108450881
 21
320.5317687163913
 31
0.0
  0
LINE
  5
16232
  8
AM_0
 10
123.7940810845089
 20
310.30033271901999
 30
0.0
 11
115.934081084509
 21
310.03176871639118
 31
0.0
  0
LINE
  5
16233
  8
AM_0
 10
122.41114747495
 20
307.79391037739452
 30
0.0
 11
115.93409108450891
 21
308.0317687163913
 31
0.0
  0
ARC
  5
16234
  8
AM_0
 10
115.979811084509
 20
309.03124871639108
 30
0.0
 40
1.000530599999998
 50
90.327200000001042
 51
267.38127000000139
  0
LINE
  5
16235
  8
AM_0
 10
115.2940810845089
 20
303.81176871639121
 30
0.0
 11
113.2740910845088
 21
303.65175871639121
 31
0.0
  0
ARC
  5
16236
  8
AM_0
 10
113.29445108450911
 20
303.15183871639113
 30
0.0
 40
0.50035203
 50
92.331169999999688
 51
180.00710999999771
  0
LINE
  5
16237
  8
AM_0
 10
112.79409108450881
 20
302.53176871639118
 30
0.0
 11
112.79409108450881
 21
303.15175871639121
 31
0.0
  0
ARC
  5
16238
  8
AM_0
 10
122.29409108450881
 20
312.99504457344682
 30
0.0
 40
2.9999999999999978
 50
330.80663173194722
 51
0.0
1001
GENIUS_GENOBJ-N-FIL_13
1002
{
1000
OWNER
1000
GEN
1002
}
1001
GENIUS_GENODEF_13
1002
{
1000
HIER
1070
     0
1002
}
1002
{
1000
MANEDIT
1070
     0
1002
}
1002
{
1000
NOSEL
1070
     0
1002
}
1002
{
1000
BEHIND
1070
     0
1002
}
1002
{
1000
OTHER
1070
     0
1002
}
1002
{
1000
REACTOR
1002
}
  0
LINE
  5
16239
  8
AM_0
 10
123.794079504986
 20
311.53176983397827
 30
0.0
 11
127.79407962419531
 21
311.53176983397827
 31
0.0
  0
ARC
  5
1623A
  8
AM_0
 10
161.79448108450919
 20
338.27107871639117
 30
0.0
 40
1.000413999999999
 50
2.3310499999979029
 51
179.96048300000029
  0
ARC
  5
1623B
  8
AM_0
 10
151.79432108450919
 20
336.91555671639111
 30
0.0
 40
1.000393499999999
 50
10.99352963525819
 51
179.0714379999965
  0
LINE
  5
1623C
  8
AM_0
 10
160.75653699288861
 20
337.2456261257056
 30
0.0
 11
160.79408108450909
 21
338.3117747163912
 31
0.0
  0
ARC
  5
1623D
  8
AM_0
 10
176.784041084509
 20
274.0254187163909
 30
0.0
 40
64.006351000000123
 50
89.991012616410785
 51
98.280567367618445
  0
LINE
  5
1623E
  8
AM_0
 10
162.829575734466
 20
337.28181158119088
 30
0.0
 11
162.79405108450891
 21
338.31177071639132
 31
0.0
  0
LINE
  5
1623F
  8
AM_0
 10
172.82112595561441
 20
337.92296255140587
 30
0.0
 11
172.79408108450889
 21
338.9917707163911
 31
0.0
  0
LINE
  5
16240
  8
AM_0
 10
170.75158684798291
 20
337.75943314889162
 30
0.0
 11
170.79408108450909
 21
338.99176671639128
 31
0.0
  0
ARC
  5
16241
  8
AM_0
 10
171.79463108450909
 20
338.94402571639108
 30
0.0
 40
1.0005847999999991
 50
2.7350400000044401
 51
179.5564910000007
  0
ARC
  5
16244
  8
AM_0
 10
223.3046410845088
 20
320.54230871639129
 30
0.0
 40
4.9894699999999981
 50
359.87895100000162
 51
60.070185938252052
  0
LINE
  5
16245
  8
AM_0
 10
240.79408108450889
 20
302.53176871639118
 30
0.0
 11
240.79408108450889
 21
301.89176871639131
 31
0.0
  0
LINE
  5
16246
  8
AM_0
 10
238.29408108450889
 20
308.29177871639132
 30
0.0
 11
238.29408108450889
 21
299.03176871639118
 31
0.0
  0
LINE
  5
1624A
  8
AM_0
 10
235.15491516555809
 20
300.1924985625588
 30
0.0
 11
237.2541010845089
 21
300.11176871639123
 31
0.0
  0
LINE
  5
1624B
  8
AM_0
 10
236.1264864772613
 20
297.90797809854149
 30
0.0
 11
239.73408108450889
 21
298.0317687163913
 31
0.0
  0
LINE
  5
1624C
  8
AM_0
 10
233.79409041263619
 20
296.53176938694349
 30
0.0
 11
229.79409029342699
 21
296.53176938694349
 31
0.0
  0
ARC
  5
1624D
  8
AM_0
 10
240.29704108450889
 20
301.88745871639111
 30
0.0
 40
0.4970828599999999
 50
274.27614450000152
 51
0.4957440000002111
  0
LINE
  5
1624E
  8
AM_0
 10
238.29408108450889
 20
301.25176871639133
 30
0.0
 11
240.3340910845088
 21
301.39176871639131
 31
0.0
  0
LINE
  5
1624F
  8
AM_0
 10
238.29408108450889
 20
300.07175871639129
 30
0.0
 11
239.73408108450889
 21
300.03176871639118
 31
0.0
  0
ARC
  5
16250
  8
AM_0
 10
239.69890108450861
 20
299.03145871639123
 30
0.0
 40
1.000315299999998
 50
272.01573779999671
 51
90.275789999997585
  0
ARC
  5
16251
  8
AM_0
 10
237.22438108450891
 20
299.02193871639128
 30
0.0
 40
1.0902267999999991
 50
269.45943999999832
 51
88.438200000002652
  0
LINE
  5
16252
  8
AM_0
 10
229.79409029342699
 20
311.53176983397827
 30
0.0
 11
225.7940901742177
 21
311.53176983397827
 31
0.0
  0
LINE
  5
16253
  8
AM_0
 10
228.29408108450889
 20
320.5317687163913
 30
0.0
 11
228.29408108450889
 21
313.02284769494611
 31
0.0
  0
LINE
  5
16254
  8
AM_0
 10
229.79408108450889
 20
310.30101731462412
 30
0.0
 11
237.6740810845088
 21
310.03176871639118
 31
0.0
  0
LINE
  5
16255
  8
AM_0
 10
231.11373602465801
 20
307.79085140934222
 30
0.0
 11
237.6740810845088
 21
308.0317687163913
 31
0.0
  0
ARC
  5
16256
  8
AM_0
 10
231.29408108450889
 20
313.02284769494611
 30
0.0
 40
2.9999999999999978
 50
180.0
 51
209.80345756372549
1001
GENIUS_GENODEF_13
1002
{
1000
HIER
1070
     0
1002
}
1002
{
1000
MANEDIT
1070
     0
1002
}
1002
{
1000
NOSEL
1070
     0
1002
}
1002
{
1000
BEHIND
1070
     0
1002
}
1002
{
1000
OTHER
1070
     0
1002
}
1002
{
1000
REACTOR
1002
}
1001
GENIUS_GENOBJ-N-FIL_13
1002
{
1000
OWNER
1000
GEN
1002
}
  0
ARC
  5
16257
  8
AM_0
 10
240.31138108450889
 20
303.16927871639132
 30
0.0
 40
0.48302591
 50
357.92275099999972
 51
87.305360000000974
  0
LINE
  5
16258
  8
AM_0
 10
240.79408108450889
 20
302.53176871639118
 30
0.0
 11
240.79408108450889
 21
303.15175871639121
 31
0.0
  0
ARC
  5
16259
  8
AM_0
 10
237.642561084509
 20
309.03345871639118
 30
0.0
 40
0.9983469799999998
 50
289.39561000000282
 51
90.485539999998934
  0
LINE
  5
1625A
  8
AM_0
 10
238.29408108450889
 20
303.81176871639121
 30
0.0
 11
240.3340910845088
 21
303.65175871639121
 31
0.0
  0
LINE
  5
1625B
  8
AM_0
 10
225.79408254482269
 20
337.68268003716429
 30
0.0
 11
205.79408194877621
 21
338.03177062373982
 31
0.0
  0
LINE
  5
1625C
  8
AM_0
 10
180.75367873545679
 20
337.92783953809459
 30
0.0
 11
180.79408108450909
 21
338.99176671639128
 31
0.0
  0
LINE
  5
1625D
  8
AM_0
 10
182.83636152518281
 20
337.765635346198
 30
0.0
 11
182.79408108450889
 21
338.99176671639128
 31
0.0
  0
ARC
  5
1625E
  8
AM_0
 10
181.79350108450899
 20
338.94334671639109
 30
0.0
 40
1.000603799999999
 50
0.4821899999981641
 51
177.22628299999701
  0
LINE
  5
1625F
  8
AM_0
 10
192.81192121813339
 20
337.80516158236787
 30
0.0
 11
192.79408108450889
 21
338.31177071639132
 31
0.0
  0
LINE
  5
16260
  8
AM_0
 10
190.77538837192779
 20
337.76961334722262
 30
0.0
 11
190.794081084509
 21
338.31177071639132
 31
0.0
  0
ARC
  5
16261
  8
AM_0
 10
191.79365108450901
 20
338.27040371639117
 30
0.0
 40
1.000428199999998
 50
0.0782199999979826
 51
177.63024800000301
  0
LINE
  5
164C6
  8
0
 10
233.80109650163081
 20
296.53176938694372
 30
0.0
 11
244.794081084499
 21
291.53176871639118
 31
0.0
  0
LINE
  5
164C7
  8
0
 10
244.794081084499
 20
256.5317687163913
 30
0.0
 11
233.80109650163081
 21
251.5317680458391
 31
0.0
  0
LINE
  5
164C8
  8
0
 10
286.794081084499
 20
260.03176871639118
 30
0.0
 11
244.794081084499
 21
260.03176871639118
 31
0.0
  0
LINE
  5
164C9
  8
0
 10
286.794081084499
 20
288.0317687163913
 30
0.0
 11
244.794081084499
 21
288.0317687163913
 31
0.0
  0
LINE
  5
164CA
  8
0
 10
244.794081084499
 20
291.53176871639118
 30
0.0
 11
244.794081084499
 21
256.5317687163913
 31
0.0
  0
LINE
  5
164CB
  8
AM_0
 10
286.794081084499
 20
260.03176871639118
 30
0.0
 11
286.794081084499
 21
291.0317687163913
 31
0.0
  0
LINE
  5
164CC
  8
0
 10
286.794081084499
 20
291.0317687163913
 30
0.0
 11
254.794081084499
 21
291.0317687163913
 31
0.0
  0
LINE
  5
164CD
  8
0
 10
254.794081084499
 20
291.0317687163913
 30
0.0
 11
254.794081084499
 21
288.0317687163913
 31
0.0
  0
ARC
  5
16517
  8
AM_0
 10
176.81099108450891
 20
274.02176871639119
 30
0.0
 40
64.003665999999996
 50
19.07688438351661
 51
34.12523161608577
  0
CIRCLE
  5
168B8
  8
AM_0
 10
438.15250720632821
 20
274.0317687163909
 30
0.0
 40
3.399999999999999
  0
LINE
  5
16A71
  8
AM_0
 10
475.15250720632838
 20
503.99210147764069
 30
0.0
 11
467.1525072063281
 21
503.99210147764069
 31
0.0
  0
LINE
  5
16A72
  8
AM_0
 10
465.1525072063281
 20
509.9921014776408
 30
0.0
 11
477.15250720632832
 21
509.9921014776408
 31
0.0
  0
LINE
  5
16A73
  8
AM_0
 10
475.6525083239153
 20
604.99210451747751
 30
0.0
 11
400.65250608874112
 21
604.99210451747751
 31
0.0
  0
LINE
  5
16A74
  8
AM_0
 10
475.6525083239153
 20
498.99209372903653
 30
0.0
 11
400.65250608874112
 21
498.99209372903653
 31
0.0
  0
LINE
  5
16A75
  8
AM_0
 10
545.79102970131555
 20
600.99211202766332
 30
0.0
 11
376.51398608224821
 21
600.99211202766332
 31
0.0
  0
LINE
  5
16A76
  8
AM_0
 10
546.80345038578491
 20
502.99210147764057
 30
0.0
 11
375.50159591535771
 21
502.9921014776408
 31
0.0
  0
LINE
  5
16A77
  8
AM_0
 10
547.1525409723605
 20
522.99210207368697
 30
0.0
 11
375.15250532878213
 21
522.99210207368731
 31
0.0
  0
LINE
  5
16A78
  8
ﾁｭｳｼﾝｾﾝ1
 10
754.39644097236044
 20
551.99210293795431
 30
0.0
 11
368.9025053287819
 21
551.99210293795443
 31
0.0
1001
GENIUS_GENODEF_13
1002
{
1000
HIER
1070
     0
1002
}
1002
{
1000
MANEDIT
1070
     0
1002
}
1002
{
1000
NOSEL
1070
     0
1002
}
1002
{
1000
BEHIND
1070
     0
1002
}
1002
{
1000
REACTOR
1002
}
1001
GENIUS_GENOBJ-N-CEN_13
1002
{
1000
OWNER
1000
GEN
1002
}
  0
LINE
  5
16A79
  8
AM_0
 10
573.65254097236061
 20
613.4920979379549
 30
0.0
 11
573.65254097236061
 21
490.49211793795462
 31
0.0
  0
LINE
  5
16A7A
  8
AM_0
 10
547.15254097228456
 20
522.99210207368697
 30
0.0
 11
545.79102970131555
 21
600.99211202766332
 31
0.0
  0
LINE
  5
16A7B
  8
ｶｸﾚｾﾝ2
 10
529.65254045081997
 20
600.99210439826822
 30
0.0
 11
529.65254045081997
 21
502.99209384824559
 31
0.0
  0
LINE
  5
16A7C
  8
ﾁｭｳｼﾝｾﾝ1
 10
535.15254061473286
 20
604.74210821296549
 30
0.0
 11
535.15254061473286
 21
499.24209766294291
 31
0.0
  0
LINE
  5
16A7D
  8
ｶｸﾚｾﾝ2
 10
540.65254077864552
 20
600.99210439826822
 30
0.0
 11
540.65254077864552
 21
502.99209384824559
 31
0.0
  0
LINE
  5
16A7E
  8
AM_0
 10
584.65254097236038
 20
615.99213293795469
 30
0.0
 11
584.65254097236038
 21
487.99211793795462
 31
0.0
  0
LINE
  5
16A7F
  8
AM_0
 10
584.65254097236038
 20
514.85212793795472
 30
0.0
 11
574.65254097236016
 21
514.85212793795472
 31
0.0
  0
LINE
  5
16A80
  8
AM_0
 10
584.65258223901083
 20
514.85211793797703
 30
0.0
 11
574.65258223901719
 21
514.85210682686568
 31
0.0
  0
LINE
  5
16A81
  8
AM_0
 10
584.65254097236038
 20
499.9521179379546
 30
0.0
 11
574.65254097236016
 21
499.9521179379546
 31
0.0
  0
LINE
  5
16A82
  8
AM_0
 10
584.65259879457756
 20
499.95210793798628
 30
0.0
 11
574.65259879458392
 21
499.95209682687499
 31
0.0
  0
LINE
  5
16A83
  8
AM_0
 10
584.65254097236038
 20
487.99211793795462
 30
0.0
 11
575.52593814476495
 21
487.99211793795462
 31
0.0
  0
LINE
  5
16A84
  8
AM_0
 10
554.79391051680841
 20
523.1664135591825
 30
0.0
 11
557.49281392421165
 21
492.31780645245908
 31
0.0
  0
LINE
  5
16A85
  8
AM_0
 10
570.65254097236061
 20
490.49211793795462
 30
0.0
 11
559.48520332039504
 21
490.49211793795467
 31
0.0
  0
ARC
  5
16A86
  8
AM_0
 10
570.65254097236061
 20
487.4921179379545
 30
0.0
 40
2.9999999999999978
 50
35.685334712654601
 51
90.0
1001
GENIUS_GENOBJ-N-FIL_13
1002
{
1000
OWNER
1000
GEN
1002
}
1001
GENIUS_GENODEF_13
1002
{
1000
HIER
1070
     0
1002
}
1002
{
1000
MANEDIT
1070
     0
1002
}
1002
{
1000
NOSEL
1070
     0
1002
}
1002
{
1000
BEHIND
1070
     0
1002
}
1002
{
1000
OTHER
1070
     0
1002
}
1002
{
1000
REACTOR
1002
}
  0
ARC
  5
16A87
  8
AM_0
 10
575.52593814476495
 20
490.99211793795428
 30
0.0
 40
2.9999999999999978
 50
215.68533471265459
 51
270.0
1001
GENIUS_GENOBJ-N-FIL_13
1002
{
1000
OWNER
1000
GEN
1002
}
1001
GENIUS_GENODEF_13
1002
{
1000
HIER
1070
     0
1002
}
1002
{
1000
MANEDIT
1070
     0
1002
}
1002
{
1000
NOSEL
1070
     0
1002
}
1002
{
1000
BEHIND
1070
     0
1002
}
1002
{
1000
OTHER
1070
     0
1002
}
1002
{
1000
REACTOR
1002
}
  0
ARC
  5
16A88
  8
AM_0
 10
559.48520332039516
 20
492.49211793795467
 30
0.0
 40
2.0
 50
184.99999999999969
 51
270.0
1001
GENIUS_GENOBJ-N-FIL_13
1002
{
1000
OWNER
1000
GEN
1002
}
1001
GENIUS_GENODEF_13
1002
{
1000
HIER
1070
     0
1002
}
1002
{
1000
MANEDIT
1070
     0
1002
}
1002
{
1000
NOSEL
1070
     0
1002
}
1002
{
1000
BEHIND
1070
     0
1002
}
1002
{
1000
OTHER
1070
     0
1002
}
1002
{
1000
REACTOR
1002
}
  0
ARC
  5
16A89
  8
AM_0
 10
552.80152112062478
 20
522.99210207368697
 30
0.0
 40
2.0
 50
4.9999999999997407
 51
90.0
1001
GENIUS_GENOBJ-N-FIL_13
1002
{
1000
OWNER
1000
GEN
1002
}
1001
GENIUS_GENODEF_13
1002
{
1000
HIER
1070
     0
1002
}
1002
{
1000
MANEDIT
1070
     0
1002
}
1002
{
1000
NOSEL
1070
     0
1002
}
1002
{
1000
BEHIND
1070
     0
1002
}
1002
{
1000
OTHER
1070
     0
1002
}
1002
{
1000
REACTOR
1002
}
  0
LINE
  5
16A8A
  8
AM_0
 10
546.80345038578491
 20
502.99210147764057
 30
0.0
 11
547.1525409723605
 21
522.99210207368697
 31
0.0
  0
ARC
  5
16A8B
  8
AM_0
 10
548.13523803343855
 20
523.99210207368685
 30
0.0
 40
1.0
 50
90.0
 51
181.00001177349739
1001
GENIUS_GENOBJ-N-FIL_13
1002
{
1000
OWNER
1000
GEN
1002
}
1001
GENIUS_GENODEF_13
1002
{
1000
HIER
1070
     0
1002
}
1002
{
1000
MANEDIT
1070
     0
1002
}
1002
{
1000
NOSEL
1070
     0
1002
}
1002
{
1000
BEHIND
1070
     0
1002
}
1002
{
1000
OTHER
1070
     0
1002
}
1002
{
1000
REACTOR
1002
}
  0
LINE
  5
16A8C
  8
AM_0
 10
552.80152112062467
 20
524.99210207368719
 30
0.0
 11
548.13523803343855
 21
524.99210207368719
 31
0.0
  0
LINE
  5
16A8D
  8
AM_0
 10
476.15250720632838
 20
509.9921014776408
 30
0.0
 11
476.15250720632838
 21
504.99210147764069
 31
0.0
  0
LINE
  5
16A8E
  8
AM_0
 10
477.15250720632832
 20
502.99210147764057
 30
0.0
 11
477.15250720632832
 21
509.9921014776408
 31
0.0
  0
ARC
  5
16A8F
  8
AM_0
 10
475.15250720632838
 20
504.99210147764069
 30
0.0
 40
1.0
 50
270.0
 51
0.0
1001
GENIUS_GENOBJ-N-FIL_13
1002
{
1000
OWNER
1000
GEN
1002
}
1001
GENIUS_GENODEF_13
1002
{
1000
HIER
1070
     0
1002
}
1002
{
1000
MANEDIT
1070
     0
1002
}
1002
{
1000
NOSEL
1070
     0
1002
}
1002
{
1000
BEHIND
1070
     0
1002
}
1002
{
1000
OTHER
1070
     0
1002
}
1002
{
1000
REACTOR
1002
}
  0
LINE
  5
16A90
  8
AM_0
 10
475.6525083239153
 20
498.99209372903653
 30
0.0
 11
475.6525083239153
 21
502.99209384824559
 31
0.0
  0
LINE
  5
16A91
  8
AM_0
 10
584.65254097236038
 20
615.99209793795455
 30
0.0
 11
575.52593814476495
 21
615.99209793795455
 31
0.0
  0
LINE
  5
16A92
  8
AM_0
 10
584.65254097236038
 20
604.03209793795463
 30
0.0
 11
574.65254097236016
 21
604.03209793795463
 31
0.0
  0
LINE
  5
16A93
  8
AM_0
 10
584.65254097236038
 20
589.13208793795445
 30
0.0
 11
574.65254097236016
 21
589.13208793795445
 31
0.0
  0
LINE
  5
16A94
  8
AM_0
 10
560.81984485829344
 20
598.99211202766332
 30
0.0
 11
547.79133436457801
 21
598.99211202766332
 31
0.0
  0
LINE
  5
16A95
  8
AM_0
 10
563.7613645466156
 20
611.66640942344998
 30
0.0
 11
562.81223425447683
 21
600.8178005421679
 31
0.0
  0
ARC
  5
16A96
  8
AM_0
 10
560.81984485829355
 20
600.99211202766287
 30
0.0
 40
2.0
 50
270.0
 51
355.00000000000028
1001
GENIUS_GENOBJ-N-FIL_13
1002
{
1000
OWNER
1000
GEN
1002
}
1001
GENIUS_GENODEF_13
1002
{
1000
HIER
1070
     0
1002
}
1002
{
1000
MANEDIT
1070
     0
1002
}
1002
{
1000
NOSEL
1070
     0
1002
}
1002
{
1000
BEHIND
1070
     0
1002
}
1002
{
1000
OTHER
1070
     0
1002
}
1002
{
1000
REACTOR
1002
}
  0
LINE
  5
16A97
  8
AM_0
 10
570.65254097236061
 20
613.49209793795455
 30
0.0
 11
565.75375394279922
 21
613.49209793795455
 31
0.0
  0
ARC
  5
16A98
  8
AM_0
 10
575.52593814476495
 20
612.99209793795444
 30
0.0
 40
2.9999999999999978
 50
90.0
 51
144.31466528734541
1001
GENIUS_GENOBJ-N-FIL_13
1002
{
1000
OWNER
1000
GEN
1002
}
1001
GENIUS_GENODEF_13
1002
{
1000
HIER
1070
     0
1002
}
1002
{
1000
MANEDIT
1070
     0
1002
}
1002
{
1000
NOSEL
1070
     0
1002
}
1002
{
1000
BEHIND
1070
     0
1002
}
1002
{
1000
OTHER
1070
     0
1002
}
1002
{
1000
REACTOR
1002
}
  0
ARC
  5
16A99
  8
AM_0
 10
570.65254097236061
 20
616.49209793795444
 30
0.0
 40
2.9999999999999978
 50
270.0
 51
324.31466528734541
1001
GENIUS_GENOBJ-N-FIL_13
1002
{
1000
OWNER
1000
GEN
1002
}
1001
GENIUS_GENODEF_13
1002
{
1000
HIER
1070
     0
1002
}
1002
{
1000
MANEDIT
1070
     0
1002
}
1002
{
1000
NOSEL
1070
     0
1002
}
1002
{
1000
BEHIND
1070
     0
1002
}
1002
{
1000
OTHER
1070
     0
1002
}
1002
{
1000
REACTOR
1002
}
  0
ARC
  5
16A9A
  8
AM_0
 10
565.75375394279922
 20
611.49209793795455
 30
0.0
 40
2.0
 50
90.0
 51
175.00000000000031
1001
GENIUS_GENOBJ-N-FIL_13
1002
{
1000
OWNER
1000
GEN
1002
}
1001
GENIUS_GENODEF_13
1002
{
1000
HIER
1070
     0
1002
}
1002
{
1000
MANEDIT
1070
     0
1002
}
1002
{
1000
NOSEL
1070
     0
1002
}
1002
{
1000
BEHIND
1070
     0
1002
}
1002
{
1000
OTHER
1070
     0
1002
}
1002
{
1000
REACTOR
1002
}
  0
ARC
  5
16A9B
  8
AM_0
 10
547.79133436457812
 20
600.99211202766287
 30
0.0
 40
2.0
 50
181.00001177355611
 51
270.0
1001
GENIUS_GENOBJ-N-FIL_13
1002
{
1000
OWNER
1000
GEN
1002
}
1001
GENIUS_GENODEF_13
1002
{
1000
HIER
1070
     0
1002
}
1002
{
1000
MANEDIT
1070
     0
1002
}
1002
{
1000
NOSEL
1070
     0
1002
}
1002
{
1000
BEHIND
1070
     0
1002
}
1002
{
1000
OTHER
1070
     0
1002
}
1002
{
1000
REACTOR
1002
}
  0
LINE
  5
16A9C
  8
AM_0
 10
475.6525083239153
 20
604.99210451747751
 30
0.0
 11
475.6525083239153
 21
600.99210439826822
 31
0.0
  0
LINE
  5
16A9D
  8
ﾁｭｳｼﾝｾﾝ1
 10
438.15250720632838
 20
436.98509684896948
 30
0.0
 11
438.15250720632821
 21
613.99211226608145
 31
0.0
  0
LINE
  5
16A9E
  8
ｶｸﾚｾﾝ2
 10
392.65250585032311
 20
600.99210439826822
 30
0.0
 11
392.65250585032311
 21
502.99209384824582
 31
0.0
  0
LINE
  5
16A9F
  8
ﾁｭｳｼﾝｾﾝ1
 10
387.15250568641011
 20
604.74210821296572
 30
0.0
 11
387.15250568641011
 21
499.24209766294331
 31
0.0
  0
LINE
  5
16AA0
  8
ｶｸﾚｾﾝ2
 10
381.65250552249762
 20
600.99210439826822
 30
0.0
 11
381.65250552249762
 21
502.99209384824582
 31
0.0
  0
LINE
  5
16AA1
  8
AM_0
 10
375.15250532878213
 20
522.99210207368731
 30
0.0
 11
376.51398608224821
 21
600.99211202766332
 31
0.0
  0
LINE
  5
16AA2
  8
AM_0
 10
415.65250653577601
 20
494.99209360982718
 30
0.0
 11
415.65250653577601
 21
498.99209372903653
 31
0.0
  0
LINE
  5
16AA3
  8
AM_0
 10
460.65250787688052
 20
494.99209360982718
 30
0.0
 11
460.65250787688052
 21
498.99209372903653
 31
0.0
  0
LINE
  5
16AA4
  8
AM_0
 10
415.65250653577601
 20
494.99209360982718
 30
0.0
 11
460.65250787688052
 21
494.99209360982718
 31
0.0
  0
LINE
  5
16AA5
  8
AM_0
 10
466.15250720632793
 20
504.99210147764069
 30
0.0
 11
466.15250720632793
 21
509.9921014776408
 31
0.0
  0
LINE
  5
16AA6
  8
AM_0
 10
465.1525072063281
 20
502.99210147764057
 30
0.0
 11
465.1525072063281
 21
509.9921014776408
 31
0.0
  0
ARC
  5
16AA7
  8
AM_0
 10
467.1525072063281
 20
504.99210147764069
 30
0.0
 40
1.0
 50
180.0
 51
270.0
1001
GENIUS_GENOBJ-N-FIL_13
1002
{
1000
OWNER
1000
GEN
1002
}
1001
GENIUS_GENODEF_13
1002
{
1000
HIER
1070
     0
1002
}
1002
{
1000
MANEDIT
1070
     0
1002
}
1002
{
1000
NOSEL
1070
     0
1002
}
1002
{
1000
BEHIND
1070
     0
1002
}
1002
{
1000
OTHER
1070
     0
1002
}
1002
{
1000
REACTOR
1002
}
  0
LINE
  5
16AA8
  8
AM_0
 10
400.65250608874112
 20
498.99209372903653
 30
0.0
 11
400.65250608874112
 21
502.99209384824582
 31
0.0
  0
LINE
  5
16AA9
  8
AM_0
 10
375.50159591535771
 20
502.9921014776408
 30
0.0
 11
375.15250532878213
 21
522.99210207368731
 31
0.0
  0
LINE
  5
16AAA
  8
AM_0
 10
400.65250608874112
 20
604.99210451747751
 30
0.0
 11
400.65250608874112
 21
600.99210439826822
 31
0.0
  0
LINE
  5
16AAB
  8
ｶｸﾚｾﾝ2
 10
616.15260097236035
 20
520.4921029379542
 30
0.0
 11
690.15260097236035
 21
520.4921029379542
 31
0.0
  0
LINE
  5
16AAC
  8
ｶｸﾚｾﾝ2
 10
613.15260097236046
 20
523.49210293795431
 30
0.0
 11
613.15260097236046
 21
580.49210293795409
 31
0.0
  0
ARC
  5
16AAD
  8
ｶｸﾚｾﾝ2
 10
616.15260097236057
 20
523.49210293795443
 30
0.0
 40
3.0
 50
180.0
 51
270.0
  0
LINE
  5
16AAE
  8
ｶｸﾚｾﾝ2
 10
616.15260097236035
 20
583.49210293795409
 30
0.0
 11
690.15260097236035
 21
583.49210293795409
 31
0.0
  0
ARC
  5
16AAF
  8
ｶｸﾚｾﾝ2
 10
616.15260097236057
 20
580.49210293795443
 30
0.0
 40
3.0
 50
90.0
 51
180.0
  0
LINE
  5
16AB0
  8
ｶｸﾚｾﾝ2
 10
693.15260097236035
 20
580.49210293795409
 30
0.0
 11
693.15260097236035
 21
523.49210293795431
 31
0.0
  0
ARC
  5
16AB1
  8
ｶｸﾚｾﾝ2
 10
690.15260097236046
 20
580.49210293795397
 30
0.0
 40
3.0
 50
0.0
 51
90.0
  0
ARC
  5
16AB2
  8
ｶｸﾚｾﾝ2
 10
690.15260097236046
 20
523.4921029379542
 30
0.0
 40
3.0
 50
270.0
 51
0.0
  0
LINE
  5
16AB3
  8
AM_0
 10
717.65257097236054
 20
615.88208293795446
 30
0.0
 11
664.65257097236054
 21
615.88208293795446
 31
0.0
  0
LINE
  5
16AB4
  8
AM_0
 10
717.65257097236054
 20
617.23209293795435
 30
0.0
 11
664.65257097236054
 21
617.23209293795435
 31
0.0
  0
LINE
  5
16AB5
  8
AM_0
 10
717.65257097236054
 20
617.91208293795444
 30
0.0
 11
664.65257097236054
 21
617.91208293795444
 31
0.0
  0
LINE
  5
16AB6
  8
AM_0
 10
717.65257097236042
 20
488.1020919379543
 30
0.0
 11
664.65257097236042
 21
488.1020919379543
 31
0.0
  0
LINE
  5
16AB7
  8
AM_0
 10
717.65257097236042
 20
486.75207793795443
 30
0.0
 11
664.65257097236042
 21
486.75207793795443
 31
0.0
  0
LINE
  5
16AB8
  8
AM_0
 10
717.65257097236042
 20
486.08209593795442
 30
0.0
 11
664.65257097236042
 21
486.08209593795442
 31
0.0
  0
LINE
  5
16AB9
  8
AM_0
 10
695.65257097236042
 20
505.64208293795429
 30
0.0
 11
597.2525508387339
 21
505.64208293795429
 31
0.0
  0
LINE
  5
16ABA
  8
AM_0
 10
695.65257097236054
 20
598.34209293795425
 30
0.0
 11
597.2525508387339
 21
598.34209293795425
 31
0.0
  0
LINE
  5
16ABB
  8
AM_0
 10
600.30254097236059
 20
515.99210293795431
 30
0.0
 11
735.10252097236025
 21
515.99210293795431
 31
0.0
  0
LINE
  5
16ABC
  8
AM_0
 10
717.65257097236054
 20
613.85208293795449
 30
0.0
 11
600.84258097236045
 21
613.85208293795449
 31
0.0
  0
LINE
  5
16ABD
  8
AM_0
 10
717.65257097236042
 20
490.13209093795439
 30
0.0
 11
600.84258097236045
 21
490.13209093795439
 31
0.0
  0
LINE
  5
16ABE
  8
AM_0
 10
726.97258097236033
 20
588.71208293795439
 30
0.0
 11
596.8325709723606
 21
588.71208293795439
 31
0.0
  0
LINE
  5
16ABF
  8
AM_0
 10
600.30254097236059
 20
587.99210293795409
 30
0.0
 11
726.10252097236025
 21
587.99210293795409
 31
0.0
  0
LINE
  5
16AC0
  8
AM_0
 10
600.30254097236059
 20
517.99209293795434
 30
0.0
 11
735.10252097236025
 21
517.99209293795434
 31
0.0
  0
LINE
  5
16AC1
  8
AM_0
 10
596.8325709723606
 20
518.62209293795445
 30
0.0
 11
735.97258097236033
 21
518.62209293795445
 31
0.0
  0
LINE
  5
16AC2
  8
AM_0
 10
735.97258097236033
 20
515.27208293795434
 30
0.0
 11
596.8325709723606
 21
515.27208293795434
 31
0.0
  0
LINE
  5
16AC3
  8
AM_0
 10
596.8325709723606
 20
585.36208293795426
 30
0.0
 11
726.97258097236033
 21
585.36208293795426
 31
0.0
  0
LINE
  5
16AC4
  8
AM_0
 10
597.70760097236052
 20
525.99208883795416
 30
0.0
 11
735.10252097236025
 21
525.99208293795425
 31
0.0
  0
LINE
  5
16AC5
  8
AM_0
 10
597.70760092000035
 20
527.99209703795441
 30
0.0
 11
735.10252097236025
 21
527.99210293795431
 31
0.0
  0
LINE
  5
16AC6
  8
AM_0
 10
736.19255097236055
 20
525.51209293795421
 30
0.0
 11
596.61757097236045
 21
525.51208293795435
 31
0.0
  0
LINE
  5
16AC7
  8
AM_0
 10
736.19255097236055
 20
528.43210293795426
 30
0.0
 11
596.61757089591515
 21
528.43208293795442
 31
0.0
  0
LINE
  5
16AC8
  8
AM_0
 10
736.32256097236018
 20
535.65208293795445
 30
0.0
 11
596.48756097236048
 21
535.65210293795428
 31
0.0
  0
LINE
  5
16AC9
  8
AM_0
 10
597.71759543020153
 20
535.99210490819587
 30
0.0
 11
735.09258097236045
 21
535.99210293795431
 31
0.0
  0
LINE
  5
16ACA
  8
AM_0
 10
597.71759532548197
 20
537.99210096862521
 30
0.0
 11
735.09258097236045
 21
537.99208293795425
 31
0.0
  0
LINE
  5
16ACB
  8
AM_0
 10
736.32256097236018
 20
538.31209293795428
 30
0.0
 11
596.48756090272184
 21
538.31210293795414
 31
0.0
  0
LINE
  5
16ACC
  8
AM_0
 10
736.38255097236038
 20
545.72209293795424
 30
0.0
 11
596.42757097236063
 21
545.72207893795439
 31
0.0
  0
LINE
  5
16ACD
  8
AM_0
 10
597.71759543020153
 20
545.99208490819615
 30
0.0
 11
735.09258097236045
 21
545.99210293795409
 31
0.0
  0
LINE
  5
16ACE
  8
AM_0
 10
597.71759532548197
 20
547.99208096862526
 30
0.0
 11
735.09258097236045
 21
547.99210293795431
 31
0.0
  0
LINE
  5
16ACF
  8
AM_0
 10
736.38255097236038
 20
548.26209293795421
 30
0.0
 11
596.42757090586315
 21
548.26208693795434
 31
0.0
  0
LINE
  5
16AD0
  8
AM_0
 10
736.38255097236038
 20
555.73209293795435
 30
0.0
 11
596.42757097236063
 21
555.73206893795441
 31
0.0
  0
LINE
  5
16AD1
  8
AM_0
 10
597.71759543020153
 20
555.99208490819615
 30
0.0
 11
735.09258097236045
 21
555.99208293795425
 31
0.0
  0
LINE
  5
16AD2
  8
AM_0
 10
597.71759532548197
 20
557.99208096862515
 30
0.0
 11
735.09258097236045
 21
557.9921029379542
 31
0.0
  0
LINE
  5
16AD3
  8
AM_0
 10
736.38255097236038
 20
558.26209293795432
 30
0.0
 11
596.42757090612508
 21
558.26207693795425
 31
0.0
  0
LINE
  5
16AD4
  8
AM_0
 10
736.32256097236018
 20
565.67209293795429
 30
0.0
 11
596.48756097236048
 21
565.67209293795429
 31
0.0
  0
LINE
  5
16AD5
  8
AM_0
 10
597.71759543020153
 20
565.9921049081961
 30
0.0
 11
735.09258097236045
 21
565.99208293795425
 31
0.0
  0
LINE
  5
16AD6
  8
AM_0
 10
597.71759532548197
 20
567.99210096862521
 30
0.0
 11
735.09258097236045
 21
567.99208293795425
 31
0.0
  0
LINE
  5
16AD7
  8
AM_0
 10
736.32256097236018
 20
568.33208293795417
 30
0.0
 11
596.48756090272184
 21
568.33209293795414
 31
0.0
  0
LINE
  5
16AD8
  8
AM_0
 10
727.19255097236055
 20
575.55209293795417
 30
0.0
 11
596.62256097236059
 21
575.55209293795417
 31
0.0
  0
LINE
  5
16AD9
  8
AM_0
 10
597.71259097236054
 20
575.9920788379543
 30
0.0
 11
726.10252097236025
 21
575.99210293795409
 31
0.0
  0
LINE
  5
16ADA
  8
AM_0
 10
597.71259092000048
 20
577.99208703795443
 30
0.0
 11
726.10252097236025
 21
577.99208293795425
 31
0.0
  0
LINE
  5
16ADB
  8
AM_0
 10
727.19255097236055
 20
578.4820729379544
 30
0.0
 11
596.62256089565324
 21
578.48209293795423
 31
0.0
  0
LINE
  5
16ADC
  8
AM_0
 10
600.30255997248275
 20
585.99208458368639
 30
0.0
 11
726.10252097236025
 21
585.99208293795425
 31
0.0
  0
LINE
  5
16ADD
  8
AM_0
 10
745.6525409723605
 20
503.40209293795431
 30
0.0
 11
745.65254097236073
 21
546.99211293795418
 31
0.0
  0
LINE
  5
16ADE
  8
AM_0
 10
740.65260097236035
 20
494.56210393795442
 30
0.0
 11
740.65260097236035
 21
551.99210293795431
 31
0.0
  0
LINE
  5
16ADF
  8
AM_0
 10
747.1525409723605
 20
571.99209293795423
 30
0.0
 11
747.1525409723605
 21
531.99211293795429
 31
0.0
  0
LINE
  5
16AE0
  8
AM_0
 10
748.14644097236055
 20
536.77021293795406
 30
0.0
 11
748.14644097236055
 21
567.21384293795415
 31
0.0
  0
LINE
  5
16AE1
  8
AM_0
 10
736.93254097236024
 20
600.34209293795448
 30
0.0
 11
736.39250097236049
 21
603.33209293795426
 31
0.0
  0
LINE
  5
16AE2
  8
AM_0
 10
743.65260097236035
 20
601.4921029379542
 30
0.0
 11
743.65260097236035
 21
600.96210293795423
 31
0.0
  0
LINE
  5
16AE3
  8
AM_0
 10
743.88258097236053
 20
601.61210293795443
 30
0.0
 11
745.15260097236035
 21
600.87209293795445
 31
0.0
  0
LINE
  5
16AE4
  8
AM_0
 10
740.65260097236035
 20
609.42209293795429
 30
0.0
 11
740.65260097236035
 21
551.99210293795431
 31
0.0
  0
ARC
  5
16AE5
  8
AM_0
 10
717.65801097236044
 20
615.23752293795428
 30
0.0
 40
1.9945760999999991
 50
359.84400999999718
 51
90.155991999999955
  0
ARC
  5
16AE6
  8
AM_0
 10
717.65007097236048
 20
615.91724293795426
 30
0.0
 40
1.994844099999999
 50
14.36279999999921
 51
89.928342000002075
  0
LINE
  5
16AE7
  8
AM_0
 10
734.54259097236024
 20
615.29208293795409
 30
0.0
 11
721.04259097236024
 21
615.29208293795409
 31
0.0
  0
LINE
  5
16AE8
  8
AM_0
 10
734.51256097236035
 20
613.66208293795444
 30
0.0
 11
721.15257097236054
 21
613.66208293795444
 31
0.0
  0
LINE
  5
16AE9
  8
AM_0
 10
734.48253097236056
 20
610.26209293795421
 30
0.0
 11
721.15257097236054
 21
610.26209293795421
 31
0.0
  0
LINE
  5
16AEA
  8
AM_0
 10
734.42259097236035
 20
604.97208293795438
 30
0.0
 11
721.15257097236054
 21
604.97208293795438
 31
0.0
  0
ARC
  5
16AEB
  8
AM_0
 10
734.48088097236052
 20
608.26669293795408
 30
0.0
 40
1.9953879999999991
 50
12.01538000000024
 51
89.951933000002214
  0
LINE
  5
16AEC
  8
AM_0
 10
736.46257097236025
 20
612.12209293795445
 30
0.0
 11
737.38261097236034
 21
608.2421029379542
 31
0.0
  0
ARC
  5
16AED
  8
AM_0
 10
738.82427097236052
 20
610.61919293795427
 30
0.0
 40
1.5070961
 50
194.09782000000331
 51
269.9351799999983
  0
LINE
  5
16AEE
  8
AM_0
 10
738.82256097236041
 20
609.11209293795434
 30
0.0
 11
737.17253097236016
 21
609.11209293795434
 31
0.0
  0
LINE
  5
16AEF
  8
AM_0
 10
740.65263097236016
 20
609.42209293795429
 30
0.0
 11
737.83257097236014
 21
609.49208293795425
 31
0.0
  0
ARC
  5
16AF0
  8
AM_0
 10
734.54527097236053
 20
613.29431293795415
 30
0.0
 40
1.9977800999999991
 50
14.13223000000314
 51
90.076919000002306
  0
LINE
  5
16AF1
  8
AM_0
 10
736.48259097236041
 20
613.78210293795416
 30
0.0
 11
737.36260097236027
 21
610.25211293795417
 31
0.0
  0
ARC
  5
16AF2
  8
AM_0
 10
734.51976097236025
 20
611.66663293795398
 30
0.0
 40
1.9954841000000001
 50
13.19407999999817
 51
90.206542000000866
  0
LINE
  5
16AF3
  8
AM_0
 10
738.8626009723605
 20
603.03207293795424
 30
0.0
 11
736.44255097236055
 21
603.03207293795424
 31
0.0
  0
ARC
  5
16AF4
  8
AM_0
 10
738.86137097236053
 20
604.53622293795411
 30
0.0
 40
1.50414
 50
192.44475000000341
 51
270.04575000000148
  0
LINE
  5
16AF5
  8
AM_0
 10
738.84258097236068
 20
607.0920729379543
 30
0.0
 11
736.78258097236039
 21
607.0920729379543
 31
0.0
  0
ARC
  5
16AF6
  8
AM_0
 10
738.8433709723605
 20
608.59489293795423
 30
0.0
 40
1.5028081
 50
193.57782000000279
 51
269.96920999999838
  0
ARC
  5
16AF7
  8
AM_0
 10
743.39057097236071
 20
600.74622293795414
 30
0.0
 40
0.9959119600000002
 50
60.393009999998313
 51
90.458555999999348
  0
ARC
  5
16AF8
  8
AM_0
 10
741.15718097236038
 20
602.24672293795425
 30
0.0
 40
0.5046359900000002
 50
180.5237599999995
 51
269.47624000000047
  0
LINE
  5
16AF9
  8
AM_0
 10
743.38258097236053
 20
601.7421029379542
 30
0.0
 11
741.15254097236073
 21
601.7421029379542
 31
0.0
  0
ARC
  5
16AFA
  8
AM_0
 10
734.43071097236054
 20
602.97865293795417
 30
0.0
 40
1.993431999999999
 50
10.21196999999983
 51
90.234116000000725
  0
LINE
  5
16AFB
  8
AM_0
 10
736.43254097236024
 20
608.68208293795442
 30
0.0
 11
737.39256097236046
 21
604.21208293795439
 31
0.0
  0
LINE
  5
16AFC
  8
AM_0
 10
719.65257097236054
 20
613.88208293795435
 30
0.0
 11
719.65257097236054
 21
606.47208293795438
 31
0.0
  0
ARC
  5
16AFD
  8
AM_0
 10
717.65532097236053
 20
613.88487293795424
 30
0.0
 40
1.9972080000000001
 50
359.91986000000099
 51
90.080142999999566
  0
ARC
  5
16AFE
  8
AM_0
 10
717.65617097236054
 20
611.85570293795422
 30
0.0
 40
1.996383999999999
 50
359.89615999999739
 51
90.103836999999984
  0
ARC
  5
16AFF
  8
AM_0
 10
721.0389309723605
 20
616.79898293795429
 30
0.0
 40
1.506888
 50
194.8769300000055
 51
270.1377700000005
  0
ARC
  5
16B00
  8
AM_0
 10
721.15642097236025
 20
615.16592293795395
 30
0.0
 40
1.503848099999999
 50
180.14640000000301
 51
269.85359999999702
  0
ARC
  5
16B01
  8
AM_0
 10
721.1543409723605
 20
611.76387293795415
 30
0.0
 40
1.5017959999999979
 50
180.06854999999891
 51
269.93145000000101
  0
ARC
  5
16B02
  8
AM_0
 10
721.15825097236052
 20
606.47775293795428
 30
0.0
 40
1.505676
 50
180.21552999999901
 51
269.78448000000111
  0
LINE
  5
16B03
  8
AM_0
 10
747.1525409723605
 20
567.14211293795438
 30
0.0
 11
742.87257097236068
 21
567.14211293795438
 31
0.0
  0
LINE
  5
16B04
  8
AM_0
 10
741.65260097236035
 20
567.99210293795409
 30
0.0
 11
744.65260097236035
 21
567.99210293795409
 31
0.0
  0
LINE
  5
16B05
  8
AM_0
 10
741.65260097236035
 20
565.99209293795423
 30
0.0
 11
744.65260097236035
 21
565.99209293795423
 31
0.0
  0
LINE
  5
16B06
  8
AM_0
 10
741.65260097236035
 20
577.99209293795411
 30
0.0
 11
744.65260097236035
 21
577.99209293795411
 31
0.0
  0
LINE
  5
16B07
  8
AM_0
 10
741.65260097236035
 20
575.99210293795409
 30
0.0
 11
744.65260097236035
 21
575.99210293795409
 31
0.0
  0
LINE
  5
16B08
  8
AM_0
 10
743.84260097236051
 20
587.60212293795439
 30
0.0
 11
745.04261097236054
 21
587.09212293795417
 31
0.0
  0
LINE
  5
16B09
  8
AM_0
 10
743.79255097236035
 20
585.69210293795425
 30
0.0
 11
744.94258097236059
 21
585.34209293795425
 31
0.0
  0
LINE
  5
16B0A
  8
AM_0
 10
743.89259097236049
 20
599.4921029379542
 30
0.0
 11
745.17262097236073
 21
598.72211293795431
 31
0.0
  0
LINE
  5
16B0B
  8
AM_0
 10
743.90260097236057
 20
594.95206293795445
 30
0.0
 11
745.20259097236055
 21
594.10207293795429
 31
0.0
  0
LINE
  5
16B0C
  8
AM_0
 10
743.88258097236053
 20
593.84208293795416
 30
0.0
 11
745.16261097236043
 21
593.09208293795427
 31
0.0
  0
LINE
  5
16B0D
  8
AM_0
 10
743.86256097236037
 20
600.49213293795424
 30
0.0
 11
745.10255097236063
 21
599.86213293795436
 31
0.0
  0
LINE
  5
16B0E
  8
AM_0
 10
743.87257097236045
 20
598.38212293795425
 30
0.0
 11
745.12263097236064
 21
597.71212293795429
 31
0.0
  0
LINE
  5
16B0F
  8
AM_0
 10
741.65260097236035
 20
545.99210293795409
 30
0.0
 11
744.65260097236035
 21
545.99210293795409
 31
0.0
  0
LINE
  5
16B10
  8
AM_0
 10
741.65260097236035
 20
547.99209293795434
 30
0.0
 11
744.65260097236035
 21
547.99209293795434
 31
0.0
  0
LINE
  5
16B11
  8
AM_0
 10
741.65260097236035
 20
557.9921029379542
 30
0.0
 11
744.65260097236035
 21
557.9921029379542
 31
0.0
  0
LINE
  5
16B12
  8
AM_0
 10
741.65260097236035
 20
555.99210293795431
 30
0.0
 11
744.65260097236035
 21
555.99210293795431
 31
0.0
  0
LINE
  5
16B13
  8
AM_0
 10
745.65254097236073
 20
600.01211293795416
 30
0.0
 11
745.65254097236073
 21
556.99209293795434
 31
0.0
  0
ARC
  5
16B14
  8
AM_0
 10
744.65779097236066
 20
593.26970293795421
 30
0.0
 40
0.9948279899999999
 50
359.56186999999977
 51
56.795310000000541
  0
ARC
  5
16B15
  8
AM_0
 10
744.65937097236065
 20
600.01002293795398
 30
0.0
 40
0.99319202
 50
0.1204399999996219
 51
60.226600000000467
  0
ARC
  5
16B16
  8
AM_0
 10
744.65699097236063
 20
598.97179293795409
 30
0.0
 40
0.99558806
 50
0.0177499999989372
 51
63.412509999998463
  0
ARC
  5
16B17
  8
AM_0
 10
744.65815097236054
 20
597.87107293795418
 30
0.0
 40
0.9944360299999999
 50
0.0595100000006976
 51
58.847829999999441
  0
ARC
  5
16B18
  8
AM_0
 10
744.65937097236065
 20
596.83353293795415
 30
0.0
 40
0.9932120399999999
 50
359.91816999999918
 51
62.200659999998457
  0
ARC
  5
16B19
  8
AM_0
 10
744.65852097236063
 20
592.2353029379542
 30
0.0
 40
0.99407601
 50
359.81535999999909
 51
59.530799999999829
  0
ARC
  5
16B1A
  8
AM_0
 10
744.65620097236058
 20
586.17368293795414
 30
0.0
 40
0.99640006
 50
359.90960000000132
 51
67.18261000000129
  0
ARC
  5
16B1B
  8
AM_0
 10
744.65632097236073
 20
584.38785293795422
 30
0.0
 40
0.9962600499999998
 50
359.66950999999978
 51
73.302510000000908
  0
ARC
  5
16B1C
  8
AM_0
 10
744.65754097236072
 20
576.99703293795426
 30
0.0
 40
0.9950800499999999
 50
359.7159300000007
 51
90.284078999998727
  0
ARC
  5
16B1D
  8
AM_0
 10
744.65242097236057
 20
576.99232293795421
 30
0.0
 40
1.0002040000000001
 50
270.01167999999927
 51
359.9883299999953
  0
LINE
  5
16B1E
  8
AM_0
 10
747.15260097236035
 20
571.99212293795426
 30
0.0
 11
745.65260097236035
 21
572.12212293795415
 31
0.0
  0
ARC
  5
16B1F
  8
AM_0
 10
744.65754097236072
 20
566.9970129379542
 30
0.0
 40
0.99508399
 50
359.71613000000212
 51
90.283866999999233
  0
LINE
  5
16B20
  8
AM_0
 10
747.1525409723605
 20
569.27210293795417
 30
0.0
 11
745.65254097236073
 21
569.27210293795417
 31
0.0
  0
LINE
  5
16B21
  8
AM_0
 10
747.64644097236021
 20
569.98386293795409
 30
0.0
 11
747.14644097236055
 21
569.94385293795403
 31
0.0
  0
LINE
  5
16B22
  8
AM_0
 10
748.14644097236055
 20
567.21384293795415
 30
0.0
 11
747.64644097236021
 21
569.98386293795409
 31
0.0
  0
ARC
  5
16B23
  8
AM_0
 10
744.65242097236057
 20
566.99230293795415
 30
0.0
 40
1.000199999999998
 50
270.01146999999992
 51
359.98853000000008
  0
ARC
  5
16B24
  8
AM_0
 10
744.65754097236072
 20
556.99703293795415
 30
0.0
 40
0.9950879799999999
 50
359.71634999999952
 51
90.283655000000394
  0
ARC
  5
16B25
  8
AM_0
 10
744.65242097236057
 20
556.99230293795415
 30
0.0
 40
1.0001959999999981
 50
270.01126000000068
 51
359.98875000000061
  0
ARC
  5
16B26
  8
AM_0
 10
744.65754097236072
 20
546.99703293795415
 30
0.0
 40
0.9950800499999999
 50
359.71590000000032
 51
90.284106000000477
  0
POINT
  5
16B27
  8
AM_0
 10
748.14644097236021
 20
551.99207293795405
 30
0.0
  0
ARC
  5
16B28
  8
AM_0
 10
744.65242097236057
 20
546.99232293795433
 30
0.0
 40
1.0002040000000001
 50
270.01170000000161
 51
359.98829999999828
  0
LINE
  5
16B29
  8
AM_0
 10
695.65257097236054
 20
598.3420729379543
 30
0.0
 11
730.65257097236054
 21
596.31207293795421
 31
0.0
  0
ARC
  5
16B2A
  8
AM_0
 10
718.65257097236054
 20
586.99208293795425
 30
0.0
 40
1.0000040999999991
 50
270.0
 51
89.999997000002296
  0
ARC
  5
16B2B
  8
AM_0
 10
726.10252097236025
 20
586.99208293795425
 30
0.0
 40
1.0000040999999991
 50
270.0
 51
89.999997000002296
  0
ARC
  5
16B2C
  8
AM_0
 10
726.97258097236045
 20
587.03708293795421
 30
0.0
 40
1.6750081000000001
 50
270.0
 51
89.999997000002296
  0
LINE
  5
16B2D
  8
AM_0
 10
740.65257097236054
 20
586.30208293795431
 30
0.0
 11
730.65257097236054
 21
586.30208293795431
 31
0.0
  0
LINE
  5
16B2E
  8
AM_0
 10
740.65257097236054
 20
600.34207293795419
 30
0.0
 11
730.65257097236054
 21
600.34207293795419
 31
0.0
  0
LINE
  5
16B2F
  8
AM_0
 10
740.65257097236054
 20
594.68208293795442
 30
0.0
 11
730.65257097236054
 21
594.68208293795442
 31
0.0
  0
ARC
  5
16B30
  8
AM_0
 10
741.6549809723607
 20
592.97973293795417
 30
0.0
 40
1.002375999999999
 50
90.135590000000704
 51
179.864408009996
  0
ARC
  5
16B31
  8
AM_0
 10
743.4278109723607
 20
599.59807293795416
 30
0.0
 40
0.9941280500000002
 50
64.065190000002104
 51
90.877191999998061
  0
ARC
  5
16B32
  8
AM_0
 10
743.38374097236056
 20
598.63790293795398
 30
0.0
 40
0.9942600099999999
 50
59.218909999997692
 51
90.644118000000802
  0
ARC
  5
16B33
  8
AM_0
 10
743.41749097236072
 20
597.4967429379542
 30
0.0
 40
0.99546796
 50
62.796340000000029
 51
90.858551999998383
  0
ARC
  5
16B34
  8
AM_0
 10
741.6515609723607
 20
597.49309293795397
 30
0.0
 40
0.9990080599999998
 50
89.943157000000625
 51
180.05685000000281
  0
ARC
  5
16B35
  8
AM_0
 10
741.15095097236065
 20
600.09374293795418
 30
0.0
 40
0.4983640000000002
 50
89.81140200000236
 51
180.18858999999841
  0
LINE
  5
16B36
  8
AM_0
 10
743.37257097236056
 20
599.63209293795444
 30
0.0
 11
740.65260097236035
 21
599.63209293795444
 31
0.0
  0
LINE
  5
16B37
  8
AM_0
 10
743.40254097236073
 20
598.4921029379542
 30
0.0
 11
741.65260097236035
 21
598.4921029379542
 31
0.0
  0
LINE
  5
16B38
  8
AM_0
 10
743.41261097236043
 20
600.59209293795425
 30
0.0
 11
741.15254097236073
 21
600.59209293795425
 31
0.0
  0
LINE
  5
16B39
  8
AM_0
 10
743.65260097236035
 20
599.39211293795415
 30
0.0
 11
743.65260097236035
 21
598.84211293795443
 31
0.0
  0
ARC
  5
16B3A
  8
AM_0
 10
743.34596097236044
 20
594.12591293795424
 30
0.0
 40
0.9962120099999999
 50
56.030099999999067
 51
89.618094000001335
  0
ARC
  5
16B3B
  8
AM_0
 10
743.37318097236073
 20
592.98562293795419
 30
0.0
 40
0.9965200400000001
 50
59.256720000000527
 51
89.45878700000047
  0
LINE
  5
16B3C
  8
AM_0
 10
743.35255097236063
 20
595.12211293795417
 30
0.0
 11
740.65260097236035
 21
595.12211293795417
 31
0.0
  0
LINE
  5
16B3D
  8
AM_0
 10
743.38258097236053
 20
593.98209293795423
 30
0.0
 11
741.65260097236035
 21
593.98209293795423
 31
0.0
  0
LINE
  5
16B3E
  8
AM_0
 10
743.65260097236035
 20
594.82209293795427
 30
0.0
 11
743.65260097236035
 21
594.35210293795444
 31
0.0
  0
ARC
  5
16B3F
  8
AM_0
 10
743.45161097236053
 20
586.6866229379541
 30
0.0
 40
0.99548006
 50
66.872969999998432
 51
89.94267899999798
  0
ARC
  5
16B40
  8
AM_0
 10
741.35713097236055
 20
588.3866529379543
 30
0.0
 40
0.7045519900000002
 50
180.36910999999949
 51
269.63089000000048
  0
LINE
  5
16B41
  8
AM_0
 10
743.45259097236055
 20
587.68210293795426
 30
0.0
 11
741.35261097236048
 21
587.68210293795426
 31
0.0
  0
LINE
  5
16B42
  8
AM_0
 10
743.65260097236035
 20
587.38210293795441
 30
0.0
 11
743.65260097236035
 21
586.32210293795436
 31
0.0
  0
ARC
  5
16B43
  8
AM_0
 10
727.50267097236053
 20
593.20224293795422
 30
0.0
 40
1.004135999999999
 50
134.20256400000039
 51
185.15116000000421
  0
LINE
  5
16B44
  8
AM_0
 10
730.65257097236054
 20
600.34207293795419
 30
0.0
 11
730.65257097236054
 21
586.30208293795431
 31
0.0
  0
ARC
  5
16B45
  8
AM_0
 10
731.03136097236052
 20
589.66014293795422
 30
0.0
 40
6.0039081999999979
 50
93.61728599999789
 51
134.77630700000071
  0
ARC
  5
16B46
  8
AM_0
 10
731.48766097236046
 20
593.58986293795431
 30
0.0
 40
5.0078917000000001
 50
185.47467999999949
 51
260.40127999999839
  0
ARC
  5
16B47
  8
AM_0
 10
741.65748097236064
 20
578.9970129379542
 30
0.0
 40
1.0049318999999981
 50
180.2804200000034
 51
269.71957999999978
  0
ARC
  5
16B48
  8
AM_0
 10
743.51344097236074
 20
584.73939293795422
 30
0.0
 40
0.99277198
 50
73.668180000001442
 51
90.625191999999927
  0
ARC
  5
16B49
  8
AM_0
 10
741.65089097236057
 20
584.73380293795424
 30
0.0
 40
0.99829602
 50
89.902038999997785
 51
180.09795999999611
  0
LINE
  5
16B4A
  8
AM_0
 10
743.50257097236056
 20
585.73209293795423
 30
0.0
 11
741.65260097236035
 21
585.73209293795423
 31
0.0
  0
ARC
  5
16B4B
  8
AM_0
 10
741.65242097236069
 20
574.99225293795416
 30
0.0
 40
0.99985206
 50
89.991453000001144
 51
180.00854999999979
  0
LINE
  5
16B4C
  8
AM_0
 10
743.65260097236035
 20
577.6221129379544
 30
0.0
 11
743.65260097236035
 21
576.25211293795428
 31
0.0
  0
ARC
  5
16B4D
  8
AM_0
 10
727.19255097236055
 20
577.0170929379542
 30
0.0
 40
1.4650000000000001
 50
270.0
 51
89.999997000002296
  0
ARC
  5
16B4E
  8
AM_0
 10
726.10252097236025
 20
576.99208293795425
 30
0.0
 40
1.0000040999999991
 50
270.0
 51
89.999997000002296
  0
ARC
  5
16B4F
  8
AM_0
 10
718.65257097236054
 20
576.99208293795425
 30
0.0
 40
1.0000040999999991
 50
270.0
 51
89.999997000002296
  0
ARC
  5
16B50
  8
AM_0
 10
741.65242097236069
 20
554.99225293795405
 30
0.0
 40
0.99984801
 50
89.991220999998575
 51
180.00877999999949
  0
ARC
  5
16B51
  8
AM_0
 10
736.32256097236052
 20
567.00209293795422
 30
0.0
 40
1.3300000000000001
 50
270.0
 51
89.999997000002296
  0
ARC
  5
16B52
  8
AM_0
 10
741.65748097236064
 20
568.99701293795431
 30
0.0
 40
1.004928
 50
180.2802199999997
 51
269.71978000000018
  0
ARC
  5
16B53
  8
AM_0
 10
741.65242097236069
 20
564.99224293795419
 30
0.0
 40
0.9998440099999999
 50
89.99100899999813
 51
180.00899000000371
  0
LINE
  5
16B54
  8
AM_0
 10
743.65260097236035
 20
567.60209293795447
 30
0.0
 11
743.65260097236035
 21
566.39211293795415
 31
0.0
  0
ARC
  5
16B55
  8
AM_0
 10
735.10124097236053
 20
566.99210293795409
 30
0.0
 40
1.000035999999999
 50
269.50070999999838
 51
90.499283999999903
  0
ARC
  5
16B56
  8
AM_0
 10
736.38255097236038
 20
556.99707293795427
 30
0.0
 40
1.265004
 50
270.0
 51
89.999997000002296
  0
LINE
  5
16B57
  8
AM_0
 10
743.65260097236035
 20
557.60210293795444
 30
0.0
 11
743.65260097236035
 21
556.44208293795418
 31
0.0
  0
ARC
  5
16B58
  8
AM_0
 10
741.65748097236064
 20
558.99700293795433
 30
0.0
 40
1.0049238999999981
 50
180.2800100000027
 51
269.71999000000051
  0
ARC
  5
16B59
  8
AM_0
 10
735.10124097236053
 20
556.99208293795414
 30
0.0
 40
1.000035999999999
 50
269.50070999999838
 51
90.499283999999903
  0
ARC
  5
16B5A
  8
AM_0
 10
718.65257097236054
 20
566.99210293795409
 30
0.0
 40
1.0000040999999991
 50
270.0
 51
89.999997000002296
  0
ARC
  5
16B5B
  8
AM_0
 10
718.65257097236054
 20
556.99208293795414
 30
0.0
 40
1.0000040999999991
 50
270.0
 51
89.999997000002296
  0
ARC
  5
16B5C
  8
AM_0
 10
735.10124097236053
 20
546.99208293795414
 30
0.0
 40
1.000035999999999
 50
269.50070999999838
 51
90.499283999999903
  0
ARC
  5
16B5D
  8
AM_0
 10
736.38255097236038
 20
546.99208293795414
 30
0.0
 40
1.270003999999999
 50
270.0
 51
89.999997000002296
  0
ARC
  5
16B5E
  8
AM_0
 10
741.65754097236061
 20
548.99702293795428
 30
0.0
 40
1.0049318999999981
 50
180.280450000001
 51
269.71955000000219
  0
ARC
  5
16B5F
  8
AM_0
 10
741.65242097236069
 20
544.99225293795405
 30
0.0
 40
0.99985206
 50
89.991425999998739
 51
180.00857000000201
  0
LINE
  5
16B60
  8
AM_0
 10
743.65260097236035
 20
546.38209293795444
 30
0.0
 11
743.65260097236035
 21
547.54211293795413
 31
0.0
  0
ARC
  5
16B61
  8
AM_0
 10
718.65257097236054
 20
546.99208293795414
 30
0.0
 40
1.0000040999999991
 50
270.0
 51
89.999997000002296
  0
LINE
  5
16B62
  8
AM_0
 10
743.88258097236053
 20
502.38213393795428
 30
0.0
 11
745.15260097236035
 21
503.11212993795419
 31
0.0
  0
LINE
  5
16B63
  8
AM_0
 10
743.86262097236045
 20
503.50212893795418
 30
0.0
 11
745.10261097236048
 21
504.1321269379543
 31
0.0
  0
LINE
  5
16B64
  8
AM_0
 10
743.90260097236057
 20
509.0321129379542
 30
0.0
 11
745.20259097236055
 21
509.88211893795437
 31
0.0
  0
LINE
  5
16B65
  8
AM_0
 10
743.89259097236049
 20
504.4921349379544
 30
0.0
 11
745.17262097236051
 21
505.26214693795441
 31
0.0
  0
LINE
  5
16B66
  8
AM_0
 10
743.88258097236053
 20
510.14212093795442
 30
0.0
 11
745.16255097236035
 21
510.89210593795411
 31
0.0
  0
LINE
  5
16B67
  8
AM_0
 10
743.87257097236045
 20
505.61209993795433
 30
0.0
 11
745.12257097236056
 21
506.27208793795432
 31
0.0
  0
LINE
  5
16B68
  8
AM_0
 10
743.84260097236051
 20
516.38212693795435
 30
0.0
 11
745.04255097236035
 21
516.90209293795442
 31
0.0
  0
LINE
  5
16B69
  8
AM_0
 10
743.79255097236035
 20
518.29212293795445
 30
0.0
 11
744.94258097236059
 21
518.65212293795435
 31
0.0
  0
LINE
  5
16B6A
  8
AM_0
 10
747.1525409723605
 20
536.84209293795413
 30
0.0
 11
742.5725809723607
 21
536.84209293795413
 31
0.0
  0
LINE
  5
16B6B
  8
AM_0
 10
741.65260097236035
 20
525.99211293795418
 30
0.0
 11
744.65260097236035
 21
525.99211293795418
 31
0.0
  0
LINE
  5
16B6C
  8
AM_0
 10
741.65260097236035
 20
527.99210293795431
 30
0.0
 11
744.65260097236035
 21
527.99210293795431
 31
0.0
  0
LINE
  5
16B6D
  8
AM_0
 10
741.65260097236035
 20
535.99209293795434
 30
0.0
 11
744.65260097236035
 21
535.99209293795434
 31
0.0
  0
LINE
  5
16B6E
  8
AM_0
 10
741.65260097236035
 20
537.99211293795429
 30
0.0
 11
744.65260097236035
 21
537.99211293795429
 31
0.0
  0
ARC
  5
16B6F
  8
AM_0
 10
744.65754097236072
 20
536.99702293795428
 30
0.0
 40
0.99508399
 50
359.71610999999569
 51
90.283894000000515
  0
LINE
  5
16B70
  8
AM_0
 10
747.1525409723605
 20
534.71210293795434
 30
0.0
 11
745.65254097236073
 21
534.71210293795434
 31
0.0
  0
LINE
  5
16B71
  8
AM_0
 10
747.64644097236021
 20
534.00025293795375
 30
0.0
 11
747.14641097236074
 21
534.04026293795414
 31
0.0
  0
ARC
  5
16B72
  8
AM_0
 10
744.65242097236057
 20
536.99231293795413
 30
0.0
 40
1.000199999999998
 50
270.01148999999901
 51
359.98849999999652
  0
LINE
  5
16B73
  8
AM_0
 10
748.14644097236055
 20
536.77024293795421
 30
0.0
 11
747.64644097236021
 21
534.00025293795375
 31
0.0
  0
LINE
  5
16B74
  8
AM_0
 10
747.1525409723605
 20
531.99210293795431
 30
0.0
 11
745.65260097236035
 21
531.86210293795443
 31
0.0
  0
ARC
  5
16B75
  8
AM_0
 10
744.65242097236057
 20
526.99230293795415
 30
0.0
 40
1.0001959999999981
 50
270.01127999999977
 51
359.98871999999687
  0
ARC
  5
16B76
  8
AM_0
 10
744.65754097236072
 20
526.99704293795423
 30
0.0
 40
0.99508399
 50
359.71632000000022
 51
90.283676000000725
  0
ARC
  5
16B77
  8
AM_0
 10
744.65608097236054
 20
517.82057293795435
 30
0.0
 40
0.9964760499999998
 50
292.82034000000129
 51
0.0874199999992698
  0
ARC
  5
16B78
  8
AM_0
 10
744.65620097236058
 20
519.60644593795405
 30
0.0
 40
0.9963800299999999
 50
286.70293000000169
 51
359.75050999999979
  0
ARC
  5
16B79
  8
AM_0
 10
744.65351097236055
 20
510.71678993795427
 30
0.0
 40
0.9991000299999999
 50
303.33822999999848
 51
0.3045799999989818
  0
ARC
  5
16B7A
  8
AM_0
 10
744.65412097236072
 20
511.75140493795408
 30
0.0
 40
0.9984599899999999
 50
300.61345000000102
 51
0.0403800000005283
  0
ARC
  5
16B7B
  8
AM_0
 10
744.65486097236055
 20
507.1533969379542
 30
0.0
 40
0.99770796
 50
297.95523999999739
 51
359.9259500000004
  0
ARC
  5
16B7C
  8
AM_0
 10
744.65693097236056
 20
505.02246193795429
 30
0.0
 40
0.99566799
 50
296.59017000000142
 51
359.97956999999923
  0
ARC
  5
16B7D
  8
AM_0
 10
744.6549809723607
 20
503.97676893795432
 30
0.0
 40
0.9976240400000001
 50
299.92045999999738
 51
359.73248999999612
  0
ARC
  5
16B7E
  8
AM_0
 10
744.65382097236056
 20
506.11560093795413
 30
0.0
 40
0.9987800700000001
 50
301.29144999999937
 51
0.3733299999998518
  0
ARC
  5
16B7F
  8
AM_0
 10
731.02232097236049
 20
514.33859293795433
 30
0.0
 40
6.007896399999999
 50
225.38273000000569
 51
266.47155000000168
  0
LINE
  5
16B80
  8
AM_0
 10
730.65257097236042
 20
503.64209293795437
 30
0.0
 11
730.65257097236042
 21
515.33209332582294
 31
0.0
  0
ARC
  5
16B81
  8
AM_0
 10
741.65242097236069
 20
524.99226293795414
 30
0.0
 40
0.99984801
 50
89.991192999998034
 51
180.00881000000291
  0
ARC
  5
16B82
  8
AM_0
 10
736.32256097236052
 20
536.98210293795421
 30
0.0
 40
1.3300000000000001
 50
270.0
 51
89.999997000002296
  0
ARC
  5
16B83
  8
AM_0
 10
741.65748097236064
 20
538.99701293795431
 30
0.0
 40
1.004928
 50
180.28023999999991
 51
269.71976000000001
  0
LINE
  5
16B84
  8
AM_0
 10
743.65260097236035
 20
536.38211293795439
 30
0.0
 11
743.65260097236035
 21
537.60209293795413
 31
0.0
  0
ARC
  5
16B85
  8
AM_0
 10
741.65242097236069
 20
534.99225293795428
 30
0.0
 40
0.9998440099999999
 50
89.99098200000229
 51
180.0090200000005
  0
ARC
  5
16B86
  8
AM_0
 10
735.10124097236053
 20
536.9921029379542
 30
0.0
 40
1.000035999999999
 50
269.50070999999838
 51
90.499283999999903
  0
ARC
  5
16B87
  8
AM_0
 10
736.19255097236055
 20
526.97208293795438
 30
0.0
 40
1.4599999999999991
 50
270.0
 51
89.999997000002296
  0
LINE
  5
16B88
  8
AM_0
 10
743.65260097236035
 20
526.36210293795443
 30
0.0
 11
743.65260097236035
 21
527.73209293795435
 31
0.0
  0
ARC
  5
16B89
  8
AM_0
 10
741.65748097236064
 20
528.9970129379542
 30
0.0
 40
1.0049238999999981
 50
180.28003000000271
 51
269.7199600000007
  0
ARC
  5
16B8A
  8
AM_0
 10
735.10252097236025
 20
526.99209293795423
 30
0.0
 40
1.0000040999999991
 50
270.0
 51
89.999997000002296
  0
ARC
  5
16B8B
  8
AM_0
 10
718.65257097236054
 20
536.9921029379542
 30
0.0
 40
1.0000040999999991
 50
270.0
 51
89.999997000002296
  0
ARC
  5
16B8C
  8
AM_0
 10
718.65257097236054
 20
526.99209293795423
 30
0.0
 40
1.0000040999999991
 50
270.0
 51
89.999997000002296
  0
ARC
  5
16B8D
  8
AM_0
 10
735.10251834243866
 20
516.9920858879542
 30
0.0
 40
1.000007050003423
 50
270.00015068234609
 51
89.999849317650614
  0
ARC
  5
16B8E
  8
AM_0
 10
735.97258097236045
 20
516.94708293795395
 30
0.0
 40
1.6750081000000001
 50
270.0
 51
89.999997000002296
  0
LINE
  5
16B8F
  8
AM_0
 10
743.65260097236035
 20
516.60209693795446
 30
0.0
 11
743.65260097236035
 21
517.66209493795441
 31
0.0
  0
LINE
  5
16B90
  8
AM_0
 10
740.65257097236042
 20
517.69209293795427
 30
0.0
 11
737.48253097236034
 21
517.69209293795427
 31
0.0
  0
ARC
  5
16B91
  8
AM_0
 10
741.65589097236057
 20
519.25545593795425
 30
0.0
 40
1.003363999999999
 50
180.19171999999699
 51
269.80829000000131
  0
ARC
  5
16B92
  8
AM_0
 10
743.51203097236055
 20
519.25479193795434
 30
0.0
 40
1.0027280000000001
 50
269.45960000000059
 51
286.24703000000039
  0
LINE
  5
16B93
  8
AM_0
 10
743.50257097236045
 20
518.2521069379543
 30
0.0
 11
741.65260097236035
 21
518.2521069379543
 31
0.0
  0
ARC
  5
16B94
  8
AM_0
 10
741.35200097236066
 20
515.60266193795417
 30
0.0
 40
0.69944
 50
89.954159999999803
 51
180.04584000000011
  0
ARC
  5
16B95
  8
AM_0
 10
743.44960097236071
 20
517.30732793795426
 30
0.0
 40
1.005223999999999
 50
270.17063999999959
 51
293.0137099999987
  0
LINE
  5
16B96
  8
AM_0
 10
743.45259097236055
 20
516.30210193795426
 30
0.0
 11
741.35261097236048
 21
516.30210193795426
 31
0.0
  0
ARC
  5
16B97
  8
AM_0
 10
743.38923097236056
 20
511.01310093795411
 30
0.0
 40
1.001012
 50
269.6197999999996
 51
299.52864000000261
  0
ARC
  5
16B98
  8
AM_0
 10
741.65504097236067
 20
511.01456493795428
 30
0.0
 40
1.0024599999999999
 50
180.1403799999988
 51
269.85962000000097
  0
LINE
  5
16B99
  8
AM_0
 10
743.38258097236053
 20
510.01210893795411
 30
0.0
 11
741.65260097236035
 21
510.01210893795411
 31
0.0
  0
ARC
  5
16B9A
  8
AM_0
 10
718.65257097236054
 20
516.99208293795414
 30
0.0
 40
1.0000040999999991
 50
270.0
 51
89.999997000002296
  0
ARC
  5
16B9B
  8
AM_0
 10
727.50603097236046
 20
510.78318293795411
 30
0.0
 40
1.007376
 50
174.93659510000259
 51
225.7096799999976
  0
ARC
  5
16B9C
  8
AM_0
 10
731.48235097236056
 20
510.3992129379543
 30
0.0
 40
5.0021839000000003
 50
99.548574999998934
 51
174.57547400000229
  0
LINE
  5
16B9D
  8
AM_0
 10
695.65251097236035
 20
505.64209293795437
 30
0.0
 11
730.65251097236046
 21
507.67209293795429
 31
0.0
  0
ARC
  5
16B9E
  8
AM_0
 10
734.48064097236045
 20
495.72779393795429
 30
0.0
 40
1.995695899999999
 50
270.05521999999718
 51
347.97746999999998
  0
LINE
  5
16B9F
  8
AM_0
 10
740.65257097236042
 20
494.56208393795441
 30
0.0
 11
737.83257097236014
 21
494.49208393795448
 31
0.0
  0
ARC
  5
16BA0
  8
AM_0
 10
738.8176109723604
 20
493.37031093795429
 30
0.0
 40
1.501779999999999
 50
89.810617000000875
 51
165.66716400000001
  0
LINE
  5
16BA1
  8
AM_0
 10
719.65257097236042
 20
490.10208493795449
 30
0.0
 11
719.65257097236042
 21
497.51208793795428
 31
0.0
  0
LINE
  5
16BA2
  8
AM_0
 10
736.46257097236025
 20
491.86207893795432
 30
0.0
 11
737.38261097236034
 21
495.74207593795433
 31
0.0
  0
LINE
  5
16BA3
  8
AM_0
 10
740.65257097236042
 20
503.64209293795437
 30
0.0
 11
730.65257097236042
 21
503.64209293795437
 31
0.0
  0
LINE
  5
16BA4
  8
AM_0
 10
734.42259097236035
 20
499.01208793795439
 30
0.0
 11
721.15257097236042
 21
499.01208793795439
 31
0.0
  0
LINE
  5
16BA5
  8
AM_0
 10
740.65257097236042
 20
509.30209293795428
 30
0.0
 11
730.65257097236042
 21
509.30209293795428
 31
0.0
  0
LINE
  5
16BA6
  8
AM_0
 10
736.93254097236024
 20
503.64209293795437
 30
0.0
 11
736.39250097236038
 21
500.6520719379543
 31
0.0
  0
ARC
  5
16BA7
  8
AM_0
 10
741.15217097236064
 20
501.74253893795418
 30
0.0
 40
0.49955601
 50
89.949105999999176
 51
180.0508899999968
  0
ARC
  5
16BA8
  8
AM_0
 10
743.35981097236072
 20
509.87260493795418
 30
0.0
 40
1.0005360000000001
 50
269.58678000000111
 51
302.85360000000082
  0
LINE
  5
16BA9
  8
AM_0
 10
743.35255097236052
 20
508.87209393795428
 30
0.0
 11
740.65260097236035
 21
508.87209393795428
 31
0.0
  0
LINE
  5
16BAA
  8
AM_0
 10
743.65260097236035
 20
509.16210993795409
 30
0.0
 11
743.65260097236035
 21
509.63209593795432
 31
0.0
  0
ARC
  5
16BAB
  8
AM_0
 10
743.37190097236055
 20
503.24317993795432
 30
0.0
 40
1.001135899999998
 50
270.61249000000061
 51
300.67199999999639
  0
ARC
  5
16BAC
  8
AM_0
 10
743.40675097236067
 20
504.39136593795411
 30
0.0
 40
0.99928796
 50
270.33380999999861
 51
297.13873000000308
  0
ARC
  5
16BAD
  8
AM_0
 10
741.15602097236069
 20
503.89549293795397
 30
0.0
 40
0.50340396
 50
180.3861299999981
 51
269.61387000000178
  0
LINE
  5
16BAE
  8
AM_0
 10
743.38258097236053
 20
502.24209693795427
 30
0.0
 11
741.1525409723605
 21
502.24209693795427
 31
0.0
  0
LINE
  5
16BAF
  8
AM_0
 10
743.41261097236043
 20
503.39211393795409
 30
0.0
 11
741.1525409723605
 21
503.39211393795409
 31
0.0
  0
LINE
  5
16BB0
  8
AM_0
 10
743.65260097236035
 20
502.49210393795443
 30
0.0
 11
743.65260097236035
 21
503.02210293795429
 31
0.0
  0
ARC
  5
16BB1
  8
AM_0
 10
743.38124097236073
 20
505.35575993795419
 30
0.0
 40
1.003687999999999
 50
269.50724999999932
 51
300.6297300000009
  0
LINE
  5
16BB2
  8
AM_0
 10
743.37257097236056
 20
504.35211293795442
 30
0.0
 11
740.65260097236035
 21
504.35211293795442
 31
0.0
  0
LINE
  5
16BB3
  8
AM_0
 10
743.4025409723605
 20
505.49210393795443
 30
0.0
 11
741.65260097236035
 21
505.49210393795443
 31
0.0
  0
LINE
  5
16BB4
  8
AM_0
 10
743.65260097236035
 20
504.59209493795407
 30
0.0
 11
743.65260097236035
 21
505.1420979379543
 31
0.0
  0
ARC
  5
16BB5
  8
AM_0
 10
743.39741097236072
 20
506.49272993795432
 30
0.0
 40
1.0006280000000001
 50
270.29529000000059
 51
298.35014000000223
  0
ARC
  5
16BB6
  8
AM_0
 10
741.65663097236063
 20
506.49618593795418
 30
0.0
 40
1.004083999999998
 50
180.23263000000361
 51
269.76736999999957
  0
LINE
  5
16BB7
  8
AM_0
 10
738.82256097236041
 20
494.87209593795433
 30
0.0
 11
737.17253097236016
 21
494.87209593795433
 31
0.0
  0
LINE
  5
16BB8
  8
AM_0
 10
738.84258097236034
 20
496.89209293795437
 30
0.0
 11
736.78258097236039
 21
496.89209293795437
 31
0.0
  0
ARC
  5
16BB9
  8
AM_0
 10
738.8382409723605
 20
495.395754937954
 30
0.0
 40
1.4963319999999991
 50
89.835409999999186
 51
166.61756199999891
  0
LINE
  5
16BBA
  8
AM_0
 10
738.86260097236016
 20
500.96209293795431
 30
0.0
 11
736.44255097236044
 21
500.96209293795431
 31
0.0
  0
ARC
  5
16BBB
  8
AM_0
 10
738.86241097236052
 20
499.45929993795431
 30
0.0
 40
1.5027881000000001
 50
89.995332000003117
 51
167.98665799999779
  0
ARC
  5
16BBC
  8
AM_0
 10
734.42558097236054
 20
501.01171393795431
 30
0.0
 40
1.9996280999999989
 50
269.91467
 51
349.63923999999781
  0
LINE
  5
16BBD
  8
AM_0
 10
736.43254097236024
 20
495.3120839379543
 30
0.0
 11
737.39256097236034
 21
499.7720979379543
 31
0.0
  0
ARC
  5
16BBE
  8
AM_0
 10
721.1529409723604
 20
497.51172193795429
 30
0.0
 40
1.5003600999999991
 50
90.013814999999965
 51
179.9861839999985
  0
LINE
  5
16BBF
  8
AM_0
 10
734.51256097236035
 20
490.32208593795428
 30
0.0
 11
721.15257097236042
 21
490.32208593795428
 31
0.0
  0
LINE
  5
16BC0
  8
AM_0
 10
734.54259097236024
 20
488.69208093795442
 30
0.0
 11
721.04259097236024
 21
488.69208093795442
 31
0.0
  0
LINE
  5
16BC1
  8
AM_0
 10
734.48253097236034
 20
493.73208193795449
 30
0.0
 11
721.15257097236042
 21
493.73208193795449
 31
0.0
  0
ARC
  5
16BC2
  8
AM_0
 10
734.51463097236046
 20
492.324023937954
 30
0.0
 40
2.001947899999998
 50
269.94051999999903
 51
346.6588600000016
  0
ARC
  5
16BC3
  8
AM_0
 10
734.54015097236049
 20
490.6963989379542
 30
0.0
 40
2.0043239999999991
 50
270.0689100000011
 51
345.72195000000022
  0
LINE
  5
16BC4
  8
AM_0
 10
736.48253097236034
 20
490.20209793795431
 30
0.0
 11
737.36253097236033
 21
493.74209893795432
 31
0.0
  0
ARC
  5
16BC5
  8
AM_0
 10
717.65147097236058
 20
488.07851693795408
 30
0.0
 40
1.996427999999999
 50
270.0323900000019
 51
345.3053699999993
  0
ARC
  5
16BC6
  8
AM_0
 10
717.65276097236051
 20
488.75191093795422
 30
0.0
 40
1.999824
 50
269.99493999999879
 51
0.0050600000012402
  0
ARC
  5
16BC7
  8
AM_0
 10
717.6509309723607
 20
492.13373093795411
 30
0.0
 40
2.001640099999999
 50
270.04695999999808
 51
359.95303999999533
  0
ARC
  5
16BC8
  8
AM_0
 10
721.15117097236055
 20
488.82352793795411
 30
0.0
 40
1.498559999999999
 50
89.944884999996916
 51
180.05511999999939
  0
ARC
  5
16BC9
  8
AM_0
 10
721.15410097236054
 20
492.2305709379541
 30
0.0
 40
1.5015080999999979
 50
90.057548999996854
 51
179.94245300200021
  0
ARC
  5
16BCA
  8
AM_0
 10
717.65007097236048
 20
490.1046019379541
 30
0.0
 40
2.0025157999999981
 50
270.0718999999998
 51
359.92810000000009
  0
ARC
  5
16BCB
  8
AM_0
 10
721.03386097236046
 20
487.1918059379542
 30
0.0
 40
1.5003120000000001
 50
89.668336999999084
 51
165.3169660000006
  0
LINE
  5
16BCC
  8
AM_0
 10
593.65257097236054
 20
614.99209793795467
 30
0.0
 11
593.65257095616755
 21
488.99212896211969
 31
0.0
  0
LINE
  5
16BCD
  8
ﾁｭｳｼﾝｾﾝ1
 10
644.65260097236035
 20
586.4921029379542
 30
0.0
 11
644.65260097236035
 21
517.49210293795431
 31
0.0
1001
GENIUS_GENODEF_13
1002
{
1000
HIER
1070
     0
1002
}
1002
{
1000
MANEDIT
1070
     0
1002
}
1002
{
1000
NOSEL
1070
     0
1002
}
1002
{
1000
BEHIND
1070
     0
1002
}
1002
{
1000
REACTOR
1002
}
1001
GENIUS_GENOBJ-N-CEN_13
1002
{
1000
OWNER
1000
GEN
1002
}
  0
LINE
  5
16BCE
  8
AM_0
 10
598.91255097236058
 20
612.37209293795445
 30
0.0
 11
596.14689529177417
 21
602.0448010364496
 31
0.0
  0
ARC
  5
16BCF
  8
AM_0
 10
664.65318097236047
 20
615.91147293795427
 30
0.0
 40
2.000623899999999
 50
90.017824000002122
 51
179.9821759990013
  0
ARC
  5
16BD0
  8
AM_0
 10
664.64964097236054
 20
615.23500293795405
 30
0.0
 40
1.9970881
 50
89.916374999999235
 51
180.08362000000139
  0
ARC
  5
16BD1
  8
AM_0
 10
664.65233097236057
 20
613.88235293795424
 30
0.0
 40
1.9997199999999991
 50
89.991937999999706
 51
180.00806000000401
  0
LINE
  5
16BD2
  8
AM_0
 10
662.65257097236054
 20
615.91208293795444
 30
0.0
 11
662.65257097236054
 21
613.85208293795449
 31
0.0
  0
LINE
  5
16BD3
  8
AM_0
 10
593.94255097236055
 20
603.03207293795424
 30
0.0
 11
596.3525509723604
 21
603.03207293795424
 31
0.0
  0
LINE
  5
16BD4
  8
AM_0
 10
598.94258097236059
 20
612.49208293795436
 30
0.0
 11
593.65257097236054
 21
612.49208293795436
 31
0.0
  0
ARC
  5
16BD5
  8
AM_0
 10
593.94673097236046
 20
604.53256293795437
 30
0.0
 40
1.500475999999999
 50
269.84172000000018
 51
347.66777000000133
  0
LINE
  5
16BD6
  8
AM_0
 10
596.84258097236045
 20
610.91212293795422
 30
0.0
 11
595.40257097236054
 21
604.21213293795427
 31
0.0
  0
ARC
  5
16BD7
  8
AM_0
 10
598.79811097236052
 20
610.49191293795423
 30
0.0
 40
2.0001799999999981
 50
89.872485000002044
 51
167.87364800000211
  0
ARC
  5
16BD8
  8
AM_0
 10
600.84212097236048
 20
611.85428293795417
 30
0.0
 40
1.997795899999999
 50
89.986419000002854
 51
164.97840299999771
  0
LINE
  5
16BD9
  8
AM_0
 10
592.65257097236054
 20
615.99209793795455
 30
0.0
 11
584.6525409723605
 21
615.99209793795455
 31
0.0
  0
ARC
  5
16BDA
  8
AM_0
 10
592.65752097236054
 20
614.99705793795454
 30
0.0
 40
0.9950640200000001
 50
359.714940000002
 51
90.285061999999584
  0
LINE
  5
16BDB
  8
AM_0
 10
592.65257097236054
 20
604.0320929379543
 30
0.0
 11
584.6525409723605
 21
604.0320929379543
 31
0.0
  0
ARC
  5
16BDC
  8
AM_0
 10
592.65816097236052
 20
603.03770293795424
 30
0.0
 40
0.9944000200000001
 50
359.67649000000222
 51
90.323509000000016
  0
ARC
  5
16BDD
  8
AM_0
 10
600.31075097236055
 20
586.99208293795425
 30
0.0
 40
1.000031899999998
 50
90.469299999997844
 51
269.53070000000201
  0
ARC
  5
16BDE
  8
AM_0
 10
596.8325709723606
 20
587.03708293795421
 30
0.0
 40
1.675
 50
89.999997000002296
 51
270.0
  0
LINE
  5
16BDF
  8
AM_0
 10
593.65257097236054
 20
589.14209293795443
 30
0.0
 11
584.65254097236038
 21
589.14209293795443
 31
0.0
  0
ARC
  5
16BE0
  8
AM_0
 10
596.62256097236059
 20
577.0170929379542
 30
0.0
 40
1.4650000000000001
 50
90.00000299999769
 51
270.0
  0
ARC
  5
16BE1
  8
AM_0
 10
597.71259097236054
 20
576.99208293795425
 30
0.0
 40
1.0000040999999991
 50
90.00000299999769
 51
270.0
  0
ARC
  5
16BE2
  8
AM_0
 10
596.48756097236048
 20
567.00209293795422
 30
0.0
 40
1.3300000000000001
 50
90.00000299999769
 51
270.0
  0
ARC
  5
16BE3
  8
AM_0
 10
597.70888097236048
 20
566.99210293795409
 30
0.0
 40
1.000035999999999
 50
89.500716000000082
 51
270.49929000000162
  0
ARC
  5
16BE4
  8
AM_0
 10
597.70888097236048
 20
556.99208293795414
 30
0.0
 40
1.000035999999999
 50
89.500716000000082
 51
270.49929000000162
  0
ARC
  5
16BE5
  8
AM_0
 10
596.42757097236063
 20
556.99707293795427
 30
0.0
 40
1.265004
 50
90.00000299999769
 51
270.0
  0
ARC
  5
16BE6
  8
AM_0
 10
596.42757097236063
 20
546.99208293795414
 30
0.0
 40
1.270003999999999
 50
90.00000299999769
 51
270.0
  0
ARC
  5
16BE7
  8
AM_0
 10
597.70888097236048
 20
546.99208293795414
 30
0.0
 40
1.000035999999999
 50
89.500716000000082
 51
270.49929000000162
  0
ARC
  5
16BE8
  8
AM_0
 10
664.65343097236052
 20
488.08295793795429
 30
0.0
 40
2.0008759
 50
180.0251100000024
 51
269.97488999999757
  0
ARC
  5
16BE9
  8
AM_0
 10
664.65489097236048
 20
488.7544279379544
 30
0.0
 40
2.002332
 50
180.06674000000129
 51
269.93325999999871
  0
ARC
  5
16BEA
  8
AM_0
 10
664.65758097236039
 20
490.10709693795411
 30
0.0
 40
2.0050240000000001
 50
180.1434100000013
 51
269.85658999999868
  0
LINE
  5
16BEB
  8
AM_0
 10
662.65257097236042
 20
488.08208793795438
 30
0.0
 11
662.65257097236042
 21
490.13209093795439
 31
0.0
  0
ARC
  5
16BEC
  8
AM_0
 10
596.48756097236048
 20
536.98210293795421
 30
0.0
 40
1.3300000000000001
 50
90.00000299999769
 51
270.0
  0
ARC
  5
16BED
  8
AM_0
 10
597.70888097236048
 20
536.9921029379542
 30
0.0
 40
1.000035999999999
 50
89.500716000000082
 51
270.49929000000162
  0
ARC
  5
16BEE
  8
AM_0
 10
597.70760097236064
 20
526.99209293795423
 30
0.0
 40
1.0000040999999991
 50
90.00000299999769
 51
270.0
  0
ARC
  5
16BEF
  8
AM_0
 10
596.61757097236045
 20
526.97208293795438
 30
0.0
 40
1.4599999999999991
 50
90.00000299999769
 51
270.0
  0
ARC
  5
16BF0
  8
AM_0
 10
600.31075097236055
 20
516.99208293795414
 30
0.0
 40
1.000031899999998
 50
90.469299999997844
 51
269.53070000000201
  0
ARC
  5
16BF1
  8
AM_0
 10
596.8325709723606
 20
516.94708293795395
 30
0.0
 40
1.675
 50
89.999997000002296
 51
270.0
  0
LINE
  5
16BF2
  8
AM_0
 10
593.65257097236054
 20
514.84208293795405
 30
0.0
 11
584.65254097236038
 21
514.84208293795405
 31
0.0
  0
LINE
  5
16BF3
  8
AM_0
 10
596.84255097236041
 20
493.07207793795442
 30
0.0
 11
595.40254097236038
 21
499.7720749379543
 31
0.0
  0
LINE
  5
16BF4
  8
AM_0
 10
598.91255097236058
 20
491.61207893795449
 30
0.0
 11
596.14687917038964
 21
501.93941984804178
 31
0.0
  0
LINE
  5
16BF5
  8
AM_0
 10
593.94255097236055
 20
500.96209293795431
 30
0.0
 11
596.3525509723604
 21
500.96209293795431
 31
0.0
  0
ARC
  5
16BF6
  8
AM_0
 10
593.94548097236054
 20
499.46275693795423
 30
0.0
 40
1.499328
 50
11.906159999999311
 51
90.111848999999921
  0
LINE
  5
16BF7
  8
AM_0
 10
592.65257097236054
 20
499.9520829379544
 30
0.0
 11
584.6525409723605
 21
499.9520829379544
 31
0.0
  0
ARC
  5
16BF8
  8
AM_0
 10
592.65309097236059
 20
500.9515639379544
 30
0.0
 40
0.9994760199999999
 50
269.9700799999996
 51
0.0299099999979458
  0
LINE
  5
16BF9
  8
AM_0
 10
598.94258097236059
 20
491.49208393795442
 30
0.0
 11
593.65257097236054
 21
491.49208393795442
 31
0.0
  0
ARC
  5
16BFA
  8
AM_0
 10
600.84715097236051
 20
492.13650093795439
 30
0.0
 40
2.0044159999999991
 50
195.16665999999881
 51
269.86852000000118
  0
ARC
  5
16BFB
  8
AM_0
 10
598.80324097236053
 20
493.49862193795428
 30
0.0
 40
2.0065319999999991
 50
192.27313000000379
 51
269.98073000000318
  0
LINE
  5
16BFC
  8
AM_0
 10
592.65257097236054
 20
487.99211793795462
 30
0.0
 11
584.6525409723605
 21
487.99211793795462
 31
0.0
  0
ARC
  5
16BFD
  8
AM_0
 10
592.65239097236054
 20
488.99230893795442
 30
0.0
 40
1.000179999999999
 50
270.01032000000009
 51
359.98968999999448
  0
LINE
  5
16BFE
  8
0
 10
424.15250720632793
 20
441.98509684896942
 30
0.0
 11
424.15250720632793
 21
483.98509684896931
 31
0.0
  0
LINE
  5
16BFF
  8
0
 10
452.15250720632821
 20
441.98509684896942
 30
0.0
 11
452.15250720632821
 21
483.98509684896931
 31
0.0
  0
LINE
  5
16C00
  8
AM_0
 10
452.15250720632821
 20
441.98509684896942
 30
0.0
 11
424.15250720632793
 21
441.98509684896942
 31
0.0
  0
LINE
  5
16C01
  8
0
 10
434.15250720632793
 20
473.98509684896931
 30
0.0
 11
442.1525072063281
 21
473.98509684896931
 31
0.0
  0
LINE
  5
16C02
  8
0
 10
420.65250720632821
 20
483.98509684896931
 30
0.0
 11
455.6525072063281
 21
483.98509684896931
 31
0.0
  0
LINE
  5
16C03
  8
0
 10
420.65250720632821
 20
483.98509684896931
 30
0.0
 11
415.65250653577601
 21
494.9921012392216
 31
0.0
  0
LINE
  5
16C04
  8
AM_0
 10
415.65250653577601
 20
494.9921012392216
 30
0.0
 11
460.65250787688012
 21
494.9921012392216
 31
0.0
  0
LINE
  5
16C05
  8
AM_0
 10
415.65250653577601
 20
494.9921012392216
 30
0.0
 11
415.65250653577601
 21
498.99210135843123
 31
0.0
  0
LINE
  5
16C06
  8
0
 10
455.6525072063281
 20
483.98509684896931
 30
0.0
 11
460.65250787688012
 21
494.9921012392216
 31
0.0
  0
LINE
  5
16C07
  8
AM_0
 10
460.65250787688012
 20
494.9921012392216
 30
0.0
 11
460.65250787688012
 21
498.99210135843123
 31
0.0
  0
LINE
  5
16C08
  8
AM_0
 10
434.1525072063281
 20
441.98509684896942
 30
0.0
 11
434.1525072063281
 21
473.98509684896948
 31
0.0
  0
LINE
  5
16C09
  8
AM_0
 10
442.1525072063281
 20
441.98509684896942
 30
0.0
 11
442.1525072063281
 21
473.98509684896948
 31
0.0
  0
ARC
  5
16C0A
  8
AM_0
 10
438.1525072063281
 20
473.98509684896931
 30
0.0
 40
4.0
 50
0.0
 51
180.0
  0
LINE
  5
16C0C
  8
AM_0
 10
593.65257083873394
 20
594.85207345003755
 30
0.0
 11
593.65257083873394
 21
602.45207345003746
 31
0.0
  0
LINE
  5
16C0D
  8
AM_0
 10
594.65257083873371
 20
594.85207345003755
 30
0.0
 11
594.65257083873371
 21
602.45207345003746
 31
0.0
  0
LINE
  5
16C0E
  8
AM_0
 10
597.25255083873367
 20
596.85207345003721
 30
0.0
 11
597.25255083873367
 21
600.45207345003735
 31
0.0
  0
LINE
  5
16C0F
  8
AM_0
 10
594.65257083873371
 20
602.45207345003746
 30
0.0
 11
593.65257083873394
 21
602.45207345003746
 31
0.0
  0
ARC
  5
16C10
  8
AM_0
 10
595.55257083873391
 20
600.45207345003723
 30
0.0
 40
1.7000007999999991
 50
0.0000100000009873
 51
89.999979999998018
  0
LINE
  5
16C11
  8
AM_0
 10
594.65257083873371
 20
602.15207345003739
 30
0.0
 11
595.55257083873369
 21
602.15207345003739
 31
0.0
  0
LINE
  5
16C12
  8
AM_0
 10
594.65257083873371
 20
594.85207345003755
 30
0.0
 11
593.65257083873394
 21
594.85207345003755
 31
0.0
  0
LINE
  5
16C13
  8
AM_0
 10
593.65257083873394
 20
597.87471345003735
 30
0.0
 11
594.65257083873371
 21
598.45204345003719
 31
0.0
  0
LINE
  5
16C14
  8
AM_0
 10
593.65257083873394
 20
598.87471345003735
 30
0.0
 11
594.65257083873371
 21
599.45207345003735
 31
0.0
  0
ARC
  5
16C15
  8
AM_0
 10
595.55257083873391
 20
596.85207345003721
 30
0.0
 40
1.699996899999999
 50
270.0000030000042
 51
359.99998000000448
  0
LINE
  5
16C16
  8
AM_0
 10
594.65257083873371
 20
595.15208345003737
 30
0.0
 11
595.55257083873369
 21
595.15208345003737
 31
0.0
  0
LINE
  5
16C17
  8
AM_0
 10
594.65257083873371
 20
509.13215345003709
 30
0.0
 11
594.65257083873371
 21
501.53215345003707
 31
0.0
  0
LINE
  5
16C18
  8
AM_0
 10
593.65257083873394
 20
509.13215345003709
 30
0.0
 11
593.65257083873394
 21
501.53215345003707
 31
0.0
  0
ARC
  5
16C19
  8
AM_0
 10
595.55257083873391
 20
503.5321534500373
 30
0.0
 40
1.7000007999999991
 50
270.000020000002
 51
359.999989999999
  0
LINE
  5
16C1A
  8
AM_0
 10
594.65257083873371
 20
509.13215345003709
 30
0.0
 11
593.65257083873394
 21
509.13215345003709
 31
0.0
  0
LINE
  5
16C1B
  8
AM_0
 10
593.65257083873394
 20
506.1095134500373
 30
0.0
 11
594.65257083873371
 21
505.53218345003728
 31
0.0
  0
LINE
  5
16C1C
  8
AM_0
 10
593.65257083873394
 20
505.10951345003741
 30
0.0
 11
594.65257083873371
 21
504.5321534500373
 31
0.0
  0
ARC
  5
16C1D
  8
AM_0
 10
595.55257083873391
 20
507.13215345003732
 30
0.0
 40
1.699996899999999
 50
0.0000199999954997
 51
89.999997000002296
  0
LINE
  5
16C1E
  8
AM_0
 10
597.25255083873367
 20
507.13215345003732
 30
0.0
 11
597.25255083873367
 21
503.5321534500373
 31
0.0
  0
LINE
  5
16C1F
  8
AM_0
 10
594.65257083873371
 20
508.83214345003728
 30
0.0
 11
595.55257083873369
 21
508.83214345003728
 31
0.0
  0
LINE
  5
16C20
  8
AM_0
 10
594.65257083873371
 20
501.53215345003707
 30
0.0
 11
593.65257083873394
 21
501.53215345003707
 31
0.0
  0
LINE
  5
16C21
  8
AM_0
 10
594.65257083873371
 20
501.83215345003731
 30
0.0
 11
595.55257083873369
 21
501.83215345003731
 31
0.0
  0
TEXT
  5
17134
  8
AM_0
 10
92.716396862358565
 20
575.00546619666989
 30
0.0
 40
10.0
  1
VC04-007MR~VC04-060MR
1001
ACAD
1000
MTEXTBEGIN
1070
    73
1070
     1
1070
    44
1040
1.0
1070
    74
1070
     0
1000
MTEXTEND
  0
VIEWPORT
  5
89
 67
     1
  8
0
 10
210.0
 20
148.5
 30
0.0
 40
420.0
 41
297.0
 68
     1
 69
     1
1001
ACAD
1000
MVIEW
1002
{
1070
    16
1010
0.0
1020
0.0
1030
0.0
1010
0.0
1020
0.0
1030
1.0
1040
0.0
1040
297.0
1040
221.70154043645701
1040
148.5
1040
50.0
1040
0.0
1040
0.0
1070
     0
1070
   100
1070
     1
1070
     1
1070
     0
1070
     0
1070
     0
1070
     0
1040
0.0
1040
0.0
1040
0.0
1040
10.0
1040
10.0
1040
10.0
1040
10.0
1070
     0
1002
{
1002
}
1002
}
1001
GENIUS_GENOREF_13
1005
1B94
1001
GENIUS_GENSCREG_15
1000
PF
1040
1.0
1000
DF
1040
1.0
1000
MIN
1011
0.0
1021
0.0
1031
0.0
1021
0.0
1031
0.0
1000
MAX
1011
420.0
1021
0.0
1031
0.0
1021
297.0
1031
0.0
1000
FLAGS
1070
     4
  0
ENDSEC
  0
EOF
