  0
SECTION
  2
HEADER
  9
$ACADVER
  1
AC1009
  9
$INSBASE
 10
0.0
 20
0.0
 30
0.0
  9
$EXTMIN
 10
180.55609416840119
 20
269.97678489283447
 30
-0.0015258207003583
  9
$EXTMAX
 10
979.2363611073655
 20
771.20422051291246
 30
0.0000000349246037
  9
$LIMMIN
 10
0.0
 20
0.0
  9
$LIMMAX
 10
1138.0
 20
740.00000000000011
  9
$ORTHOMODE
 70
     0
  9
$REGENMODE
 70
     1
  9
$FILLMODE
 70
     1
  9
$QTEXTMODE
 70
     0
  9
$MIRRTEXT
 70
     1
  9
$DRAGMODE
 70
     2
  9
$LTSCALE
 40
4.0
  9
$OSMODE
 70
   551
  9
$ATTMODE
 70
     1
  9
$TEXTSIZE
 40
2.5
  9
$TRACEWID
 40
1.0
  9
$TEXTSTYLE
  7
STANDARD
  9
$CLAYER
  8
AM_0
  9
$CELTYPE
  6
BYLAYER
  9
$CECOLOR
 62
   256
  9
$DIMSCALE
 40
4.0
  9
$DIMASZ
 40
2.5
  9
$DIMEXO
 40
1.0
  9
$DIMDLI
 40
7.0
  9
$DIMRND
 40
0.0
  9
$DIMDLE
 40
0.0
  9
$DIMEXE
 40
1.0
  9
$DIMTP
 40
0.1
  9
$DIMTM
 40
0.1000000001
  9
$DIMTXT
 40
2.5
  9
$DIMCEN
 40
0.0
  9
$DIMTSZ
 40
0.0
  9
$DIMTOL
 70
     0
  9
$DIMLIM
 70
     0
  9
$DIMTIH
 70
     0
  9
$DIMTOH
 70
     0
  9
$DIMSE1
 70
     0
  9
$DIMSE2
 70
     0
  9
$DIMTAD
 70
     3
  9
$DIMZIN
 70
     8
  9
$DIMBLK
  1

  9
$DIMASO
 70
     1
  9
$DIMSHO
 70
     1
  9
$DIMPOST
  1

  9
$DIMAPOST
  1
"
  9
$DIMALT
 70
     0
  9
$DIMALTD
 70
     2
  9
$DIMALTF
 40
0.0393701
  9
$DIMLFAC
 40
1.0
  9
$DIMTOFL
 70
     1
  9
$DIMTVP
 40
0.0
  9
$DIMTIX
 70
     0
  9
$DIMSOXD
 70
     0
  9
$DIMSAH
 70
     0
  9
$DIMBLK1
  1

  9
$DIMBLK2
  1

  9
$DIMSTYLE
  2
AM_JIS
  9
$DIMCLRD
 70
   256
  9
$DIMCLRE
 70
   256
  9
$DIMCLRT
 70
     4
  9
$DIMTFAC
 40
0.71
  9
$DIMGAP
 40
1.0
  9
$LUNITS
 70
     2
  9
$LUPREC
 70
     2
  9
$SKETCHINC
 40
1.0
  9
$FILLETRAD
 40
10.0
  9
$AUNITS
 70
     0
  9
$AUPREC
 70
     3
  9
$MENU
  1
.
  9
$ELEVATION
 40
0.0
  9
$PELEVATION
 40
0.0
  9
$THICKNESS
 40
0.0
  9
$LIMCHECK
 70
     0
  9
$BLIPMODE
 70
     0
  9
$CHAMFERA
 40
10.0
  9
$CHAMFERB
 40
10.0
  9
$SKPOLY
 70
     0
  9
$TDCREATE
 40
2452753.643349607
  9
$TDUPDATE
 40
2458543.4248700002
  9
$TDINDWG
 40
0.6398570139000001
  9
$TDUSRTIMER
 40
0.6398568171
  9
$USRTIMER
 70
     1
  9
$ANGBASE
 50
0.0
  9
$ANGDIR
 70
     0
  9
$PDMODE
 70
     0
  9
$PDSIZE
 40
0.0
  9
$PLINEWID
 40
0.0
  9
$COORDS
 70
     1
  9
$SPLFRAME
 70
     0
  9
$SPLINETYPE
 70
     6
  9
$SPLINESEGS
 70
     8
  9
$ATTDIA
 70
     1
  9
$ATTREQ
 70
     1
  9
$HANDLING
 70
     1
  9
$HANDSEED
  5
1B5BD
  9
$SURFTAB1
 70
     6
  9
$SURFTAB2
 70
     6
  9
$SURFTYPE
 70
     6
  9
$SURFU
 70
     6
  9
$SURFV
 70
     6
  9
$UCSNAME
  2

  9
$UCSORG
 10
0.0
 20
0.0
 30
0.0
  9
$UCSXDIR
 10
1.0
 20
0.0
 30
0.0
  9
$UCSYDIR
 10
0.0
 20
1.0
 30
0.0
  9
$PUCSNAME
  2

  9
$PUCSORG
 10
0.0
 20
0.0
 30
0.0
  9
$PUCSXDIR
 10
1.0
 20
0.0
 30
0.0
  9
$PUCSYDIR
 10
0.0
 20
1.0
 30
0.0
  9
$USERI1
 70
     0
  9
$USERI2
 70
     0
  9
$USERI3
 70
     0
  9
$USERI4
 70
     0
  9
$USERI5
 70
     0
  9
$USERR1
 40
0.0
  9
$USERR2
 40
0.0
  9
$USERR3
 40
0.0
  9
$USERR4
 40
0.0
  9
$USERR5
 40
0.0
  9
$WORLDVIEW
 70
     1
  9
$SHADEDGE
 70
     3
  9
$SHADEDIF
 70
    70
  9
$TILEMODE
 70
     1
  9
$MAXACTVP
 70
    48
  9
$PLIMCHECK
 70
     0
  9
$PEXTMIN
 10
1.0000000000000000E+020
 20
1.0000000000000000E+020
 30
1.0000000000000000E+020
  9
$PEXTMAX
 10
-1.0000000000000000E+020
 20
-1.0000000000000000E+020
 30
-1.0000000000000000E+020
  9
$PLIMMIN
 10
0.0
 20
0.0
  9
$PLIMMAX
 10
420.0
 20
297.0
  9
$UNITMODE
 70
     0
  9
$VISRETAIN
 70
     1
  9
$PLINEGEN
 70
     0
  9
$PSLTSCALE
 70
     1
  0
ENDSEC
  0
SECTION
  2
TABLES
  0
TABLE
  2
VPORT
 70
     1
  0
VPORT
  2
*ACTIVE
 70
     0
 10
0.0
 20
0.0
 11
1.0
 21
1.0
 12
579.89622763788327
 22
520.59050270287355
 13
0.0
 23
0.0
 14
10.0
 24
10.0
 15
40.0
 25
40.0
 16
0.0
 26
0.0
 36
1.0
 17
0.0
 27
0.0
 37
0.0
 40
504.66835623074212
 41
1.7571592210767459
 42
50.0
 43
0.0
 44
0.0
 50
0.0
 51
0.0
 71
     0
 72
   100
 73
     1
 74
     1
 75
     0
 76
     0
 77
     0
 78
     0
  0
ENDTAB
  0
TABLE
  2
LTYPE
 70
    21
  0
LTYPE
  2
CONTINUOUS
 70
     0
  3
Solid line
 72
    65
 73
     0
 40
0.0
  0
LTYPE
  2
PHANTOM2
 70
     0
  3
Phantom (.5x) ___ _ _ ___ _ _ ___ _ _ ___ _ _
 72
    65
 73
     6
 40
31.75
 49
15.875
 49
-3.174999999999998
 49
3.174999999999998
 49
-3.174999999999998
 49
3.174999999999998
 49
-3.174999999999998
  0
LTYPE
  2
CENTER
 70
     0
  3
Center ____ _ ____ _ ____ _ ____ _ ____ _ ____
 72
    65
 73
     4
 40
50.799999999999997
 49
31.75
 49
-6.3499999999999979
 49
6.3499999999999979
 49
-6.3499999999999979
  0
LTYPE
  2
ACANSTGBM
 70
     0
  3
__ . . __ . .
 72
    65
 73
     6
 40
9.0
 49
4.0
 49
-1.0
 49
1.0
 49
-1.0
 49
1.0
 49
-1.0
  0
LTYPE
  2
ACANSTGLM
 70
     0
  3
_ _ _ _ _
 72
    65
 73
     2
 40
3.0
 49
2.0
 49
-1.0
  0
LTYPE
  2
GEN3B
 70
     0
  3
 - - - - -
 72
    65
 73
     2
 40
1.0
 49
0.5
 49
-0.5
  0
LTYPE
  2
GEN7A
 70
     0
  3
__ . __ . __
 72
    65
 73
     4
 40
7.375
 49
4.75
 49
-0.875
 49
0.875
 49
-0.875
  0
LTYPE
  2
AM_ISO02W050
 70
     0
  3
__ __ __ __ __ __ __ __ __ __ __ __ __ __ __
 72
    65
 73
     2
 40
7.5
 49
6.0
 49
-1.5
  0
LTYPE
  2
AM_ISO08W050
 70
     0
  3
____ . ____ . ____ . ____ . ____ . ____ . ____
 72
    65
 73
     4
 40
18.0
 49
12.0
 49
-1.5
 49
3.0
 49
-1.5
  0
LTYPE
  2
AM_ISO09W050
 70
     0
  3
_____ . . _____ . . _____ . . ____ .. ____
 72
    65
 73
     6
 40
22.5
 49
12.0
 49
-1.5
 49
3.0
 49
-1.5
 49
3.0
 49
-1.5
  0
LTYPE
  2
AMCONSTR
 70
     0
  3
_______________________
 72
    65
 73
     2
 40
9999.0
 49
9999.0
 49
0.0
  0
LTYPE
  2
AM_ISO02W050X2
 70
     0
  3
 _ _ _ _ _ _ _ _ _ _ _ _
 72
    65
 73
     2
 40
3.75
 49
3.0
 49
-0.75
  0
LTYPE
  2
AM_ISO08W050X2
 70
     0
  3
__ . __ . __ . __ . __ . __
 72
    65
 73
     4
 40
9.0
 49
6.0
 49
-0.75
 49
1.5
 49
-0.75
  0
LTYPE
  2
AMZIGZAG
 70
     0
  3
/\/-/\/-/\/-/\/-/\/-/\/
 72
    65
 73
     2
 40
11.0001
 49
0.0001
 49
-11.0
  0
LTYPE
  2
ACJISTGB
 70
     0
  3
__ . . __ . .
 72
    65
 73
     6
 40
9.0
 49
4.0
 49
-1.0
 49
1.0
 49
-1.0
 49
1.0
 49
-1.0
  0
LTYPE
  2
ACJISTGL
 70
     0
  3
_ _ _ _ _
 72
    65
 73
     2
 40
3.0
 49
2.0
 49
-1.0
  0
LTYPE
  2
ACISOWELD
 70
     0
  3
_ _ _ _ _
 72
    65
 73
     2
 40
2.0
 49
2.0
 49
-1.0
  0
LTYPE
  2
ACISOTGB
 70
     0
  3
__ . . __ . .
 72
    65
 73
     6
 40
9.0
 49
4.0
 49
-1.0
 49
1.0
 49
-1.0
 49
1.0
 49
-1.0
  0
LTYPE
  2
ACISOTGL
 70
     0
  3
_ _ _ _ _
 72
    65
 73
     2
 40
3.0
 49
2.0
 49
-1.0
  0
LTYPE
  2
HIDDEN
 70
     0
  3
Hidden __ __ __ __ __ __ __ __ __ __ __ __ __ _
 72
    65
 73
     2
 40
9.5249999999999968
 49
6.3499999999999979
 49
-3.174999999999998
  0
ENDTAB
  0
TABLE
  2
LAYER
 70
     8
  0
LAYER
  2
0
 70
     0
 62
     7
  6
CONTINUOUS
  0
LAYER
  2
ｽﾝﾎﾟｳｾﾝ
 70
     0
 62
     2
  6
CONTINUOUS
  0
LAYER
  2
DEFPOINTS
 70
     0
 62
     7
  6
CONTINUOUS
  0
LAYER
  2
ｶｸﾚｾﾝ2
 70
     0
 62
     3
  6
GEN3B
  0
LAYER
  2
ﾁｭｳｼﾝｾﾝ1
 70
     0
 62
     1
  6
GEN7A
  0
LAYER
  2
AM_0
 70
     0
 62
     7
  6
CONTINUOUS
  0
LAYER
  2
AM_0N
 70
     0
 62
     7
  6
CONTINUOUS
  0
LAYER
  2
AM_5
 70
     0
 62
     2
  6
CONTINUOUS
  0
ENDTAB
  0
TABLE
  2
STYLE
 70
     8
  0
STYLE
  2
STANDARD
 70
     0
 40
0.0
 41
0.8299999999999999
 50
0.0
 71
     0
 42
2.5
  3
txt.shx
  4
bigfont.shx
  0
STYLE
  2
ACANSTS
 70
     0
 40
1.0
 41
1.0
 50
0.0
 71
     0
 42
2.5
  3
romans.shx
  4
bigfont.shx
  0
STYLE
  2
ACANSGDT
 70
     0
 40
0.0
 41
1.0
 50
0.0
 71
     0
 42
2.5
  3
amgdtans.shx
  4

  0
STYLE
  2

 70
     1
 40
0.0
 41
1.0
 50
0.0
 71
     0
 42
2.5
  3
ltypeshp.shx
  4

  0
STYLE
  2
ACJISTS
 70
     0
 40
1.0
 41
1.0
 50
0.0
 71
     0
 42
2.5
  3
isocp.shx
  4
bigfont.shx
  0
STYLE
  2
ACJISGDT
 70
     0
 40
0.0
 41
1.0
 50
0.0
 71
     0
 42
2.5
  3
amgdt.shx
  4

  0
STYLE
  2
ACISOTS
 70
     0
 40
3.0
 41
1.0
 50
0.0
 71
     0
 42
2.5
  3
isocp.shx
  4
extfont.shx
  0
STYLE
  2
ACISOGDT
 70
     0
 40
0.0
 41
1.0
 50
0.0
 71
     0
 42
2.5
  3
amgdt.shx
  4

  0
ENDTAB
  0
TABLE
  2
VIEW
 70
    12
  0
VIEW
  2
GEN1
 70
     0
 40
95.824742268041234
 10
71.5
 20
137.08762886597941
 41
143.0
 11
0.0
 21
0.0
 31
1.0
 12
0.0
 22
0.0
 32
0.0
 42
50.0
 43
0.0
 44
0.0
 50
0.0
 71
     0
  0
VIEW
  2
GEN2
 70
     0
 40
95.824742268041234
 10
214.5
 20
137.08762886597941
 41
143.0
 11
0.0
 21
0.0
 31
1.0
 12
0.0
 22
0.0
 32
0.0
 42
50.0
 43
0.0
 44
0.0
 50
0.0
 71
     0
  0
VIEW
  2
GEN3
 70
     0
 40
95.824742268041234
 10
71.5
 20
47.912371134020603
 41
143.0
 11
0.0
 21
0.0
 31
1.0
 12
0.0
 22
0.0
 32
0.0
 42
50.0
 43
0.0
 44
0.0
 50
0.0
 71
     0
  0
VIEW
  2
GEN4
 70
     0
 40
95.824742268041234
 10
214.5
 20
47.912371134020603
 41
143.0
 11
0.0
 21
0.0
 31
1.0
 12
0.0
 22
0.0
 32
0.0
 42
50.0
 43
0.0
 44
0.0
 50
0.0
 71
     0
  0
VIEW
  2
GEN5
 70
     0
 40
95.824742268041234
 10
143.0
 20
92.500000000000057
 41
143.0
 11
0.0
 21
0.0
 31
1.0
 12
0.0
 22
0.0
 32
0.0
 42
50.0
 43
0.0
 44
0.0
 50
0.0
 71
     0
  0
VIEW
  2
GEN6
 70
     0
 40
191.64756804123709
 10
143.0
 20
92.5
 41
285.99714
 11
0.0
 21
0.0
 31
1.0
 12
0.0
 22
0.0
 32
0.0
 42
50.0
 43
0.0
 44
0.0
 50
0.0
 71
     0
  0
VIEW
  2
AM_VIEW1
 70
     0
 40
370.00000000000023
 10
332.86372007366492
 20
555.00000000000011
 41
665.72744014732973
 11
0.0
 21
0.0
 31
1.0
 12
0.0
 22
0.0
 32
0.0
 42
50.0
 43
0.0
 44
0.0
 50
0.0
 71
     0
  0
VIEW
  2
AM_VIEW2
 70
     0
 40
370.00000000000023
 10
805.13627992633508
 20
555.00000000000011
 41
665.72744014732973
 11
0.0
 21
0.0
 31
1.0
 12
0.0
 22
0.0
 32
0.0
 42
50.0
 43
0.0
 44
0.0
 50
0.0
 71
     0
  0
VIEW
  2
AM_VIEW3
 70
     0
 40
370.00000000000023
 10
332.86372007366492
 20
185.0
 41
665.72744014732973
 11
0.0
 21
0.0
 31
1.0
 12
0.0
 22
0.0
 32
0.0
 42
50.0
 43
0.0
 44
0.0
 50
0.0
 71
     0
  0
VIEW
  2
AM_VIEW4
 70
     0
 40
370.00000000000023
 10
805.13627992633508
 20
185.0
 41
665.72744014732973
 11
0.0
 21
0.0
 31
1.0
 12
0.0
 22
0.0
 32
0.0
 42
50.0
 43
0.0
 44
0.0
 50
0.0
 71
     0
  0
VIEW
  2
AM_VIEW5
 70
     0
 40
370.00000000000023
 10
569.0
 20
370.00000000000023
 41
665.72744014732962
 11
0.0
 21
0.0
 31
1.0
 12
0.0
 22
0.0
 32
0.0
 42
50.0
 43
0.0
 44
0.0
 50
0.0
 71
     0
  0
VIEW
  2
AM_VIEW6
 70
     0
 40
739.99260000000015
 10
569.0
 20
370.00000000000023
 41
1331.4415657458569
 11
0.0
 21
0.0
 31
1.0
 12
0.0
 22
0.0
 32
0.0
 42
50.0
 43
0.0
 44
0.0
 50
0.0
 71
     0
  0
ENDTAB
  0
TABLE
  2
UCS
 70
     0
  0
ENDTAB
  0
TABLE
  2
APPID
 70
    96
  0
APPID
  2
ACAD
 70
     0
  0
APPID
  2
MCAD_NO_VIS
 70
     0
  0
APPID
  2
ACAD_TEMP_GRAPHIC
 70
     0
  0
APPID
  2
AD_DRAW
 70
     0
  0
APPID
  2
DESIGNERASSEMBLIES
 70
     0
  0
APPID
  2
ASURF_PCURVE_APPNAME
 70
     0
  0
APPID
  2
GENIUS_GE3SECT_13
 70
     0
  0
APPID
  2
GENIUS_GENCFG_13
 70
     0
  0
APPID
  2
GENIUS_GE3CFG0_13
 70
     0
  0
APPID
  2
GENIUS_GENCFG0_13
 70
     0
  0
APPID
  2
GENIUS_GENCFG1_13
 70
     0
  0
APPID
  2
GENIUS_GENCFG2_13
 70
     0
  0
APPID
  2
GENIUS_GENCFG3_13
 70
     0
  0
APPID
  2
GENIUS_GENCFG4_13
 70
     0
  0
APPID
  2
GENIUS_GEVCFG0_13
 70
     0
  0
APPID
  2
GENIUS_GENOENT_13
 70
     0
  0
APPID
  2
GENIUS_GENREC_14
 70
     0
  0
APPID
  2
GENIUS_GENODEF_13
 70
     0
  0
APPID
  2
GENIUS_GENOBJ-N-REC_13
 70
     0
  0
APPID
  2
GENIUS_GENHINW_13
 70
     0
  0
APPID
  2
GENIUS_FIRSTVISTXT_14
 70
     0
  0
APPID
  2
GENIUS_GENOBJ-N-LEADER_13
 70
     0
  0
APPID
  2
GENIUS_GENOREF_13
 70
     0
  0
APPID
  2
GENIUS_GENOLIS_13
 70
     0
  0
APPID
  2
GEV_VCCNULL_SWITCH_OFF
 70
     0
  0
APPID
  2
GENIUS_GENDTOL_13
 70
     0
  0
APPID
  2
GENIUS_GEFCFG0_13
 70
     0
  0
APPID
  2
GENIUS_GENOBJ-N-TIT_13
 70
     0
  0
APPID
  2
GENIUS_GENTITLE_13
 70
     0
  0
APPID
  2
GENIUS_GENZVEED_13
 70
     0
  0
APPID
  2
GENIUS_GENOBJ-N-SDF_13
 70
     0
  0
APPID
  2
GENIUS_GENSCREG_13
 70
     0
  0
APPID
  2
GENIUS_DUMCFG0_13
 70
     0
  0
APPID
  2
GEVID936201362
 70
     0
  0
APPID
  2
GEVDC
 70
     0
  0
APPID
  2
GEVCON
 70
     0
  0
APPID
  2
VCC
 70
     0
  0
APPID
  2
GEVPT
 70
     0
  0
APPID
  2
GEVIT
 70
     0
  0
APPID
  2
GENBH
 70
     0
  0
APPID
  2
GEVMK
 70
     0
  0
APPID
  2
GENIUS_GENBH_13
 70
     0
  0
APPID
  2
GENIUS_GENOBJ-NBEHI-BHF_13
 70
     0
  0
APPID
  2
GENIUS_GENOBJ-NBEHI-BHB_13
 70
     0
  0
APPID
  2
GENIUS_GENOBJ-F-DESC_13
 70
     0
  0
APPID
  2
GENIUS_GEFDESC_14
 70
     0
  0
APPID
  2
GENIUS_GENOBJ-F-PART_13
 70
     0
  0
APPID
  2
GENIUS_GEFSTDP_13
 70
     0
  0
APPID
  2
GENIUS_GEFPARTINS_13
 70
     0
  0
APPID
  2
GENIUS_GENTRA_14
 70
     0
  0
APPID
  2
GENIUS_GENINF13_13
 70
     0
  0
APPID
  2
GENIUS_GENOBJ-N-INFOPT_13
 70
     0
  0
APPID
  2
GENIUS_GENOBJ-N-RSSYM_13
 70
     0
  0
APPID
  2
GENIUS_GENSYMENT_13
 70
     0
  0
APPID
  2
GENIUS_GENSCSYM_13
 70
     0
  0
APPID
  2
GENIUS_GEFINFNAM_13
 70
     0
  0
APPID
  2
GENIUS_GENSCREG_15
 70
     0
  0
APPID
  2
GENIUS_GENOBJ-N-CEN_13
 70
     0
  0
APPID
  2
GENIUS_GENOBJ-N-CRS_13
 70
     0
  0
APPID
  2
GENIUS_GENOBJ-N-CRC_13
 70
     0
  0
APPID
  2
GENIUS_GENCRC_14
 70
     0
  0
APPID
  2
GEVID942827039
 70
     0
  0
APPID
  2
GEVID942827040
 70
     0
  0
APPID
  2
GEVID942827041
 70
     0
  0
APPID
  2
GENIUS_GENOBJ-F-SCPASSM_13
 70
     0
  0
APPID
  2
GENIUS_GENDIMSH_14
 70
     0
  0
APPID
  2
GENIUS_GENFIL_13
 70
     0
  0
APPID
  2
GENIUS_GENOBJ-N-CHA_13
 70
     0
  0
APPID
  2
GENIUS_GENOBJ-N-FIL_13
 70
     0
  0
APPID
  2
GEVID942827042
 70
     0
  0
APPID
  2
GEVID946020473
 70
     0
  0
APPID
  2
GEVID946020474
 70
     0
  0
APPID
  2
GEVID946020475
 70
     0
  0
APPID
  2
GENIUS_GENOBJ-N-HTC_13
 70
     0
  0
APPID
  2
GENIUS_GENHATCH_13
 70
     0
  0
APPID
  2
GEVID948854295
 70
     0
  0
APPID
  2
GEVID939402019
 70
     0
  0
APPID
  2
GEVID952919491
 70
     0
  0
APPID
  2
GEVID952919492
 70
     0
  0
APPID
  2
GENIUS_GEFWELD_13
 70
     0
  0
APPID
  2
GENIUS_GENOBJ-F-WELS_13
 70
     0
  0
APPID
  2
GEVID952919493
 70
     0
  0
APPID
  2
GENIUS_GENOBJ-N-RSBK_13
 70
     0
  0
APPID
  2
GENIUS_GENOBJ-N-LIB_13
 70
     0
  0
APPID
  2
GENIUS_GENSCALE_13
 70
     0
  0
APPID
  2
GEVID986376691
 70
     0
  0
APPID
  2
ACATTRIBSERVICES
 70
     0
  0
APPID
  2
DCO15
 70
     0
  0
APPID
  2
ACADM_DIM_EDIT
 70
     0
  0
APPID
  2
AMDT_DM_ADJ
 70
     0
  0
APPID
  2
ACAD_MLEADERVER
 70
     0
  0
APPID
  2
ACAD_DSTYLE_DIMBREAK
 70
     0
  0
APPID
  2
ACAD_DSTYLE_DIMJAG
 70
     0
  0
APPID
  2
ACAD_NAV_VCDISPLAY
 70
     0
  0
APPID
  2
ACADANNOPO
 70
     0
  0
APPID
  2
ACAD_EXEMPT_FROM_CAD_STANDARDS
 70
     0
  0
ENDTAB
  0
TABLE
  2
DIMSTYLE
 70
    16
  0
DIMSTYLE
  2
STANDARD
 70
     0
  3

  4

  5

  6

  7

 40
1.0
 41
0.18
 42
0.0625
 43
0.38
 44
0.18
 45
0.0
 46
0.0
 47
0.0
 48
0.0
140
0.18
141
0.09
142
0.0
143
25.399999999999999
144
1.0
145
0.0
146
1.0
147
0.09
 71
     0
 72
     0
 73
     1
 74
     1
 75
     0
 76
     0
 77
     0
 78
     0
170
     0
171
     2
172
     0
173
     0
174
     0
175
     0
176
     0
177
     0
178
     0
  0
DIMSTYLE
  2
AM_JIS
 70
     0
  3

  4
"
  5

  6

  7

 40
1.0
 41
2.5
 42
1.0
 43
7.0
 44
1.0
 45
0.0
 46
0.0
 47
0.1
 48
0.1000000001
140
2.5
141
0.0
142
0.0
143
0.0393701
144
1.0
145
0.0
146
0.71
147
1.0
 71
     0
 72
     0
 73
     0
 74
     0
 75
     0
 76
     0
 77
     3
 78
     8
170
     0
171
     2
172
     1
173
     0
174
     0
175
     0
176
   256
177
   256
178
     4
  0
DIMSTYLE
  2
AM_JIS$3
 70
     0
  3

  4
"
  5

  6

  7

 40
1.0
 41
2.5
 42
1.0
 43
7.0
 44
1.0
 45
0.0
 46
0.0
 47
0.1
 48
0.1000000001
140
2.5
141
0.0
142
0.0
143
0.0393701
144
1.0
145
0.0
146
0.71
147
1.0
 71
     0
 72
     0
 73
     0
 74
     1
 75
     0
 76
     0
 77
     3
 78
     8
170
     0
171
     2
172
     0
173
     0
174
     0
175
     0
176
   256
177
   256
178
     4
  0
DIMSTYLE
  2
AM_JIS$4
 70
     0
  3

  4
"
  5

  6

  7

 40
1.0
 41
2.5
 42
1.0
 43
7.0
 44
1.0
 45
0.0
 46
0.0
 47
0.1
 48
0.1000000001
140
2.5
141
0.0
142
0.0
143
0.0393701
144
1.0
145
0.0
146
0.71
147
1.0
 71
     0
 72
     0
 73
     0
 74
     0
 75
     0
 76
     0
 77
     3
 78
     8
170
     0
171
     2
172
     0
173
     0
174
     0
175
     0
176
   256
177
   256
178
     4
  0
DIMSTYLE
  2
AM_JIS$6
 70
     0
  3

  4
"
  5

  6

  7

 40
1.0
 41
2.5
 42
1.0
 43
7.0
 44
1.0
 45
0.0
 46
0.0
 47
0.1
 48
0.1000000001
140
2.5
141
0.0
142
0.0
143
0.0393701
144
1.0
145
0.0
146
0.71
147
1.0
 71
     0
 72
     0
 73
     0
 74
     0
 75
     0
 76
     0
 77
     0
 78
     8
170
     0
171
     2
172
     1
173
     0
174
     0
175
     0
176
   256
177
   256
178
     4
  0
DIMSTYLE
  2
AM_JIS$7
 70
     0
  3

  4
"
  5

  6

  7

 40
1.0
 41
2.5
 42
1.0
 43
7.0
 44
1.0
 45
0.0
 46
0.0
 47
0.1
 48
0.1000000001
140
2.5
141
0.0
142
0.0
143
0.0393701
144
1.0
145
0.0
146
0.71
147
1.0
 71
     0
 72
     0
 73
     0
 74
     0
 75
     0
 76
     0
 77
     3
 78
     8
170
     0
171
     2
172
     1
173
     0
174
     0
175
     0
176
   256
177
   256
178
     4
  0
DIMSTYLE
  2
AM_JIS$SF
 70
     0
  3

  4
"
  5
OPEN30
  6
OPEN30
  7
OPEN30
 40
1.0
 41
2.5
 42
1.0
 43
10.0
 44
1.0
 45
0.0
 46
0.0
 47
0.1
 48
0.1
140
3.5
141
0.0
142
0.0
143
0.0393701
144
1.0
145
0.0
146
0.71
147
1.5
 71
     0
 72
     0
 73
     0
 74
     0
 75
     1
 76
     1
 77
     3
 78
     8
170
     0
171
     2
172
     1
173
     0
174
     0
175
     0
176
   256
177
   256
178
     4
  0
DIMSTYLE
  2
AM_JIS$SH
 70
     0
  3

  4
"
  5

  6
NONE
  7

 40
1.0
 41
2.5
 42
1.0
 43
10.0
 44
1.0
 45
0.0
 46
0.0
 47
0.1
 48
0.1
140
3.5
141
0.0
142
0.0
143
0.0393701
144
1.0
145
0.0
146
0.71
147
1.5
 71
     0
 72
     0
 73
     0
 74
     0
 75
     1
 76
     0
 77
     3
 78
     8
170
     0
171
     2
172
     1
173
     1
174
     0
175
     0
176
   256
177
   256
178
     4
  0
DIMSTYLE
  2
AM_ISO
 70
     0
  3

  4
"
  5

  6

  7

 40
1.0
 41
2.5
 42
1.0
 43
10.0
 44
1.0
 45
0.0
 46
0.0
 47
0.0
 48
0.000000001
140
3.0
141
0.0
142
0.0
143
0.0393701
144
1.0
145
0.0
146
0.71
147
1.299999999999998
 71
     1
 72
     0
 73
     0
 74
     0
 75
     0
 76
     0
 77
     1
 78
     8
170
     0
171
     2
172
     1
173
     0
174
     0
175
     0
176
   256
177
   256
178
     4
  0
DIMSTYLE
  2
AM_ISO$3
 70
     0
  3

  4
"
  5

  6

  7

 40
1.0
 41
2.5
 42
1.0
 43
10.0
 44
1.0
 45
0.0
 46
0.0
 47
0.0
 48
0.000000001
140
2.5
141
0.0
142
0.0
143
0.0393701
144
1.0
145
0.0
146
0.71
147
1.299999999999998
 71
     1
 72
     0
 73
     0
 74
     1
 75
     0
 76
     0
 77
     1
 78
     8
170
     0
171
     2
172
     0
173
     0
174
     0
175
     0
176
   256
177
   256
178
     4
  0
DIMSTYLE
  2
AM_ISO$4
 70
     0
  3

  4
"
  5

  6

  7

 40
1.0
 41
2.5
 42
1.0
 43
10.0
 44
1.0
 45
0.0
 46
0.0
 47
0.0
 48
0.000000001
140
2.5
141
0.0
142
0.0
143
0.0393701
144
1.0
145
0.0
146
0.71
147
1.299999999999998
 71
     1
 72
     0
 73
     0
 74
     1
 75
     0
 76
     0
 77
     1
 78
     8
170
     0
171
     2
172
     0
173
     0
174
     0
175
     0
176
   256
177
   256
178
     4
  0
DIMSTYLE
  2
AM_ISO$6
 70
     0
  3

  4
"
  5

  6

  7

 40
1.0
 41
2.5
 42
1.0
 43
10.0
 44
1.0
 45
0.0
 46
0.0
 47
0.0
 48
0.000000001
140
2.5
141
0.0
142
0.0
143
0.0393701
144
1.0
145
0.0
146
0.71
147
1.299999999999998
 71
     1
 72
     0
 73
     0
 74
     0
 75
     0
 76
     0
 77
     0
 78
     8
170
     0
171
     2
172
     1
173
     0
174
     0
175
     0
176
   256
177
   256
178
     4
  0
DIMSTYLE
  2
AM_ISO$7
 70
     0
  3

  4
"
  5

  6

  7

 40
1.0
 41
2.5
 42
1.0
 43
10.0
 44
1.0
 45
0.0
 46
0.0
 47
0.0
 48
0.000000001
140
2.5
141
0.0
142
0.0
143
0.0393701
144
1.0
145
0.0
146
0.71
147
1.299999999999998
 71
     1
 72
     0
 73
     0
 74
     0
 75
     0
 76
     0
 77
     1
 78
     8
170
     0
171
     2
172
     1
173
     0
174
     0
175
     0
176
   256
177
   256
178
     4
  0
DIMSTYLE
  2
AM_ISO$SF
 70
     0
  3

  4
"
  5

  6

  7

 40
1.0
 41
2.5
 42
1.0
 43
10.0
 44
1.0
 45
0.0
 46
0.0
 47
0.1
 48
0.1
140
3.5
141
0.0
142
0.0
143
0.0393701
144
1.0
145
0.0
146
0.71
147
1.5
 71
     0
 72
     0
 73
     0
 74
     0
 75
     1
 76
     1
 77
     1
 78
     8
170
     0
171
     2
172
     1
173
     0
174
     0
175
     0
176
   256
177
   256
178
     4
  0
DIMSTYLE
  2
AM_ISO$SH
 70
     0
  3

  4
"
  5

  6
GENAXEH
  7

 40
1.0
 41
2.5
 42
1.0
 43
10.0
 44
1.0
 45
0.0
 46
0.0
 47
0.1
 48
0.1
140
3.5
141
0.0
142
0.0
143
0.0393701
144
2.0
145
0.0
146
0.71
147
1.5
 71
     0
 72
     0
 73
     0
 74
     0
 75
     1
 76
     1
 77
     1
 78
     8
170
     0
171
     2
172
     1
173
     1
174
     0
175
     0
176
   256
177
   256
178
     4
  0
DIMSTYLE
  2
AM_JIS$0
 70
     0
  3

  4
"
  5

  6

  7

 40
1.0
 41
2.5
 42
1.0
 43
7.0
 44
1.0
 45
0.0
 46
0.0
 47
0.1
 48
0.1000000001
140
2.5
141
0.0
142
0.0
143
0.0393701
144
1.0
145
0.0
146
0.71
147
1.0
 71
     0
 72
     0
 73
     0
 74
     0
 75
     0
 76
     0
 77
     3
 78
     8
170
     0
171
     2
172
     1
173
     0
174
     0
175
     0
176
   256
177
   256
178
     4
  0
ENDTAB
  0
ENDSEC
  0
SECTION
  2
BLOCKS
  0
BLOCK
  8
0
  2
$MODEL_SPACE
 70
     0
 10
0.0
 20
0.0
 30
0.0
  3
$MODEL_SPACE
  1

  0
ENDBLK
  5
1A
  8
0
  0
BLOCK
 67
     1
  8
0
  2
$PAPER_SPACE
 70
     0
 10
0.0
 20
0.0
 30
0.0
  3
$PAPER_SPACE
  1

  0
ENDBLK
  5
17
 67
     1
  8
0
  0
BLOCK
  8
0
  2
_OPEN30
 70
     0
 10
0.0
 20
0.0
 30
0.0
  3
_OPEN30
  1

  0
LINE
  5
21C5
  8
0
 62
     0
 10
-1.0
 20
0.26794919
 30
0.0
 11
0.0
 21
0.0
 31
0.0
  0
LINE
  5
21C6
  8
0
 62
     0
 10
0.0
 20
0.0
 30
0.0
 11
-1.0
 21
-0.26794919
 31
0.0
  0
LINE
  5
21C7
  8
0
 62
     0
 10
0.0
 20
0.0
 30
0.0
 11
-1.0
 21
0.0
 31
0.0
  0
ENDBLK
  5
21C9
  8
0
  0
BLOCK
  8
0
  2
GENAXEH
 70
     0
 10
0.0
 20
0.0
 30
0.0
  3
GENAXEH
  1

  0
LINE
  5
21D0
  8
0
 10
-1.0
 20
0.0
 30
0.0
 11
1.0
 21
0.0
 31
0.0
  0
ENDBLK
  5
21D2
  8
0
  0
BLOCK
  8
0
  2
_NONE
 70
     0
 10
0.0
 20
0.0
 30
0.0
  3
_NONE
  1

  0
ENDBLK
  5
8193
  8
0
  0
ENDSEC
  0
SECTION
  2
ENTITIES
  0
POINT
  5
1B94
  8
0
 10
0.0
 20
0.0
 30
0.0
1001
GENIUS_GENODEF_13
1002
{
1000
HIER
1070
     1
1002
}
1002
{
1000
MANEDIT
1070
     0
1002
}
1002
{
1000
NOSEL
1070
     0
1002
}
1002
{
1000
BEHIND
1070
     0
1002
}
1002
{
1000
REACTOR
1002
}
1001
GENIUS_GENOBJ-N-SDF_13
1002
{
1000
OWNER
1000
GEN
1002
}
1001
GENIUS_GENOENT_13
1002
{
1000
MYREF
1005
1B94
1002
}
1002
{
1000
GRP
1005
0
1002
}
1001
GENIUS_GENOLIS_13
1002
{
1000
ENT
1005
89
1002
}
  0
ARC
  5
18EE3
  8
AM_0
 10
957.76888646676684
 20
410.06397777189562
 30
0.0
 40
1.6800002000336001
 50
270.00000299999761
 51
89.999999999999986
  0
ARC
  5
18EE4
  8
AM_0
 10
955.26531646671685
 20
416.61557777202648
 30
0.0
 40
4.9987221000999753
 50
185.4135635000037
 51
260.59994100000478
  0
ARC
  5
18EE5
  8
AM_0
 10
820.63500646402417
 20
410.07398777189587
 30
0.0
 40
1.680011000033599
 50
90.208029999998075
 51
269.79196900000039
  0
LINE
  5
18EE6
  8
AM_0
 10
964.44890646690055
 20
432.44397777234332
 30
0.0
 11
964.44890646690055
 21
317.59397777004619
 31
0.0
  0
LINE
  5
18EE7
  8
AM_0
 10
818.44890646398051
 20
314.52399776998482
 30
0.0
 11
818.4489067202278
 21
438.02399807276248
 31
0.0
  0
LINE
  5
18EE8
  8
AM_0
 10
970.44890646702038
 20
423.04358777215509
 30
0.0
 11
970.44890646702038
 21
380.02399777129472
 31
0.0
  0
LINE
  5
18EEF
  8
AM_0
 10
809.44890646380065
 20
311.02403301938278
 30
0.0
 11
809.44890646380065
 21
439.0240230193827
 31
0.0
  0
ARC
  5
18EF4
  8
AM_0
 10
940.44890646642057
 20
410.02399777189459
 30
0.0
 40
1.0000007000199991
 50
270.00000299999761
 51
89.999999999999986
  0
ARC
  5
18EF5
  8
AM_0
 10
940.44890646642057
 20
400.02399777169472
 30
0.0
 40
1.0000007000199991
 50
270.00000299999761
 51
89.999999999999986
  0
LINE
  5
18EF6
  8
AM_0
 10
956.88889398584865
 20
409.02399781296077
 30
0.0
 11
884.44890646530041
 21
409.02399781296077
 31
0.0
  0
LINE
  5
18EF7
  8
AM_0
 10
957.77889646676726
 20
408.39399777186208
 30
0.0
 11
884.44890646530041
 21
408.3939977718623
 31
0.0
  0
LINE
  5
18EF8
  8
AM_0
 10
884.44890646530041
 20
411.02399777191488
 30
0.0
 11
956.89888646674945
 21
411.02399777191488
 31
0.0
  0
LINE
  5
18EF9
  8
AM_0
 10
855.9489064647305
 20
401.02399777171468
 30
0.0
 11
956.89888646674945
 21
401.02399777171468
 31
0.0
  0
LINE
  5
18EFA
  8
AM_0
 10
957.98888646677119
 20
401.51398777172449
 30
0.0
 11
855.08873799290097
 21
401.51398777172449
 31
0.0
  0
LINE
  5
18EFB
  8
AM_0
 10
821.52412037751685
 20
399.023997771675
 30
0.0
 11
956.89888646674945
 21
399.02399777167489
 31
0.0
  0
LINE
  5
18EFC
  8
AM_0
 10
957.98888646677119
 20
398.59397777166612
 30
0.0
 11
820.60415031546756
 21
398.59397777166618
 31
0.0
  0
ARC
  5
18EFD
  8
AM_0
 10
940.44890646642057
 20
390.02399777149481
 30
0.0
 40
1.0000007000199991
 50
270.00000299999761
 51
89.999999999999986
  0
ARC
  5
18EFE
  8
AM_0
 10
940.44890646642057
 20
380.02399777129472
 30
0.0
 40
1.0000007000199991
 50
270.00000299999761
 51
89.999999999999986
  0
ARC
  5
18EFF
  8
AM_0
 10
940.44890646642057
 20
370.0239977710948
 30
0.0
 40
1.0000032000200001
 50
270.00000299999761
 51
89.999999999999986
  0
ARC
  5
18F00
  8
AM_0
 10
940.44890646642057
 20
360.02399777089482
 30
0.0
 40
1.0000032000200001
 50
270.00000299999761
 51
89.999999999999986
  0
ARC
  5
18F01
  8
AM_0
 10
940.44890646642045
 20
340.0239977704947
 30
0.0
 40
1.0000032000200001
 50
270.00000299999761
 51
89.999999999999986
  0
ARC
  5
18F02
  8
AM_0
 10
940.44890646642057
 20
350.02399777069479
 30
0.0
 40
1.0000032000200001
 50
270.00000299999761
 51
89.999999999999986
  0
ARC
  5
18F03
  8
AM_0
 10
939.45250646640034
 20
315.16037776999752
 30
0.0
 40
1.9963853000399261
 50
269.8961630000066
 51
0.1038400000026171
  0
ARC
  5
18F04
  8
AM_0
 10
939.44640646640028
 20
311.0988277699164
 30
0.0
 40
1.9948452000398971
 50
270.07165800000439
 51
345.63719999999978
  0
ARC
  5
18F05
  8
AM_0
 10
939.4543364664006
 20
311.7785477699299
 30
0.0
 40
1.9945769000398901
 50
269.84400800000009
 51
0.1559899999962555
  0
ARC
  5
18F06
  8
AM_0
 10
939.45168646640025
 20
313.13120776995697
 30
0.0
 40
1.9972084000399439
 50
269.91985700000038
 51
0.0801399999989042
  0
LINE
  5
18F07
  8
AM_0
 10
917.44890646596025
 20
328.67398777026779
 30
0.0
 11
954.44890646670035
 21
330.81998960974079
 31
0.0
  0
LINE
  5
18F08
  8
AM_0
 10
958.11889646677355
 20
388.7139977714686
 30
0.0
 11
885.71887979561006
 21
388.7139977714686
 31
0.0
  0
LINE
  5
18F09
  8
AM_0
 10
887.00887427090515
 20
389.02399777147491
 30
0.0
 11
956.89888646674945
 21
389.02399777147491
 31
0.0
  0
LINE
  5
18F0A
  8
AM_0
 10
887.00887427090515
 20
391.02399777151481
 30
0.0
 11
956.89888646674945
 21
391.02399777151481
 31
0.0
  0
LINE
  5
18F0B
  8
AM_0
 10
958.11889646677355
 20
391.37397777152182
 30
0.0
 11
885.71887979561006
 21
391.37397777152188
 31
0.0
  0
LINE
  5
18F0C
  8
AM_0
 10
948.76888646658676
 20
341.6540077705273
 30
0.0
 11
884.44890646530041
 21
341.65400777052741
 31
0.0
  0
LINE
  5
18F0D
  8
AM_0
 10
884.44890646530041
 20
339.02399777047481
 30
0.0
 11
947.89888646656959
 21
339.02399777047469
 31
0.0
  0
LINE
  5
18F0E
  8
AM_0
 10
884.44890646530041
 20
341.02399777051488
 30
0.0
 11
947.89888646656959
 21
341.02399777051482
 31
0.0
  0
LINE
  5
18F0F
  8
AM_0
 10
948.76888646658676
 20
338.3039977704604
 30
0.0
 11
884.44890646530041
 21
338.3039977704604
 31
0.0
  0
LINE
  5
18F10
  8
AM_0
 10
887.00714652173895
 20
359.02399777087481
 30
0.0
 11
956.88887646674925
 21
359.02399777087481
 31
0.0
  0
LINE
  5
18F11
  8
AM_0
 10
887.00622302197235
 20
361.023997770915
 30
0.0
 11
956.88887646674925
 21
361.02399777091478
 31
0.0
  0
LINE
  5
18F12
  8
AM_0
 10
887.00887767634174
 20
369.0239977710749
 30
0.0
 11
956.88887646674925
 21
369.02399777107479
 31
0.0
  0
LINE
  5
18F13
  8
AM_0
 10
887.00887767634333
 20
371.02399777111481
 30
0.0
 11
956.88887646674925
 21
371.02399777111481
 31
0.0
  0
LINE
  5
18F14
  8
AM_0
 10
958.11889646677355
 20
358.68399777086802
 30
0.0
 11
885.91369319779301
 21
358.68399777086807
 31
0.0
  0
LINE
  5
18F15
  8
AM_0
 10
958.11889646677355
 20
361.34397777092107
 30
0.0
 11
885.91369319779301
 21
361.34397777092119
 31
0.0
  0
LINE
  5
18F16
  8
AM_0
 10
958.17888646677523
 20
368.75397777106929
 30
0.0
 11
885.91369319779301
 21
368.7539777710694
 31
0.0
  0
LINE
  5
18F17
  8
AM_0
 10
958.17888646677523
 20
371.28397777111991
 30
0.0
 11
885.91369319779301
 21
371.28397777112002
 31
0.0
  0
LINE
  5
18F18
  8
AM_0
 10
958.18889646677519
 20
378.76398777126963
 30
0.0
 11
885.71887979561006
 21
378.76398777126968
 31
0.0
  0
LINE
  5
18F19
  8
AM_0
 10
887.00887427090515
 20
379.02399777127488
 30
0.0
 11
956.89888646674945
 21
379.02399777127482
 31
0.0
  0
LINE
  5
18F1A
  8
AM_0
 10
887.00887427090515
 20
381.02399777131478
 30
0.0
 11
956.89888646674945
 21
381.02399777131473
 31
0.0
  0
LINE
  5
18F1B
  8
AM_0
 10
958.18889646677519
 20
381.3039977713205
 30
0.0
 11
885.71887979561006
 21
381.30399777132072
 31
0.0
  0
LINE
  5
18F1C
  8
AM_0
 10
855.93795217790296
 20
349.02399777067478
 30
0.0
 11
947.89888646656982
 21
349.02399777067478
 31
0.0
  0
LINE
  5
18F1D
  8
AM_0
 10
948.98888646659123
 20
348.53397777066488
 30
0.0
 11
855.08868463657825
 21
348.53397777066499
 31
0.0
  0
LINE
  5
18F1E
  8
AM_0
 10
821.52412037751662
 20
351.0239977707148
 30
0.0
 11
947.89888646656982
 21
351.0239977707148
 31
0.0
  0
LINE
  5
18F1F
  8
AM_0
 10
948.98888646659123
 20
351.46399777072372
 30
0.0
 11
820.43412042985494
 21
351.46399777072372
 31
0.0
  0
LINE
  5
18F21
  8
ﾁｭｳｼﾝｾﾝ1
 10
977.94280646707034
 20
375.02402335520179
 30
0.0
 11
763.71121762192888
 21
375.024028679862
 31
0.0
  0
POLYLINE
  5
18F68
  8
AM_0
 10
627.44893235837981
 20
357.02366873905311
 30
0.0
 66
     1
 70
     8
  0
VERTEX
  8
AM_0
  5
1AE1F
 10
627.449
 20
357.024
 30
0.000000
  70
    32
  0
VERTEX
  8
AM_0
  5
1AE20
 10
627.479
 20
358.250
 30
0.000000
  70
    32
  0
VERTEX
  8
AM_0
  5
1AE21
 10
627.569
 20
359.474
 30
0.000000
  70
    32
  0
VERTEX
  8
AM_0
  5
1AE22
 10
627.720
 20
360.692
 30
0.000000
  70
    32
  0
VERTEX
  8
AM_0
  5
1AE23
 10
627.929
 20
361.901
 30
0.000000
  70
    32
  0
VERTEX
  8
AM_0
  5
1AE24
 10
628.198
 20
363.098
 30
0.000000
  70
    32
  0
VERTEX
  8
AM_0
  5
1AE25
 10
628.525
 20
364.281
 30
0.000000
  70
    32
  0
VERTEX
  8
AM_0
  5
1AE26
 10
628.910
 20
365.446
 30
0.000000
  70
    32
  0
VERTEX
  8
AM_0
  5
1AE27
 10
629.352
 20
366.591
 30
0.000000
  70
    32
  0
VERTEX
  8
AM_0
  5
1AE28
 10
629.849
 20
367.713
 30
0.000000
  70
    32
  0
VERTEX
  8
AM_0
  5
1AE29
 10
630.401
 20
368.809
 30
0.000000
  70
    32
  0
VERTEX
  8
AM_0
  5
1AE2A
 10
631.006
 20
369.876
 30
0.000000
  70
    32
  0
VERTEX
  8
AM_0
  5
1AE2B
 10
631.662
 20
370.913
 30
0.000000
  70
    32
  0
VERTEX
  8
AM_0
  5
1AE2C
 10
632.369
 20
371.916
 30
0.000000
  70
    32
  0
VERTEX
  8
AM_0
  5
1AE2D
 10
633.124
 20
372.884
 30
0.000000
  70
    32
  0
VERTEX
  8
AM_0
  5
1AE2E
 10
633.925
 20
373.813
 30
0.000000
  70
    32
  0
VERTEX
  8
AM_0
  5
1AE2F
 10
634.771
 20
374.702
 30
0.000000
  70
    32
  0
VERTEX
  8
AM_0
  5
1AE30
 10
635.660
 20
375.548
 30
0.000000
  70
    32
  0
VERTEX
  8
AM_0
  5
1AE31
 10
636.589
 20
376.349
 30
0.000000
  70
    32
  0
VERTEX
  8
AM_0
  5
1AE32
 10
637.556
 20
377.104
 30
0.000000
  70
    32
  0
VERTEX
  8
AM_0
  5
1AE33
 10
638.560
 20
377.811
 30
0.000000
  70
    32
  0
VERTEX
  8
AM_0
  5
1AE34
 10
639.596
 20
378.467
 30
0.000000
  70
    32
  0
VERTEX
  8
AM_0
  5
1AE35
 10
640.664
 20
379.072
 30
0.000000
  70
    32
  0
VERTEX
  8
AM_0
  5
1AE36
 10
641.760
 20
379.624
 30
0.000000
  70
    32
  0
VERTEX
  8
AM_0
  5
1AE37
 10
642.882
 20
380.121
 30
0.000000
  70
    32
  0
VERTEX
  8
AM_0
  5
1AE38
 10
644.027
 20
380.563
 30
0.000000
  70
    32
  0
VERTEX
  8
AM_0
  5
1AE39
 10
645.192
 20
380.948
 30
0.000000
  70
    32
  0
VERTEX
  8
AM_0
  5
1AE3A
 10
646.374
 20
381.275
 30
0.000000
  70
    32
  0
VERTEX
  8
AM_0
  5
1AE3B
 10
647.572
 20
381.544
 30
0.000000
  70
    32
  0
VERTEX
  8
AM_0
  5
1AE3C
 10
648.781
 20
381.754
 30
0.000000
  70
    32
  0
VERTEX
  8
AM_0
  5
1AE3D
 10
649.999
 20
381.904
 30
0.000000
  70
    32
  0
VERTEX
  8
AM_0
  5
1AE3E
 10
651.222
 20
381.994
 30
0.000000
  70
    32
  0
VERTEX
  8
AM_0
  5
1AE3F
 10
652.449
 20
382.024
 30
0.000000
  70
    32
  0
VERTEX
  8
AM_0
  5
1AE40
 10
653.676
 20
381.994
 30
0.000000
  70
    32
  0
VERTEX
  8
AM_0
  5
1AE41
 10
654.899
 20
381.904
 30
0.000000
  70
    32
  0
VERTEX
  8
AM_0
  5
1AE42
 10
656.117
 20
381.754
 30
0.000000
  70
    32
  0
VERTEX
  8
AM_0
  5
1AE43
 10
657.326
 20
381.544
 30
0.000000
  70
    32
  0
VERTEX
  8
AM_0
  5
1AE44
 10
658.523
 20
381.275
 30
0.000000
  70
    32
  0
VERTEX
  8
AM_0
  5
1AE45
 10
659.706
 20
380.948
 30
0.000000
  70
    32
  0
VERTEX
  8
AM_0
  5
1AE46
 10
660.871
 20
380.563
 30
0.000000
  70
    32
  0
VERTEX
  8
AM_0
  5
1AE47
 10
662.016
 20
380.121
 30
0.000000
  70
    32
  0
VERTEX
  8
AM_0
  5
1AE48
 10
663.138
 20
379.624
 30
0.000000
  70
    32
  0
VERTEX
  8
AM_0
  5
1AE49
 10
664.234
 20
379.072
 30
0.000000
  70
    32
  0
VERTEX
  8
AM_0
  5
1AE4A
 10
665.302
 20
378.467
 30
0.000000
  70
    32
  0
VERTEX
  8
AM_0
  5
1AE4B
 10
666.338
 20
377.811
 30
0.000000
  70
    32
  0
VERTEX
  8
AM_0
  5
1AE4C
 10
667.341
 20
377.104
 30
0.000000
  70
    32
  0
VERTEX
  8
AM_0
  5
1AE4D
 10
668.309
 20
376.349
 30
0.000000
  70
    32
  0
VERTEX
  8
AM_0
  5
1AE4E
 10
669.238
 20
375.548
 30
0.000000
  70
    32
  0
VERTEX
  8
AM_0
  5
1AE4F
 10
670.127
 20
374.702
 30
0.000000
  70
    32
  0
VERTEX
  8
AM_0
  5
1AE50
 10
670.973
 20
373.813
 30
0.000000
  70
    32
  0
VERTEX
  8
AM_0
  5
1AE51
 10
671.774
 20
372.884
 30
0.000000
  70
    32
  0
VERTEX
  8
AM_0
  5
1AE52
 10
672.529
 20
371.916
 30
0.000000
  70
    32
  0
VERTEX
  8
AM_0
  5
1AE53
 10
673.236
 20
370.913
 30
0.000000
  70
    32
  0
VERTEX
  8
AM_0
  5
1AE54
 10
673.892
 20
369.876
 30
0.000000
  70
    32
  0
VERTEX
  8
AM_0
  5
1AE55
 10
674.497
 20
368.809
 30
0.000000
  70
    32
  0
VERTEX
  8
AM_0
  5
1AE56
 10
675.049
 20
367.713
 30
0.000000
  70
    32
  0
VERTEX
  8
AM_0
  5
1AE57
 10
675.546
 20
366.591
 30
0.000000
  70
    32
  0
VERTEX
  8
AM_0
  5
1AE58
 10
675.988
 20
365.446
 30
0.000000
  70
    32
  0
VERTEX
  8
AM_0
  5
1AE59
 10
676.372
 20
364.281
 30
0.000000
  70
    32
  0
VERTEX
  8
AM_0
  5
1AE5A
 10
676.700
 20
363.098
 30
0.000000
  70
    32
  0
VERTEX
  8
AM_0
  5
1AE5B
 10
676.969
 20
361.901
 30
0.000000
  70
    32
  0
VERTEX
  8
AM_0
  5
1AE5C
 10
677.178
 20
360.692
 30
0.000000
  70
    32
  0
VERTEX
  8
AM_0
  5
1AE5D
 10
677.329
 20
359.474
 30
0.000000
  70
    32
  0
VERTEX
  8
AM_0
  5
1AE5E
 10
677.419
 20
358.250
 30
0.000000
  70
    32
  0
VERTEX
  8
AM_0
  5
1AE5F
 10
677.449
 20
357.024
 30
0.000000
  70
    32
  0
VERTEX
  8
AM_0
  5
1AE60
 10
677.419
 20
355.797
 30
0.000000
  70
    32
  0
VERTEX
  8
AM_0
  5
1AE61
 10
677.329
 20
354.573
 30
0.000000
  70
    32
  0
VERTEX
  8
AM_0
  5
1AE62
 10
677.178
 20
353.355
 30
0.000000
  70
    32
  0
VERTEX
  8
AM_0
  5
1AE63
 10
676.969
 20
352.146
 30
0.000000
  70
    32
  0
VERTEX
  8
AM_0
  5
1AE64
 10
676.700
 20
350.949
 30
0.000000
  70
    32
  0
VERTEX
  8
AM_0
  5
1AE65
 10
676.372
 20
349.766
 30
0.000000
  70
    32
  0
VERTEX
  8
AM_0
  5
1AE66
 10
675.988
 20
348.601
 30
0.000000
  70
    32
  0
VERTEX
  8
AM_0
  5
1AE67
 10
675.546
 20
347.456
 30
0.000000
  70
    32
  0
VERTEX
  8
AM_0
  5
1AE68
 10
675.049
 20
346.335
 30
0.000000
  70
    32
  0
VERTEX
  8
AM_0
  5
1AE69
 10
674.497
 20
345.239
 30
0.000000
  70
    32
  0
VERTEX
  8
AM_0
  5
1AE6A
 10
673.892
 20
344.171
 30
0.000000
  70
    32
  0
VERTEX
  8
AM_0
  5
1AE6B
 10
673.236
 20
343.134
 30
0.000000
  70
    32
  0
VERTEX
  8
AM_0
  5
1AE6C
 10
672.529
 20
342.131
 30
0.000000
  70
    32
  0
VERTEX
  8
AM_0
  5
1AE6D
 10
671.774
 20
341.164
 30
0.000000
  70
    32
  0
VERTEX
  8
AM_0
  5
1AE6E
 10
670.973
 20
340.234
 30
0.000000
  70
    32
  0
VERTEX
  8
AM_0
  5
1AE6F
 10
670.127
 20
339.346
 30
0.000000
  70
    32
  0
VERTEX
  8
AM_0
  5
1AE70
 10
669.238
 20
338.500
 30
0.000000
  70
    32
  0
VERTEX
  8
AM_0
  5
1AE71
 10
668.309
 20
337.698
 30
0.000000
  70
    32
  0
VERTEX
  8
AM_0
  5
1AE72
 10
667.341
 20
336.943
 30
0.000000
  70
    32
  0
VERTEX
  8
AM_0
  5
1AE73
 10
666.338
 20
336.237
 30
0.000000
  70
    32
  0
VERTEX
  8
AM_0
  5
1AE74
 10
665.302
 20
335.580
 30
0.000000
  70
    32
  0
VERTEX
  8
AM_0
  5
1AE75
 10
664.234
 20
334.975
 30
0.000000
  70
    32
  0
VERTEX
  8
AM_0
  5
1AE76
 10
663.138
 20
334.423
 30
0.000000
  70
    32
  0
VERTEX
  8
AM_0
  5
1AE77
 10
662.016
 20
333.926
 30
0.000000
  70
    32
  0
VERTEX
  8
AM_0
  5
1AE78
 10
660.871
 20
333.485
 30
0.000000
  70
    32
  0
VERTEX
  8
AM_0
  5
1AE79
 10
659.706
 20
333.100
 30
0.000000
  70
    32
  0
VERTEX
  8
AM_0
  5
1AE7A
 10
658.523
 20
332.772
 30
0.000000
  70
    32
  0
VERTEX
  8
AM_0
  5
1AE7B
 10
657.326
 20
332.504
 30
0.000000
  70
    32
  0
VERTEX
  8
AM_0
  5
1AE7C
 10
656.117
 20
332.294
 30
0.000000
  70
    32
  0
VERTEX
  8
AM_0
  5
1AE7D
 10
654.899
 20
332.144
 30
0.000000
  70
    32
  0
VERTEX
  8
AM_0
  5
1AE7E
 10
653.676
 20
332.053
 30
0.000000
  70
    32
  0
VERTEX
  8
AM_0
  5
1AE7F
 10
652.449
 20
332.023
 30
0.000000
  70
    32
  0
VERTEX
  8
AM_0
  5
1AE80
 10
651.222
 20
332.053
 30
0.000000
  70
    32
  0
VERTEX
  8
AM_0
  5
1AE81
 10
649.999
 20
332.144
 30
0.000000
  70
    32
  0
VERTEX
  8
AM_0
  5
1AE82
 10
648.781
 20
332.294
 30
0.000000
  70
    32
  0
VERTEX
  8
AM_0
  5
1AE83
 10
647.572
 20
332.504
 30
0.000000
  70
    32
  0
VERTEX
  8
AM_0
  5
1AE84
 10
646.374
 20
332.772
 30
0.000000
  70
    32
  0
VERTEX
  8
AM_0
  5
1AE85
 10
645.192
 20
333.100
 30
0.000000
  70
    32
  0
VERTEX
  8
AM_0
  5
1AE86
 10
644.027
 20
333.485
 30
0.000000
  70
    32
  0
VERTEX
  8
AM_0
  5
1AE87
 10
642.882
 20
333.926
 30
0.000000
  70
    32
  0
VERTEX
  8
AM_0
  5
1AE88
 10
641.760
 20
334.423
 30
0.000000
  70
    32
  0
VERTEX
  8
AM_0
  5
1AE89
 10
640.664
 20
334.975
 30
0.000000
  70
    32
  0
VERTEX
  8
AM_0
  5
1AE8A
 10
639.596
 20
335.580
 30
0.000000
  70
    32
  0
VERTEX
  8
AM_0
  5
1AE8B
 10
638.560
 20
336.237
 30
0.000000
  70
    32
  0
VERTEX
  8
AM_0
  5
1AE8C
 10
637.556
 20
336.943
 30
0.000000
  70
    32
  0
VERTEX
  8
AM_0
  5
1AE8D
 10
636.589
 20
337.698
 30
0.000000
  70
    32
  0
VERTEX
  8
AM_0
  5
1AE8E
 10
635.660
 20
338.500
 30
0.000000
  70
    32
  0
VERTEX
  8
AM_0
  5
1AE8F
 10
634.771
 20
339.346
 30
0.000000
  70
    32
  0
VERTEX
  8
AM_0
  5
1AE90
 10
633.925
 20
340.234
 30
0.000000
  70
    32
  0
VERTEX
  8
AM_0
  5
1AE91
 10
633.124
 20
341.164
 30
0.000000
  70
    32
  0
VERTEX
  8
AM_0
  5
1AE92
 10
632.369
 20
342.131
 30
0.000000
  70
    32
  0
VERTEX
  8
AM_0
  5
1AE93
 10
631.662
 20
343.134
 30
0.000000
  70
    32
  0
VERTEX
  8
AM_0
  5
1AE94
 10
631.006
 20
344.171
 30
0.000000
  70
    32
  0
VERTEX
  8
AM_0
  5
1AE95
 10
630.401
 20
345.239
 30
0.000000
  70
    32
  0
VERTEX
  8
AM_0
  5
1AE96
 10
629.849
 20
346.335
 30
0.000000
  70
    32
  0
VERTEX
  8
AM_0
  5
1AE97
 10
629.352
 20
347.456
 30
0.000000
  70
    32
  0
VERTEX
  8
AM_0
  5
1AE98
 10
628.910
 20
348.601
 30
0.000000
  70
    32
  0
VERTEX
  8
AM_0
  5
1AE99
 10
628.525
 20
349.766
 30
0.000000
  70
    32
  0
VERTEX
  8
AM_0
  5
1AE9A
 10
628.198
 20
350.949
 30
0.000000
  70
    32
  0
VERTEX
  8
AM_0
  5
1AE9B
 10
627.929
 20
352.146
 30
0.000000
  70
    32
  0
VERTEX
  8
AM_0
  5
1AE9C
 10
627.720
 20
353.355
 30
0.000000
  70
    32
  0
VERTEX
  8
AM_0
  5
1AE9D
 10
627.569
 20
354.573
 30
0.000000
  70
    32
  0
VERTEX
  8
AM_0
  5
1AE9E
 10
627.479
 20
355.797
 30
0.000000
  70
    32
  0
VERTEX
  8
AM_0
  5
1AE9F
 10
627.449
 20
357.024
 30
0.000000
  70
    32
  0
SEQEND
  8
AM_0
  5
1AEA0
  0
LINE
  5
18F6F
  8
AM_0
 10
911.44890646584065
 20
298.02402776965459
 30
0.0
 11
911.44890646584065
 21
290.52402776950458
 31
0.0
  0
LINE
  5
18F70
  8
AM_0
 10
916.94890646595059
 20
301.52402776972451
 30
0.0
 11
916.94890646595059
 21
282.02402776933468
 31
0.0
  0
LINE
  5
18F71
  8
AM_0
 10
907.94890646577073
 20
298.02402776965459
 30
0.0
 11
907.94890646577073
 21
290.52402776950458
 31
0.0
  0
LINE
  5
18F72
  8
AM_0
 10
896.44890646554074
 20
290.52402776950458
 30
0.0
 11
896.44890646554074
 21
298.02402776965459
 31
0.0
  0
LINE
  5
18F73
  8
AM_0
 10
899.94890646561078
 20
298.02402776965459
 30
0.0
 11
899.94890646561078
 21
290.52402776950458
 31
0.0
  0
ARC
  5
18F74
  8
AM_0
 10
903.94890646569081
 20
290.52402776950458
 30
0.0
 40
7.5000000001500027
 50
180.0
 51
0.0
  0
LINE
  5
18F75
  8
AM_0
 10
836.9489064643509
 20
301.52402776972451
 30
0.0
 11
836.9489064643509
 21
294.52402776958462
 31
0.0
  0
LINE
  5
18F76
  8
AM_0
 10
850.64490646462434
 20
275.02402776919462
 30
0.0
 11
886.25290646533665
 21
275.02402776919462
 31
0.0
  0
LINE
  5
18F77
  8
AM_0
 10
836.9489064643509
 20
294.52402776958462
 30
0.0
 11
894.44890646550095
 21
294.52402776958462
 31
0.0
  0
LINE
  5
18F78
  8
AM_0
 10
839.44890646440069
 20
278.02402776925447
 30
0.0
 11
914.44890646590068
 21
278.02402776925447
 31
0.0
  0
LINE
  5
18F7E
  8
AM_0
 10
838.4489064643808
 20
294.52402776958462
 30
0.0
 11
838.4489064643808
 21
279.0240277692746
 31
0.0
  0
ARC
  5
18F7F
  8
AM_0
 10
839.44890646440069
 20
279.02402776927448
 30
0.0
 40
1.00000000002
 50
180.0
 51
270.0
  0
LINE
  5
18F80
  8
AM_0
 10
845.44890646452075
 20
278.02402776925447
 30
0.0
 11
850.64490646462434
 21
275.02402776919462
 31
0.0
  0
ARC
  5
18F81
  8
AM_0
 10
902.94890646567058
 20
289.5240277694848
 30
0.0
 40
7.5000000001499956
 50
180.0
 51
270.0
  0
LINE
  5
18F82
  8
AM_0
 10
886.25290646533665
 20
275.02402776919462
 30
0.0
 11
891.44168197564375
 21
278.02402776925447
 31
0.0
  0
ARC
  5
18F83
  8
AM_0
 10
894.44890646550095
 20
293.52402776956478
 30
0.0
 40
1.00000000002
 50
0.0
 51
89.999999999999986
  0
LINE
  5
18F84
  8
AM_0
 10
895.44890646552074
 20
289.5240277694848
 30
0.0
 11
895.44890646552074
 21
293.52402776956478
 31
0.0
  0
LINE
  5
18F85
  8
AM_0
 10
915.44890646592069
 20
294.52402776958462
 30
0.0
 11
915.44890646592069
 21
279.0240277692746
 31
0.0
  0
ARC
  5
18F86
  8
AM_0
 10
904.94890646571048
 20
289.5240277694848
 30
0.0
 40
7.500000000149992
 50
270.0
 51
0.0
  0
ARC
  5
18F87
  8
AM_0
 10
914.44890646590068
 20
279.0240277692746
 30
0.0
 40
1.00000000002
 50
270.0
 51
0.0
  0
ARC
  5
18F88
  8
AM_0
 10
903.94890646569081
 20
290.52402776950458
 30
0.0
 40
4.0000000000799973
 50
180.0
 51
0.0
  0
LINE
  5
18F89
  8
AM_0
 10
902.94890646567058
 20
282.02402776933468
 30
0.0
 11
904.94890646571048
 21
282.02402776933468
 31
0.0
  0
LINE
  5
18F8A
  8
AM_0
 10
916.94890646595059
 20
294.52402776958462
 30
0.0
 11
913.44890646588078
 21
294.52402776958462
 31
0.0
  0
ARC
  5
18F8B
  8
AM_0
 10
913.44890646588078
 20
293.52402776956478
 30
0.0
 40
1.00000000002
 50
89.999999999999986
 51
180.0
  0
LINE
  5
18F8C
  8
AM_0
 10
916.94890646595059
 20
282.02402776933468
 30
0.0
 11
915.44890646592069
 21
282.02402776933468
 31
0.0
  0
LINE
  5
18F8D
  8
AM_0
 10
912.44890646586055
 20
293.52402776956478
 30
0.0
 11
912.44890646586055
 21
289.5240277694848
 31
0.0
  0
LINE
  5
18F8E
  8
AM_0
 10
824.62889646410372
 20
411.02399777191488
 30
0.0
 11
884.44890646530041
 21
411.02399777191488
 31
0.0
  0
LINE
  5
18F8F
  8
AM_0
 10
824.62889646410372
 20
409.02399777187492
 30
0.0
 11
884.44890646530041
 21
409.02399777187492
 31
0.0
  0
LINE
  5
18F90
  8
AM_0
 10
839.94890646441036
 20
408.3939977718623
 30
0.0
 11
854.9489064647106
 21
408.3939977718623
 31
0.0
  0
LINE
  5
18F91
  8
AM_0
 10
824.62889646410372
 20
341.02405777051467
 30
0.0
 11
884.44890646530041
 21
341.02405777051467
 31
0.0
  0
LINE
  5
18F92
  8
AM_0
 10
824.62889646410372
 20
339.02405777047471
 30
0.0
 11
884.44890646530041
 21
339.02405777047471
 31
0.0
  0
LINE
  5
18F93
  8
AM_0
 10
884.44890646530041
 20
338.29407777046021
 30
0.0
 11
824.62889646410372
 21
338.29407777046021
 31
0.0
  0
LINE
  5
18F94
  8
AM_0
 10
839.94890646441036
 20
341.65405777052729
 30
0.0
 11
854.94890646471026
 21
341.65405777052729
 31
0.0
  0
LINE
  5
18F95
  8
AM_0
 10
839.94890646441036
 20
341.65405777052729
 30
0.0
 11
854.94890646471026
 21
341.65405777052729
 31
0.0
  0
LINE
  5
18F96
  8
AM_0
 10
884.44890646530041
 20
313.16406776995763
 30
0.0
 11
824.62889646410372
 21
313.16406776995763
 31
0.0
  0
LINE
  5
18F97
  8
AM_0
 10
918.44890646598026
 20
328.68405777026788
 30
0.0
 11
824.62889646410372
 21
328.68405777026788
 31
0.0
  0
LINE
  5
18F98
  8
AM_0
 10
836.94890646435056
 20
301.52402776972451
 30
0.0
 11
916.94890646595059
 21
301.52402776972451
 31
0.0
  0
LINE
  5
18F99
  8
AM_0
 10
916.94890646595059
 20
298.02402776965459
 30
0.0
 11
836.9489064643509
 21
298.02402776965459
 31
0.0
  0
LINE
  5
18FA9
  8
AM_0
 10
818.44890646398051
 20
332.16406777033762
 30
0.0
 11
818.44890646398051
 21
324.56406777018549
 31
0.0
  0
LINE
  5
18FAA
  8
AM_0
 10
819.4489064640004
 20
332.16406777033762
 30
0.0
 11
819.4489064640004
 21
324.56406777018549
 31
0.0
  0
LINE
  5
18FAB
  8
AM_0
 10
822.68889646406535
 20
314.66405776998772
 30
0.0
 11
819.95308646401065
 21
324.86405777019161
 31
0.0
  0
ARC
  5
18FAC
  8
AM_0
 10
820.34890646401846
 20
326.56406777022568
 30
0.0
 40
1.700000800033999
 50
270.000020000002
 51
359.999989999999
  0
LINE
  5
18FAD
  8
AM_0
 10
838.4489064643808
 20
306.02402776981461
 30
0.0
 11
826.14818516788625
 21
306.02402776981461
 31
0.0
  0
LINE
  5
18FAE
  8
AM_0
 10
818.44890646398051
 20
311.02399782227479
 30
0.0
 11
826.14818516788625
 21
306.02402776981461
 31
0.0
  0
LINE
  5
18FAF
  8
AM_0
 10
819.4489064640004
 20
324.56406777018549
 30
0.0
 11
818.44890646398051
 21
324.56406777018549
 31
0.0
  0
ARC
  5
18FB0
  8
AM_0
 10
817.44048646396027
 20
323.99246777017407
 30
0.0
 40
1.0084445000201681
 50
270.4777999999996
 51
350.45392999999711
  0
ARC
  5
18FB1
  8
AM_0
 10
817.44890646396061
 20
312.02399776993491
 30
0.0
 40
1.00000000002
 50
270.00000299999761
 51
0.0000100000009905
  0
LINE
  5
18FB2
  8
AM_0
 10
822.72890646406609
 20
314.5240677699847
 30
0.0
 11
818.44890646398051
 21
314.5240677699847
 31
0.0
  0
LINE
  5
18FB3
  8
AM_0
 10
818.44890646398051
 20
312.02399776993491
 30
0.0
 11
818.44890646398051
 21
314.52399776998482
 31
0.0
  0
LINE
  5
18FB4
  8
0
  6
CONTINUOUS
 62
     7
 10
817.44890646380065
 20
322.98406719875192
 30
0.0
 11
809.44890646380065
 21
322.98406719875192
 31
0.0
  0
LINE
  5
18FB5
  8
AM_0
 10
809.44890646380065
 20
311.02400301938297
 30
0.0
 11
809.44890646380065
 21
315.0240030193832
 31
0.0
  0
LINE
  5
18FB6
  8
0
  6
CONTINUOUS
 62
     7
 10
818.44896805839915
 20
311.02399753628248
 30
0.0
 11
809.44890646380065
 21
311.02399753628248
 31
0.0
  0
ARC
  5
18FB7
  8
AM_0
 10
824.63854646410425
 20
315.18105776999778
 30
0.0
 40
2.0170178000403398
 50
194.8516000000017
 51
269.72630000000368
  0
LINE
  5
18FB8
  8
AM_0
 10
838.4489064643808
 20
301.52402776972451
 30
0.0
 11
838.4489064643808
 21
306.02402776981461
 31
0.0
  0
LINE
  5
18FB9
  8
AM_0
 10
821.52412037751662
 20
349.02399777067478
 30
0.0
 11
838.95986075121516
 21
349.02399777067478
 31
0.0
  0
LINE
  5
18FBA
  8
AM_0
 10
824.62889646410372
 20
341.65405777052729
 30
0.0
 11
838.94890646439046
 21
341.65405777052729
 31
0.0
  0
LINE
  5
18FBB
  8
AM_0
 10
839.8091282925426
 20
348.53397777066499
 30
0.0
 11
820.43520301937758
 21
348.53397777066499
 31
0.0
  0
ARC
  5
18FBC
  8
AM_0
 10
824.10888646409364
 20
340.02405777049472
 30
0.0
 40
1.0000074000200001
 50
89.999997000002296
 51
270.0
  0
ARC
  5
18FBD
  8
AM_0
 10
820.63500646402417
 20
339.97406777049378
 30
0.0
 40
1.680011000033599
 50
90.208030999999565
 51
269.79197000000192
  0
LINE
  5
18FBE
  8
AM_0
 10
824.62889646410372
 20
338.29407777046021
 30
0.0
 11
818.44890651330036
 21
338.29407777046021
 31
0.0
  0
LINE
  5
18FBF
  8
AM_0
 10
818.44890646398051
 20
329.14142777027712
 30
0.0
 11
819.4489064640004
 21
328.56409777026562
 31
0.0
  0
LINE
  5
18FC0
  8
AM_0
 10
818.44890646398051
 20
328.141427770257
 30
0.0
 11
819.4489064640004
 21
327.56406777024552
 31
0.0
  0
ARC
  5
18FC1
  8
AM_0
 10
817.78804646396736
 20
327.19727777023809
 30
0.0
 40
1.4868059000297349
 50
14.282739999999089
 51
63.610220000000879
  0
LINE
  5
18FC2
  8
AM_0
 10
819.4489064640004
 20
332.16406777033762
 30
0.0
 11
818.44890646398051
 21
332.16406777033762
 31
0.0
  0
LINE
  5
18FC3
  8
0
  6
CONTINUOUS
 62
     7
 10
817.44890646380065
 20
337.88407719875221
 30
0.0
 11
809.44890646380065
 21
337.88407719875221
 31
0.0
  0
LINE
  5
18FC4
  8
AM_0
 10
824.10888646409364
 20
339.02405777047471
 30
0.0
 11
824.62889646410372
 21
339.02405777047471
 31
0.0
  0
LINE
  5
18FC5
  8
AM_0
 10
824.62889646410372
 20
328.68405777026788
 30
0.0
 11
822.04888646405243
 21
328.68405777026788
 31
0.0
  0
LINE
  5
18FC6
  8
AM_0
 10
822.04888646405243
 20
330.16406777029749
 30
0.0
 11
822.04888646405243
 21
326.56406777022568
 31
0.0
  0
LINE
  5
18FC7
  8
AM_0
 10
819.4489064640004
 20
324.86406777019153
 30
0.0
 11
820.34890646401846
 21
324.86406777019153
 31
0.0
  0
LINE
  5
18FC8
  8
AM_0
 10
819.4489064640004
 20
331.86405777033161
 30
0.0
 11
820.34890646401846
 21
331.86405777033161
 31
0.0
  0
ARC
  5
18FC9
  8
AM_0
 10
820.34890646401846
 20
330.16406777029749
 30
0.0
 40
1.6999969000339989
 50
0.0000200000019969
 51
89.999997000002296
  0
LINE
  5
18FCA
  8
AM_0
 10
824.10888646409364
 20
341.02405777051467
 30
0.0
 11
824.62889646410372
 21
341.02405777051467
 31
0.0
  0
ARC
  5
18FCB
  8
AM_0
 10
820.43412042985494
 20
349.9989777706943
 30
0.0
 40
1.465000400029298
 50
89.999999999999986
 51
269.99999700000228
  0
ARC
  5
18FCC
  8
AM_0
 10
821.52412042987669
 20
350.02399777069479
 30
0.0
 40
1.0000032000200001
 50
89.999999999999986
 51
269.99999700000228
  0
LINE
  5
18FCD
  8
AM_0
 10
820.62889646402402
 20
341.65405777052729
 30
0.0
 11
824.62889646410372
 21
341.65405777052729
 31
0.0
  0
ARC
  5
18FCE
  8
AM_0
 10
838.94890646439046
 20
348.02405777065491
 30
0.0
 40
1.00000000002
 50
0.0
 51
89.999999999999986
1001
GENIUS_GENOBJ-N-FIL_13
1002
{
1000
OWNER
1000
GEN
1002
}
1001
GENIUS_GENODEF_13
1002
{
1000
HIER
1070
     0
1002
}
1002
{
1000
MANEDIT
1070
     0
1002
}
1002
{
1000
NOSEL
1070
     0
1002
}
1002
{
1000
BEHIND
1070
     0
1002
}
1002
{
1000
OTHER
1070
     0
1002
}
1002
{
1000
REACTOR
1002
}
  0
ARC
  5
18FCF
  8
AM_0
 10
838.94890646439046
 20
342.65405777054741
 30
0.0
 40
1.00000000002
 50
270.0
 51
0.0
1001
GENIUS_GENOBJ-N-FIL_13
1002
{
1000
OWNER
1000
GEN
1002
}
1001
GENIUS_GENODEF_13
1002
{
1000
HIER
1070
     0
1002
}
1002
{
1000
MANEDIT
1070
     0
1002
}
1002
{
1000
NOSEL
1070
     0
1002
}
1002
{
1000
BEHIND
1070
     0
1002
}
1002
{
1000
OTHER
1070
     0
1002
}
1002
{
1000
REACTOR
1002
}
  0
LINE
  5
18FD0
  8
AM_0
 10
839.94890646441036
 20
348.02405777065491
 30
0.0
 11
839.94890646441036
 21
342.65405777054741
 31
0.0
  0
CIRCLE
  5
18FD1
  8
AM_0
 10
849.94890646461045
 20
346.52402777062468
 30
0.0
 40
0.750000000015
  0
CIRCLE
  5
18FD2
  8
AM_0
 10
844.94890646451006
 20
346.52402777062468
 30
0.0
 40
0.750000000015
  0
LINE
  5
18FD8
  8
AM_0
 10
824.62889646410372
 20
408.3939977718623
 30
0.0
 11
838.94890646439046
 21
408.3939977718623
 31
0.0
  0
LINE
  5
18FD9
  8
AM_0
 10
821.52412037751685
 20
401.02399777171468
 30
0.0
 11
838.94890646439046
 21
401.02399777171468
 31
0.0
  0
LINE
  5
18FDA
  8
AM_0
 10
839.80907493621999
 20
401.51398777172449
 30
0.0
 11
820.45039506963167
 21
401.51398777172449
 31
0.0
  0
LINE
  5
18FDB
  8
AM_0
 10
824.10888646409364
 20
411.02399777191488
 30
0.0
 11
824.62889646410372
 21
411.02399777191488
 31
0.0
  0
LINE
  5
18FDC
  8
AM_0
 10
824.10888646409364
 20
409.02399777187492
 30
0.0
 11
824.62889646410372
 21
409.02399777187492
 31
0.0
  0
ARC
  5
18FDD
  8
AM_0
 10
824.10888646409364
 20
410.02399777189459
 30
0.0
 40
1.0000074000200001
 50
89.999999999999986
 51
270.00000299999761
  0
ARC
  5
18FDE
  8
AM_0
 10
820.43412042985506
 20
400.04907777169529
 30
0.0
 40
1.465000400029298
 50
90.000002999997605
 51
270.0
  0
ARC
  5
18FDF
  8
AM_0
 10
821.52412042987669
 20
400.02405777169469
 30
0.0
 40
1.0000032000200001
 50
90.000002999997605
 51
270.0
  0
LINE
  5
18FE0
  8
AM_0
 10
820.62889646402425
 20
408.3939977718623
 30
0.0
 11
824.62889646410372
 21
408.3939977718623
 31
0.0
  0
LINE
  5
18FE1
  8
AM_0
 10
839.94890646441036
 20
402.0239977717348
 30
0.0
 11
839.94890646441036
 21
407.39399777184212
 31
0.0
  0
ARC
  5
18FE2
  8
AM_0
 10
838.94890646439046
 20
402.0239977717348
 30
0.0
 40
1.00000000002
 50
270.0
 51
0.0
1001
GENIUS_GENOBJ-N-FIL_13
1002
{
1000
OWNER
1000
GEN
1002
}
1001
GENIUS_GENODEF_13
1002
{
1000
HIER
1070
     0
1002
}
1002
{
1000
MANEDIT
1070
     0
1002
}
1002
{
1000
NOSEL
1070
     0
1002
}
1002
{
1000
BEHIND
1070
     0
1002
}
1002
{
1000
OTHER
1070
     0
1002
}
1002
{
1000
REACTOR
1002
}
  0
ARC
  5
18FE3
  8
AM_0
 10
838.94890646439046
 20
407.39399777184212
 30
0.0
 40
1.00000000002
 50
0.0
 51
89.999999999999986
1001
GENIUS_GENOBJ-N-FIL_13
1002
{
1000
OWNER
1000
GEN
1002
}
1001
GENIUS_GENODEF_13
1002
{
1000
HIER
1070
     0
1002
}
1002
{
1000
MANEDIT
1070
     0
1002
}
1002
{
1000
NOSEL
1070
     0
1002
}
1002
{
1000
BEHIND
1070
     0
1002
}
1002
{
1000
OTHER
1070
     0
1002
}
1002
{
1000
REACTOR
1002
}
  0
CIRCLE
  5
18FE4
  8
AM_0
 10
849.94890646461045
 20
403.52402777176468
 30
0.0
 40
0.750000000015
  0
CIRCLE
  5
18FE5
  8
AM_0
 10
844.94890646451051
 20
403.52402777176468
 30
0.0
 40
0.750000000015
  0
LINE
  5
18FE6
  8
AM_0
 10
939.44890646640067
 20
313.16397776995751
 30
0.0
 11
884.44890646530041
 21
313.16397776995751
 31
0.0
  0
LINE
  5
18FE7
  8
AM_0
 10
917.44890646596025
 20
328.67398777026779
 30
0.0
 11
884.44890646530041
 21
328.67398777026779
 31
0.0
  0
LINE
  5
18FE8
  8
AM_0
 10
855.94890646473027
 20
341.65405777052729
 30
0.0
 11
884.44890646530041
 21
341.65405777052729
 31
0.0
  0
ARC
  5
18FE9
  8
AM_0
 10
855.94890646473027
 20
348.02405777065491
 30
0.0
 40
1.00000000002
 50
89.999999999999986
 51
180.00000000000651
1001
GENIUS_GENOBJ-N-FIL_13
1002
{
1000
OWNER
1000
GEN
1002
}
1001
GENIUS_GENODEF_13
1002
{
1000
HIER
1070
     0
1002
}
1002
{
1000
MANEDIT
1070
     0
1002
}
1002
{
1000
NOSEL
1070
     0
1002
}
1002
{
1000
BEHIND
1070
     0
1002
}
1002
{
1000
OTHER
1070
     0
1002
}
1002
{
1000
REACTOR
1002
}
  0
ARC
  5
18FEA
  8
AM_0
 10
855.94890646473027
 20
342.65405777054741
 30
0.0
 40
1.00000000002
 50
180.0
 51
270.0
1001
GENIUS_GENOBJ-N-FIL_13
1002
{
1000
OWNER
1000
GEN
1002
}
1001
GENIUS_GENODEF_13
1002
{
1000
HIER
1070
     0
1002
}
1002
{
1000
MANEDIT
1070
     0
1002
}
1002
{
1000
NOSEL
1070
     0
1002
}
1002
{
1000
BEHIND
1070
     0
1002
}
1002
{
1000
OTHER
1070
     0
1002
}
1002
{
1000
REACTOR
1002
}
  0
LINE
  5
18FEB
  8
AM_0
 10
854.94890646471026
 20
348.02405777065491
 30
0.0
 11
854.94890646471026
 21
342.65405777054741
 31
0.0
  0
ARC
  5
18FEC
  8
AM_0
 10
887.00015979563557
 20
350.02399777069479
 30
0.0
 40
1.0000380000199991
 50
89.500710000004887
 51
270.49928400000641
  0
LINE
  5
18FED
  8
AM_0
 10
939.44890646640067
 20
309.10398776987643
 30
0.0
 11
898.44890646558065
 21
309.10398776987648
 31
0.0
  0
LINE
  5
18FEE
  8
AM_0
 10
939.44890646640067
 20
309.78397776988987
 30
0.0
 11
898.44890646558065
 21
309.78397776988999
 31
0.0
  0
LINE
  5
18FEF
  8
AM_0
 10
939.44890646640067
 20
311.1339877699171
 30
0.0
 11
898.44890646558065
 21
311.13398776991721
 31
0.0
  0
LINE
  5
18FF0
  8
AM_0
 10
898.44890646558065
 20
301.52402776972451
 30
0.0
 11
898.44890646558065
 21
313.16406776995723
 31
0.0
  0
ARC
  5
18FF1
  8
AM_0
 10
885.77886979561174
 20
360.01398777089457
 30
0.0
 40
1.3300010000266
 50
89.999999999999986
 51
269.99999700000228
  0
ARC
  5
18FF2
  8
AM_0
 10
887.00015979563557
 20
360.02399777089482
 30
0.0
 40
1.0000380000199991
 50
89.500710000004887
 51
270.49928400000641
  0
ARC
  5
18FF3
  8
AM_0
 10
885.71887979561006
 20
370.0189977710948
 30
0.0
 40
1.2650050000252999
 50
89.999999999999986
 51
269.99999700000228
  0
ARC
  5
18FF4
  8
AM_0
 10
885.71887979561006
 20
380.02905777129479
 30
0.0
 40
1.2650050000252999
 50
90.000002999997605
 51
270.0
  0
ARC
  5
18FF5
  8
AM_0
 10
887.00015979563557
 20
370.02399777109491
 30
0.0
 40
1.0000380000199991
 50
89.500710000004887
 51
270.49928400000641
  0
ARC
  5
18FF6
  8
AM_0
 10
887.00015979563557
 20
380.02405777129491
 30
0.0
 40
1.0000380000199991
 50
89.500715999993588
 51
270.49928999999509
  0
LINE
  5
18FF7
  8
AM_0
 10
855.9489064647305
 20
408.3939977718623
 30
0.0
 11
884.44890646530041
 21
408.3939977718623
 31
0.0
  0
LINE
  5
18FF8
  8
AM_0
 10
854.9489064647106
 20
402.0239977717348
 30
0.0
 11
854.9489064647106
 21
407.39399777184212
 31
0.0
  0
ARC
  5
18FF9
  8
AM_0
 10
855.9489064647305
 20
402.0239977717348
 30
0.0
 40
1.00000000002
 50
180.0
 51
270.0
1001
GENIUS_GENOBJ-N-FIL_13
1002
{
1000
OWNER
1000
GEN
1002
}
1001
GENIUS_GENODEF_13
1002
{
1000
HIER
1070
     0
1002
}
1002
{
1000
MANEDIT
1070
     0
1002
}
1002
{
1000
NOSEL
1070
     0
1002
}
1002
{
1000
BEHIND
1070
     0
1002
}
1002
{
1000
OTHER
1070
     0
1002
}
1002
{
1000
REACTOR
1002
}
  0
ARC
  5
18FFA
  8
AM_0
 10
855.9489064647305
 20
407.39399777184212
 30
0.0
 40
1.00000000002
 50
89.999999999999986
 51
180.0
1001
GENIUS_GENOBJ-N-FIL_13
1002
{
1000
OWNER
1000
GEN
1002
}
1001
GENIUS_GENODEF_13
1002
{
1000
HIER
1070
     0
1002
}
1002
{
1000
MANEDIT
1070
     0
1002
}
1002
{
1000
NOSEL
1070
     0
1002
}
1002
{
1000
BEHIND
1070
     0
1002
}
1002
{
1000
OTHER
1070
     0
1002
}
1002
{
1000
REACTOR
1002
}
  0
ARC
  5
18FFB
  8
AM_0
 10
885.77886979561174
 20
390.0340677714949
 30
0.0
 40
1.3300010000266
 50
90.000002999997605
 51
270.0
  0
ARC
  5
18FFC
  8
AM_0
 10
887.00015979563557
 20
390.02405777149471
 30
0.0
 40
1.0000380000199991
 50
89.500715999993588
 51
270.49928999999509
  0
ARC
  5
18FFD
  8
AM_0
 10
887.00015979563557
 20
400.02399774109978
 30
0.0
 40
1.0000380000199991
 50
89.500715999993588
 51
270.49928999999509
  0
LINE
  5
19006
  8
AM_0
 10
970.44890646702038
 20
327.00437777023433
 30
0.0
 11
970.44890646702038
 21
370.0239977710948
 31
0.0
  0
LINE
  5
19007
  8
AM_0
 10
958.72887646678601
 20
326.67395777022767
 30
0.0
 11
958.18886646677515
 21
323.6839677701679
 31
0.0
  0
LINE
  5
19008
  8
AM_0
 10
964.44890646690055
 20
317.64361007219122
 30
0.0
 11
959.62889646680401
 21
317.52399777004479
 31
0.0
  0
LINE
  5
19009
  8
AM_0
 10
956.27889646673725
 20
316.75397777002939
 30
0.0
 11
942.94890646647036
 21
316.75397777002939
 31
0.0
  0
LINE
  5
1900A
  8
AM_0
 10
956.21889646673606
 20
322.04398777013512
 30
0.0
 11
942.94890646647036
 21
322.04398777013512
 31
0.0
  0
LINE
  5
1900B
  8
AM_0
 10
956.30889646673768
 20
313.35398776996141
 30
0.0
 11
942.94890646647036
 21
313.35398776996141
 31
0.0
  0
LINE
  5
1900C
  8
AM_0
 10
956.33889646673833
 20
311.72397776992881
 30
0.0
 11
942.83889646646844
 21
311.72397776992881
 31
0.0
  0
LINE
  5
1900D
  8
AM_0
 10
941.44890646644058
 20
313.133987769957
 30
0.0
 11
941.44890646644058
 21
320.5439877701051
 31
0.0
  0
ARC
  5
1900E
  8
AM_0
 10
942.95067646647055
 20
315.25217776999932
 30
0.0
 40
1.501797900030035
 50
90.068549999998893
 51
179.93145000000101
  0
ARC
  5
1900F
  8
AM_0
 10
942.83525646646808
 20
310.21711776989849
 30
0.0
 40
1.5068883000301361
 50
89.862229999999485
 51
165.1230700000024
  0
ARC
  5
19010
  8
AM_0
 10
942.95272646647038
 20
311.85013776993139
 30
0.0
 40
1.5038475000300759
 50
90.146399999989924
 51
179.85360000000341
  0
ARC
  5
19011
  8
AM_0
 10
942.95455646647031
 20
320.53830777010512
 30
0.0
 40
1.505674500030113
 50
90.215519999992296
 51
179.78447000000099
  0
LINE
  5
19012
  8
AM_0
 10
960.65889646682467
 20
323.983987770174
 30
0.0
 11
958.23888646677642
 21
323.983987770174
 31
0.0
  0
ARC
  5
19013
  8
AM_0
 10
960.65767646682468
 20
322.479837770144
 30
0.0
 40
1.504139800030081
 50
89.954250000005032
 51
167.5552499999952
  0
ARC
  5
19014
  8
AM_0
 10
956.22704646673617
 20
324.03739777017501
 30
0.0
 40
1.9934334000398679
 50
269.76588400000571
 51
349.78803000000022
  0
ARC
  5
19015
  8
AM_0
 10
960.63970646682435
 20
318.42118777006272
 30
0.0
 40
1.502808100030055
 50
90.03078999999498
 51
166.42217999999869
  0
ARC
  5
19016
  8
AM_0
 10
960.62059646682405
 20
316.39688777002232
 30
0.0
 40
1.5070969000301411
 50
90.064820000001674
 51
165.90218000000371
  0
LINE
  5
19017
  8
AM_0
 10
960.61889646682357
 20
317.90400777005237
 30
0.0
 11
958.96889646679074
 21
317.90400777005237
 31
0.0
  0
LINE
  5
19018
  8
AM_0
 10
960.63887646682417
 20
319.92398777009282
 30
0.0
 11
958.57888646678327
 21
319.92398777009282
 31
0.0
  0
ARC
  5
19019
  8
AM_0
 10
956.27721646673695
 20
318.7493677700694
 30
0.0
 40
1.9953895000399069
 50
270.04806699999131
 51
347.98461999999989
  0
ARC
  5
1901A
  8
AM_0
 10
956.3160964667378
 20
315.34946777000118
 30
0.0
 40
1.9954823000399089
 50
269.79345799999908
 51
346.80592000000257
  0
LINE
  5
1901B
  8
AM_0
 10
958.25887646677677
 20
314.8939977699921
 30
0.0
 11
959.17888646679501
 21
318.77399777006991
 31
0.0
  0
LINE
  5
1901C
  8
AM_0
 10
958.27886646677723
 20
313.2339877699589
 30
0.0
 11
959.15886646679473
 21
316.76398777002947
 31
0.0
  0
ARC
  5
1901D
  8
AM_0
 10
956.34157646673816
 20
313.72178776996873
 30
0.0
 40
1.9977812000399551
 50
269.92308099999781
 51
345.86776999999688
  0
LINE
  5
1901E
  8
AM_0
 10
958.228876466776
 20
318.33399777006088
 30
0.0
 11
959.18889646679509
 21
322.80399777015037
 31
0.0
  0
LINE
  5
1901F
  8
AM_0
 10
964.44890646690055
 20
340.71399777050851
 30
0.0
 11
954.44890646670035
 21
340.71399777050851
 31
0.0
  0
LINE
  5
19020
  8
AM_0
 10
964.44890646690055
 20
332.33399777034077
 30
0.0
 11
954.44890646670035
 21
332.33399777034077
 31
0.0
  0
LINE
  5
19021
  8
AM_0
 10
964.44890646690055
 20
326.67398777022782
 30
0.0
 11
954.44890646670035
 21
326.67398777022782
 31
0.0
  0
ARC
  5
19022
  8
AM_0
 10
948.76888646658676
 20
339.97898777049392
 30
0.0
 40
1.6750063000334989
 50
270.00000299999761
 51
89.999999999999986
  0
ARC
  5
19023
  8
AM_0
 10
947.89888646656959
 20
340.0239977704947
 30
0.0
 40
1.0000032000200001
 50
270.00000299999761
 51
89.999999999999986
  0
LINE
  5
19024
  8
AM_0
 10
954.44890646670035
 20
326.67398777022782
 30
0.0
 11
954.44890646670035
 21
340.71399777050851
 31
0.0
  0
ARC
  5
19025
  8
AM_0
 10
954.82769646670783
 20
337.35593777044153
 30
0.0
 40
6.0039072001200786
 50
225.22369300001091
 51
266.38271400000212
  0
ARC
  5
19026
  8
AM_0
 10
955.28392646671705
 20
333.42621777036283
 30
0.0
 40
5.0078936001001573
 50
99.598719999994145
 51
174.52532000000039
  0
LINE
  5
19027
  8
AM_0
 10
941.44890646644058
 20
337.78397777045001
 30
0.0
 11
941.44890646644058
 21
337.85398777045128
 31
0.0
  0
ARC
  5
19028
  8
AM_0
 10
951.29897646663755
 20
333.81382777037061
 30
0.0
 40
1.004136700020082
 50
174.84883999999599
 51
225.7974360000018
  0
ARC
  5
19029
  8
AM_0
 10
948.98888646659123
 20
349.9989777706943
 30
0.0
 40
1.465000400029298
 50
270.00000299999761
 51
89.999999999999986
  0
ARC
  5
1902A
  8
AM_0
 10
947.89888646656982
 20
350.02399777069479
 30
0.0
 40
1.0000032000200001
 50
270.00000299999761
 51
89.999999999999986
  0
LINE
  5
1902B
  8
AM_0
 10
968.18889646697517
 20
328.52399777026471
 30
0.0
 11
965.44890646692033
 21
328.52399777026471
 31
0.0
  0
LINE
  5
1902C
  8
AM_0
 10
968.66890646698471
 20
328.64399777026722
 30
0.0
 11
969.90889646700975
 21
329.30396777028039
 31
0.0
  0
ARC
  5
1902D
  8
AM_0
 10
969.44991646700055
 20
329.16944777027783
 30
0.0
 40
0.99898326001998
 50
299.96535999999588
 51
359.68761000000097
  0
ARC
  5
1902E
  8
AM_0
 10
969.44390646700026
 20
330.19501777029831
 30
0.0
 40
1.0050608000201
 50
297.55880999999511
 51
359.37160000000102
  0
LINE
  5
1902F
  8
AM_0
 10
968.66890646698471
 20
327.52396777024478
 30
0.0
 11
969.94890646701026
 21
328.30396777026027
 31
0.0
  0
LINE
  5
19030
  8
AM_0
 10
968.44890646698036
 20
327.6439977702471
 30
0.0
 11
968.44890646698036
 21
328.18399777025797
 31
0.0
  0
ARC
  5
19031
  8
AM_0
 10
968.15538646697462
 20
328.39508777026219
 30
0.0
 40
1.011208500020224
 50
270.76568699999262
 51
300.51881000001219
  0
ARC
  5
19032
  8
AM_0
 10
968.19060646697528
 20
329.5371777702851
 30
0.0
 40
1.0131912000202621
 50
269.90372399999882
 51
298.1687600000007
  0
ARC
  5
19033
  8
AM_0
 10
969.44173646700017
 20
327.01416777023462
 30
0.0
 40
1.007194200020143
 50
300.23341999999798
 51
0.557679999999936
  0
LINE
  5
19034
  8
AM_0
 10
968.64888646698432
 20
326.5439877702251
 30
0.0
 11
969.88890646700918
 21
327.16397777023758
 31
0.0
  0
LINE
  5
19035
  8
AM_0
 10
968.66887646698524
 20
325.42398777020281
 30
0.0
 11
969.94887646701034
 21
326.14399777021731
 31
0.0
  0
LINE
  5
19036
  8
AM_0
 10
968.44890646698036
 20
325.54398777020509
 30
0.0
 11
968.44890646698036
 21
326.0639777702155
 31
0.0
  0
ARC
  5
19037
  8
AM_0
 10
968.15801646697457
 20
326.28574777021998
 30
0.0
 40
1.001808000020036
 50
270.62281999999078
 51
300.66166999999638
  0
ARC
  5
19038
  8
AM_0
 10
968.1713164669751
 20
327.42841777024302
 30
0.0
 40
1.005138300020102
 50
272.14229099999102
 51
298.36793999999628
  0
ARC
  5
19039
  8
AM_0
 10
969.44585646700045
 20
328.06388777025552
 30
0.0
 40
1.0030519000200611
 50
296.21265000000881
 51
0.005769999997685
  0
LINE
  5
1903A
  8
AM_0
 10
968.16890646697493
 20
333.0439877703551
 30
0.0
 11
965.44890646692033
 21
333.0439877703551
 31
0.0
  0
ARC
  5
1903B
  8
AM_0
 10
969.44716646700044
 20
333.76661777036952
 30
0.0
 40
1.001733900020034
 50
302.73763000000417
 51
359.85046000000261
  0
LINE
  5
1903C
  8
AM_0
 10
968.68889646698528
 20
332.06397777033561
 30
0.0
 11
969.98891646701122
 21
332.92395777035279
 31
0.0
  0
LINE
  5
1903D
  8
AM_0
 10
968.44890646698036
 20
332.20398777033847
 30
0.0
 11
968.44890646698036
 21
332.68399777034801
 31
0.0
  0
LINE
  5
1903E
  8
AM_0
 10
968.66887646698524
 20
333.18399777035802
 30
0.0
 11
969.94887646701034
 21
333.9240277703729
 31
0.0
  0
ARC
  5
1903F
  8
AM_0
 10
968.14324646697435
 20
332.91428777035247
 30
0.0
 40
1.010318000020205
 50
270.32013999999481
 51
302.68858000000671
  0
ARC
  5
19040
  8
AM_0
 10
968.15664646697462
 20
334.05063777037537
 30
0.0
 40
1.0067360000201351
 50
270.69806099999852
 51
300.58643000000149
  0
ARC
  5
19041
  8
AM_0
 10
969.44335646700051
 20
334.79325777039003
 30
0.0
 40
1.00559290002011
 50
300.18133000000728
 51
359.47162000000122
  0
LINE
  5
19042
  8
AM_0
 10
968.16890646697493
 20
327.3839877702419
 30
0.0
 11
964.44890646690055
 21
327.3839877702419
 31
0.0
  0
ARC
  5
19043
  8
AM_0
 10
965.45595646692016
 20
329.53104777028489
 30
0.0
 40
1.0070832000201411
 50
180.40157798000081
 51
269.59842200000139
  0
LINE
  5
19044
  8
AM_0
 10
968.20888646697586
 20
326.42398777022282
 30
0.0
 11
964.94890646691022
 21
326.42398777022282
 31
0.0
  0
LINE
  5
19045
  8
AM_0
 10
968.16890646697493
 20
325.2839777701999
 30
0.0
 11
964.94890646691022
 21
325.2839777701999
 31
0.0
  0
LINE
  5
19046
  8
AM_0
 10
968.14888646697432
 20
331.90400777033233
 30
0.0
 11
964.44890646690055
 21
331.90400777033233
 31
0.0
  0
ARC
  5
19047
  8
AM_0
 10
965.4543064669208
 20
334.04938777037518
 30
0.0
 40
1.005422700020107
 50
180.30819238000211
 51
269.69181100000611
  0
LINE
  5
19048
  8
AM_0
 10
965.44890646692033
 20
351.0239977707148
 30
0.0
 11
969.44890646700048
 21
351.0239977707148
 31
0.0
  0
ARC
  5
19049
  8
AM_0
 10
969.45668646700062
 20
350.03180777069502
 30
0.0
 40
0.9922232600198446
 50
359.54915999999707
 51
90.450850000007364
  0
ARC
  5
1904A
  8
AM_0
 10
965.45678646692068
 20
352.03186777073489
 30
0.0
 40
1.007920400020158
 50
180.44848996000141
 51
269.55151199999528
  0
LINE
  5
1904B
  8
AM_0
 10
965.44890646692033
 20
349.02399777067478
 30
0.0
 11
969.44890646700048
 21
349.02399777067478
 31
0.0
  0
ARC
  5
1904C
  8
AM_0
 10
969.44445646700046
 20
342.64731777054709
 30
0.0
 40
1.0044501000200889
 50
286.45034999999609
 51
359.80985000000021
  0
LINE
  5
1904D
  8
AM_0
 10
968.28890646697721
 20
341.2839777705201
 30
0.0
 11
965.44890646692033
 21
341.2839777705201
 31
0.0
  0
ARC
  5
1904E
  8
AM_0
 10
969.44936646700035
 20
340.86866777051159
 30
0.0
 40
0.999532700019991
 50
292.3150500000005
 51
359.73186999999979
  0
LINE
  5
1904F
  8
AM_0
 10
968.62889646698397
 20
339.42398777048282
 30
0.0
 11
969.82888646700815
 21
339.94397777049318
 31
0.0
  0
LINE
  5
19050
  8
AM_0
 10
968.44890646698036
 20
339.6439977704872
 30
0.0
 11
968.44890646698036
 21
340.70398777050832
 31
0.0
  0
ARC
  5
19051
  8
AM_0
 10
968.30623646697757
 20
342.29898777054029
 30
0.0
 40
1.015145100020302
 50
269.02161899999908
 51
286.16767000000561
  0
LINE
  5
19052
  8
AM_0
 10
968.58889646698299
 20
341.32398777052077
 30
0.0
 11
969.72890646700603
 21
341.68396777052789
 31
0.0
  0
ARC
  5
19053
  8
AM_0
 10
968.23565646697625
 20
340.35019777050138
 30
0.0
 40
1.006237100020124
 50
269.61524400000241
 51
293.00462000000022
  0
ARC
  5
19054
  8
AM_0
 10
965.43987646692005
 20
348.03302777065511
 30
0.0
 40
0.9910124500198204
 50
89.478000000004286
 51
180.5220023800002
  0
ARC
  5
19055
  8
AM_0
 10
965.45519646692082
 20
342.29029777054018
 30
0.0
 40
1.0063295000201249
 50
180.35925376000381
 51
269.640748000001
  0
LINE
  5
19056
  8
AM_0
 10
968.22890646697601
 20
339.3439777704811
 30
0.0
 11
965.14888646691429
 21
339.3439777704811
 31
0.0
  0
LINE
  5
19057
  8
AM_0
 10
968.44890646698059
 20
349.40400777068248
 30
0.0
 11
968.44890646698059
 21
350.7639877707096
 31
0.0
  0
ARC
  5
19058
  8
AM_0
 10
969.43981646700047
 20
350.03308777069509
 30
0.0
 40
1.0091312000201811
 50
270.51612600000101
 51
359.48387000000042
  0
LINE
  5
1905A
  8
AM_0
 10
972.94280646707023
 20
359.80213777089028
 30
0.0
 11
972.94280646707023
 21
390.24576777149917
 31
0.0
  0
LINE
  5
1905B
  8
AM_0
 10
971.94890646705016
 20
395.02399777159479
 30
0.0
 11
971.94890646705016
 21
355.02399777079478
 31
0.0
  0
ARC
  5
1905C
  8
AM_0
 10
958.11889646677355
 20
360.01398777089457
 30
0.0
 40
1.3300010000266
 50
270.00000299999761
 51
89.999999999999986
  0
ARC
  5
1905D
  8
AM_0
 10
956.89760646674949
 20
360.02399777089482
 30
0.0
 40
1.0000380000199991
 50
269.50071599999359
 51
90.499289999995057
  0
ARC
  5
1905E
  8
AM_0
 10
956.88887646674925
 20
380.02399777129472
 30
0.0
 40
1.0000124000199999
 50
270.00000299999761
 51
89.999999999999986
  0
ARC
  5
1905F
  8
AM_0
 10
958.17888646677523
 20
370.0189977710948
 30
0.0
 40
1.2650050000252999
 50
270.00000299999761
 51
89.999999999999986
  0
ARC
  5
19060
  8
AM_0
 10
956.89760646674949
 20
370.0239977710948
 30
0.0
 40
1.0000380000199991
 50
269.50071599999359
 51
90.499289999995057
  0
ARC
  5
19061
  8
AM_0
 10
958.17876646677519
 20
380.01398777129469
 30
0.0
 40
1.270038400025399
 50
269.55481099999332
 51
90.445190000005567
  0
ARC
  5
19062
  8
AM_0
 10
965.43987646692005
 20
368.033027771055
 30
0.0
 40
0.9910124500198204
 50
89.478000000004286
 51
180.5220023800002
  0
LINE
  5
19063
  8
AM_0
 10
971.94890646705016
 20
355.02396777079491
 30
0.0
 11
970.44890646702038
 21
354.90396777079241
 31
0.0
  0
LINE
  5
19064
  8
AM_0
 10
972.94280646707023
 20
359.80216777089038
 30
0.0
 11
972.44280646706022
 21
357.03217777083489
 31
0.0
  0
LINE
  5
19065
  8
AM_0
 10
972.44280646706022
 20
357.03217777083489
 30
0.0
 11
971.94277646705063
 21
357.07218777083568
 31
0.0
  0
LINE
  5
19066
  8
AM_0
 10
965.44890646692033
 20
361.02399777091478
 30
0.0
 11
969.44890646700048
 21
361.02399777091478
 31
0.0
  0
ARC
  5
19067
  8
AM_0
 10
969.45668646700062
 20
360.031807770895
 30
0.0
 40
0.9922232600198446
 50
359.54915999999707
 51
90.450850000007364
  0
LINE
  5
19068
  8
AM_0
 10
965.44890646692033
 20
359.02399777087481
 30
0.0
 11
969.44890646700048
 21
359.02399777087481
 31
0.0
  0
ARC
  5
19069
  8
AM_0
 10
969.43981646700047
 20
360.03308777089501
 30
0.0
 40
1.0091312000201811
 50
270.51612600000101
 51
359.48387000000042
  0
LINE
  5
1906A
  8
AM_0
 10
968.44890646698059
 20
359.42398777088277
 30
0.0
 11
968.44890646698059
 21
360.64399777090722
 31
0.0
  0
ARC
  5
1906B
  8
AM_0
 10
965.45678646692068
 20
362.03186777093492
 30
0.0
 40
1.007920400020158
 50
180.44848996000141
 51
269.55151199999528
  0
ARC
  5
1906C
  8
AM_0
 10
965.43987646692005
 20
358.03302777085503
 30
0.0
 40
0.9910124500198204
 50
89.478000000004286
 51
180.5220023800002
  0
LINE
  5
1906D
  8
AM_0
 10
965.44890646692033
 20
381.02399777131473
 30
0.0
 11
969.44890646700048
 21
381.02399777131473
 31
0.0
  0
LINE
  5
1906E
  8
AM_0
 10
965.44890646692033
 20
379.02399777127482
 30
0.0
 11
969.44890646700048
 21
379.02399777127482
 31
0.0
  0
ARC
  5
1906F
  8
AM_0
 10
969.43981646700047
 20
380.01490777129459
 30
0.0
 40
1.0091312000201811
 50
0.5161299999996111
 51
89.483870000000422
  0
LINE
  5
19070
  8
AM_0
 10
968.44890646698059
 20
380.62397777130673
 30
0.0
 11
968.44890646698059
 21
379.46399777128369
 31
0.0
  0
ARC
  5
19071
  8
AM_0
 10
965.43987646692005
 20
382.01496777133468
 30
0.0
 40
0.9910124500198204
 50
179.47800000000419
 51
270.52199999999573
  0
POINT
  5
19072
  8
AM_0
 10
972.94280646707023
 20
375.02399777119467
 30
0.0
  0
LINE
  5
19073
  8
AM_0
 10
965.44890646692033
 20
371.02399777111481
 30
0.0
 11
969.44890646700048
 21
371.02399777111481
 31
0.0
  0
LINE
  5
19074
  8
AM_0
 10
965.44890646692033
 20
369.02399777107479
 30
0.0
 11
969.44890646700048
 21
369.02399777107479
 31
0.0
  0
ARC
  5
19075
  8
AM_0
 10
969.43981646700047
 20
370.0330877710951
 30
0.0
 40
1.0091312000201811
 50
270.51612600000101
 51
359.48387000000042
  0
LINE
  5
19076
  8
AM_0
 10
968.44890646698059
 20
369.42398777108269
 30
0.0
 11
968.44890646698059
 21
370.58399777110611
 31
0.0
  0
ARC
  5
19077
  8
AM_0
 10
969.45668646700062
 20
370.03180777109498
 30
0.0
 40
0.9922232600198446
 50
359.54915999999707
 51
90.450850000007364
  0
ARC
  5
19078
  8
AM_0
 10
965.45678646692068
 20
372.03186777113501
 30
0.0
 40
1.007920400020158
 50
180.44848996000141
 51
269.55151199999528
  0
ARC
  5
19079
  8
AM_0
 10
969.45668646700062
 20
380.0161877712946
 30
0.0
 40
0.9922232600198446
 50
269.54915500000459
 51
0.4508500000008742
  0
ARC
  5
1907A
  8
AM_0
 10
965.45678646692068
 20
378.01609777125481
 30
0.0
 40
1.007920400020158
 50
90.448489999990585
 51
179.55151000000271
  0
ARC
  5
1907B
  8
AM_0
 10
956.88887646674925
 20
390.02399777149481
 30
0.0
 40
1.0000124000199999
 50
270.00000299999761
 51
89.999999999999986
  0
ARC
  5
1907C
  8
AM_0
 10
958.11675646677372
 20
390.0339777714949
 30
0.0
 40
1.3300232000265999
 50
269.6615320000073
 51
90.338480000010406
  0
LINE
  5
1907D
  8
AM_0
 10
962.44890646686031
 20
409.32398777188081
 30
0.0
 11
959.26888646679708
 21
409.32398777188081
 31
0.0
  0
ARC
  5
1907E
  8
AM_0
 10
956.89769646674972
 20
410.02399777189459
 30
0.0
 40
1.0000387000199991
 50
269.4956680000052
 51
90.504340000003268
  0
ARC
  5
1907F
  8
AM_0
 10
956.89769646674972
 20
400.02399777169472
 30
0.0
 40
1.0000387000199991
 50
269.4956680000052
 51
90.504340000003268
  0
ARC
  5
19080
  8
AM_0
 10
957.98619646677116
 20
400.04398777169507
 30
0.0
 40
1.460102600029201
 50
269.32100699999552
 51
90.679000000004308
  0
LINE
  5
19081
  8
AM_0
 10
971.94890646705016
 20
395.02399777159479
 30
0.0
 11
970.44890646702038
 21
395.14399777159718
 31
0.0
  0
LINE
  5
19082
  8
AM_0
 10
972.94280646707023
 20
390.24576777149917
 30
0.0
 11
972.44280646706022
 21
393.01578777155459
 31
0.0
  0
LINE
  5
19083
  8
AM_0
 10
972.44280646706022
 20
393.01578777155459
 30
0.0
 11
971.94280646705045
 21
392.97577777155379
 31
0.0
  0
LINE
  5
19084
  8
AM_0
 10
965.44890646692033
 20
389.02399777147491
 30
0.0
 11
969.44890646700048
 21
389.02399777147491
 31
0.0
  0
LINE
  5
19085
  8
AM_0
 10
965.44890646692033
 20
391.02399777151481
 30
0.0
 11
969.44890646700048
 21
391.02399777151481
 31
0.0
  0
ARC
  5
19086
  8
AM_0
 10
969.43981646700047
 20
390.01490777149462
 30
0.0
 40
1.0091312000201811
 50
0.5161299999996111
 51
89.483870000000422
  0
ARC
  5
19087
  8
AM_0
 10
969.45668646700062
 20
390.0161877714948
 30
0.0
 40
0.9922232600198446
 50
269.54915500000459
 51
0.4508500000008742
  0
LINE
  5
19088
  8
AM_0
 10
968.44890646698059
 20
390.62397777150682
 30
0.0
 11
968.44890646698059
 21
389.40400777148238
 31
0.0
  0
ARC
  5
19089
  8
AM_0
 10
965.43987646692005
 20
392.01496777153471
 30
0.0
 40
0.9910124500198204
 50
179.47800000000419
 51
270.52199999999573
  0
ARC
  5
1908A
  8
AM_0
 10
965.45678646692068
 20
388.01609777145472
 30
0.0
 40
1.007920400020158
 50
90.448489999990585
 51
179.55151000000271
  0
ARC
  5
1908B
  8
AM_0
 10
968.23565646697625
 20
409.6977677718881
 30
0.0
 40
1.006237100020124
 50
66.995379999999813
 51
90.384760000002103
  0
LINE
  5
1908C
  8
AM_0
 10
968.28890646697721
 20
408.76398777186949
 30
0.0
 11
965.44890646692033
 21
408.76398777186949
 31
0.0
  0
ARC
  5
1908D
  8
AM_0
 10
969.44936646700035
 20
409.17929777187783
 30
0.0
 40
0.999532700019991
 50
0.2681300000001557
 51
67.684949999999489
  0
LINE
  5
1908E
  8
AM_0
 10
968.58892646698337
 20
408.72397777186859
 30
0.0
 11
969.72890646700625
 21
408.3639677718615
 31
0.0
  0
ARC
  5
1908F
  8
AM_0
 10
968.30623646697757
 20
407.74900777184928
 30
0.0
 40
1.015145100020302
 50
73.832329999994457
 51
90.978379999990494
  0
LINE
  5
19090
  8
AM_0
 10
968.62889646698397
 20
410.6239777719066
 30
0.0
 11
969.82888646700815
 21
410.1039877718963
 31
0.0
  0
LINE
  5
19091
  8
AM_0
 10
968.44890646698059
 20
410.40400777190217
 30
0.0
 11
968.44890646698059
 21
409.34397777188121
 31
0.0
  0
ARC
  5
19092
  8
AM_0
 10
965.14446646691465
 20
411.3995477719223
 30
0.0
 40
0.6955789300139117
 50
179.63466000000051
 51
270.3653360000103
  0
LINE
  5
19093
  8
AM_0
 10
968.22890646697601
 20
410.70398777190832
 30
0.0
 11
965.14888646691429
 21
410.70398777190832
 31
0.0
  0
LINE
  5
19094
  8
AM_0
 10
965.44890646692033
 20
401.02399777171468
 30
0.0
 11
969.44890646700048
 21
401.02399777171468
 31
0.0
  0
ARC
  5
19095
  8
AM_0
 10
969.43981646700047
 20
400.0149077716946
 30
0.0
 40
1.0091312000201811
 50
0.5161299999996111
 51
89.483870000000422
  0
LINE
  5
19096
  8
AM_0
 10
965.44890646692033
 20
399.02399777167489
 30
0.0
 11
969.44890646700048
 21
399.02399777167489
 31
0.0
  0
ARC
  5
19097
  8
AM_0
 10
969.45668646700062
 20
400.0161877716946
 30
0.0
 40
0.9922232600198446
 50
269.54915500000459
 51
0.4508500000008742
  0
LINE
  5
19098
  8
AM_0
 10
968.44890646698059
 20
400.64399777170718
 30
0.0
 11
968.44890646698059
 21
399.28397777167982
 31
0.0
  0
ARC
  5
19099
  8
AM_0
 10
965.43987646692005
 20
402.01496777173469
 30
0.0
 40
0.9910124500198204
 50
179.47800000000419
 51
270.52199999999573
  0
ARC
  5
1909A
  8
AM_0
 10
965.45678646692068
 20
398.01609777165481
 30
0.0
 40
1.007920400020158
 50
90.448489999990585
 51
179.55151000000271
  0
ARC
  5
1909B
  8
AM_0
 10
969.44445646700046
 20
407.40064777184227
 30
0.0
 40
1.0044501000200889
 50
0.1901499999997002
 51
73.549650000003865
  0
ARC
  5
1909C
  8
AM_0
 10
965.45519646692082
 20
407.75766777184953
 30
0.0
 40
1.0063295000201249
 50
90.359249999995924
 51
179.640750000004
  0
ARC
  5
1909E
  8
AM_0
 10
939.44139646640031
 20
438.2564977724594
 30
0.0
 40
2.007501100040149
 50
0.2137000000042958
 51
89.78631000000108
  0
ARC
  5
1909F
  8
AM_0
 10
939.44374646640063
 20
436.8988277724323
 30
0.0
 40
2.0051613000401018
 50
0.147289999999717
 51
89.852710000006766
  0
ARC
  5
190A0
  8
AM_0
 10
939.44097646640023
 20
438.92830777247281
 30
0.0
 40
1.995694300039913
 50
14.97487999999842
 51
89.772649999998436
  0
ARC
  5
190A1
  8
AM_0
 10
939.43956646640027
 20
434.87465777239157
 30
0.0
 40
2.0093489000401861
 50
0.2659600000002775
 51
89.734039999999638
  0
LINE
  5
190A2
  8
AM_0
 10
918.44890646598026
 20
421.36399777212159
 30
0.0
 11
954.44890646670058
 21
419.71125749025879
 31
0.0
  0
LINE
  5
190A3
  8
AM_0
 10
957.77889646676726
 20
411.7539777719295
 30
0.0
 11
884.44890646530041
 21
411.7539777719295
 31
0.0
  0
LINE
  5
190F0
  8
AM_0
 10
884.44890646530041
 20
411.7539777719295
 30
0.0
 11
824.62889646410372
 21
411.7539777719295
 31
0.0
  0
LINE
  5
190F1
  8
AM_0
 10
884.44890646530041
 20
436.88398777243202
 30
0.0
 11
824.62889646410372
 21
436.88398777243202
 31
0.0
  0
LINE
  5
190F2
  8
AM_0
 10
939.44890646640067
 20
438.90398777247231
 30
0.0
 11
824.64913609372525
 21
438.90398777247248
 31
0.0
  0
LINE
  5
190F3
  8
AM_0
 10
939.44890646640067
 20
440.2639877724996
 30
0.0
 11
824.64913608853635
 21
440.2639877724996
 31
0.0
  0
LINE
  5
190F4
  8
AM_0
 10
939.44890646640067
 20
440.92398777251282
 30
0.0
 11
824.64913608603388
 21
440.92398777251248
 31
0.0
  0
LINE
  5
190F5
  8
AM_0
 10
918.44890646598026
 20
421.36399777212159
 30
0.0
 11
824.62889646410372
 21
421.36399777212159
 31
0.0
  0
ARC
  5
19101
  8
AM_0
 10
824.63854646380059
 20
438.24699777119469
 30
0.0
 40
2.0170177999999992
 50
90.273699999996154
 51
165.14839999999819
  0
ARC
  5
19102
  8
AM_0
 10
824.63854646380059
 20
438.90699777119471
 30
0.0
 40
2.0170177999999992
 50
90.273699999996154
 51
165.14839999999819
  0
ARC
  5
19103
  8
AM_0
 10
818.10769490149005
 20
428.04398777119468
 30
0.0
 40
2.0
 50
279.8230490397213
 51
344.98570240157858
1001
GENIUS_GENOBJ-N-FIL_13
1002
{
1000
OWNER
1000
GEN
1002
}
1001
GENIUS_GENODEF_13
1002
{
1000
HIER
1070
     0
1002
}
1002
{
1000
MANEDIT
1070
     0
1002
}
1002
{
1000
NOSEL
1070
     0
1002
}
1002
{
1000
BEHIND
1070
     0
1002
}
1002
{
1000
OTHER
1070
     0
1002
}
1002
{
1000
REACTOR
1002
}
  0
LINE
  5
19104
  8
AM_0
 10
822.68889646406535
 20
435.38399777240221
 30
0.0
 11
819.95308646401077
 21
425.1839977721981
 31
0.0
  0
LINE
  5
19105
  8
AM_0
 10
819.44890646400063
 20
425.48398777220382
 30
0.0
 11
818.44890646398051
 21
425.48398777220382
 31
0.0
  0
LINE
  5
19106
  8
AM_0
 10
819.44890646400063
 20
417.88398777205208
 30
0.0
 11
818.44890646398051
 21
417.88398777205208
 31
0.0
  0
LINE
  5
19107
  8
AM_0
 10
818.44890646398051
 20
420.90662777211247
 30
0.0
 11
819.44890646400063
 21
421.48395777212397
 31
0.0
  0
LINE
  5
19108
  8
AM_0
 10
824.62889646410372
 20
411.7539777719295
 30
0.0
 11
818.44890666572098
 21
411.7539777719295
 31
0.0
  0
ARC
  5
19109
  8
AM_0
 10
817.78804646396736
 20
422.85077777215139
 30
0.0
 40
1.4868059000297349
 50
296.38977999999901
 51
345.71726000000092
  0
LINE
  5
1910A
  8
AM_0
 10
818.44890646398051
 20
421.90662777213231
 30
0.0
 11
819.44890646400063
 21
422.48398777214402
 31
0.0
  0
LINE
  5
1910B
  8
AM_0
 10
818.44890646398051
 20
417.88398777205208
 30
0.0
 11
818.44890646398051
 21
425.48398777220382
 31
0.0
  0
LINE
  5
1910C
  8
0
  6
CONTINUOUS
 62
     7
 10
817.44890646380065
 20
412.16397753628218
 30
0.0
 11
809.44890646380065
 21
412.16397753628218
 31
0.0
  0
LINE
  5
1910D
  8
AM_0
 10
819.44890646400063
 20
425.1839877721979
 30
0.0
 11
820.34890646401846
 21
425.1839877721979
 31
0.0
  0
ARC
  5
1910E
  8
AM_0
 10
820.34890646401846
 20
423.48398777216408
 30
0.0
 40
1.700000800033999
 50
0.0000100000009905
 51
89.999979999997976
  0
LINE
  5
1910F
  8
AM_0
 10
824.62889646410372
 20
421.36399777212159
 30
0.0
 11
822.04888646405243
 21
421.36399777212159
 31
0.0
  0
LINE
  5
19110
  8
AM_0
 10
819.44890646400063
 20
418.18399777205809
 30
0.0
 11
820.34890646401846
 21
418.18399777205809
 31
0.0
  0
ARC
  5
19111
  8
AM_0
 10
820.34890646401846
 20
419.8839877720921
 30
0.0
 40
1.6999969000339989
 50
270.00000299999761
 51
359.99998000000448
  0
LINE
  5
19112
  8
AM_0
 10
822.04888646405243
 20
419.8839877720921
 30
0.0
 11
822.04888646405243
 21
423.48398777216408
 31
0.0
  0
LINE
  5
19113
  8
AM_0
 10
819.44890646400063
 20
417.88398777205208
 30
0.0
 11
819.44890646400063
 21
425.48398777220382
 31
0.0
  0
ARC
  5
19114
  8
AM_0
 10
817.43981646396026
 20
438.01490777245471
 30
0.0
 40
1.0091312000201811
 50
0.5161299999996111
 51
89.483870000000422
  0
ARC
  5
19115
  8
AM_0
 10
817.44048646396072
 20
426.05558777221529
 30
0.0
 40
1.0084445000201681
 50
9.5460700000028318
 51
89.522200000000396
  0
LINE
  5
19116
  8
AM_0
 10
820.18375011496744
 20
426.04398777119428
 30
0.0
 11
818.44890669519077
 21
426.04398777119479
 31
0.0
  0
LINE
  5
19117
  8
AM_0
 10
821.64284878163403
 20
435.52398777119453
 30
0.0
 11
818.44890671486087
 21
435.52398777119453
 31
0.0
  0
LINE
  5
19118
  8
0
  6
CONTINUOUS
 62
     7
 10
817.44890646380065
 20
439.02398753628222
 30
0.0
 11
809.44890646380065
 21
439.02398753628222
 31
0.0
  0
LINE
  5
19119
  8
0
  6
CONTINUOUS
 62
     7
 10
817.44890646380065
 20
427.06398753628241
 30
0.0
 11
809.44890646380065
 21
427.06398753628241
 31
0.0
  0
ARC
  5
1911A
  8
AM_0
 10
824.63854646380059
 20
436.88699777119467
 30
0.0
 40
2.0170177999999992
 50
90.273699999996154
 51
165.14839999999819
  0
ARC
  5
1911B
  8
AM_0
 10
824.63854646410425
 20
434.86699777239158
 30
0.0
 40
2.0170178000403398
 50
90.273699999996154
 51
165.14839999999819
  0
LINE
  5
1911C
  8
AM_0
 10
822.68889646380035
 20
439.42399777119442
 30
0.0
 11
821.13374400459202
 21
433.62587762252599
 31
0.0
  0
LINE
  5
1911D
  8
AM_0
 10
820.91330213046706
 20
432.14399777119439
 30
0.0
 11
819.20202158365669
 21
432.14399777119439
 31
0.0
  0
LINE
  5
1911E
  8
AM_0
 10
820.73091211496717
 20
430.10398777119462
 30
0.0
 11
818.8318799014902
 21
430.10398777119462
 31
0.0
  0
LINE
  5
1911F
  8
AM_0
 10
822.68889646380035
 20
437.40399777119438
 30
0.0
 11
820.03941732242515
 21
427.52586762252588
 31
0.0
  0
LINE
  5
19120
  8
AM_0
 10
822.68889646380035
 20
438.76399777119451
 30
0.0
 11
820.76360232242496
 21
431.58586762252611
 31
0.0
  0
ARC
  5
19121
  8
AM_0
 10
818.8318799014902
 20
432.10398777119428
 30
0.0
 40
2.0
 50
270.0
 51
344.98570240157858
1001
GENIUS_GENODEF_13
1002
{
1000
HIER
1070
     0
1002
}
1002
{
1000
MANEDIT
1070
     0
1002
}
1002
{
1000
NOSEL
1070
     0
1002
}
1002
{
1000
BEHIND
1070
     0
1002
}
1002
{
1000
OTHER
1070
     0
1002
}
1002
{
1000
REACTOR
1002
}
1001
GENIUS_GENOBJ-N-FIL_13
1002
{
1000
OWNER
1000
GEN
1002
}
  0
ARC
  5
19122
  8
AM_0
 10
819.20202158365669
 20
434.14399777119462
 30
0.0
 40
2.0
 50
270.0
 51
344.98570240157858
1001
GENIUS_GENOBJ-N-FIL_13
1002
{
1000
OWNER
1000
GEN
1002
}
1001
GENIUS_GENODEF_13
1002
{
1000
HIER
1070
     0
1002
}
1002
{
1000
MANEDIT
1070
     0
1002
}
1002
{
1000
NOSEL
1070
     0
1002
}
1002
{
1000
BEHIND
1070
     0
1002
}
1002
{
1000
OTHER
1070
     0
1002
}
1002
{
1000
REACTOR
1002
}
  0
LINE
  5
19123
  8
AM_0
 10
939.44890646640067
 20
436.88398777243179
 30
0.0
 11
884.44890646530041
 21
436.88398777243202
 31
0.0
  0
LINE
  5
19162
  8
AM_0
 10
964.44890646690055
 20
432.4017241024348
 30
0.0
 11
959.60891646680409
 21
432.50397777234429
 31
0.0
  0
LINE
  5
19163
  8
AM_0
 10
964.44890646690055
 20
423.36399777216138
 30
0.0
 11
954.44890646670058
 21
423.36399777216138
 31
0.0
  0
LINE
  5
19164
  8
AM_0
 10
964.44890646690055
 20
417.70398777204832
 30
0.0
 11
954.44890646670058
 21
417.70398777204832
 31
0.0
  0
ARC
  5
19165
  8
AM_0
 10
960.65773646682464
 20
427.5429377722453
 30
0.0
 40
1.498966200029979
 50
191.50367599999859
 51
269.6615320000073
  0
LINE
  5
19166
  8
AM_0
 10
958.70888646678577
 20
423.36399777216138
 30
0.0
 11
958.18889646677519
 21
426.34398777222123
 31
0.0
  0
ARC
  5
19167
  8
AM_0
 10
954.80950646670772
 20
412.6634377719476
 30
0.0
 40
6.0113902001202266
 50
93.439149999994356
 51
134.59596000000829
  0
ARC
  5
19168
  8
AM_0
 10
951.29866646663743
 20
416.2215677720186
 30
0.0
 40
1.0127641000202541
 50
134.4946600000055
 51
184.39325279999781
  0
LINE
  5
19169
  8
AM_0
 10
954.44890646670058
 20
414.5239977719848
 30
0.0
 11
954.44890646670035
 21
411.74399777192912
 31
0.0
  0
LINE
  5
1916A
  8
AM_0
 10
954.44890646670058
 20
423.36399777216138
 30
0.0
 11
954.44890646670035
 21
411.7539777719295
 31
0.0
  0
LINE
  5
1916B
  8
AM_0
 10
956.32888646673837
 20
438.32398777246078
 30
0.0
 11
942.82888646646825
 21
438.32398777246078
 31
0.0
  0
LINE
  5
1916C
  8
AM_0
 10
956.30889646673813
 20
436.68398777242783
 30
0.0
 11
942.94890646647036
 21
436.68398777242783
 31
0.0
  0
LINE
  5
1916D
  8
AM_0
 10
956.26888646673717
 20
433.28399777235978
 30
0.0
 11
942.94890646647036
 21
433.28399777235978
 31
0.0
  0
LINE
  5
1916E
  8
AM_0
 10
956.20888646673575
 20
428.00399777225448
 30
0.0
 11
942.94890646647036
 21
428.00399777225448
 31
0.0
  0
ARC
  5
1916F
  8
AM_0
 10
942.81697646646762
 20
439.82004777249051
 30
0.0
 40
1.496115700029921
 50
194.55818600000069
 51
270.45650500000249
  0
ARC
  5
19170
  8
AM_0
 10
942.94274646647034
 20
434.7778277723898
 30
0.0
 40
1.4938502000298759
 50
179.7636399999989
 51
270.23636099999129
  0
ARC
  5
19171
  8
AM_0
 10
942.94158646647031
 20
429.4966877722843
 30
0.0
 40
1.492715800029853
 50
179.7197199999994
 51
270.28027900000671
  0
ARC
  5
19172
  8
AM_0
 10
942.94475646647038
 20
438.1798677724579
 30
0.0
 40
1.4958795000299161
 50
179.8419600000008
 51
270.15804599999137
  0
LINE
  5
19173
  8
AM_0
 10
941.44890646644058
 20
436.9039877724324
 30
0.0
 11
941.44890646644058
 21
429.50399777228438
 31
0.0
  0
ARC
  5
19174
  8
AM_0
 10
956.32161646673785
 20
436.31665777242051
 30
0.0
 40
2.0073326000401459
 50
14.05006000000181
 51
89.792179999998822
  0
LINE
  5
19175
  8
AM_0
 10
960.60888646682372
 20
432.14399777233712
 30
0.0
 11
958.96889646679097
 21
432.14399777233712
 31
0.0
  0
LINE
  5
19176
  8
AM_0
 10
960.64888646682459
 20
426.04398777221508
 30
0.0
 11
958.22890646677615
 21
426.04398777221508
 31
0.0
  0
ARC
  5
19177
  8
AM_0
 10
960.63256646682441
 20
431.60738777232638
 30
0.0
 40
1.5034074000300679
 50
193.20385600000469
 51
269.86041400000022
  0
LINE
  5
19178
  8
AM_0
 10
960.62889646682424
 20
430.10398777229631
 30
0.0
 11
958.56890646678301
 21
430.10398777229631
 31
0.0
  0
ARC
  5
19179
  8
AM_0
 10
960.59905646682341
 20
433.64275777236708
 30
0.0
 40
1.4987990000299749
 50
194.63813500000211
 51
270.3765580000034
  0
LINE
  5
1917A
  8
AM_0
 10
958.22887646677623
 20
431.70397777232853
 30
0.0
 11
959.18889646679565
 21
427.24398777223911
 31
0.0
  0
ARC
  5
1917B
  8
AM_0
 10
956.21248646673575
 20
425.99743777221431
 30
0.0
 40
2.00656600004013
 50
9.9456799999998662
 51
90.102469999995733
  0
LINE
  5
1917C
  8
AM_0
 10
958.24889646677639
 20
435.14399777239709
 30
0.0
 11
959.16887646679481
 21
431.26398777231958
 31
0.0
  0
ARC
  5
1917D
  8
AM_0
 10
956.26979646673681
 20
431.27941777231979
 30
0.0
 40
2.0045698000400902
 50
12.22791000000317
 51
90.025959999996459
  0
LINE
  5
1917E
  8
AM_0
 10
958.26888646677708
 20
436.80396777243033
 30
0.0
 11
959.14888646679469
 21
433.26397777235962
 31
0.0
  0
ARC
  5
1917F
  8
AM_0
 10
956.30260646673764
 20
434.68410777238779
 30
0.0
 40
1.999890900039996
 50
13.29430000000143
 51
89.819579999998567
  0
ARC
  5
19180
  8
AM_0
 10
969.44173646700017
 20
423.03379777215503
 30
0.0
 40
1.007194200020143
 50
359.44232
 51
59.766580000002023
  0
LINE
  5
19181
  8
AM_0
 10
968.64888646698432
 20
423.50399777216433
 30
0.0
 11
969.88887646700937
 21
422.88401777215199
 31
0.0
  0
ARC
  5
19182
  8
AM_0
 10
968.15538646697485
 20
421.65287777212723
 30
0.0
 40
1.011208500020224
 50
59.481189999987812
 51
89.234310000002381
  0
LINE
  5
19183
  8
AM_0
 10
968.66890646698516
 20
424.62398777218669
 30
0.0
 11
969.94887646701034
 21
423.90400777217241
 31
0.0
  0
LINE
  5
19184
  8
AM_0
 10
968.44890646698059
 20
424.50399777218439
 30
0.0
 11
968.44890646698059
 21
423.98398777217392
 31
0.0
  0
ARC
  5
19185
  8
AM_0
 10
968.1713164669751
 20
422.61954777214657
 30
0.0
 40
1.005138300020102
 50
61.632060000003641
 51
87.857709999999443
  0
ARC
  5
19186
  8
AM_0
 10
968.15801646697457
 20
423.76223777216939
 30
0.0
 40
1.001808000020036
 50
59.338330000003573
 51
89.377179999996088
  0
ARC
  5
19187
  8
AM_0
 10
964.95525646691055
 20
423.11762777215682
 30
0.0
 40
0.506400760010128
 50
90.719699999998198
 51
179.28029999999521
  0
ARC
  5
19188
  8
AM_0
 10
964.94454646691054
 20
425.25963777219943
 30
0.0
 40
0.4956644500099134
 50
179.49662000000049
 51
270.5033810000005
  0
LINE
  5
19189
  8
AM_0
 10
968.20888646697586
 20
423.6239877721668
 30
0.0
 11
964.94890646691044
 21
423.6239877721668
 31
0.0
  0
LINE
  5
1918A
  8
AM_0
 10
968.16890646697493
 20
424.76398777218969
 30
0.0
 11
964.94890646691044
 21
424.76398777218969
 31
0.0
  0
LINE
  5
1918B
  8
AM_0
 10
968.16890646697493
 20
422.66397777214752
 30
0.0
 11
964.44890646690055
 21
422.66397777214752
 31
0.0
  0
LINE
  5
1918C
  8
AM_0
 10
968.18889646697539
 20
421.52399777212457
 30
0.0
 11
965.44890646692033
 21
421.52399777212457
 31
0.0
  0
ARC
  5
1918D
  8
AM_0
 10
968.19060646697528
 20
420.51078777210449
 30
0.0
 40
1.0131912000202621
 50
61.831239999999241
 51
90.096279999999368
  0
LINE
  5
1918E
  8
AM_0
 10
968.68889646698528
 20
417.98395777205388
 30
0.0
 11
969.98891646701145
 21
417.12397777203682
 31
0.0
  0
LINE
  5
1918F
  8
AM_0
 10
968.44890646698059
 20
417.84397777205118
 30
0.0
 11
968.44890646698059
 21
417.36399777204173
 31
0.0
  0
LINE
  5
19190
  8
AM_0
 10
968.16890646697493
 20
417.00397777203437
 30
0.0
 11
965.44890646692033
 21
417.00397777203437
 31
0.0
  0
ARC
  5
19191
  8
AM_0
 10
969.44716646700056
 20
416.2813877720198
 30
0.0
 40
1.001733900020034
 50
0.1495400000039063
 51
57.262369999995776
  0
ARC
  5
19192
  8
AM_0
 10
969.44335646700051
 20
415.25470777199928
 30
0.0
 40
1.00559290002011
 50
0.5283799999988892
 51
59.818669999992579
  0
LINE
  5
19193
  8
AM_0
 10
968.66890646698516
 20
416.86399777203161
 30
0.0
 11
969.94890646701026
 21
416.12397777201681
 31
0.0
  0
ARC
  5
19194
  8
AM_0
 10
968.15664646697485
 20
415.99732777201427
 30
0.0
 40
1.0067360000201351
 50
59.413569999998458
 51
89.301940000005473
  0
ARC
  5
19195
  8
AM_0
 10
969.44390646700026
 20
419.85297777209132
 30
0.0
 40
1.0050608000201
 50
0.6283999999989876
 51
62.441190000004852
  0
ARC
  5
19196
  8
AM_0
 10
968.14324646697435
 20
417.13367777203689
 30
0.0
 40
1.010318000020205
 50
57.311419999993312
 51
89.67986000000522
  0
ARC
  5
19197
  8
AM_0
 10
969.44991646700066
 20
420.87854777211192
 30
0.0
 40
0.99898326001998
 50
0.3123899999989826
 51
60.034640000004039
  0
LINE
  5
19198
  8
AM_0
 10
968.66887646698524
 20
421.40400777212233
 30
0.0
 11
969.90889646701009
 21
420.7439677721091
 31
0.0
  0
ARC
  5
19199
  8
AM_0
 10
965.4543064669208
 20
415.9985777720143
 30
0.0
 40
1.005422700020107
 50
90.308189999990176
 51
179.69180999999671
  0
LINE
  5
1919A
  8
AM_0
 10
968.14888646697466
 20
418.14399777205711
 30
0.0
 11
964.44890646690055
 21
418.14399777205711
 31
0.0
  0
ARC
  5
1919B
  8
AM_0
 10
965.45595646692061
 20
420.51691777210442
 30
0.0
 40
1.0070832000201411
 50
90.401579999998404
 51
179.5984200000016
  0
ARC
  5
1919C
  8
AM_0
 10
969.44585646700045
 20
421.98407777213401
 30
0.0
 40
1.0030519000200611
 50
359.99423000000229
 51
63.787349999991029
  0
LINE
  5
1919D
  8
AM_0
 10
968.66890646698516
 20
422.52396777214477
 30
0.0
 11
969.94887646701034
 21
421.74399777212921
 31
0.0
  0
LINE
  5
1919E
  8
AM_0
 10
968.44890646698059
 20
422.40400777214211
 30
0.0
 11
968.44890646698059
 21
421.86399777213148
 31
0.0
  0
CIRCLE
  5
1964E
  8
ｽﾝﾎﾟｳｾﾝ
 10
652.44893310393786
 20
357.02366873905288
 30
0.0
 40
4.0
  0
ARC
  5
1964F
  8
AM_0
 10
652.44893310393786
 20
357.02366873905288
 30
0.0
 40
16.0
 50
108.2099568642828
 51
71.790043135717227
  0
LINE
  5
19650
  8
AM_0
 10
657.44893310393786
 20
376.02366873905288
 30
0.0
 11
657.44893310393786
 21
368.02366873905288
 31
0.0
  0
LINE
  5
19651
  8
AM_0
 10
647.44893310393797
 20
368.02366873905288
 30
0.0
 11
647.44893310393797
 21
376.02366873905288
 31
0.0
  0
LINE
  5
19652
  8
AM_0
 10
657.44893310393786
 20
368.02366873905288
 30
0.0
 11
647.44893310393797
 21
368.02366873905288
 31
0.0
  0
LINE
  5
19653
  8
AM_0
 10
647.44893310393797
 20
376.02366873905288
 30
0.0
 11
657.44893310393786
 21
376.02366873905288
 31
0.0
  0
LINE
  5
197F0
  8
0
  6
CONTINUOUS
 62
     7
 10
600.81630370940672
 20
316.33389517948251
 30
0.0
 11
609.14040038909457
 21
288.58693167850612
 31
0.0
  0
LINE
  5
197F1
  8
0
  6
CONTINUOUS
 62
     7
 10
600.81630370940672
 20
397.7134575574122
 30
0.0
 11
609.14040038909457
 21
425.46041342899429
 31
0.0
  0
LINE
  5
197F7
  8
0
  6
CONTINUOUS
 62
     7
 10
774.44893310393832
 20
382.42775199100578
 30
0.0
 11
774.44893310393832
 21
331.6195854870997
 31
0.0
  0
LINE
  5
197F8
  8
0
  6
CONTINUOUS
 62
     7
 10
745.96831176604746
 20
429.02367636844741
 30
0.0
 11
706.81383178557871
 21
429.02367636844741
 31
0.0
  0
LINE
  5
197F9
  8
0
  6
CONTINUOUS
 62
     7
 10
759.08153198089099
 20
397.7134575574122
 30
0.0
 11
750.75743530120371
 21
425.46041342899429
 31
0.0
  0
ARC
  5
197FE
  8
0
  6
CONTINUOUS
 62
     7
 10
745.96831176604746
 20
424.02367636844713
 30
0.0
 40
5.0000000000000133
 50
16.699247436213241
 51
89.999997495518244
  0
ARC
  5
197FF
  8
0
  6
CONTINUOUS
 62
     7
 10
773.44893310393832
 20
402.02366873905282
 30
0.0
 40
14.99999999999998
 50
196.69924390743159
 51
258.4630411849534
  0
CIRCLE
  5
19802
  8
0
  6
CONTINUOUS
 62
     7
 10
774.44893310393832
 20
403.0236687390526
 30
0.0
 40
6.5
  0
ARC
  5
19803
  8
0
  6
CONTINUOUS
 62
     7
 10
774.44893310393832
 20
403.0236687390526
 30
0.0
 40
7.0000000000000071
 50
89.999997495524809
 51
270.00000250447522
  0
LINE
  5
19806
  8
0
  6
CONTINUOUS
 62
     7
 10
778.44893310393809
 20
405.33307883426761
 30
0.0
 11
774.44893310393832
 21
407.64247367069328
 31
0.0
  0
LINE
  5
19807
  8
0
  6
CONTINUOUS
 62
     7
 10
778.44893310393809
 20
400.71426627323251
 30
0.0
 11
774.44893310393832
 21
398.40487906620132
 31
0.0
  0
LINE
  5
19808
  8
0
  6
CONTINUOUS
 62
     7
 10
782.44893310393832
 20
410.0236763684473
 30
0.0
 11
774.44893310393832
 21
410.0236763684473
 31
0.0
  0
LINE
  5
19809
  8
0
  6
CONTINUOUS
 62
     7
 10
778.44893310393809
 20
400.71426627323251
 30
0.0
 11
778.44893310393809
 21
405.33307883426761
 31
0.0
  0
LINE
  5
1980A
  8
0
  6
CONTINUOUS
 62
     7
 10
774.44893310393832
 20
398.40487906620132
 30
0.0
 11
770.44893310393832
 21
400.71426627323251
 31
0.0
  0
LINE
  5
1980B
  8
0
  6
CONTINUOUS
 62
     7
 10
774.44893310393832
 20
407.64247367069328
 30
0.0
 11
770.44893310393832
 21
405.33307883426761
 31
0.0
  0
LINE
  5
1980C
  8
0
  6
CONTINUOUS
 62
     7
 10
770.44893310393832
 20
400.71426627323251
 30
0.0
 11
770.44893310393832
 21
405.33307883426761
 31
0.0
  0
LINE
  5
1980D
  8
0
  6
CONTINUOUS
 62
     7
 10
782.44893310393832
 20
396.02366873905282
 30
0.0
 11
774.44893310393832
 21
396.02366873905282
 31
0.0
  0
ARC
  5
1980E
  8
0
  6
CONTINUOUS
 62
     7
 10
769.44893310393786
 20
382.42775199100578
 30
0.0
 40
5.0000000000000187
 50
0.0000050089561299
 51
78.463046193907374
  0
ARC
  5
1980F
  8
0
  6
CONTINUOUS
 62
     7
 10
668.08400390471934
 20
424.02367636844713
 30
0.0
 40
5.0000000000000107
 50
14.4775098426116
 51
89.999997495518244
  0
ARC
  5
19810
  8
0
  6
CONTINUOUS
 62
     7
 10
687.44893310393832
 20
429.02367636844741
 30
0.0
 40
15.00000000000002
 50
194.47751143647409
 51
345.5224901573884
  0
ARC
  5
19811
  8
0
  6
CONTINUOUS
 62
     7
 10
706.81383178557871
 20
424.02367636844713
 30
0.0
 40
5.0000000000000044
 50
89.999997495518244
 51
165.5224885635258
  0
LINE
  5
19814
  8
0
  6
CONTINUOUS
 62
     7
 10
687.44893310393832
 20
424.40487143680679
 30
0.0
 11
683.4489331039382
 21
426.7142739026271
 31
0.0
  0
LINE
  5
19815
  8
0
  6
CONTINUOUS
 62
     7
 10
687.44893310393832
 20
433.64247367069351
 30
0.0
 11
683.4489331039382
 21
431.33307883426772
 31
0.0
  0
CIRCLE
  5
19816
  8
0
  6
CONTINUOUS
 62
     7
 10
687.44893310393832
 20
429.02367636844741
 30
0.0
 40
6.5
  0
ARC
  5
19817
  8
0
  6
CONTINUOUS
 62
     7
 10
687.44893310393832
 20
429.02367636844741
 30
0.0
 40
7.0
 50
180.0
 51
0.0000050089561299
  0
LINE
  5
19818
  8
0
  6
CONTINUOUS
 62
     7
 10
691.44893310393809
 20
426.7142739026271
 30
0.0
 11
691.44893310393809
 21
431.33307883426772
 31
0.0
  0
LINE
  5
1981B
  8
0
  6
CONTINUOUS
 62
     7
 10
694.44893310393786
 20
437.02367636844752
 30
0.0
 11
694.44893310393786
 21
429.02367636844741
 31
0.0
  0
LINE
  5
1981C
  8
0
  6
CONTINUOUS
 62
     7
 10
691.44893310393809
 20
431.33307883426772
 30
0.0
 11
687.44893310393832
 21
433.64247367069351
 31
0.0
  0
LINE
  5
1981D
  8
0
  6
CONTINUOUS
 62
     7
 10
691.44893310393809
 20
426.7142739026271
 30
0.0
 11
687.44893310393832
 21
424.40487143680679
 31
0.0
  0
LINE
  5
1981E
  8
0
  6
CONTINUOUS
 62
     7
 10
683.4489331039382
 20
426.7142739026271
 30
0.0
 11
683.4489331039382
 21
431.33307883426772
 31
0.0
  0
LINE
  5
1981F
  8
0
  6
CONTINUOUS
 62
     7
 10
680.44893310393809
 20
437.02367636844752
 30
0.0
 11
680.44893310393809
 21
429.02367636844741
 31
0.0
  0
LINE
  5
19820
  8
0
  6
CONTINUOUS
 62
     7
 10
668.08400390471934
 20
429.02367636844741
 30
0.0
 11
613.92952392425025
 21
429.02367636844741
 31
0.0
  0
ARC
  5
19821
  8
0
  6
CONTINUOUS
 62
     7
 10
613.92952392425025
 20
424.02367636844752
 30
0.0
 40
5.0000000000000044
 50
89.999997495518244
 51
163.30075609256821
  0
LINE
  5
19822
  8
0
  6
CONTINUOUS
 62
     7
 10
745.96831176604746
 20
285.02366873905299
 30
0.0
 11
706.81383178557871
 21
285.02366873905299
 31
0.0
  0
LINE
  5
19823
  8
0
  6
CONTINUOUS
 62
     7
 10
759.08153198089099
 20
316.33389517948251
 30
0.0
 11
750.75743530120371
 21
288.58693167850578
 31
0.0
  0
ARC
  5
19829
  8
0
  6
CONTINUOUS
 62
     7
 10
773.44893310393832
 20
312.02366873905299
 30
0.0
 40
15.000000000000011
 50
101.5369588150466
 51
163.30075609256821
  0
LINE
  5
1982B
  8
0
  6
CONTINUOUS
 62
     7
 10
770.44893310393832
 20
308.71426627323251
 30
0.0
 11
770.44893310393832
 21
313.33307120487308
 31
0.0
  0
LINE
  5
1982C
  8
0
  6
CONTINUOUS
 62
     7
 10
778.44893310393809
 20
308.71426627323251
 30
0.0
 11
778.44893310393809
 21
313.33307120487308
 31
0.0
  0
CIRCLE
  5
1982F
  8
0
  6
CONTINUOUS
 62
     7
 10
774.44893310393832
 20
311.02366873905288
 30
0.0
 40
6.5
  0
ARC
  5
19830
  8
0
  6
CONTINUOUS
 62
     7
 10
774.44893310393832
 20
311.02366873905288
 30
0.0
 40
7.0000000000000071
 50
89.999997495524809
 51
270.00000250447522
  0
LINE
  5
19831
  8
0
  6
CONTINUOUS
 62
     7
 10
778.44893310393809
 20
313.33307120487308
 30
0.0
 11
774.44893310393832
 21
315.64247367069362
 31
0.0
  0
LINE
  5
19832
  8
0
  6
CONTINUOUS
 62
     7
 10
782.44893310393832
 20
318.02366873905288
 30
0.0
 11
774.44893310393832
 21
318.02366873905288
 31
0.0
  0
ARC
  5
19833
  8
0
  6
CONTINUOUS
 62
     7
 10
769.44893310393786
 20
331.6195854870997
 30
0.0
 40
5.0
 50
281.53695699381427
 51
0.0000050089561299
  0
LINE
  5
19834
  8
0
  6
CONTINUOUS
 62
     7
 10
774.44893310393832
 20
315.64247367069362
 30
0.0
 11
770.44893310393832
 21
313.33307120487308
 31
0.0
  0
LINE
  5
19835
  8
0
  6
CONTINUOUS
 62
     7
 10
782.44893310393832
 20
304.02366873905288
 30
0.0
 11
774.44893310393832
 21
304.02366873905288
 31
0.0
  0
LINE
  5
19838
  8
0
  6
CONTINUOUS
 62
     7
 10
778.44893310393809
 20
308.71426627323251
 30
0.0
 11
774.44893310393832
 21
306.40487906620137
 31
0.0
  0
LINE
  5
19839
  8
0
  6
CONTINUOUS
 62
     7
 10
774.44893310393832
 20
306.40487906620137
 30
0.0
 11
770.44893310393832
 21
308.71426627323251
 31
0.0
  0
ARC
  5
1983A
  8
0
  6
CONTINUOUS
 62
     7
 10
745.96831176604746
 20
290.02366873905288
 30
0.0
 40
5.0000000000000044
 50
270.00000250447522
 51
343.30075256378677
  0
CIRCLE
  5
1983D
  8
0
  6
CONTINUOUS
 62
     7
 10
687.44893310393832
 20
285.02366873905299
 30
0.0
 40
6.5
  0
ARC
  5
1983E
  8
0
  6
CONTINUOUS
 62
     7
 10
687.44893310393832
 20
285.02366873905299
 30
0.0
 40
7.0000000000000258
 50
0.0000050089553305
 51
180.00001001791219
  0
ARC
  5
1983F
  8
0
  6
CONTINUOUS
 62
     7
 10
687.44893310393832
 20
285.02366873905299
 30
0.0
 40
14.999999999999989
 50
14.4775098426116
 51
165.5224885635258
  0
ARC
  5
19844
  8
0
  6
CONTINUOUS
 62
     7
 10
668.08400390471934
 20
290.02366873905288
 30
0.0
 40
5.0000000000000044
 50
270.00000250447522
 51
345.5224901573884
  0
ARC
  5
19845
  8
0
  6
CONTINUOUS
 62
     7
 10
706.81383178557871
 20
290.02366873905288
 30
0.0
 40
5.0000000000000231
 50
194.47751143647409
 51
270.00000250447522
  0
LINE
  5
19846
  8
0
  6
CONTINUOUS
 62
     7
 10
687.44893310393832
 20
280.40487906620137
 30
0.0
 11
683.4489331039382
 21
282.71426627323251
 31
0.0
  0
LINE
  5
19848
  8
0
  6
CONTINUOUS
 62
     7
 10
687.44893310393832
 20
289.64247367069362
 30
0.0
 11
683.4489331039382
 21
287.33307120487308
 31
0.0
  0
LINE
  5
1984A
  8
0
  6
CONTINUOUS
 62
     7
 10
694.44893310393786
 20
277.02366873905288
 30
0.0
 11
694.44893310393786
 21
285.02366873905299
 31
0.0
  0
LINE
  5
1984B
  8
0
  6
CONTINUOUS
 62
     7
 10
691.44893310393809
 20
282.71426627323251
 30
0.0
 11
687.44893310393832
 21
280.40487906620137
 31
0.0
  0
LINE
  5
1984C
  8
0
  6
CONTINUOUS
 62
     7
 10
691.44893310393809
 20
287.33307120487308
 30
0.0
 11
687.44893310393832
 21
289.64247367069362
 31
0.0
  0
LINE
  5
1984D
  8
0
  6
CONTINUOUS
 62
     7
 10
691.44893310393809
 20
282.71426627323251
 30
0.0
 11
691.44893310393809
 21
287.33307120487308
 31
0.0
  0
LINE
  5
1984E
  8
0
  6
CONTINUOUS
 62
     7
 10
680.44893310393809
 20
277.02366873905288
 30
0.0
 11
680.44893310393809
 21
285.02366873905299
 31
0.0
  0
LINE
  5
1984F
  8
0
  6
CONTINUOUS
 62
     7
 10
683.4489331039382
 20
282.71426627323251
 30
0.0
 11
683.4489331039382
 21
287.33307120487308
 31
0.0
  0
LINE
  5
19850
  8
0
  6
CONTINUOUS
 62
     7
 10
668.08400390471934
 20
285.02366873905299
 30
0.0
 11
613.92952392425025
 21
285.02366873905299
 31
0.0
  0
ARC
  5
19851
  8
0
  6
CONTINUOUS
 62
     7
 10
613.92952392425025
 20
290.02366873905288
 30
0.0
 40
4.999999999999976
 50
196.69924390743159
 51
270.00000250447522
  0
LINE
  5
19853
  8
0
  6
CONTINUOUS
 62
     7
 10
585.44893310393809
 20
382.42775199100612
 30
0.0
 11
585.44893310393809
 21
331.6195854870997
 31
0.0
  0
CIRCLE
  5
1985A
  8
0
  6
CONTINUOUS
 62
     7
 10
585.44893310393809
 20
403.0236687390526
 30
0.0
 40
6.5
  0
ARC
  5
1985B
  8
0
  6
CONTINUOUS
 62
     7
 10
585.44893310393809
 20
403.0236687390526
 30
0.0
 40
7.0000000000000071
 50
270.00000250447522
 51
90.000000683242973
  0
LINE
  5
1985E
  8
0
  6
CONTINUOUS
 62
     7
 10
577.4489178451488
 20
410.0236763684473
 30
0.0
 11
585.44893310393809
 21
410.0236763684473
 31
0.0
  0
LINE
  5
1985F
  8
0
  6
CONTINUOUS
 62
     7
 10
585.44893310393809
 20
398.40487906620132
 30
0.0
 11
581.44891784514903
 21
400.71426627323251
 31
0.0
  0
LINE
  5
19860
  8
0
  6
CONTINUOUS
 62
     7
 10
585.44893310393809
 20
407.64247367069339
 30
0.0
 11
581.44891784514903
 21
405.33307883426778
 31
0.0
  0
LINE
  5
19861
  8
0
  6
CONTINUOUS
 62
     7
 10
589.44893310393786
 20
400.71426627323251
 30
0.0
 11
585.44893310393809
 21
398.40487906620132
 31
0.0
  0
LINE
  5
19862
  8
0
  6
CONTINUOUS
 62
     7
 10
589.44893310393786
 20
405.33307883426778
 30
0.0
 11
585.44893310393809
 21
407.64247367069339
 31
0.0
  0
LINE
  5
19863
  8
0
  6
CONTINUOUS
 62
     7
 10
589.44893310393786
 20
400.71426627323251
 30
0.0
 11
589.44893310393786
 21
405.33307883426778
 31
0.0
  0
LINE
  5
19864
  8
0
  6
CONTINUOUS
 62
     7
 10
581.44891784514903
 20
400.71426627323251
 30
0.0
 11
581.44891784514903
 21
405.33307883426778
 31
0.0
  0
ARC
  5
19865
  8
0
  6
CONTINUOUS
 62
     7
 10
586.44893310393786
 20
402.02366873905282
 30
0.0
 40
14.999999999999989
 50
281.53695699381427
 51
343.30075256378677
  0
ARC
  5
19866
  8
0
  6
CONTINUOUS
 62
     7
 10
590.4489331039382
 20
382.42775199100578
 30
0.0
 40
5.0000000000000071
 50
101.5369588150466
 51
180.0
  0
LINE
  5
19867
  8
0
  6
CONTINUOUS
 62
     7
 10
577.4489178451488
 20
396.02366873905299
 30
0.0
 11
585.44893310393809
 21
396.02366873905299
 31
0.0
  0
LINE
  5
1986A
  8
0
  6
CONTINUOUS
 62
     7
 10
581.44891784514903
 20
308.71426627323251
 30
0.0
 11
581.44891784514903
 21
313.33307120487308
 31
0.0
  0
LINE
  5
1986B
  8
0
  6
CONTINUOUS
 62
     7
 10
589.44893310393786
 20
308.71426627323251
 30
0.0
 11
589.44893310393786
 21
313.33307120487308
 31
0.0
  0
CIRCLE
  5
1986E
  8
0
  6
CONTINUOUS
 62
     7
 10
585.44893310393809
 20
311.02366873905288
 30
0.0
 40
6.5
  0
ARC
  5
1986F
  8
0
  6
CONTINUOUS
 62
     7
 10
585.44893310393809
 20
311.02366873905288
 30
0.0
 40
7.0000000000000071
 50
270.00000250447522
 51
90.000000683242973
  0
ARC
  5
19870
  8
0
  6
CONTINUOUS
 62
     7
 10
586.44893310393786
 20
312.02366873905299
 30
0.0
 40
14.999999999999989
 50
16.699247436213241
 51
78.463043006185771
  0
ARC
  5
19871
  8
0
  6
CONTINUOUS
 62
     7
 10
590.4489331039382
 20
331.6195854870997
 30
0.0
 40
5.0
 50
180.0
 51
258.4630411849534
  0
LINE
  5
19872
  8
0
  6
CONTINUOUS
 62
     7
 10
585.44893310393809
 20
315.64247367069362
 30
0.0
 11
581.44891784514903
 21
313.33307120487308
 31
0.0
  0
LINE
  5
19873
  8
0
  6
CONTINUOUS
 62
     7
 10
577.4489178451488
 20
318.02366873905288
 30
0.0
 11
585.44893310393809
 21
318.02366873905288
 31
0.0
  0
LINE
  5
19874
  8
0
  6
CONTINUOUS
 62
     7
 10
589.44893310393786
 20
313.33307120487308
 30
0.0
 11
585.44893310393809
 21
315.64247367069362
 31
0.0
  0
LINE
  5
19877
  8
0
  6
CONTINUOUS
 62
     7
 10
577.4489178451488
 20
304.02366873905288
 30
0.0
 11
585.44893310393809
 21
304.02366873905288
 31
0.0
  0
LINE
  5
19878
  8
0
  6
CONTINUOUS
 62
     7
 10
585.44893310393809
 20
306.40487906620137
 30
0.0
 11
581.44891784514903
 21
308.71426627323251
 31
0.0
  0
LINE
  5
19879
  8
0
  6
CONTINUOUS
 62
     7
 10
589.44893310393786
 20
308.71426627323251
 30
0.0
 11
585.44893310393809
 21
306.40487906620137
 31
0.0
  0
CIRCLE
  5
1987A
  8
0
 10
652.44893310393786
 20
357.02366873905288
 30
0.0
 40
49.999999500000001
  0
LINE
  5
19ABE
  8
ﾁｭｳｼﾝｾﾝ1
 10
652.44893310393786
 20
442.02527112488622
 30
0.0
 11
652.44893310393786
 21
272.02206635321971
 31
0.0
  0
LINE
  5
19AC0
  8
AM_0
 10
577.44893086726393
 20
422.02497067754302
 30
0.0
 11
577.44893086726393
 21
292.02236680056359
 31
0.0
  0
LINE
  5
19AC2
  8
AM_0
 10
798.44890646358056
 20
313.52403927463541
 30
0.0
 11
798.44890646358056
 21
436.5240192770957
 31
0.0
  0
LINE
  5
19AC4
  8
AM_0
 10
789.53838328915253
 20
329.29531063685693
 30
0.0
 11
789.53838328915117
 21
420.75274791487391
 31
0.0
  0
ARC
  5
19AC5
  8
AM_0
 10
395.2903799295143
 20
375.02402927587087
 30
0.0
 40
397.24800335969758
 50
353.33928567968309
 51
6.6607143203168917
  0
LINE
  5
19AC6
  8
AM_0
 10
782.44890646326076
 20
422.02497067754302
 30
0.0
 11
782.44890646326076
 21
292.02236680056359
 31
0.0
  0
LINE
  5
19ACA
  8
ﾁｭｳｼﾝｾﾝ1
 10
786.14990461084153
 20
357.02366873905311
 30
0.0
 11
572.44893086726393
 21
357.02366873905311
 31
0.0
  0
LINE
  5
19ACB
  8
AM_0
 10
767.44890601592624
 20
277.02206635321988
 30
0.0
 11
592.44893131459855
 21
277.02206635321988
 31
0.0
  0
POLYLINE
  5
19ACC
  8
AM_0
 10
782.4489064632611
 20
292.02236548919547
 30
0.0
 66
     1
 70
     8
  0
VERTEX
  8
AM_0
  5
1AEA1
 10
782.449
 20
292.022
 30
0.000000
  70
    32
  0
VERTEX
  8
AM_0
  5
1AEA2
 10
782.448
 20
291.838
 30
0.000000
  70
    32
  0
VERTEX
  8
AM_0
  5
1AEA3
 10
782.444
 20
291.654
 30
0.000000
  70
    32
  0
VERTEX
  8
AM_0
  5
1AEA4
 10
782.439
 20
291.470
 30
0.000000
  70
    32
  0
VERTEX
  8
AM_0
  5
1AEA5
 10
782.431
 20
291.286
 30
0.000000
  70
    32
  0
VERTEX
  8
AM_0
  5
1AEA6
 10
782.421
 20
291.103
 30
0.000000
  70
    32
  0
VERTEX
  8
AM_0
  5
1AEA7
 10
782.408
 20
290.919
 30
0.000000
  70
    32
  0
VERTEX
  8
AM_0
  5
1AEA8
 10
782.394
 20
290.735
 30
0.000000
  70
    32
  0
VERTEX
  8
AM_0
  5
1AEA9
 10
782.377
 20
290.552
 30
0.000000
  70
    32
  0
VERTEX
  8
AM_0
  5
1AEAA
 10
782.358
 20
290.369
 30
0.000000
  70
    32
  0
VERTEX
  8
AM_0
  5
1AEAB
 10
782.336
 20
290.186
 30
0.000000
  70
    32
  0
VERTEX
  8
AM_0
  5
1AEAC
 10
782.312
 20
290.004
 30
0.000000
  70
    32
  0
VERTEX
  8
AM_0
  5
1AEAD
 10
782.287
 20
289.821
 30
0.000000
  70
    32
  0
VERTEX
  8
AM_0
  5
1AEAE
 10
782.258
 20
289.639
 30
0.000000
  70
    32
  0
VERTEX
  8
AM_0
  5
1AEAF
 10
782.228
 20
289.458
 30
0.000000
  70
    32
  0
VERTEX
  8
AM_0
  5
1AEB0
 10
782.195
 20
289.277
 30
0.000000
  70
    32
  0
VERTEX
  8
AM_0
  5
1AEB1
 10
782.161
 20
289.096
 30
0.000000
  70
    32
  0
VERTEX
  8
AM_0
  5
1AEB2
 10
782.124
 20
288.916
 30
0.000000
  70
    32
  0
VERTEX
  8
AM_0
  5
1AEB3
 10
782.084
 20
288.736
 30
0.000000
  70
    32
  0
VERTEX
  8
AM_0
  5
1AEB4
 10
782.043
 20
288.556
 30
0.000000
  70
    32
  0
VERTEX
  8
AM_0
  5
1AEB5
 10
781.999
 20
288.378
 30
0.000000
  70
    32
  0
VERTEX
  8
AM_0
  5
1AEB6
 10
781.954
 20
288.199
 30
0.000000
  70
    32
  0
VERTEX
  8
AM_0
  5
1AEB7
 10
781.906
 20
288.022
 30
0.000000
  70
    32
  0
VERTEX
  8
AM_0
  5
1AEB8
 10
781.855
 20
287.844
 30
0.000000
  70
    32
  0
VERTEX
  8
AM_0
  5
1AEB9
 10
781.803
 20
287.668
 30
0.000000
  70
    32
  0
VERTEX
  8
AM_0
  5
1AEBA
 10
781.748
 20
287.492
 30
0.000000
  70
    32
  0
VERTEX
  8
AM_0
  5
1AEBB
 10
781.692
 20
287.317
 30
0.000000
  70
    32
  0
VERTEX
  8
AM_0
  5
1AEBC
 10
781.633
 20
287.143
 30
0.000000
  70
    32
  0
VERTEX
  8
AM_0
  5
1AEBD
 10
781.572
 20
286.969
 30
0.000000
  70
    32
  0
VERTEX
  8
AM_0
  5
1AEBE
 10
781.509
 20
286.796
 30
0.000000
  70
    32
  0
VERTEX
  8
AM_0
  5
1AEBF
 10
781.444
 20
286.624
 30
0.000000
  70
    32
  0
VERTEX
  8
AM_0
  5
1AEC0
 10
781.376
 20
286.452
 30
0.000000
  70
    32
  0
VERTEX
  8
AM_0
  5
1AEC1
 10
781.307
 20
286.282
 30
0.000000
  70
    32
  0
VERTEX
  8
AM_0
  5
1AEC2
 10
781.236
 20
286.112
 30
0.000000
  70
    32
  0
VERTEX
  8
AM_0
  5
1AEC3
 10
781.162
 20
285.944
 30
0.000000
  70
    32
  0
VERTEX
  8
AM_0
  5
1AEC4
 10
781.086
 20
285.776
 30
0.000000
  70
    32
  0
VERTEX
  8
AM_0
  5
1AEC5
 10
781.009
 20
285.609
 30
0.000000
  70
    32
  0
VERTEX
  8
AM_0
  5
1AEC6
 10
780.929
 20
285.443
 30
0.000000
  70
    32
  0
VERTEX
  8
AM_0
  5
1AEC7
 10
780.847
 20
285.278
 30
0.000000
  70
    32
  0
VERTEX
  8
AM_0
  5
1AEC8
 10
780.764
 20
285.114
 30
0.000000
  70
    32
  0
VERTEX
  8
AM_0
  5
1AEC9
 10
780.678
 20
284.951
 30
0.000000
  70
    32
  0
VERTEX
  8
AM_0
  5
1AECA
 10
780.590
 20
284.789
 30
0.000000
  70
    32
  0
VERTEX
  8
AM_0
  5
1AECB
 10
780.500
 20
284.629
 30
0.000000
  70
    32
  0
VERTEX
  8
AM_0
  5
1AECC
 10
780.408
 20
284.469
 30
0.000000
  70
    32
  0
VERTEX
  8
AM_0
  5
1AECD
 10
780.315
 20
284.311
 30
0.000000
  70
    32
  0
VERTEX
  8
AM_0
  5
1AECE
 10
780.219
 20
284.153
 30
0.000000
  70
    32
  0
VERTEX
  8
AM_0
  5
1AECF
 10
780.122
 20
283.997
 30
0.000000
  70
    32
  0
VERTEX
  8
AM_0
  5
1AED0
 10
780.022
 20
283.842
 30
0.000000
  70
    32
  0
VERTEX
  8
AM_0
  5
1AED1
 10
779.921
 20
283.689
 30
0.000000
  70
    32
  0
VERTEX
  8
AM_0
  5
1AED2
 10
779.818
 20
283.536
 30
0.000000
  70
    32
  0
VERTEX
  8
AM_0
  5
1AED3
 10
779.713
 20
283.385
 30
0.000000
  70
    32
  0
VERTEX
  8
AM_0
  5
1AED4
 10
779.606
 20
283.235
 30
0.000000
  70
    32
  0
VERTEX
  8
AM_0
  5
1AED5
 10
779.497
 20
283.087
 30
0.000000
  70
    32
  0
VERTEX
  8
AM_0
  5
1AED6
 10
779.386
 20
282.940
 30
0.000000
  70
    32
  0
VERTEX
  8
AM_0
  5
1AED7
 10
779.274
 20
282.794
 30
0.000000
  70
    32
  0
VERTEX
  8
AM_0
  5
1AED8
 10
779.160
 20
282.649
 30
0.000000
  70
    32
  0
VERTEX
  8
AM_0
  5
1AED9
 10
779.044
 20
282.506
 30
0.000000
  70
    32
  0
VERTEX
  8
AM_0
  5
1AEDA
 10
778.926
 20
282.365
 30
0.000000
  70
    32
  0
VERTEX
  8
AM_0
  5
1AEDB
 10
778.807
 20
282.225
 30
0.000000
  70
    32
  0
VERTEX
  8
AM_0
  5
1AEDC
 10
778.686
 20
282.086
 30
0.000000
  70
    32
  0
VERTEX
  8
AM_0
  5
1AEDD
 10
778.563
 20
281.949
 30
0.000000
  70
    32
  0
VERTEX
  8
AM_0
  5
1AEDE
 10
778.439
 20
281.813
 30
0.000000
  70
    32
  0
VERTEX
  8
AM_0
  5
1AEDF
 10
778.313
 20
281.679
 30
0.000000
  70
    32
  0
VERTEX
  8
AM_0
  5
1AEE0
 10
778.185
 20
281.547
 30
0.000000
  70
    32
  0
VERTEX
  8
AM_0
  5
1AEE1
 10
778.056
 20
281.416
 30
0.000000
  70
    32
  0
VERTEX
  8
AM_0
  5
1AEE2
 10
777.925
 20
281.286
 30
0.000000
  70
    32
  0
VERTEX
  8
AM_0
  5
1AEE3
 10
777.792
 20
281.158
 30
0.000000
  70
    32
  0
VERTEX
  8
AM_0
  5
1AEE4
 10
777.658
 20
281.032
 30
0.000000
  70
    32
  0
VERTEX
  8
AM_0
  5
1AEE5
 10
777.522
 20
280.908
 30
0.000000
  70
    32
  0
VERTEX
  8
AM_0
  5
1AEE6
 10
777.385
 20
280.785
 30
0.000000
  70
    32
  0
VERTEX
  8
AM_0
  5
1AEE7
 10
777.246
 20
280.664
 30
0.000000
  70
    32
  0
VERTEX
  8
AM_0
  5
1AEE8
 10
777.106
 20
280.545
 30
0.000000
  70
    32
  0
VERTEX
  8
AM_0
  5
1AEE9
 10
776.965
 20
280.427
 30
0.000000
  70
    32
  0
VERTEX
  8
AM_0
  5
1AEEA
 10
776.822
 20
280.311
 30
0.000000
  70
    32
  0
VERTEX
  8
AM_0
  5
1AEEB
 10
776.677
 20
280.197
 30
0.000000
  70
    32
  0
VERTEX
  8
AM_0
  5
1AEEC
 10
776.532
 20
280.085
 30
0.000000
  70
    32
  0
VERTEX
  8
AM_0
  5
1AEED
 10
776.384
 20
279.974
 30
0.000000
  70
    32
  0
VERTEX
  8
AM_0
  5
1AEEE
 10
776.236
 20
279.865
 30
0.000000
  70
    32
  0
VERTEX
  8
AM_0
  5
1AEEF
 10
776.086
 20
279.758
 30
0.000000
  70
    32
  0
VERTEX
  8
AM_0
  5
1AEF0
 10
775.935
 20
279.653
 30
0.000000
  70
    32
  0
VERTEX
  8
AM_0
  5
1AEF1
 10
775.782
 20
279.550
 30
0.000000
  70
    32
  0
VERTEX
  8
AM_0
  5
1AEF2
 10
775.629
 20
279.449
 30
0.000000
  70
    32
  0
VERTEX
  8
AM_0
  5
1AEF3
 10
775.474
 20
279.349
 30
0.000000
  70
    32
  0
VERTEX
  8
AM_0
  5
1AEF4
 10
775.318
 20
279.252
 30
0.000000
  70
    32
  0
VERTEX
  8
AM_0
  5
1AEF5
 10
775.160
 20
279.156
 30
0.000000
  70
    32
  0
VERTEX
  8
AM_0
  5
1AEF6
 10
775.002
 20
279.063
 30
0.000000
  70
    32
  0
VERTEX
  8
AM_0
  5
1AEF7
 10
774.842
 20
278.971
 30
0.000000
  70
    32
  0
VERTEX
  8
AM_0
  5
1AEF8
 10
774.682
 20
278.881
 30
0.000000
  70
    32
  0
VERTEX
  8
AM_0
  5
1AEF9
 10
774.520
 20
278.793
 30
0.000000
  70
    32
  0
VERTEX
  8
AM_0
  5
1AEFA
 10
774.357
 20
278.708
 30
0.000000
  70
    32
  0
VERTEX
  8
AM_0
  5
1AEFB
 10
774.193
 20
278.624
 30
0.000000
  70
    32
  0
VERTEX
  8
AM_0
  5
1AEFC
 10
774.028
 20
278.542
 30
0.000000
  70
    32
  0
VERTEX
  8
AM_0
  5
1AEFD
 10
773.862
 20
278.462
 30
0.000000
  70
    32
  0
VERTEX
  8
AM_0
  5
1AEFE
 10
773.695
 20
278.385
 30
0.000000
  70
    32
  0
VERTEX
  8
AM_0
  5
1AEFF
 10
773.528
 20
278.309
 30
0.000000
  70
    32
  0
VERTEX
  8
AM_0
  5
1AF00
 10
773.359
 20
278.235
 30
0.000000
  70
    32
  0
VERTEX
  8
AM_0
  5
1AF01
 10
773.189
 20
278.164
 30
0.000000
  70
    32
  0
VERTEX
  8
AM_0
  5
1AF02
 10
773.019
 20
278.094
 30
0.000000
  70
    32
  0
VERTEX
  8
AM_0
  5
1AF03
 10
772.847
 20
278.027
 30
0.000000
  70
    32
  0
VERTEX
  8
AM_0
  5
1AF04
 10
772.675
 20
277.962
 30
0.000000
  70
    32
  0
VERTEX
  8
AM_0
  5
1AF05
 10
772.502
 20
277.899
 30
0.000000
  70
    32
  0
VERTEX
  8
AM_0
  5
1AF06
 10
772.329
 20
277.838
 30
0.000000
  70
    32
  0
VERTEX
  8
AM_0
  5
1AF07
 10
772.154
 20
277.779
 30
0.000000
  70
    32
  0
VERTEX
  8
AM_0
  5
1AF08
 10
771.979
 20
277.722
 30
0.000000
  70
    32
  0
VERTEX
  8
AM_0
  5
1AF09
 10
771.803
 20
277.668
 30
0.000000
  70
    32
  0
VERTEX
  8
AM_0
  5
1AF0A
 10
771.627
 20
277.616
 30
0.000000
  70
    32
  0
VERTEX
  8
AM_0
  5
1AF0B
 10
771.450
 20
277.565
 30
0.000000
  70
    32
  0
VERTEX
  8
AM_0
  5
1AF0C
 10
771.272
 20
277.517
 30
0.000000
  70
    32
  0
VERTEX
  8
AM_0
  5
1AF0D
 10
771.094
 20
277.472
 30
0.000000
  70
    32
  0
VERTEX
  8
AM_0
  5
1AF0E
 10
770.915
 20
277.428
 30
0.000000
  70
    32
  0
VERTEX
  8
AM_0
  5
1AF0F
 10
770.735
 20
277.387
 30
0.000000
  70
    32
  0
VERTEX
  8
AM_0
  5
1AF10
 10
770.556
 20
277.347
 30
0.000000
  70
    32
  0
VERTEX
  8
AM_0
  5
1AF11
 10
770.375
 20
277.310
 30
0.000000
  70
    32
  0
VERTEX
  8
AM_0
  5
1AF12
 10
770.195
 20
277.275
 30
0.000000
  70
    32
  0
VERTEX
  8
AM_0
  5
1AF13
 10
770.013
 20
277.243
 30
0.000000
  70
    32
  0
VERTEX
  8
AM_0
  5
1AF14
 10
769.832
 20
277.213
 30
0.000000
  70
    32
  0
VERTEX
  8
AM_0
  5
1AF15
 10
769.650
 20
277.184
 30
0.000000
  70
    32
  0
VERTEX
  8
AM_0
  5
1AF16
 10
769.468
 20
277.159
 30
0.000000
  70
    32
  0
VERTEX
  8
AM_0
  5
1AF17
 10
769.285
 20
277.135
 30
0.000000
  70
    32
  0
VERTEX
  8
AM_0
  5
1AF18
 10
769.102
 20
277.113
 30
0.000000
  70
    32
  0
VERTEX
  8
AM_0
  5
1AF19
 10
768.919
 20
277.094
 30
0.000000
  70
    32
  0
VERTEX
  8
AM_0
  5
1AF1A
 10
768.736
 20
277.077
 30
0.000000
  70
    32
  0
VERTEX
  8
AM_0
  5
1AF1B
 10
768.552
 20
277.063
 30
0.000000
  70
    32
  0
VERTEX
  8
AM_0
  5
1AF1C
 10
768.369
 20
277.050
 30
0.000000
  70
    32
  0
VERTEX
  8
AM_0
  5
1AF1D
 10
768.185
 20
277.040
 30
0.000000
  70
    32
  0
VERTEX
  8
AM_0
  5
1AF1E
 10
768.001
 20
277.032
 30
0.000000
  70
    32
  0
VERTEX
  8
AM_0
  5
1AF1F
 10
767.817
 20
277.027
 30
0.000000
  70
    32
  0
VERTEX
  8
AM_0
  5
1AF20
 10
767.633
 20
277.023
 30
0.000000
  70
    32
  0
VERTEX
  8
AM_0
  5
1AF21
 10
767.449
 20
277.022
 30
0.000000
  70
    32
  0
SEQEND
  8
AM_0
  5
1AF22
  0
LINE
  5
19ACD
  8
AM_0
 10
795.44890646352064
 20
313.52403927463541
 30
0.0
 11
785.44890646332044
 21
313.52403927463541
 31
0.0
  0
LINE
  5
19ACE
  8
AM_0
 10
809.44890646380065
 20
311.02403927458528
 30
0.0
 11
800.32230363602253
 21
311.02403927458528
 31
0.0
  0
LINE
  5
19ACF
  8
AM_0
 10
809.44890646380065
 20
311.02399927458538
 30
0.0
 11
809.44890646380065
 21
315.02399927466553
 31
0.0
  0
ARC
  5
19AD0
  8
AM_0
 10
800.32230363602253
 20
314.0240392746453
 30
0.0
 40
3.00000000006
 50
215.68533471266181
 51
270.0
1001
GENIUS_GENOBJ-N-FIL_13
1002
{
1000
OWNER
1000
GEN
1002
}
1001
GENIUS_GENODEF_13
1002
{
1000
HIER
1070
     0
1002
}
1002
{
1000
MANEDIT
1070
     0
1002
}
1002
{
1000
NOSEL
1070
     0
1002
}
1002
{
1000
BEHIND
1070
     0
1002
}
1002
{
1000
OTHER
1070
     0
1002
}
1002
{
1000
REACTOR
1002
}
  0
ARC
  5
19AD1
  8
AM_0
 10
795.44890646352064
 20
310.52403927457527
 30
0.0
 40
3.00000000006
 50
35.68533471266182
 51
90.0
1001
GENIUS_GENOBJ-N-FIL_13
1002
{
1000
OWNER
1000
GEN
1002
}
1001
GENIUS_GENODEF_13
1002
{
1000
HIER
1070
     0
1002
}
1002
{
1000
MANEDIT
1070
     0
1002
}
1002
{
1000
NOSEL
1070
     0
1002
}
1002
{
1000
BEHIND
1070
     0
1002
}
1002
{
1000
OTHER
1070
     0
1002
}
1002
{
1000
REACTOR
1002
}
  0
LINE
  5
19AD2
  8
AM_0
 10
809.44890646380065
 20
322.9840392748248
 30
0.0
 11
799.44890646360034
 21
322.9840392748248
 31
0.0
  0
POLYLINE
  5
19AD3
  8
AM_0
 10
760.44890580717004
 20
292.02236680056359
 30
0.0
 66
     1
 70
     8
  0
VERTEX
  8
AM_0
  5
1AF23
 10
760.449
 20
292.022
 30
0.000000
  70
    32
  0
VERTEX
  8
AM_0
  5
1AF24
 10
760.457
 20
292.366
 30
0.000000
  70
    32
  0
VERTEX
  8
AM_0
  5
1AF25
 10
760.483
 20
292.709
 30
0.000000
  70
    32
  0
VERTEX
  8
AM_0
  5
1AF26
 10
760.525
 20
293.050
 30
0.000000
  70
    32
  0
VERTEX
  8
AM_0
  5
1AF27
 10
760.583
 20
293.388
 30
0.000000
  70
    32
  0
VERTEX
  8
AM_0
  5
1AF28
 10
760.659
 20
293.723
 30
0.000000
  70
    32
  0
VERTEX
  8
AM_0
  5
1AF29
 10
760.750
 20
294.054
 30
0.000000
  70
    32
  0
VERTEX
  8
AM_0
  5
1AF2A
 10
760.858
 20
294.381
 30
0.000000
  70
    32
  0
VERTEX
  8
AM_0
  5
1AF2B
 10
760.982
 20
294.701
 30
0.000000
  70
    32
  0
VERTEX
  8
AM_0
  5
1AF2C
 10
761.121
 20
295.015
 30
0.000000
  70
    32
  0
VERTEX
  8
AM_0
  5
1AF2D
 10
761.275
 20
295.322
 30
0.000000
  70
    32
  0
VERTEX
  8
AM_0
  5
1AF2E
 10
761.445
 20
295.621
 30
0.000000
  70
    32
  0
VERTEX
  8
AM_0
  5
1AF2F
 10
761.629
 20
295.911
 30
0.000000
  70
    32
  0
VERTEX
  8
AM_0
  5
1AF30
 10
761.826
 20
296.192
 30
0.000000
  70
    32
  0
VERTEX
  8
AM_0
  5
1AF31
 10
762.038
 20
296.463
 30
0.000000
  70
    32
  0
VERTEX
  8
AM_0
  5
1AF32
 10
762.262
 20
296.723
 30
0.000000
  70
    32
  0
VERTEX
  8
AM_0
  5
1AF33
 10
762.499
 20
296.972
 30
0.000000
  70
    32
  0
VERTEX
  8
AM_0
  5
1AF34
 10
762.748
 20
297.209
 30
0.000000
  70
    32
  0
VERTEX
  8
AM_0
  5
1AF35
 10
763.008
 20
297.434
 30
0.000000
  70
    32
  0
VERTEX
  8
AM_0
  5
1AF36
 10
763.279
 20
297.645
 30
0.000000
  70
    32
  0
VERTEX
  8
AM_0
  5
1AF37
 10
763.560
 20
297.843
 30
0.000000
  70
    32
  0
VERTEX
  8
AM_0
  5
1AF38
 10
763.850
 20
298.027
 30
0.000000
  70
    32
  0
VERTEX
  8
AM_0
  5
1AF39
 10
764.149
 20
298.196
 30
0.000000
  70
    32
  0
VERTEX
  8
AM_0
  5
1AF3A
 10
764.456
 20
298.350
 30
0.000000
  70
    32
  0
VERTEX
  8
AM_0
  5
1AF3B
 10
764.770
 20
298.490
 30
0.000000
  70
    32
  0
VERTEX
  8
AM_0
  5
1AF3C
 10
765.091
 20
298.613
 30
0.000000
  70
    32
  0
VERTEX
  8
AM_0
  5
1AF3D
 10
765.417
 20
298.721
 30
0.000000
  70
    32
  0
VERTEX
  8
AM_0
  5
1AF3E
 10
765.748
 20
298.813
 30
0.000000
  70
    32
  0
VERTEX
  8
AM_0
  5
1AF3F
 10
766.083
 20
298.888
 30
0.000000
  70
    32
  0
VERTEX
  8
AM_0
  5
1AF40
 10
766.422
 20
298.947
 30
0.000000
  70
    32
  0
VERTEX
  8
AM_0
  5
1AF41
 10
766.763
 20
298.989
 30
0.000000
  70
    32
  0
VERTEX
  8
AM_0
  5
1AF42
 10
767.105
 20
299.014
 30
0.000000
  70
    32
  0
VERTEX
  8
AM_0
  5
1AF43
 10
767.449
 20
299.023
 30
0.000000
  70
    32
  0
VERTEX
  8
AM_0
  5
1AF44
 10
767.792
 20
299.014
 30
0.000000
  70
    32
  0
VERTEX
  8
AM_0
  5
1AF45
 10
768.135
 20
298.989
 30
0.000000
  70
    32
  0
VERTEX
  8
AM_0
  5
1AF46
 10
768.476
 20
298.947
 30
0.000000
  70
    32
  0
VERTEX
  8
AM_0
  5
1AF47
 10
768.815
 20
298.888
 30
0.000000
  70
    32
  0
VERTEX
  8
AM_0
  5
1AF48
 10
769.150
 20
298.813
 30
0.000000
  70
    32
  0
VERTEX
  8
AM_0
  5
1AF49
 10
769.481
 20
298.721
 30
0.000000
  70
    32
  0
VERTEX
  8
AM_0
  5
1AF4A
 10
769.807
 20
298.613
 30
0.000000
  70
    32
  0
VERTEX
  8
AM_0
  5
1AF4B
 10
770.128
 20
298.490
 30
0.000000
  70
    32
  0
VERTEX
  8
AM_0
  5
1AF4C
 10
770.442
 20
298.350
 30
0.000000
  70
    32
  0
VERTEX
  8
AM_0
  5
1AF4D
 10
770.749
 20
298.196
 30
0.000000
  70
    32
  0
VERTEX
  8
AM_0
  5
1AF4E
 10
771.048
 20
298.027
 30
0.000000
  70
    32
  0
VERTEX
  8
AM_0
  5
1AF4F
 10
771.338
 20
297.843
 30
0.000000
  70
    32
  0
VERTEX
  8
AM_0
  5
1AF50
 10
771.619
 20
297.645
 30
0.000000
  70
    32
  0
VERTEX
  8
AM_0
  5
1AF51
 10
771.890
 20
297.434
 30
0.000000
  70
    32
  0
VERTEX
  8
AM_0
  5
1AF52
 10
772.150
 20
297.209
 30
0.000000
  70
    32
  0
VERTEX
  8
AM_0
  5
1AF53
 10
772.399
 20
296.972
 30
0.000000
  70
    32
  0
VERTEX
  8
AM_0
  5
1AF54
 10
772.636
 20
296.723
 30
0.000000
  70
    32
  0
VERTEX
  8
AM_0
  5
1AF55
 10
772.860
 20
296.463
 30
0.000000
  70
    32
  0
VERTEX
  8
AM_0
  5
1AF56
 10
773.071
 20
296.192
 30
0.000000
  70
    32
  0
VERTEX
  8
AM_0
  5
1AF57
 10
773.269
 20
295.911
 30
0.000000
  70
    32
  0
VERTEX
  8
AM_0
  5
1AF58
 10
773.453
 20
295.621
 30
0.000000
  70
    32
  0
VERTEX
  8
AM_0
  5
1AF59
 10
773.622
 20
295.322
 30
0.000000
  70
    32
  0
VERTEX
  8
AM_0
  5
1AF5A
 10
773.777
 20
295.015
 30
0.000000
  70
    32
  0
VERTEX
  8
AM_0
  5
1AF5B
 10
773.916
 20
294.701
 30
0.000000
  70
    32
  0
VERTEX
  8
AM_0
  5
1AF5C
 10
774.040
 20
294.381
 30
0.000000
  70
    32
  0
VERTEX
  8
AM_0
  5
1AF5D
 10
774.147
 20
294.054
 30
0.000000
  70
    32
  0
VERTEX
  8
AM_0
  5
1AF5E
 10
774.239
 20
293.723
 30
0.000000
  70
    32
  0
VERTEX
  8
AM_0
  5
1AF5F
 10
774.314
 20
293.388
 30
0.000000
  70
    32
  0
VERTEX
  8
AM_0
  5
1AF60
 10
774.373
 20
293.050
 30
0.000000
  70
    32
  0
VERTEX
  8
AM_0
  5
1AF61
 10
774.415
 20
292.709
 30
0.000000
  70
    32
  0
VERTEX
  8
AM_0
  5
1AF62
 10
774.440
 20
292.366
 30
0.000000
  70
    32
  0
VERTEX
  8
AM_0
  5
1AF63
 10
774.449
 20
292.022
 30
0.000000
  70
    32
  0
VERTEX
  8
AM_0
  5
1AF64
 10
774.440
 20
291.679
 30
0.000000
  70
    32
  0
VERTEX
  8
AM_0
  5
1AF65
 10
774.415
 20
291.336
 30
0.000000
  70
    32
  0
VERTEX
  8
AM_0
  5
1AF66
 10
774.373
 20
290.995
 30
0.000000
  70
    32
  0
VERTEX
  8
AM_0
  5
1AF67
 10
774.314
 20
290.657
 30
0.000000
  70
    32
  0
VERTEX
  8
AM_0
  5
1AF68
 10
774.239
 20
290.321
 30
0.000000
  70
    32
  0
VERTEX
  8
AM_0
  5
1AF69
 10
774.147
 20
289.990
 30
0.000000
  70
    32
  0
VERTEX
  8
AM_0
  5
1AF6A
 10
774.040
 20
289.664
 30
0.000000
  70
    32
  0
VERTEX
  8
AM_0
  5
1AF6B
 10
773.916
 20
289.344
 30
0.000000
  70
    32
  0
VERTEX
  8
AM_0
  5
1AF6C
 10
773.777
 20
289.029
 30
0.000000
  70
    32
  0
VERTEX
  8
AM_0
  5
1AF6D
 10
773.622
 20
288.723
 30
0.000000
  70
    32
  0
VERTEX
  8
AM_0
  5
1AF6E
 10
773.453
 20
288.424
 30
0.000000
  70
    32
  0
VERTEX
  8
AM_0
  5
1AF6F
 10
773.269
 20
288.133
 30
0.000000
  70
    32
  0
VERTEX
  8
AM_0
  5
1AF70
 10
773.071
 20
287.852
 30
0.000000
  70
    32
  0
VERTEX
  8
AM_0
  5
1AF71
 10
772.860
 20
287.582
 30
0.000000
  70
    32
  0
VERTEX
  8
AM_0
  5
1AF72
 10
772.636
 20
287.321
 30
0.000000
  70
    32
  0
VERTEX
  8
AM_0
  5
1AF73
 10
772.399
 20
287.073
 30
0.000000
  70
    32
  0
VERTEX
  8
AM_0
  5
1AF74
 10
772.150
 20
286.836
 30
0.000000
  70
    32
  0
VERTEX
  8
AM_0
  5
1AF75
 10
771.890
 20
286.611
 30
0.000000
  70
    32
  0
VERTEX
  8
AM_0
  5
1AF76
 10
771.619
 20
286.400
 30
0.000000
  70
    32
  0
VERTEX
  8
AM_0
  5
1AF77
 10
771.338
 20
286.202
 30
0.000000
  70
    32
  0
VERTEX
  8
AM_0
  5
1AF78
 10
771.048
 20
286.018
 30
0.000000
  70
    32
  0
VERTEX
  8
AM_0
  5
1AF79
 10
770.749
 20
285.849
 30
0.000000
  70
    32
  0
VERTEX
  8
AM_0
  5
1AF7A
 10
770.442
 20
285.694
 30
0.000000
  70
    32
  0
VERTEX
  8
AM_0
  5
1AF7B
 10
770.128
 20
285.555
 30
0.000000
  70
    32
  0
VERTEX
  8
AM_0
  5
1AF7C
 10
769.807
 20
285.431
 30
0.000000
  70
    32
  0
VERTEX
  8
AM_0
  5
1AF7D
 10
769.481
 20
285.324
 30
0.000000
  70
    32
  0
VERTEX
  8
AM_0
  5
1AF7E
 10
769.150
 20
285.232
 30
0.000000
  70
    32
  0
VERTEX
  8
AM_0
  5
1AF7F
 10
768.815
 20
285.157
 30
0.000000
  70
    32
  0
VERTEX
  8
AM_0
  5
1AF80
 10
768.476
 20
285.098
 30
0.000000
  70
    32
  0
VERTEX
  8
AM_0
  5
1AF81
 10
768.135
 20
285.056
 30
0.000000
  70
    32
  0
VERTEX
  8
AM_0
  5
1AF82
 10
767.792
 20
285.031
 30
0.000000
  70
    32
  0
VERTEX
  8
AM_0
  5
1AF83
 10
767.449
 20
285.022
 30
0.000000
  70
    32
  0
VERTEX
  8
AM_0
  5
1AF84
 10
767.105
 20
285.031
 30
0.000000
  70
    32
  0
VERTEX
  8
AM_0
  5
1AF85
 10
766.763
 20
285.056
 30
0.000000
  70
    32
  0
VERTEX
  8
AM_0
  5
1AF86
 10
766.422
 20
285.098
 30
0.000000
  70
    32
  0
VERTEX
  8
AM_0
  5
1AF87
 10
766.083
 20
285.157
 30
0.000000
  70
    32
  0
VERTEX
  8
AM_0
  5
1AF88
 10
765.748
 20
285.232
 30
0.000000
  70
    32
  0
VERTEX
  8
AM_0
  5
1AF89
 10
765.417
 20
285.324
 30
0.000000
  70
    32
  0
VERTEX
  8
AM_0
  5
1AF8A
 10
765.091
 20
285.431
 30
0.000000
  70
    32
  0
VERTEX
  8
AM_0
  5
1AF8B
 10
764.770
 20
285.555
 30
0.000000
  70
    32
  0
VERTEX
  8
AM_0
  5
1AF8C
 10
764.456
 20
285.694
 30
0.000000
  70
    32
  0
VERTEX
  8
AM_0
  5
1AF8D
 10
764.149
 20
285.849
 30
0.000000
  70
    32
  0
VERTEX
  8
AM_0
  5
1AF8E
 10
763.850
 20
286.018
 30
0.000000
  70
    32
  0
VERTEX
  8
AM_0
  5
1AF8F
 10
763.560
 20
286.202
 30
0.000000
  70
    32
  0
VERTEX
  8
AM_0
  5
1AF90
 10
763.279
 20
286.400
 30
0.000000
  70
    32
  0
VERTEX
  8
AM_0
  5
1AF91
 10
763.008
 20
286.611
 30
0.000000
  70
    32
  0
VERTEX
  8
AM_0
  5
1AF92
 10
762.748
 20
286.836
 30
0.000000
  70
    32
  0
VERTEX
  8
AM_0
  5
1AF93
 10
762.499
 20
287.073
 30
0.000000
  70
    32
  0
VERTEX
  8
AM_0
  5
1AF94
 10
762.262
 20
287.321
 30
0.000000
  70
    32
  0
VERTEX
  8
AM_0
  5
1AF95
 10
762.038
 20
287.582
 30
0.000000
  70
    32
  0
VERTEX
  8
AM_0
  5
1AF96
 10
761.826
 20
287.852
 30
0.000000
  70
    32
  0
VERTEX
  8
AM_0
  5
1AF97
 10
761.629
 20
288.133
 30
0.000000
  70
    32
  0
VERTEX
  8
AM_0
  5
1AF98
 10
761.445
 20
288.424
 30
0.000000
  70
    32
  0
VERTEX
  8
AM_0
  5
1AF99
 10
761.275
 20
288.723
 30
0.000000
  70
    32
  0
VERTEX
  8
AM_0
  5
1AF9A
 10
761.121
 20
289.029
 30
0.000000
  70
    32
  0
VERTEX
  8
AM_0
  5
1AF9B
 10
760.982
 20
289.344
 30
0.000000
  70
    32
  0
VERTEX
  8
AM_0
  5
1AF9C
 10
760.858
 20
289.664
 30
0.000000
  70
    32
  0
VERTEX
  8
AM_0
  5
1AF9D
 10
760.750
 20
289.990
 30
0.000000
  70
    32
  0
VERTEX
  8
AM_0
  5
1AF9E
 10
760.659
 20
290.321
 30
0.000000
  70
    32
  0
VERTEX
  8
AM_0
  5
1AF9F
 10
760.583
 20
290.657
 30
0.000000
  70
    32
  0
VERTEX
  8
AM_0
  5
1AFA0
 10
760.525
 20
290.995
 30
0.000000
  70
    32
  0
VERTEX
  8
AM_0
  5
1AFA1
 10
760.483
 20
291.336
 30
0.000000
  70
    32
  0
VERTEX
  8
AM_0
  5
1AFA2
 10
760.457
 20
291.679
 30
0.000000
  70
    32
  0
VERTEX
  8
AM_0
  5
1AFA3
 10
760.449
 20
292.022
 30
0.000000
  70
    32
  0
SEQEND
  8
AM_0
  5
1AFA4
  0
LINE
  5
19AD4
  8
ﾁｭｳｼﾝｾﾝ1
 10
779.44890637379387
 20
292.02236680056359
 30
0.0
 11
755.44893617563707
 21
292.02236680056359
 31
0.0
  0
LINE
  5
19AD5
  8
ﾁｭｳｼﾝｾﾝ1
 10
767.44890601592624
 20
304.02260715843852
 30
0.0
 11
767.44890601592624
 21
280.02212644268849
 31
0.0
  0
ARC
  5
19AD7
  8
AM_0
 10
785.44890646332044
 20
310.52403927457561
 30
0.0
 40
3.00000000006
 50
90.0
 51
180.0
1001
GENIUS_GENODEF_13
1002
{
1000
HIER
1070
     0
1002
}
1002
{
1000
MANEDIT
1070
     0
1002
}
1002
{
1000
NOSEL
1070
     0
1002
}
1002
{
1000
BEHIND
1070
     0
1002
}
1002
{
1000
OTHER
1070
     0
1002
}
1002
{
1000
REACTOR
1002
}
1001
GENIUS_GENOBJ-N-FIL_13
1002
{
1000
OWNER
1000
GEN
1002
}
  0
LINE
  5
19AD8
  8
AM_0
 10
786.87737210966122
 20
326.2953106367969
 30
0.0
 11
783.44890646328076
 21
326.2953106367969
 31
0.0
  0
ARC
  5
19AD9
  8
AM_0
 10
786.87737210966122
 20
329.29531063685693
 30
0.0
 40
3.00000000006
 50
270.0
 51
353.33928567968309
1001
GENIUS_GENODEF_13
1002
{
1000
HIER
1070
     0
1002
}
1002
{
1000
MANEDIT
1070
     0
1002
}
1002
{
1000
NOSEL
1070
     0
1002
}
1002
{
1000
BEHIND
1070
     0
1002
}
1002
{
1000
OTHER
1070
     0
1002
}
1002
{
1000
REACTOR
1002
}
1001
GENIUS_GENOBJ-N-FIL_13
1002
{
1000
OWNER
1000
GEN
1002
}
  0
LINE
  5
19ADA
  8
AM_0
 10
809.44890646380065
 20
337.88404927512272
 30
0.0
 11
799.44890646360034
 21
337.88404927512272
 31
0.0
  0
POLYLINE
  5
19ADB
  8
AM_0
 10
592.44893197027068
 20
277.02206635321977
 30
0.0
 66
     1
 70
     8
  0
VERTEX
  8
AM_0
  5
1AFA5
 10
592.449
 20
277.022
 30
0.000000
  70
    32
  0
VERTEX
  8
AM_0
  5
1AFA6
 10
592.265
 20
277.023
 30
0.000000
  70
    32
  0
VERTEX
  8
AM_0
  5
1AFA7
 10
592.081
 20
277.027
 30
0.000000
  70
    32
  0
VERTEX
  8
AM_0
  5
1AFA8
 10
591.897
 20
277.032
 30
0.000000
  70
    32
  0
VERTEX
  8
AM_0
  5
1AFA9
 10
591.713
 20
277.040
 30
0.000000
  70
    32
  0
VERTEX
  8
AM_0
  5
1AFAA
 10
591.529
 20
277.050
 30
0.000000
  70
    32
  0
VERTEX
  8
AM_0
  5
1AFAB
 10
591.345
 20
277.063
 30
0.000000
  70
    32
  0
VERTEX
  8
AM_0
  5
1AFAC
 10
591.162
 20
277.077
 30
0.000000
  70
    32
  0
VERTEX
  8
AM_0
  5
1AFAD
 10
590.979
 20
277.094
 30
0.000000
  70
    32
  0
VERTEX
  8
AM_0
  5
1AFAE
 10
590.796
 20
277.113
 30
0.000000
  70
    32
  0
VERTEX
  8
AM_0
  5
1AFAF
 10
590.613
 20
277.135
 30
0.000000
  70
    32
  0
VERTEX
  8
AM_0
  5
1AFB0
 10
590.430
 20
277.159
 30
0.000000
  70
    32
  0
VERTEX
  8
AM_0
  5
1AFB1
 10
590.248
 20
277.184
 30
0.000000
  70
    32
  0
VERTEX
  8
AM_0
  5
1AFB2
 10
590.066
 20
277.213
 30
0.000000
  70
    32
  0
VERTEX
  8
AM_0
  5
1AFB3
 10
589.885
 20
277.243
 30
0.000000
  70
    32
  0
VERTEX
  8
AM_0
  5
1AFB4
 10
589.703
 20
277.275
 30
0.000000
  70
    32
  0
VERTEX
  8
AM_0
  5
1AFB5
 10
589.523
 20
277.310
 30
0.000000
  70
    32
  0
VERTEX
  8
AM_0
  5
1AFB6
 10
589.342
 20
277.347
 30
0.000000
  70
    32
  0
VERTEX
  8
AM_0
  5
1AFB7
 10
589.162
 20
277.387
 30
0.000000
  70
    32
  0
VERTEX
  8
AM_0
  5
1AFB8
 10
588.983
 20
277.428
 30
0.000000
  70
    32
  0
VERTEX
  8
AM_0
  5
1AFB9
 10
588.804
 20
277.472
 30
0.000000
  70
    32
  0
VERTEX
  8
AM_0
  5
1AFBA
 10
588.626
 20
277.517
 30
0.000000
  70
    32
  0
VERTEX
  8
AM_0
  5
1AFBB
 10
588.448
 20
277.565
 30
0.000000
  70
    32
  0
VERTEX
  8
AM_0
  5
1AFBC
 10
588.271
 20
277.616
 30
0.000000
  70
    32
  0
VERTEX
  8
AM_0
  5
1AFBD
 10
588.095
 20
277.668
 30
0.000000
  70
    32
  0
VERTEX
  8
AM_0
  5
1AFBE
 10
587.919
 20
277.722
 30
0.000000
  70
    32
  0
VERTEX
  8
AM_0
  5
1AFBF
 10
587.744
 20
277.779
 30
0.000000
  70
    32
  0
VERTEX
  8
AM_0
  5
1AFC0
 10
587.569
 20
277.838
 30
0.000000
  70
    32
  0
VERTEX
  8
AM_0
  5
1AFC1
 10
587.396
 20
277.899
 30
0.000000
  70
    32
  0
VERTEX
  8
AM_0
  5
1AFC2
 10
587.223
 20
277.962
 30
0.000000
  70
    32
  0
VERTEX
  8
AM_0
  5
1AFC3
 10
587.051
 20
278.027
 30
0.000000
  70
    32
  0
VERTEX
  8
AM_0
  5
1AFC4
 10
586.879
 20
278.094
 30
0.000000
  70
    32
  0
VERTEX
  8
AM_0
  5
1AFC5
 10
586.709
 20
278.164
 30
0.000000
  70
    32
  0
VERTEX
  8
AM_0
  5
1AFC6
 10
586.539
 20
278.235
 30
0.000000
  70
    32
  0
VERTEX
  8
AM_0
  5
1AFC7
 10
586.370
 20
278.309
 30
0.000000
  70
    32
  0
VERTEX
  8
AM_0
  5
1AFC8
 10
586.202
 20
278.385
 30
0.000000
  70
    32
  0
VERTEX
  8
AM_0
  5
1AFC9
 10
586.036
 20
278.462
 30
0.000000
  70
    32
  0
VERTEX
  8
AM_0
  5
1AFCA
 10
585.870
 20
278.542
 30
0.000000
  70
    32
  0
VERTEX
  8
AM_0
  5
1AFCB
 10
585.705
 20
278.624
 30
0.000000
  70
    32
  0
VERTEX
  8
AM_0
  5
1AFCC
 10
585.541
 20
278.708
 30
0.000000
  70
    32
  0
VERTEX
  8
AM_0
  5
1AFCD
 10
585.378
 20
278.793
 30
0.000000
  70
    32
  0
VERTEX
  8
AM_0
  5
1AFCE
 10
585.216
 20
278.881
 30
0.000000
  70
    32
  0
VERTEX
  8
AM_0
  5
1AFCF
 10
585.055
 20
278.971
 30
0.000000
  70
    32
  0
VERTEX
  8
AM_0
  5
1AFD0
 10
584.896
 20
279.063
 30
0.000000
  70
    32
  0
VERTEX
  8
AM_0
  5
1AFD1
 10
584.737
 20
279.156
 30
0.000000
  70
    32
  0
VERTEX
  8
AM_0
  5
1AFD2
 10
584.580
 20
279.252
 30
0.000000
  70
    32
  0
VERTEX
  8
AM_0
  5
1AFD3
 10
584.424
 20
279.349
 30
0.000000
  70
    32
  0
VERTEX
  8
AM_0
  5
1AFD4
 10
584.269
 20
279.449
 30
0.000000
  70
    32
  0
VERTEX
  8
AM_0
  5
1AFD5
 10
584.115
 20
279.550
 30
0.000000
  70
    32
  0
VERTEX
  8
AM_0
  5
1AFD6
 10
583.963
 20
279.653
 30
0.000000
  70
    32
  0
VERTEX
  8
AM_0
  5
1AFD7
 10
583.812
 20
279.758
 30
0.000000
  70
    32
  0
VERTEX
  8
AM_0
  5
1AFD8
 10
583.662
 20
279.865
 30
0.000000
  70
    32
  0
VERTEX
  8
AM_0
  5
1AFD9
 10
583.513
 20
279.974
 30
0.000000
  70
    32
  0
VERTEX
  8
AM_0
  5
1AFDA
 10
583.366
 20
280.085
 30
0.000000
  70
    32
  0
VERTEX
  8
AM_0
  5
1AFDB
 10
583.220
 20
280.197
 30
0.000000
  70
    32
  0
VERTEX
  8
AM_0
  5
1AFDC
 10
583.076
 20
280.311
 30
0.000000
  70
    32
  0
VERTEX
  8
AM_0
  5
1AFDD
 10
582.933
 20
280.427
 30
0.000000
  70
    32
  0
VERTEX
  8
AM_0
  5
1AFDE
 10
582.791
 20
280.545
 30
0.000000
  70
    32
  0
VERTEX
  8
AM_0
  5
1AFDF
 10
582.651
 20
280.664
 30
0.000000
  70
    32
  0
VERTEX
  8
AM_0
  5
1AFE0
 10
582.513
 20
280.785
 30
0.000000
  70
    32
  0
VERTEX
  8
AM_0
  5
1AFE1
 10
582.376
 20
280.908
 30
0.000000
  70
    32
  0
VERTEX
  8
AM_0
  5
1AFE2
 10
582.240
 20
281.032
 30
0.000000
  70
    32
  0
VERTEX
  8
AM_0
  5
1AFE3
 10
582.106
 20
281.158
 30
0.000000
  70
    32
  0
VERTEX
  8
AM_0
  5
1AFE4
 10
581.973
 20
281.286
 30
0.000000
  70
    32
  0
VERTEX
  8
AM_0
  5
1AFE5
 10
581.842
 20
281.416
 30
0.000000
  70
    32
  0
VERTEX
  8
AM_0
  5
1AFE6
 10
581.713
 20
281.547
 30
0.000000
  70
    32
  0
VERTEX
  8
AM_0
  5
1AFE7
 10
581.585
 20
281.679
 30
0.000000
  70
    32
  0
VERTEX
  8
AM_0
  5
1AFE8
 10
581.459
 20
281.813
 30
0.000000
  70
    32
  0
VERTEX
  8
AM_0
  5
1AFE9
 10
581.335
 20
281.949
 30
0.000000
  70
    32
  0
VERTEX
  8
AM_0
  5
1AFEA
 10
581.212
 20
282.086
 30
0.000000
  70
    32
  0
VERTEX
  8
AM_0
  5
1AFEB
 10
581.091
 20
282.225
 30
0.000000
  70
    32
  0
VERTEX
  8
AM_0
  5
1AFEC
 10
580.971
 20
282.365
 30
0.000000
  70
    32
  0
VERTEX
  8
AM_0
  5
1AFED
 10
580.854
 20
282.506
 30
0.000000
  70
    32
  0
VERTEX
  8
AM_0
  5
1AFEE
 10
580.738
 20
282.649
 30
0.000000
  70
    32
  0
VERTEX
  8
AM_0
  5
1AFEF
 10
580.624
 20
282.794
 30
0.000000
  70
    32
  0
VERTEX
  8
AM_0
  5
1AFF0
 10
580.511
 20
282.940
 30
0.000000
  70
    32
  0
VERTEX
  8
AM_0
  5
1AFF1
 10
580.401
 20
283.087
 30
0.000000
  70
    32
  0
VERTEX
  8
AM_0
  5
1AFF2
 10
580.292
 20
283.235
 30
0.000000
  70
    32
  0
VERTEX
  8
AM_0
  5
1AFF3
 10
580.185
 20
283.385
 30
0.000000
  70
    32
  0
VERTEX
  8
AM_0
  5
1AFF4
 10
580.080
 20
283.536
 30
0.000000
  70
    32
  0
VERTEX
  8
AM_0
  5
1AFF5
 10
579.977
 20
283.689
 30
0.000000
  70
    32
  0
VERTEX
  8
AM_0
  5
1AFF6
 10
579.876
 20
283.842
 30
0.000000
  70
    32
  0
VERTEX
  8
AM_0
  5
1AFF7
 10
579.776
 20
283.997
 30
0.000000
  70
    32
  0
VERTEX
  8
AM_0
  5
1AFF8
 10
579.679
 20
284.153
 30
0.000000
  70
    32
  0
VERTEX
  8
AM_0
  5
1AFF9
 10
579.583
 20
284.311
 30
0.000000
  70
    32
  0
VERTEX
  8
AM_0
  5
1AFFA
 10
579.489
 20
284.469
 30
0.000000
  70
    32
  0
VERTEX
  8
AM_0
  5
1AFFB
 10
579.398
 20
284.629
 30
0.000000
  70
    32
  0
VERTEX
  8
AM_0
  5
1AFFC
 10
579.308
 20
284.789
 30
0.000000
  70
    32
  0
VERTEX
  8
AM_0
  5
1AFFD
 10
579.220
 20
284.951
 30
0.000000
  70
    32
  0
VERTEX
  8
AM_0
  5
1AFFE
 10
579.134
 20
285.114
 30
0.000000
  70
    32
  0
VERTEX
  8
AM_0
  5
1AFFF
 10
579.051
 20
285.278
 30
0.000000
  70
    32
  0
VERTEX
  8
AM_0
  5
1B000
 10
578.969
 20
285.443
 30
0.000000
  70
    32
  0
VERTEX
  8
AM_0
  5
1B001
 10
578.889
 20
285.609
 30
0.000000
  70
    32
  0
VERTEX
  8
AM_0
  5
1B002
 10
578.811
 20
285.776
 30
0.000000
  70
    32
  0
VERTEX
  8
AM_0
  5
1B003
 10
578.736
 20
285.944
 30
0.000000
  70
    32
  0
VERTEX
  8
AM_0
  5
1B004
 10
578.662
 20
286.112
 30
0.000000
  70
    32
  0
VERTEX
  8
AM_0
  5
1B005
 10
578.591
 20
286.282
 30
0.000000
  70
    32
  0
VERTEX
  8
AM_0
  5
1B006
 10
578.521
 20
286.452
 30
0.000000
  70
    32
  0
VERTEX
  8
AM_0
  5
1B007
 10
578.454
 20
286.624
 30
0.000000
  70
    32
  0
VERTEX
  8
AM_0
  5
1B008
 10
578.389
 20
286.796
 30
0.000000
  70
    32
  0
VERTEX
  8
AM_0
  5
1B009
 10
578.326
 20
286.969
 30
0.000000
  70
    32
  0
VERTEX
  8
AM_0
  5
1B00A
 10
578.265
 20
287.143
 30
0.000000
  70
    32
  0
VERTEX
  8
AM_0
  5
1B00B
 10
578.206
 20
287.317
 30
0.000000
  70
    32
  0
VERTEX
  8
AM_0
  5
1B00C
 10
578.149
 20
287.492
 30
0.000000
  70
    32
  0
VERTEX
  8
AM_0
  5
1B00D
 10
578.095
 20
287.668
 30
0.000000
  70
    32
  0
VERTEX
  8
AM_0
  5
1B00E
 10
578.042
 20
287.844
 30
0.000000
  70
    32
  0
VERTEX
  8
AM_0
  5
1B00F
 10
577.992
 20
288.022
 30
0.000000
  70
    32
  0
VERTEX
  8
AM_0
  5
1B010
 10
577.944
 20
288.199
 30
0.000000
  70
    32
  0
VERTEX
  8
AM_0
  5
1B011
 10
577.898
 20
288.378
 30
0.000000
  70
    32
  0
VERTEX
  8
AM_0
  5
1B012
 10
577.855
 20
288.556
 30
0.000000
  70
    32
  0
VERTEX
  8
AM_0
  5
1B013
 10
577.813
 20
288.736
 30
0.000000
  70
    32
  0
VERTEX
  8
AM_0
  5
1B014
 10
577.774
 20
288.916
 30
0.000000
  70
    32
  0
VERTEX
  8
AM_0
  5
1B015
 10
577.737
 20
289.096
 30
0.000000
  70
    32
  0
VERTEX
  8
AM_0
  5
1B016
 10
577.702
 20
289.277
 30
0.000000
  70
    32
  0
VERTEX
  8
AM_0
  5
1B017
 10
577.670
 20
289.458
 30
0.000000
  70
    32
  0
VERTEX
  8
AM_0
  5
1B018
 10
577.639
 20
289.639
 30
0.000000
  70
    32
  0
VERTEX
  8
AM_0
  5
1B019
 10
577.611
 20
289.821
 30
0.000000
  70
    32
  0
VERTEX
  8
AM_0
  5
1B01A
 10
577.585
 20
290.004
 30
0.000000
  70
    32
  0
VERTEX
  8
AM_0
  5
1B01B
 10
577.562
 20
290.186
 30
0.000000
  70
    32
  0
VERTEX
  8
AM_0
  5
1B01C
 10
577.540
 20
290.369
 30
0.000000
  70
    32
  0
VERTEX
  8
AM_0
  5
1B01D
 10
577.521
 20
290.552
 30
0.000000
  70
    32
  0
VERTEX
  8
AM_0
  5
1B01E
 10
577.504
 20
290.735
 30
0.000000
  70
    32
  0
VERTEX
  8
AM_0
  5
1B01F
 10
577.490
 20
290.919
 30
0.000000
  70
    32
  0
VERTEX
  8
AM_0
  5
1B020
 10
577.477
 20
291.103
 30
0.000000
  70
    32
  0
VERTEX
  8
AM_0
  5
1B021
 10
577.467
 20
291.286
 30
0.000000
  70
    32
  0
VERTEX
  8
AM_0
  5
1B022
 10
577.459
 20
291.470
 30
0.000000
  70
    32
  0
VERTEX
  8
AM_0
  5
1B023
 10
577.453
 20
291.654
 30
0.000000
  70
    32
  0
VERTEX
  8
AM_0
  5
1B024
 10
577.450
 20
291.838
 30
0.000000
  70
    32
  0
VERTEX
  8
AM_0
  5
1B025
 10
577.449
 20
292.022
 30
0.000000
  70
    32
  0
SEQEND
  8
AM_0
  5
1B026
  0
POLYLINE
  5
19AE1
  8
AM_0
 10
585.44893110584269
 20
292.02236680056359
 30
0.0
 66
     1
 70
     8
  0
VERTEX
  8
AM_0
  5
1B027
 10
585.449
 20
292.022
 30
0.000000
  70
    32
  0
VERTEX
  8
AM_0
  5
1B028
 10
585.457
 20
292.366
 30
0.000000
  70
    32
  0
VERTEX
  8
AM_0
  5
1B029
 10
585.483
 20
292.709
 30
0.000000
  70
    32
  0
VERTEX
  8
AM_0
  5
1B02A
 10
585.525
 20
293.050
 30
0.000000
  70
    32
  0
VERTEX
  8
AM_0
  5
1B02B
 10
585.583
 20
293.388
 30
0.000000
  70
    32
  0
VERTEX
  8
AM_0
  5
1B02C
 10
585.659
 20
293.723
 30
0.000000
  70
    32
  0
VERTEX
  8
AM_0
  5
1B02D
 10
585.750
 20
294.054
 30
0.000000
  70
    32
  0
VERTEX
  8
AM_0
  5
1B02E
 10
585.858
 20
294.381
 30
0.000000
  70
    32
  0
VERTEX
  8
AM_0
  5
1B02F
 10
585.982
 20
294.701
 30
0.000000
  70
    32
  0
VERTEX
  8
AM_0
  5
1B030
 10
586.121
 20
295.015
 30
0.000000
  70
    32
  0
VERTEX
  8
AM_0
  5
1B031
 10
586.275
 20
295.322
 30
0.000000
  70
    32
  0
VERTEX
  8
AM_0
  5
1B032
 10
586.445
 20
295.621
 30
0.000000
  70
    32
  0
VERTEX
  8
AM_0
  5
1B033
 10
586.629
 20
295.911
 30
0.000000
  70
    32
  0
VERTEX
  8
AM_0
  5
1B034
 10
586.826
 20
296.192
 30
0.000000
  70
    32
  0
VERTEX
  8
AM_0
  5
1B035
 10
587.038
 20
296.463
 30
0.000000
  70
    32
  0
VERTEX
  8
AM_0
  5
1B036
 10
587.262
 20
296.723
 30
0.000000
  70
    32
  0
VERTEX
  8
AM_0
  5
1B037
 10
587.499
 20
296.972
 30
0.000000
  70
    32
  0
VERTEX
  8
AM_0
  5
1B038
 10
587.748
 20
297.209
 30
0.000000
  70
    32
  0
VERTEX
  8
AM_0
  5
1B039
 10
588.008
 20
297.434
 30
0.000000
  70
    32
  0
VERTEX
  8
AM_0
  5
1B03A
 10
588.279
 20
297.645
 30
0.000000
  70
    32
  0
VERTEX
  8
AM_0
  5
1B03B
 10
588.560
 20
297.843
 30
0.000000
  70
    32
  0
VERTEX
  8
AM_0
  5
1B03C
 10
588.850
 20
298.027
 30
0.000000
  70
    32
  0
VERTEX
  8
AM_0
  5
1B03D
 10
589.149
 20
298.196
 30
0.000000
  70
    32
  0
VERTEX
  8
AM_0
  5
1B03E
 10
589.456
 20
298.350
 30
0.000000
  70
    32
  0
VERTEX
  8
AM_0
  5
1B03F
 10
589.770
 20
298.490
 30
0.000000
  70
    32
  0
VERTEX
  8
AM_0
  5
1B040
 10
590.091
 20
298.613
 30
0.000000
  70
    32
  0
VERTEX
  8
AM_0
  5
1B041
 10
590.417
 20
298.721
 30
0.000000
  70
    32
  0
VERTEX
  8
AM_0
  5
1B042
 10
590.748
 20
298.813
 30
0.000000
  70
    32
  0
VERTEX
  8
AM_0
  5
1B043
 10
591.083
 20
298.888
 30
0.000000
  70
    32
  0
VERTEX
  8
AM_0
  5
1B044
 10
591.422
 20
298.947
 30
0.000000
  70
    32
  0
VERTEX
  8
AM_0
  5
1B045
 10
591.763
 20
298.989
 30
0.000000
  70
    32
  0
VERTEX
  8
AM_0
  5
1B046
 10
592.105
 20
299.014
 30
0.000000
  70
    32
  0
VERTEX
  8
AM_0
  5
1B047
 10
592.449
 20
299.023
 30
0.000000
  70
    32
  0
VERTEX
  8
AM_0
  5
1B048
 10
592.792
 20
299.014
 30
0.000000
  70
    32
  0
VERTEX
  8
AM_0
  5
1B049
 10
593.135
 20
298.989
 30
0.000000
  70
    32
  0
VERTEX
  8
AM_0
  5
1B04A
 10
593.476
 20
298.947
 30
0.000000
  70
    32
  0
VERTEX
  8
AM_0
  5
1B04B
 10
593.815
 20
298.888
 30
0.000000
  70
    32
  0
VERTEX
  8
AM_0
  5
1B04C
 10
594.150
 20
298.813
 30
0.000000
  70
    32
  0
VERTEX
  8
AM_0
  5
1B04D
 10
594.481
 20
298.721
 30
0.000000
  70
    32
  0
VERTEX
  8
AM_0
  5
1B04E
 10
594.807
 20
298.613
 30
0.000000
  70
    32
  0
VERTEX
  8
AM_0
  5
1B04F
 10
595.128
 20
298.490
 30
0.000000
  70
    32
  0
VERTEX
  8
AM_0
  5
1B050
 10
595.442
 20
298.350
 30
0.000000
  70
    32
  0
VERTEX
  8
AM_0
  5
1B051
 10
595.749
 20
298.196
 30
0.000000
  70
    32
  0
VERTEX
  8
AM_0
  5
1B052
 10
596.048
 20
298.027
 30
0.000000
  70
    32
  0
VERTEX
  8
AM_0
  5
1B053
 10
596.338
 20
297.843
 30
0.000000
  70
    32
  0
VERTEX
  8
AM_0
  5
1B054
 10
596.619
 20
297.645
 30
0.000000
  70
    32
  0
VERTEX
  8
AM_0
  5
1B055
 10
596.890
 20
297.434
 30
0.000000
  70
    32
  0
VERTEX
  8
AM_0
  5
1B056
 10
597.150
 20
297.209
 30
0.000000
  70
    32
  0
VERTEX
  8
AM_0
  5
1B057
 10
597.399
 20
296.972
 30
0.000000
  70
    32
  0
VERTEX
  8
AM_0
  5
1B058
 10
597.636
 20
296.723
 30
0.000000
  70
    32
  0
VERTEX
  8
AM_0
  5
1B059
 10
597.860
 20
296.463
 30
0.000000
  70
    32
  0
VERTEX
  8
AM_0
  5
1B05A
 10
598.071
 20
296.192
 30
0.000000
  70
    32
  0
VERTEX
  8
AM_0
  5
1B05B
 10
598.269
 20
295.911
 30
0.000000
  70
    32
  0
VERTEX
  8
AM_0
  5
1B05C
 10
598.453
 20
295.621
 30
0.000000
  70
    32
  0
VERTEX
  8
AM_0
  5
1B05D
 10
598.622
 20
295.322
 30
0.000000
  70
    32
  0
VERTEX
  8
AM_0
  5
1B05E
 10
598.777
 20
295.015
 30
0.000000
  70
    32
  0
VERTEX
  8
AM_0
  5
1B05F
 10
598.916
 20
294.701
 30
0.000000
  70
    32
  0
VERTEX
  8
AM_0
  5
1B060
 10
599.040
 20
294.381
 30
0.000000
  70
    32
  0
VERTEX
  8
AM_0
  5
1B061
 10
599.148
 20
294.054
 30
0.000000
  70
    32
  0
VERTEX
  8
AM_0
  5
1B062
 10
599.239
 20
293.723
 30
0.000000
  70
    32
  0
VERTEX
  8
AM_0
  5
1B063
 10
599.314
 20
293.388
 30
0.000000
  70
    32
  0
VERTEX
  8
AM_0
  5
1B064
 10
599.373
 20
293.050
 30
0.000000
  70
    32
  0
VERTEX
  8
AM_0
  5
1B065
 10
599.415
 20
292.709
 30
0.000000
  70
    32
  0
VERTEX
  8
AM_0
  5
1B066
 10
599.440
 20
292.366
 30
0.000000
  70
    32
  0
VERTEX
  8
AM_0
  5
1B067
 10
599.449
 20
292.022
 30
0.000000
  70
    32
  0
VERTEX
  8
AM_0
  5
1B068
 10
599.440
 20
291.679
 30
0.000000
  70
    32
  0
VERTEX
  8
AM_0
  5
1B069
 10
599.415
 20
291.336
 30
0.000000
  70
    32
  0
VERTEX
  8
AM_0
  5
1B06A
 10
599.373
 20
290.995
 30
0.000000
  70
    32
  0
VERTEX
  8
AM_0
  5
1B06B
 10
599.314
 20
290.657
 30
0.000000
  70
    32
  0
VERTEX
  8
AM_0
  5
1B06C
 10
599.239
 20
290.321
 30
0.000000
  70
    32
  0
VERTEX
  8
AM_0
  5
1B06D
 10
599.148
 20
289.990
 30
0.000000
  70
    32
  0
VERTEX
  8
AM_0
  5
1B06E
 10
599.040
 20
289.664
 30
0.000000
  70
    32
  0
VERTEX
  8
AM_0
  5
1B06F
 10
598.916
 20
289.344
 30
0.000000
  70
    32
  0
VERTEX
  8
AM_0
  5
1B070
 10
598.777
 20
289.029
 30
0.000000
  70
    32
  0
VERTEX
  8
AM_0
  5
1B071
 10
598.622
 20
288.723
 30
0.000000
  70
    32
  0
VERTEX
  8
AM_0
  5
1B072
 10
598.453
 20
288.424
 30
0.000000
  70
    32
  0
VERTEX
  8
AM_0
  5
1B073
 10
598.269
 20
288.133
 30
0.000000
  70
    32
  0
VERTEX
  8
AM_0
  5
1B074
 10
598.071
 20
287.852
 30
0.000000
  70
    32
  0
VERTEX
  8
AM_0
  5
1B075
 10
597.860
 20
287.582
 30
0.000000
  70
    32
  0
VERTEX
  8
AM_0
  5
1B076
 10
597.636
 20
287.321
 30
0.000000
  70
    32
  0
VERTEX
  8
AM_0
  5
1B077
 10
597.399
 20
287.073
 30
0.000000
  70
    32
  0
VERTEX
  8
AM_0
  5
1B078
 10
597.150
 20
286.836
 30
0.000000
  70
    32
  0
VERTEX
  8
AM_0
  5
1B079
 10
596.890
 20
286.611
 30
0.000000
  70
    32
  0
VERTEX
  8
AM_0
  5
1B07A
 10
596.619
 20
286.400
 30
0.000000
  70
    32
  0
VERTEX
  8
AM_0
  5
1B07B
 10
596.338
 20
286.202
 30
0.000000
  70
    32
  0
VERTEX
  8
AM_0
  5
1B07C
 10
596.048
 20
286.018
 30
0.000000
  70
    32
  0
VERTEX
  8
AM_0
  5
1B07D
 10
595.749
 20
285.849
 30
0.000000
  70
    32
  0
VERTEX
  8
AM_0
  5
1B07E
 10
595.442
 20
285.694
 30
0.000000
  70
    32
  0
VERTEX
  8
AM_0
  5
1B07F
 10
595.128
 20
285.555
 30
0.000000
  70
    32
  0
VERTEX
  8
AM_0
  5
1B080
 10
594.807
 20
285.431
 30
0.000000
  70
    32
  0
VERTEX
  8
AM_0
  5
1B081
 10
594.481
 20
285.324
 30
0.000000
  70
    32
  0
VERTEX
  8
AM_0
  5
1B082
 10
594.150
 20
285.232
 30
0.000000
  70
    32
  0
VERTEX
  8
AM_0
  5
1B083
 10
593.815
 20
285.157
 30
0.000000
  70
    32
  0
VERTEX
  8
AM_0
  5
1B084
 10
593.476
 20
285.098
 30
0.000000
  70
    32
  0
VERTEX
  8
AM_0
  5
1B085
 10
593.135
 20
285.056
 30
0.000000
  70
    32
  0
VERTEX
  8
AM_0
  5
1B086
 10
592.792
 20
285.031
 30
0.000000
  70
    32
  0
VERTEX
  8
AM_0
  5
1B087
 10
592.449
 20
285.022
 30
0.000000
  70
    32
  0
VERTEX
  8
AM_0
  5
1B088
 10
592.105
 20
285.031
 30
0.000000
  70
    32
  0
VERTEX
  8
AM_0
  5
1B089
 10
591.763
 20
285.056
 30
0.000000
  70
    32
  0
VERTEX
  8
AM_0
  5
1B08A
 10
591.422
 20
285.098
 30
0.000000
  70
    32
  0
VERTEX
  8
AM_0
  5
1B08B
 10
591.083
 20
285.157
 30
0.000000
  70
    32
  0
VERTEX
  8
AM_0
  5
1B08C
 10
590.748
 20
285.232
 30
0.000000
  70
    32
  0
VERTEX
  8
AM_0
  5
1B08D
 10
590.417
 20
285.324
 30
0.000000
  70
    32
  0
VERTEX
  8
AM_0
  5
1B08E
 10
590.091
 20
285.431
 30
0.000000
  70
    32
  0
VERTEX
  8
AM_0
  5
1B08F
 10
589.770
 20
285.555
 30
0.000000
  70
    32
  0
VERTEX
  8
AM_0
  5
1B090
 10
589.456
 20
285.694
 30
0.000000
  70
    32
  0
VERTEX
  8
AM_0
  5
1B091
 10
589.149
 20
285.849
 30
0.000000
  70
    32
  0
VERTEX
  8
AM_0
  5
1B092
 10
588.850
 20
286.018
 30
0.000000
  70
    32
  0
VERTEX
  8
AM_0
  5
1B093
 10
588.560
 20
286.202
 30
0.000000
  70
    32
  0
VERTEX
  8
AM_0
  5
1B094
 10
588.279
 20
286.400
 30
0.000000
  70
    32
  0
VERTEX
  8
AM_0
  5
1B095
 10
588.008
 20
286.611
 30
0.000000
  70
    32
  0
VERTEX
  8
AM_0
  5
1B096
 10
587.748
 20
286.836
 30
0.000000
  70
    32
  0
VERTEX
  8
AM_0
  5
1B097
 10
587.499
 20
287.073
 30
0.000000
  70
    32
  0
VERTEX
  8
AM_0
  5
1B098
 10
587.262
 20
287.321
 30
0.000000
  70
    32
  0
VERTEX
  8
AM_0
  5
1B099
 10
587.038
 20
287.582
 30
0.000000
  70
    32
  0
VERTEX
  8
AM_0
  5
1B09A
 10
586.826
 20
287.852
 30
0.000000
  70
    32
  0
VERTEX
  8
AM_0
  5
1B09B
 10
586.629
 20
288.133
 30
0.000000
  70
    32
  0
VERTEX
  8
AM_0
  5
1B09C
 10
586.445
 20
288.424
 30
0.000000
  70
    32
  0
VERTEX
  8
AM_0
  5
1B09D
 10
586.275
 20
288.723
 30
0.000000
  70
    32
  0
VERTEX
  8
AM_0
  5
1B09E
 10
586.121
 20
289.029
 30
0.000000
  70
    32
  0
VERTEX
  8
AM_0
  5
1B09F
 10
585.982
 20
289.344
 30
0.000000
  70
    32
  0
VERTEX
  8
AM_0
  5
1B0A0
 10
585.858
 20
289.664
 30
0.000000
  70
    32
  0
VERTEX
  8
AM_0
  5
1B0A1
 10
585.750
 20
289.990
 30
0.000000
  70
    32
  0
VERTEX
  8
AM_0
  5
1B0A2
 10
585.659
 20
290.321
 30
0.000000
  70
    32
  0
VERTEX
  8
AM_0
  5
1B0A3
 10
585.583
 20
290.657
 30
0.000000
  70
    32
  0
VERTEX
  8
AM_0
  5
1B0A4
 10
585.525
 20
290.995
 30
0.000000
  70
    32
  0
VERTEX
  8
AM_0
  5
1B0A5
 10
585.483
 20
291.336
 30
0.000000
  70
    32
  0
VERTEX
  8
AM_0
  5
1B0A6
 10
585.457
 20
291.679
 30
0.000000
  70
    32
  0
VERTEX
  8
AM_0
  5
1B0A7
 10
585.449
 20
292.022
 30
0.000000
  70
    32
  0
SEQEND
  8
AM_0
  5
1B0A8
  0
LINE
  5
19AE2
  8
ﾁｭｳｼﾝｾﾝ1
 10
604.44893167246664
 20
292.02236680056359
 30
0.0
 11
580.44893095673069
 21
292.02236680056359
 31
0.0
  0
LINE
  5
19AE4
  8
ﾁｭｳｼﾝｾﾝ1
 10
592.44893131459855
 20
304.02260715843852
 30
0.0
 11
592.44893131459855
 21
280.02212644268849
 31
0.0
  0
LINE
  5
19AEE
  8
AM_0
 10
767.44890601592624
 20
437.02527112488667
 30
0.0
 11
592.44893131459855
 21
437.02527112488667
 31
0.0
  0
LINE
  5
19AEF
  8
AM_0
 10
795.44890646352064
 20
436.5240192770957
 30
0.0
 11
771.28954589575392
 21
436.52401927709519
 31
0.0
  0
LINE
  5
19AF0
  8
AM_0
 10
809.44890646380065
 20
412.16400927660828
 30
0.0
 11
799.44890646360034
 21
412.16400927660828
 31
0.0
  0
ARC
  5
19AF1
  8
AM_0
 10
795.44890646352064
 20
439.52401927715567
 30
0.0
 40
3.00000000006
 50
270.0
 51
324.31466528733819
1001
GENIUS_GENOBJ-N-FIL_13
1002
{
1000
OWNER
1000
GEN
1002
}
1001
GENIUS_GENODEF_13
1002
{
1000
HIER
1070
     0
1002
}
1002
{
1000
MANEDIT
1070
     0
1002
}
1002
{
1000
NOSEL
1070
     0
1002
}
1002
{
1000
BEHIND
1070
     0
1002
}
1002
{
1000
OTHER
1070
     0
1002
}
1002
{
1000
REACTOR
1002
}
  0
LINE
  5
19AF2
  8
AM_0
 10
809.44890646380065
 20
427.06401927690592
 30
0.0
 11
799.44890646360034
 21
427.06401927690592
 31
0.0
  0
LINE
  5
19AF3
  8
AM_0
 10
809.44890646380065
 20
439.02401927714561
 30
0.0
 11
800.32230363602253
 21
439.02401927714561
 31
0.0
  0
ARC
  5
19AF4
  8
AM_0
 10
800.32230363602253
 20
436.02401927708507
 30
0.0
 40
3.00000000006
 50
90.0
 51
144.31466528733819
1001
GENIUS_GENOBJ-N-FIL_13
1002
{
1000
OWNER
1000
GEN
1002
}
1001
GENIUS_GENODEF_13
1002
{
1000
HIER
1070
     0
1002
}
1002
{
1000
MANEDIT
1070
     0
1002
}
1002
{
1000
NOSEL
1070
     0
1002
}
1002
{
1000
BEHIND
1070
     0
1002
}
1002
{
1000
OTHER
1070
     0
1002
}
1002
{
1000
REACTOR
1002
}
  0
POLYLINE
  5
19AF5
  8
AM_0
 10
760.44890580717004
 20
422.02497067754302
 30
0.0
 66
     1
 70
     8
  0
VERTEX
  8
AM_0
  5
1B0A9
 10
760.449
 20
422.025
 30
0.000000
  70
    32
  0
VERTEX
  8
AM_0
  5
1B0AA
 10
760.457
 20
422.368
 30
0.000000
  70
    32
  0
VERTEX
  8
AM_0
  5
1B0AB
 10
760.483
 20
422.711
 30
0.000000
  70
    32
  0
VERTEX
  8
AM_0
  5
1B0AC
 10
760.525
 20
423.052
 30
0.000000
  70
    32
  0
VERTEX
  8
AM_0
  5
1B0AD
 10
760.583
 20
423.391
 30
0.000000
  70
    32
  0
VERTEX
  8
AM_0
  5
1B0AE
 10
760.659
 20
423.726
 30
0.000000
  70
    32
  0
VERTEX
  8
AM_0
  5
1B0AF
 10
760.750
 20
424.057
 30
0.000000
  70
    32
  0
VERTEX
  8
AM_0
  5
1B0B0
 10
760.858
 20
424.383
 30
0.000000
  70
    32
  0
VERTEX
  8
AM_0
  5
1B0B1
 10
760.982
 20
424.704
 30
0.000000
  70
    32
  0
VERTEX
  8
AM_0
  5
1B0B2
 10
761.121
 20
425.018
 30
0.000000
  70
    32
  0
VERTEX
  8
AM_0
  5
1B0B3
 10
761.275
 20
425.325
 30
0.000000
  70
    32
  0
VERTEX
  8
AM_0
  5
1B0B4
 10
761.445
 20
425.624
 30
0.000000
  70
    32
  0
VERTEX
  8
AM_0
  5
1B0B5
 10
761.629
 20
425.914
 30
0.000000
  70
    32
  0
VERTEX
  8
AM_0
  5
1B0B6
 10
761.826
 20
426.195
 30
0.000000
  70
    32
  0
VERTEX
  8
AM_0
  5
1B0B7
 10
762.038
 20
426.466
 30
0.000000
  70
    32
  0
VERTEX
  8
AM_0
  5
1B0B8
 10
762.262
 20
426.726
 30
0.000000
  70
    32
  0
VERTEX
  8
AM_0
  5
1B0B9
 10
762.499
 20
426.975
 30
0.000000
  70
    32
  0
VERTEX
  8
AM_0
  5
1B0BA
 10
762.748
 20
427.212
 30
0.000000
  70
    32
  0
VERTEX
  8
AM_0
  5
1B0BB
 10
763.008
 20
427.436
 30
0.000000
  70
    32
  0
VERTEX
  8
AM_0
  5
1B0BC
 10
763.279
 20
427.648
 30
0.000000
  70
    32
  0
VERTEX
  8
AM_0
  5
1B0BD
 10
763.560
 20
427.845
 30
0.000000
  70
    32
  0
VERTEX
  8
AM_0
  5
1B0BE
 10
763.850
 20
428.029
 30
0.000000
  70
    32
  0
VERTEX
  8
AM_0
  5
1B0BF
 10
764.149
 20
428.199
 30
0.000000
  70
    32
  0
VERTEX
  8
AM_0
  5
1B0C0
 10
764.456
 20
428.353
 30
0.000000
  70
    32
  0
VERTEX
  8
AM_0
  5
1B0C1
 10
764.770
 20
428.492
 30
0.000000
  70
    32
  0
VERTEX
  8
AM_0
  5
1B0C2
 10
765.091
 20
428.616
 30
0.000000
  70
    32
  0
VERTEX
  8
AM_0
  5
1B0C3
 10
765.417
 20
428.724
 30
0.000000
  70
    32
  0
VERTEX
  8
AM_0
  5
1B0C4
 10
765.748
 20
428.815
 30
0.000000
  70
    32
  0
VERTEX
  8
AM_0
  5
1B0C5
 10
766.083
 20
428.891
 30
0.000000
  70
    32
  0
VERTEX
  8
AM_0
  5
1B0C6
 10
766.422
 20
428.949
 30
0.000000
  70
    32
  0
VERTEX
  8
AM_0
  5
1B0C7
 10
766.763
 20
428.991
 30
0.000000
  70
    32
  0
VERTEX
  8
AM_0
  5
1B0C8
 10
767.105
 20
429.017
 30
0.000000
  70
    32
  0
VERTEX
  8
AM_0
  5
1B0C9
 10
767.449
 20
429.025
 30
0.000000
  70
    32
  0
VERTEX
  8
AM_0
  5
1B0CA
 10
767.792
 20
429.017
 30
0.000000
  70
    32
  0
VERTEX
  8
AM_0
  5
1B0CB
 10
768.135
 20
428.991
 30
0.000000
  70
    32
  0
VERTEX
  8
AM_0
  5
1B0CC
 10
768.476
 20
428.949
 30
0.000000
  70
    32
  0
VERTEX
  8
AM_0
  5
1B0CD
 10
768.815
 20
428.891
 30
0.000000
  70
    32
  0
VERTEX
  8
AM_0
  5
1B0CE
 10
769.150
 20
428.815
 30
0.000000
  70
    32
  0
VERTEX
  8
AM_0
  5
1B0CF
 10
769.481
 20
428.724
 30
0.000000
  70
    32
  0
VERTEX
  8
AM_0
  5
1B0D0
 10
769.807
 20
428.616
 30
0.000000
  70
    32
  0
VERTEX
  8
AM_0
  5
1B0D1
 10
770.128
 20
428.492
 30
0.000000
  70
    32
  0
VERTEX
  8
AM_0
  5
1B0D2
 10
770.442
 20
428.353
 30
0.000000
  70
    32
  0
VERTEX
  8
AM_0
  5
1B0D3
 10
770.749
 20
428.199
 30
0.000000
  70
    32
  0
VERTEX
  8
AM_0
  5
1B0D4
 10
771.048
 20
428.029
 30
0.000000
  70
    32
  0
VERTEX
  8
AM_0
  5
1B0D5
 10
771.338
 20
427.845
 30
0.000000
  70
    32
  0
VERTEX
  8
AM_0
  5
1B0D6
 10
771.619
 20
427.648
 30
0.000000
  70
    32
  0
VERTEX
  8
AM_0
  5
1B0D7
 10
771.890
 20
427.436
 30
0.000000
  70
    32
  0
VERTEX
  8
AM_0
  5
1B0D8
 10
772.150
 20
427.212
 30
0.000000
  70
    32
  0
VERTEX
  8
AM_0
  5
1B0D9
 10
772.399
 20
426.975
 30
0.000000
  70
    32
  0
VERTEX
  8
AM_0
  5
1B0DA
 10
772.636
 20
426.726
 30
0.000000
  70
    32
  0
VERTEX
  8
AM_0
  5
1B0DB
 10
772.860
 20
426.466
 30
0.000000
  70
    32
  0
VERTEX
  8
AM_0
  5
1B0DC
 10
773.071
 20
426.195
 30
0.000000
  70
    32
  0
VERTEX
  8
AM_0
  5
1B0DD
 10
773.269
 20
425.914
 30
0.000000
  70
    32
  0
VERTEX
  8
AM_0
  5
1B0DE
 10
773.453
 20
425.624
 30
0.000000
  70
    32
  0
VERTEX
  8
AM_0
  5
1B0DF
 10
773.622
 20
425.325
 30
0.000000
  70
    32
  0
VERTEX
  8
AM_0
  5
1B0E0
 10
773.777
 20
425.018
 30
0.000000
  70
    32
  0
VERTEX
  8
AM_0
  5
1B0E1
 10
773.916
 20
424.704
 30
0.000000
  70
    32
  0
VERTEX
  8
AM_0
  5
1B0E2
 10
774.040
 20
424.383
 30
0.000000
  70
    32
  0
VERTEX
  8
AM_0
  5
1B0E3
 10
774.147
 20
424.057
 30
0.000000
  70
    32
  0
VERTEX
  8
AM_0
  5
1B0E4
 10
774.239
 20
423.726
 30
0.000000
  70
    32
  0
VERTEX
  8
AM_0
  5
1B0E5
 10
774.314
 20
423.391
 30
0.000000
  70
    32
  0
VERTEX
  8
AM_0
  5
1B0E6
 10
774.373
 20
423.052
 30
0.000000
  70
    32
  0
VERTEX
  8
AM_0
  5
1B0E7
 10
774.415
 20
422.711
 30
0.000000
  70
    32
  0
VERTEX
  8
AM_0
  5
1B0E8
 10
774.440
 20
422.368
 30
0.000000
  70
    32
  0
VERTEX
  8
AM_0
  5
1B0E9
 10
774.449
 20
422.025
 30
0.000000
  70
    32
  0
VERTEX
  8
AM_0
  5
1B0EA
 10
774.440
 20
421.681
 30
0.000000
  70
    32
  0
VERTEX
  8
AM_0
  5
1B0EB
 10
774.415
 20
421.339
 30
0.000000
  70
    32
  0
VERTEX
  8
AM_0
  5
1B0EC
 10
774.373
 20
420.998
 30
0.000000
  70
    32
  0
VERTEX
  8
AM_0
  5
1B0ED
 10
774.314
 20
420.659
 30
0.000000
  70
    32
  0
VERTEX
  8
AM_0
  5
1B0EE
 10
774.239
 20
420.324
 30
0.000000
  70
    32
  0
VERTEX
  8
AM_0
  5
1B0EF
 10
774.147
 20
419.993
 30
0.000000
  70
    32
  0
VERTEX
  8
AM_0
  5
1B0F0
 10
774.040
 20
419.667
 30
0.000000
  70
    32
  0
VERTEX
  8
AM_0
  5
1B0F1
 10
773.916
 20
419.346
 30
0.000000
  70
    32
  0
VERTEX
  8
AM_0
  5
1B0F2
 10
773.777
 20
419.032
 30
0.000000
  70
    32
  0
VERTEX
  8
AM_0
  5
1B0F3
 10
773.622
 20
418.725
 30
0.000000
  70
    32
  0
VERTEX
  8
AM_0
  5
1B0F4
 10
773.453
 20
418.426
 30
0.000000
  70
    32
  0
VERTEX
  8
AM_0
  5
1B0F5
 10
773.269
 20
418.136
 30
0.000000
  70
    32
  0
VERTEX
  8
AM_0
  5
1B0F6
 10
773.071
 20
417.855
 30
0.000000
  70
    32
  0
VERTEX
  8
AM_0
  5
1B0F7
 10
772.860
 20
417.584
 30
0.000000
  70
    32
  0
VERTEX
  8
AM_0
  5
1B0F8
 10
772.636
 20
417.324
 30
0.000000
  70
    32
  0
VERTEX
  8
AM_0
  5
1B0F9
 10
772.399
 20
417.075
 30
0.000000
  70
    32
  0
VERTEX
  8
AM_0
  5
1B0FA
 10
772.150
 20
416.838
 30
0.000000
  70
    32
  0
VERTEX
  8
AM_0
  5
1B0FB
 10
771.890
 20
416.614
 30
0.000000
  70
    32
  0
VERTEX
  8
AM_0
  5
1B0FC
 10
771.619
 20
416.402
 30
0.000000
  70
    32
  0
VERTEX
  8
AM_0
  5
1B0FD
 10
771.338
 20
416.205
 30
0.000000
  70
    32
  0
VERTEX
  8
AM_0
  5
1B0FE
 10
771.048
 20
416.021
 30
0.000000
  70
    32
  0
VERTEX
  8
AM_0
  5
1B0FF
 10
770.749
 20
415.851
 30
0.000000
  70
    32
  0
VERTEX
  8
AM_0
  5
1B100
 10
770.442
 20
415.697
 30
0.000000
  70
    32
  0
VERTEX
  8
AM_0
  5
1B101
 10
770.128
 20
415.558
 30
0.000000
  70
    32
  0
VERTEX
  8
AM_0
  5
1B102
 10
769.807
 20
415.434
 30
0.000000
  70
    32
  0
VERTEX
  8
AM_0
  5
1B103
 10
769.481
 20
415.326
 30
0.000000
  70
    32
  0
VERTEX
  8
AM_0
  5
1B104
 10
769.150
 20
415.235
 30
0.000000
  70
    32
  0
VERTEX
  8
AM_0
  5
1B105
 10
768.815
 20
415.159
 30
0.000000
  70
    32
  0
VERTEX
  8
AM_0
  5
1B106
 10
768.476
 20
415.101
 30
0.000000
  70
    32
  0
VERTEX
  8
AM_0
  5
1B107
 10
768.135
 20
415.059
 30
0.000000
  70
    32
  0
VERTEX
  8
AM_0
  5
1B108
 10
767.792
 20
415.033
 30
0.000000
  70
    32
  0
VERTEX
  8
AM_0
  5
1B109
 10
767.449
 20
415.025
 30
0.000000
  70
    32
  0
VERTEX
  8
AM_0
  5
1B10A
 10
767.105
 20
415.033
 30
0.000000
  70
    32
  0
VERTEX
  8
AM_0
  5
1B10B
 10
766.763
 20
415.059
 30
0.000000
  70
    32
  0
VERTEX
  8
AM_0
  5
1B10C
 10
766.422
 20
415.101
 30
0.000000
  70
    32
  0
VERTEX
  8
AM_0
  5
1B10D
 10
766.083
 20
415.159
 30
0.000000
  70
    32
  0
VERTEX
  8
AM_0
  5
1B10E
 10
765.748
 20
415.235
 30
0.000000
  70
    32
  0
VERTEX
  8
AM_0
  5
1B10F
 10
765.417
 20
415.326
 30
0.000000
  70
    32
  0
VERTEX
  8
AM_0
  5
1B110
 10
765.091
 20
415.434
 30
0.000000
  70
    32
  0
VERTEX
  8
AM_0
  5
1B111
 10
764.770
 20
415.558
 30
0.000000
  70
    32
  0
VERTEX
  8
AM_0
  5
1B112
 10
764.456
 20
415.697
 30
0.000000
  70
    32
  0
VERTEX
  8
AM_0
  5
1B113
 10
764.149
 20
415.851
 30
0.000000
  70
    32
  0
VERTEX
  8
AM_0
  5
1B114
 10
763.850
 20
416.021
 30
0.000000
  70
    32
  0
VERTEX
  8
AM_0
  5
1B115
 10
763.560
 20
416.205
 30
0.000000
  70
    32
  0
VERTEX
  8
AM_0
  5
1B116
 10
763.279
 20
416.402
 30
0.000000
  70
    32
  0
VERTEX
  8
AM_0
  5
1B117
 10
763.008
 20
416.614
 30
0.000000
  70
    32
  0
VERTEX
  8
AM_0
  5
1B118
 10
762.748
 20
416.838
 30
0.000000
  70
    32
  0
VERTEX
  8
AM_0
  5
1B119
 10
762.499
 20
417.075
 30
0.000000
  70
    32
  0
VERTEX
  8
AM_0
  5
1B11A
 10
762.262
 20
417.324
 30
0.000000
  70
    32
  0
VERTEX
  8
AM_0
  5
1B11B
 10
762.038
 20
417.584
 30
0.000000
  70
    32
  0
VERTEX
  8
AM_0
  5
1B11C
 10
761.826
 20
417.855
 30
0.000000
  70
    32
  0
VERTEX
  8
AM_0
  5
1B11D
 10
761.629
 20
418.136
 30
0.000000
  70
    32
  0
VERTEX
  8
AM_0
  5
1B11E
 10
761.445
 20
418.426
 30
0.000000
  70
    32
  0
VERTEX
  8
AM_0
  5
1B11F
 10
761.275
 20
418.725
 30
0.000000
  70
    32
  0
VERTEX
  8
AM_0
  5
1B120
 10
761.121
 20
419.032
 30
0.000000
  70
    32
  0
VERTEX
  8
AM_0
  5
1B121
 10
760.982
 20
419.346
 30
0.000000
  70
    32
  0
VERTEX
  8
AM_0
  5
1B122
 10
760.858
 20
419.667
 30
0.000000
  70
    32
  0
VERTEX
  8
AM_0
  5
1B123
 10
760.750
 20
419.993
 30
0.000000
  70
    32
  0
VERTEX
  8
AM_0
  5
1B124
 10
760.659
 20
420.324
 30
0.000000
  70
    32
  0
VERTEX
  8
AM_0
  5
1B125
 10
760.583
 20
420.659
 30
0.000000
  70
    32
  0
VERTEX
  8
AM_0
  5
1B126
 10
760.525
 20
420.998
 30
0.000000
  70
    32
  0
VERTEX
  8
AM_0
  5
1B127
 10
760.483
 20
421.339
 30
0.000000
  70
    32
  0
VERTEX
  8
AM_0
  5
1B128
 10
760.457
 20
421.681
 30
0.000000
  70
    32
  0
VERTEX
  8
AM_0
  5
1B129
 10
760.449
 20
422.025
 30
0.000000
  70
    32
  0
SEQEND
  8
AM_0
  5
1B12A
  0
LINE
  5
19AF6
  8
ﾁｭｳｼﾝｾﾝ1
 10
767.44890601592624
 20
434.02521103541801
 30
0.0
 11
767.44890601592624
 21
410.02473031966781
 31
0.0
  0
ARC
  5
19AF7
  8
AM_0
 10
786.87737210966247
 20
420.75274791487391
 30
0.0
 40
3.00000000006
 50
6.6607143203168917
 51
90.0
1001
GENIUS_GENOBJ-N-FIL_13
1002
{
1000
OWNER
1000
GEN
1002
}
1001
GENIUS_GENODEF_13
1002
{
1000
HIER
1070
     0
1002
}
1002
{
1000
MANEDIT
1070
     0
1002
}
1002
{
1000
NOSEL
1070
     0
1002
}
1002
{
1000
BEHIND
1070
     0
1002
}
1002
{
1000
OTHER
1070
     0
1002
}
1002
{
1000
REACTOR
1002
}
  0
POLYLINE
  5
19AF8
  8
AM_0
 10
767.44890667159632
 20
437.02527112488679
 30
0.0
 66
     1
 70
     8
  0
VERTEX
  8
AM_0
  5
1B12B
 10
767.449
 20
437.025
 30
0.000000
  70
    32
  0
VERTEX
  8
AM_0
  5
1B12C
 10
767.633
 20
437.024
 30
0.000000
  70
    32
  0
VERTEX
  8
AM_0
  5
1B12D
 10
767.817
 20
437.021
 30
0.000000
  70
    32
  0
VERTEX
  8
AM_0
  5
1B12E
 10
768.001
 20
437.015
 30
0.000000
  70
    32
  0
VERTEX
  8
AM_0
  5
1B12F
 10
768.185
 20
437.007
 30
0.000000
  70
    32
  0
VERTEX
  8
AM_0
  5
1B130
 10
768.369
 20
436.997
 30
0.000000
  70
    32
  0
VERTEX
  8
AM_0
  5
1B131
 10
768.552
 20
436.985
 30
0.000000
  70
    32
  0
VERTEX
  8
AM_0
  5
1B132
 10
768.736
 20
436.970
 30
0.000000
  70
    32
  0
VERTEX
  8
AM_0
  5
1B133
 10
768.919
 20
436.953
 30
0.000000
  70
    32
  0
VERTEX
  8
AM_0
  5
1B134
 10
769.102
 20
436.934
 30
0.000000
  70
    32
  0
VERTEX
  8
AM_0
  5
1B135
 10
769.285
 20
436.912
 30
0.000000
  70
    32
  0
VERTEX
  8
AM_0
  5
1B136
 10
769.468
 20
436.889
 30
0.000000
  70
    32
  0
VERTEX
  8
AM_0
  5
1B137
 10
769.650
 20
436.863
 30
0.000000
  70
    32
  0
VERTEX
  8
AM_0
  5
1B138
 10
769.832
 20
436.835
 30
0.000000
  70
    32
  0
VERTEX
  8
AM_0
  5
1B139
 10
770.013
 20
436.804
 30
0.000000
  70
    32
  0
VERTEX
  8
AM_0
  5
1B13A
 10
770.195
 20
436.772
 30
0.000000
  70
    32
  0
VERTEX
  8
AM_0
  5
1B13B
 10
770.375
 20
436.737
 30
0.000000
  70
    32
  0
VERTEX
  8
AM_0
  5
1B13C
 10
770.556
 20
436.700
 30
0.000000
  70
    32
  0
VERTEX
  8
AM_0
  5
1B13D
 10
770.735
 20
436.661
 30
0.000000
  70
    32
  0
VERTEX
  8
AM_0
  5
1B13E
 10
770.915
 20
436.619
 30
0.000000
  70
    32
  0
VERTEX
  8
AM_0
  5
1B13F
 10
771.094
 20
436.576
 30
0.000000
  70
    32
  0
VERTEX
  8
AM_0
  5
1B140
 10
771.272
 20
436.530
 30
0.000000
  70
    32
  0
VERTEX
  8
AM_0
  5
1B141
 10
771.450
 20
436.482
 30
0.000000
  70
    32
  0
VERTEX
  8
AM_0
  5
1B142
 10
771.627
 20
436.432
 30
0.000000
  70
    32
  0
VERTEX
  8
AM_0
  5
1B143
 10
771.803
 20
436.379
 30
0.000000
  70
    32
  0
VERTEX
  8
AM_0
  5
1B144
 10
771.979
 20
436.325
 30
0.000000
  70
    32
  0
VERTEX
  8
AM_0
  5
1B145
 10
772.154
 20
436.268
 30
0.000000
  70
    32
  0
VERTEX
  8
AM_0
  5
1B146
 10
772.329
 20
436.209
 30
0.000000
  70
    32
  0
VERTEX
  8
AM_0
  5
1B147
 10
772.502
 20
436.148
 30
0.000000
  70
    32
  0
VERTEX
  8
AM_0
  5
1B148
 10
772.675
 20
436.085
 30
0.000000
  70
    32
  0
VERTEX
  8
AM_0
  5
1B149
 10
772.847
 20
436.020
 30
0.000000
  70
    32
  0
VERTEX
  8
AM_0
  5
1B14A
 10
773.019
 20
435.953
 30
0.000000
  70
    32
  0
VERTEX
  8
AM_0
  5
1B14B
 10
773.189
 20
435.883
 30
0.000000
  70
    32
  0
VERTEX
  8
AM_0
  5
1B14C
 10
773.359
 20
435.812
 30
0.000000
  70
    32
  0
VERTEX
  8
AM_0
  5
1B14D
 10
773.528
 20
435.738
 30
0.000000
  70
    32
  0
VERTEX
  8
AM_0
  5
1B14E
 10
773.695
 20
435.663
 30
0.000000
  70
    32
  0
VERTEX
  8
AM_0
  5
1B14F
 10
773.862
 20
435.585
 30
0.000000
  70
    32
  0
VERTEX
  8
AM_0
  5
1B150
 10
774.028
 20
435.505
 30
0.000000
  70
    32
  0
VERTEX
  8
AM_0
  5
1B151
 10
774.193
 20
435.424
 30
0.000000
  70
    32
  0
VERTEX
  8
AM_0
  5
1B152
 10
774.357
 20
435.340
 30
0.000000
  70
    32
  0
VERTEX
  8
AM_0
  5
1B153
 10
774.520
 20
435.254
 30
0.000000
  70
    32
  0
VERTEX
  8
AM_0
  5
1B154
 10
774.682
 20
435.166
 30
0.000000
  70
    32
  0
VERTEX
  8
AM_0
  5
1B155
 10
774.842
 20
435.077
 30
0.000000
  70
    32
  0
VERTEX
  8
AM_0
  5
1B156
 10
775.002
 20
434.985
 30
0.000000
  70
    32
  0
VERTEX
  8
AM_0
  5
1B157
 10
775.160
 20
434.891
 30
0.000000
  70
    32
  0
VERTEX
  8
AM_0
  5
1B158
 10
775.318
 20
434.796
 30
0.000000
  70
    32
  0
VERTEX
  8
AM_0
  5
1B159
 10
775.474
 20
434.698
 30
0.000000
  70
    32
  0
VERTEX
  8
AM_0
  5
1B15A
 10
775.629
 20
434.599
 30
0.000000
  70
    32
  0
VERTEX
  8
AM_0
  5
1B15B
 10
775.782
 20
434.497
 30
0.000000
  70
    32
  0
VERTEX
  8
AM_0
  5
1B15C
 10
775.935
 20
434.394
 30
0.000000
  70
    32
  0
VERTEX
  8
AM_0
  5
1B15D
 10
776.086
 20
434.289
 30
0.000000
  70
    32
  0
VERTEX
  8
AM_0
  5
1B15E
 10
776.236
 20
434.182
 30
0.000000
  70
    32
  0
VERTEX
  8
AM_0
  5
1B15F
 10
776.384
 20
434.073
 30
0.000000
  70
    32
  0
VERTEX
  8
AM_0
  5
1B160
 10
776.532
 20
433.963
 30
0.000000
  70
    32
  0
VERTEX
  8
AM_0
  5
1B161
 10
776.677
 20
433.850
 30
0.000000
  70
    32
  0
VERTEX
  8
AM_0
  5
1B162
 10
776.822
 20
433.736
 30
0.000000
  70
    32
  0
VERTEX
  8
AM_0
  5
1B163
 10
776.965
 20
433.620
 30
0.000000
  70
    32
  0
VERTEX
  8
AM_0
  5
1B164
 10
777.106
 20
433.503
 30
0.000000
  70
    32
  0
VERTEX
  8
AM_0
  5
1B165
 10
777.246
 20
433.383
 30
0.000000
  70
    32
  0
VERTEX
  8
AM_0
  5
1B166
 10
777.385
 20
433.262
 30
0.000000
  70
    32
  0
VERTEX
  8
AM_0
  5
1B167
 10
777.522
 20
433.139
 30
0.000000
  70
    32
  0
VERTEX
  8
AM_0
  5
1B168
 10
777.658
 20
433.015
 30
0.000000
  70
    32
  0
VERTEX
  8
AM_0
  5
1B169
 10
777.792
 20
432.889
 30
0.000000
  70
    32
  0
VERTEX
  8
AM_0
  5
1B16A
 10
777.925
 20
432.761
 30
0.000000
  70
    32
  0
VERTEX
  8
AM_0
  5
1B16B
 10
778.056
 20
432.632
 30
0.000000
  70
    32
  0
VERTEX
  8
AM_0
  5
1B16C
 10
778.185
 20
432.501
 30
0.000000
  70
    32
  0
VERTEX
  8
AM_0
  5
1B16D
 10
778.313
 20
432.368
 30
0.000000
  70
    32
  0
VERTEX
  8
AM_0
  5
1B16E
 10
778.439
 20
432.234
 30
0.000000
  70
    32
  0
VERTEX
  8
AM_0
  5
1B16F
 10
778.563
 20
432.099
 30
0.000000
  70
    32
  0
VERTEX
  8
AM_0
  5
1B170
 10
778.686
 20
431.961
 30
0.000000
  70
    32
  0
VERTEX
  8
AM_0
  5
1B171
 10
778.807
 20
431.823
 30
0.000000
  70
    32
  0
VERTEX
  8
AM_0
  5
1B172
 10
778.926
 20
431.683
 30
0.000000
  70
    32
  0
VERTEX
  8
AM_0
  5
1B173
 10
779.044
 20
431.541
 30
0.000000
  70
    32
  0
VERTEX
  8
AM_0
  5
1B174
 10
779.160
 20
431.398
 30
0.000000
  70
    32
  0
VERTEX
  8
AM_0
  5
1B175
 10
779.274
 20
431.254
 30
0.000000
  70
    32
  0
VERTEX
  8
AM_0
  5
1B176
 10
779.386
 20
431.108
 30
0.000000
  70
    32
  0
VERTEX
  8
AM_0
  5
1B177
 10
779.497
 20
430.961
 30
0.000000
  70
    32
  0
VERTEX
  8
AM_0
  5
1B178
 10
779.606
 20
430.812
 30
0.000000
  70
    32
  0
VERTEX
  8
AM_0
  5
1B179
 10
779.713
 20
430.662
 30
0.000000
  70
    32
  0
VERTEX
  8
AM_0
  5
1B17A
 10
779.818
 20
430.511
 30
0.000000
  70
    32
  0
VERTEX
  8
AM_0
  5
1B17B
 10
779.921
 20
430.359
 30
0.000000
  70
    32
  0
VERTEX
  8
AM_0
  5
1B17C
 10
780.022
 20
430.205
 30
0.000000
  70
    32
  0
VERTEX
  8
AM_0
  5
1B17D
 10
780.122
 20
430.050
 30
0.000000
  70
    32
  0
VERTEX
  8
AM_0
  5
1B17E
 10
780.219
 20
429.894
 30
0.000000
  70
    32
  0
VERTEX
  8
AM_0
  5
1B17F
 10
780.315
 20
429.737
 30
0.000000
  70
    32
  0
VERTEX
  8
AM_0
  5
1B180
 10
780.408
 20
429.578
 30
0.000000
  70
    32
  0
VERTEX
  8
AM_0
  5
1B181
 10
780.500
 20
429.419
 30
0.000000
  70
    32
  0
VERTEX
  8
AM_0
  5
1B182
 10
780.590
 20
429.258
 30
0.000000
  70
    32
  0
VERTEX
  8
AM_0
  5
1B183
 10
780.678
 20
429.096
 30
0.000000
  70
    32
  0
VERTEX
  8
AM_0
  5
1B184
 10
780.764
 20
428.933
 30
0.000000
  70
    32
  0
VERTEX
  8
AM_0
  5
1B185
 10
780.847
 20
428.769
 30
0.000000
  70
    32
  0
VERTEX
  8
AM_0
  5
1B186
 10
780.929
 20
428.604
 30
0.000000
  70
    32
  0
VERTEX
  8
AM_0
  5
1B187
 10
781.009
 20
428.438
 30
0.000000
  70
    32
  0
VERTEX
  8
AM_0
  5
1B188
 10
781.086
 20
428.272
 30
0.000000
  70
    32
  0
VERTEX
  8
AM_0
  5
1B189
 10
781.162
 20
428.104
 30
0.000000
  70
    32
  0
VERTEX
  8
AM_0
  5
1B18A
 10
781.236
 20
427.935
 30
0.000000
  70
    32
  0
VERTEX
  8
AM_0
  5
1B18B
 10
781.307
 20
427.765
 30
0.000000
  70
    32
  0
VERTEX
  8
AM_0
  5
1B18C
 10
781.376
 20
427.595
 30
0.000000
  70
    32
  0
VERTEX
  8
AM_0
  5
1B18D
 10
781.444
 20
427.424
 30
0.000000
  70
    32
  0
VERTEX
  8
AM_0
  5
1B18E
 10
781.509
 20
427.251
 30
0.000000
  70
    32
  0
VERTEX
  8
AM_0
  5
1B18F
 10
781.572
 20
427.078
 30
0.000000
  70
    32
  0
VERTEX
  8
AM_0
  5
1B190
 10
781.633
 20
426.905
 30
0.000000
  70
    32
  0
VERTEX
  8
AM_0
  5
1B191
 10
781.692
 20
426.730
 30
0.000000
  70
    32
  0
VERTEX
  8
AM_0
  5
1B192
 10
781.748
 20
426.555
 30
0.000000
  70
    32
  0
VERTEX
  8
AM_0
  5
1B193
 10
781.803
 20
426.379
 30
0.000000
  70
    32
  0
VERTEX
  8
AM_0
  5
1B194
 10
781.855
 20
426.203
 30
0.000000
  70
    32
  0
VERTEX
  8
AM_0
  5
1B195
 10
781.906
 20
426.026
 30
0.000000
  70
    32
  0
VERTEX
  8
AM_0
  5
1B196
 10
781.954
 20
425.848
 30
0.000000
  70
    32
  0
VERTEX
  8
AM_0
  5
1B197
 10
781.999
 20
425.670
 30
0.000000
  70
    32
  0
VERTEX
  8
AM_0
  5
1B198
 10
782.043
 20
425.491
 30
0.000000
  70
    32
  0
VERTEX
  8
AM_0
  5
1B199
 10
782.084
 20
425.312
 30
0.000000
  70
    32
  0
VERTEX
  8
AM_0
  5
1B19A
 10
782.124
 20
425.132
 30
0.000000
  70
    32
  0
VERTEX
  8
AM_0
  5
1B19B
 10
782.161
 20
424.951
 30
0.000000
  70
    32
  0
VERTEX
  8
AM_0
  5
1B19C
 10
782.195
 20
424.771
 30
0.000000
  70
    32
  0
VERTEX
  8
AM_0
  5
1B19D
 10
782.228
 20
424.589
 30
0.000000
  70
    32
  0
VERTEX
  8
AM_0
  5
1B19E
 10
782.258
 20
424.408
 30
0.000000
  70
    32
  0
VERTEX
  8
AM_0
  5
1B19F
 10
782.287
 20
424.226
 30
0.000000
  70
    32
  0
VERTEX
  8
AM_0
  5
1B1A0
 10
782.312
 20
424.044
 30
0.000000
  70
    32
  0
VERTEX
  8
AM_0
  5
1B1A1
 10
782.336
 20
423.861
 30
0.000000
  70
    32
  0
VERTEX
  8
AM_0
  5
1B1A2
 10
782.358
 20
423.678
 30
0.000000
  70
    32
  0
VERTEX
  8
AM_0
  5
1B1A3
 10
782.377
 20
423.495
 30
0.000000
  70
    32
  0
VERTEX
  8
AM_0
  5
1B1A4
 10
782.394
 20
423.312
 30
0.000000
  70
    32
  0
VERTEX
  8
AM_0
  5
1B1A5
 10
782.408
 20
423.128
 30
0.000000
  70
    32
  0
VERTEX
  8
AM_0
  5
1B1A6
 10
782.421
 20
422.945
 30
0.000000
  70
    32
  0
VERTEX
  8
AM_0
  5
1B1A7
 10
782.431
 20
422.761
 30
0.000000
  70
    32
  0
VERTEX
  8
AM_0
  5
1B1A8
 10
782.439
 20
422.577
 30
0.000000
  70
    32
  0
VERTEX
  8
AM_0
  5
1B1A9
 10
782.444
 20
422.393
 30
0.000000
  70
    32
  0
VERTEX
  8
AM_0
  5
1B1AA
 10
782.448
 20
422.209
 30
0.000000
  70
    32
  0
VERTEX
  8
AM_0
  5
1B1AB
 10
782.449
 20
422.025
 30
0.000000
  70
    32
  0
SEQEND
  8
AM_0
  5
1B1AC
  0
LINE
  5
19AF9
  8
ﾁｭｳｼﾝｾﾝ1
 10
779.44890637379387
 20
422.02497067754302
 30
0.0
 11
755.44893617563707
 21
422.02497067754302
 31
0.0
  0
LINE
  5
19AFB
  8
AM_0
 10
786.87737210966247
 20
423.75274791493382
 30
0.0
 11
783.44890646328076
 21
423.75274791493382
 31
0.0
  0
POLYLINE
  5
19B00
  8
AM_0
 10
585.44893110584269
 20
422.02497067754302
 30
0.0
 66
     1
 70
     8
  0
VERTEX
  8
AM_0
  5
1B1AD
 10
585.449
 20
422.025
 30
0.000000
  70
    32
  0
VERTEX
  8
AM_0
  5
1B1AE
 10
585.457
 20
422.368
 30
0.000000
  70
    32
  0
VERTEX
  8
AM_0
  5
1B1AF
 10
585.483
 20
422.711
 30
0.000000
  70
    32
  0
VERTEX
  8
AM_0
  5
1B1B0
 10
585.525
 20
423.052
 30
0.000000
  70
    32
  0
VERTEX
  8
AM_0
  5
1B1B1
 10
585.583
 20
423.391
 30
0.000000
  70
    32
  0
VERTEX
  8
AM_0
  5
1B1B2
 10
585.659
 20
423.726
 30
0.000000
  70
    32
  0
VERTEX
  8
AM_0
  5
1B1B3
 10
585.750
 20
424.057
 30
0.000000
  70
    32
  0
VERTEX
  8
AM_0
  5
1B1B4
 10
585.858
 20
424.383
 30
0.000000
  70
    32
  0
VERTEX
  8
AM_0
  5
1B1B5
 10
585.982
 20
424.704
 30
0.000000
  70
    32
  0
VERTEX
  8
AM_0
  5
1B1B6
 10
586.121
 20
425.018
 30
0.000000
  70
    32
  0
VERTEX
  8
AM_0
  5
1B1B7
 10
586.275
 20
425.325
 30
0.000000
  70
    32
  0
VERTEX
  8
AM_0
  5
1B1B8
 10
586.445
 20
425.624
 30
0.000000
  70
    32
  0
VERTEX
  8
AM_0
  5
1B1B9
 10
586.629
 20
425.914
 30
0.000000
  70
    32
  0
VERTEX
  8
AM_0
  5
1B1BA
 10
586.826
 20
426.195
 30
0.000000
  70
    32
  0
VERTEX
  8
AM_0
  5
1B1BB
 10
587.038
 20
426.466
 30
0.000000
  70
    32
  0
VERTEX
  8
AM_0
  5
1B1BC
 10
587.262
 20
426.726
 30
0.000000
  70
    32
  0
VERTEX
  8
AM_0
  5
1B1BD
 10
587.499
 20
426.975
 30
0.000000
  70
    32
  0
VERTEX
  8
AM_0
  5
1B1BE
 10
587.748
 20
427.212
 30
0.000000
  70
    32
  0
VERTEX
  8
AM_0
  5
1B1BF
 10
588.008
 20
427.436
 30
0.000000
  70
    32
  0
VERTEX
  8
AM_0
  5
1B1C0
 10
588.279
 20
427.648
 30
0.000000
  70
    32
  0
VERTEX
  8
AM_0
  5
1B1C1
 10
588.560
 20
427.845
 30
0.000000
  70
    32
  0
VERTEX
  8
AM_0
  5
1B1C2
 10
588.850
 20
428.029
 30
0.000000
  70
    32
  0
VERTEX
  8
AM_0
  5
1B1C3
 10
589.149
 20
428.199
 30
0.000000
  70
    32
  0
VERTEX
  8
AM_0
  5
1B1C4
 10
589.456
 20
428.353
 30
0.000000
  70
    32
  0
VERTEX
  8
AM_0
  5
1B1C5
 10
589.770
 20
428.492
 30
0.000000
  70
    32
  0
VERTEX
  8
AM_0
  5
1B1C6
 10
590.091
 20
428.616
 30
0.000000
  70
    32
  0
VERTEX
  8
AM_0
  5
1B1C7
 10
590.417
 20
428.724
 30
0.000000
  70
    32
  0
VERTEX
  8
AM_0
  5
1B1C8
 10
590.748
 20
428.815
 30
0.000000
  70
    32
  0
VERTEX
  8
AM_0
  5
1B1C9
 10
591.083
 20
428.891
 30
0.000000
  70
    32
  0
VERTEX
  8
AM_0
  5
1B1CA
 10
591.422
 20
428.949
 30
0.000000
  70
    32
  0
VERTEX
  8
AM_0
  5
1B1CB
 10
591.763
 20
428.991
 30
0.000000
  70
    32
  0
VERTEX
  8
AM_0
  5
1B1CC
 10
592.105
 20
429.017
 30
0.000000
  70
    32
  0
VERTEX
  8
AM_0
  5
1B1CD
 10
592.449
 20
429.025
 30
0.000000
  70
    32
  0
VERTEX
  8
AM_0
  5
1B1CE
 10
592.792
 20
429.017
 30
0.000000
  70
    32
  0
VERTEX
  8
AM_0
  5
1B1CF
 10
593.135
 20
428.991
 30
0.000000
  70
    32
  0
VERTEX
  8
AM_0
  5
1B1D0
 10
593.476
 20
428.949
 30
0.000000
  70
    32
  0
VERTEX
  8
AM_0
  5
1B1D1
 10
593.815
 20
428.891
 30
0.000000
  70
    32
  0
VERTEX
  8
AM_0
  5
1B1D2
 10
594.150
 20
428.815
 30
0.000000
  70
    32
  0
VERTEX
  8
AM_0
  5
1B1D3
 10
594.481
 20
428.724
 30
0.000000
  70
    32
  0
VERTEX
  8
AM_0
  5
1B1D4
 10
594.807
 20
428.616
 30
0.000000
  70
    32
  0
VERTEX
  8
AM_0
  5
1B1D5
 10
595.128
 20
428.492
 30
0.000000
  70
    32
  0
VERTEX
  8
AM_0
  5
1B1D6
 10
595.442
 20
428.353
 30
0.000000
  70
    32
  0
VERTEX
  8
AM_0
  5
1B1D7
 10
595.749
 20
428.199
 30
0.000000
  70
    32
  0
VERTEX
  8
AM_0
  5
1B1D8
 10
596.048
 20
428.029
 30
0.000000
  70
    32
  0
VERTEX
  8
AM_0
  5
1B1D9
 10
596.338
 20
427.845
 30
0.000000
  70
    32
  0
VERTEX
  8
AM_0
  5
1B1DA
 10
596.619
 20
427.648
 30
0.000000
  70
    32
  0
VERTEX
  8
AM_0
  5
1B1DB
 10
596.890
 20
427.436
 30
0.000000
  70
    32
  0
VERTEX
  8
AM_0
  5
1B1DC
 10
597.150
 20
427.212
 30
0.000000
  70
    32
  0
VERTEX
  8
AM_0
  5
1B1DD
 10
597.399
 20
426.975
 30
0.000000
  70
    32
  0
VERTEX
  8
AM_0
  5
1B1DE
 10
597.636
 20
426.726
 30
0.000000
  70
    32
  0
VERTEX
  8
AM_0
  5
1B1DF
 10
597.860
 20
426.466
 30
0.000000
  70
    32
  0
VERTEX
  8
AM_0
  5
1B1E0
 10
598.071
 20
426.195
 30
0.000000
  70
    32
  0
VERTEX
  8
AM_0
  5
1B1E1
 10
598.269
 20
425.914
 30
0.000000
  70
    32
  0
VERTEX
  8
AM_0
  5
1B1E2
 10
598.453
 20
425.624
 30
0.000000
  70
    32
  0
VERTEX
  8
AM_0
  5
1B1E3
 10
598.622
 20
425.325
 30
0.000000
  70
    32
  0
VERTEX
  8
AM_0
  5
1B1E4
 10
598.777
 20
425.018
 30
0.000000
  70
    32
  0
VERTEX
  8
AM_0
  5
1B1E5
 10
598.916
 20
424.704
 30
0.000000
  70
    32
  0
VERTEX
  8
AM_0
  5
1B1E6
 10
599.040
 20
424.383
 30
0.000000
  70
    32
  0
VERTEX
  8
AM_0
  5
1B1E7
 10
599.148
 20
424.057
 30
0.000000
  70
    32
  0
VERTEX
  8
AM_0
  5
1B1E8
 10
599.239
 20
423.726
 30
0.000000
  70
    32
  0
VERTEX
  8
AM_0
  5
1B1E9
 10
599.314
 20
423.391
 30
0.000000
  70
    32
  0
VERTEX
  8
AM_0
  5
1B1EA
 10
599.373
 20
423.052
 30
0.000000
  70
    32
  0
VERTEX
  8
AM_0
  5
1B1EB
 10
599.415
 20
422.711
 30
0.000000
  70
    32
  0
VERTEX
  8
AM_0
  5
1B1EC
 10
599.440
 20
422.368
 30
0.000000
  70
    32
  0
VERTEX
  8
AM_0
  5
1B1ED
 10
599.449
 20
422.025
 30
0.000000
  70
    32
  0
VERTEX
  8
AM_0
  5
1B1EE
 10
599.440
 20
421.681
 30
0.000000
  70
    32
  0
VERTEX
  8
AM_0
  5
1B1EF
 10
599.415
 20
421.339
 30
0.000000
  70
    32
  0
VERTEX
  8
AM_0
  5
1B1F0
 10
599.373
 20
420.998
 30
0.000000
  70
    32
  0
VERTEX
  8
AM_0
  5
1B1F1
 10
599.314
 20
420.659
 30
0.000000
  70
    32
  0
VERTEX
  8
AM_0
  5
1B1F2
 10
599.239
 20
420.324
 30
0.000000
  70
    32
  0
VERTEX
  8
AM_0
  5
1B1F3
 10
599.148
 20
419.993
 30
0.000000
  70
    32
  0
VERTEX
  8
AM_0
  5
1B1F4
 10
599.040
 20
419.667
 30
0.000000
  70
    32
  0
VERTEX
  8
AM_0
  5
1B1F5
 10
598.916
 20
419.346
 30
0.000000
  70
    32
  0
VERTEX
  8
AM_0
  5
1B1F6
 10
598.777
 20
419.032
 30
0.000000
  70
    32
  0
VERTEX
  8
AM_0
  5
1B1F7
 10
598.622
 20
418.725
 30
0.000000
  70
    32
  0
VERTEX
  8
AM_0
  5
1B1F8
 10
598.453
 20
418.426
 30
0.000000
  70
    32
  0
VERTEX
  8
AM_0
  5
1B1F9
 10
598.269
 20
418.136
 30
0.000000
  70
    32
  0
VERTEX
  8
AM_0
  5
1B1FA
 10
598.071
 20
417.855
 30
0.000000
  70
    32
  0
VERTEX
  8
AM_0
  5
1B1FB
 10
597.860
 20
417.584
 30
0.000000
  70
    32
  0
VERTEX
  8
AM_0
  5
1B1FC
 10
597.636
 20
417.324
 30
0.000000
  70
    32
  0
VERTEX
  8
AM_0
  5
1B1FD
 10
597.399
 20
417.075
 30
0.000000
  70
    32
  0
VERTEX
  8
AM_0
  5
1B1FE
 10
597.150
 20
416.838
 30
0.000000
  70
    32
  0
VERTEX
  8
AM_0
  5
1B1FF
 10
596.890
 20
416.614
 30
0.000000
  70
    32
  0
VERTEX
  8
AM_0
  5
1B200
 10
596.619
 20
416.402
 30
0.000000
  70
    32
  0
VERTEX
  8
AM_0
  5
1B201
 10
596.338
 20
416.205
 30
0.000000
  70
    32
  0
VERTEX
  8
AM_0
  5
1B202
 10
596.048
 20
416.021
 30
0.000000
  70
    32
  0
VERTEX
  8
AM_0
  5
1B203
 10
595.749
 20
415.851
 30
0.000000
  70
    32
  0
VERTEX
  8
AM_0
  5
1B204
 10
595.442
 20
415.697
 30
0.000000
  70
    32
  0
VERTEX
  8
AM_0
  5
1B205
 10
595.128
 20
415.558
 30
0.000000
  70
    32
  0
VERTEX
  8
AM_0
  5
1B206
 10
594.807
 20
415.434
 30
0.000000
  70
    32
  0
VERTEX
  8
AM_0
  5
1B207
 10
594.481
 20
415.326
 30
0.000000
  70
    32
  0
VERTEX
  8
AM_0
  5
1B208
 10
594.150
 20
415.235
 30
0.000000
  70
    32
  0
VERTEX
  8
AM_0
  5
1B209
 10
593.815
 20
415.159
 30
0.000000
  70
    32
  0
VERTEX
  8
AM_0
  5
1B20A
 10
593.476
 20
415.101
 30
0.000000
  70
    32
  0
VERTEX
  8
AM_0
  5
1B20B
 10
593.135
 20
415.059
 30
0.000000
  70
    32
  0
VERTEX
  8
AM_0
  5
1B20C
 10
592.792
 20
415.033
 30
0.000000
  70
    32
  0
VERTEX
  8
AM_0
  5
1B20D
 10
592.449
 20
415.025
 30
0.000000
  70
    32
  0
VERTEX
  8
AM_0
  5
1B20E
 10
592.105
 20
415.033
 30
0.000000
  70
    32
  0
VERTEX
  8
AM_0
  5
1B20F
 10
591.763
 20
415.059
 30
0.000000
  70
    32
  0
VERTEX
  8
AM_0
  5
1B210
 10
591.422
 20
415.101
 30
0.000000
  70
    32
  0
VERTEX
  8
AM_0
  5
1B211
 10
591.083
 20
415.159
 30
0.000000
  70
    32
  0
VERTEX
  8
AM_0
  5
1B212
 10
590.748
 20
415.235
 30
0.000000
  70
    32
  0
VERTEX
  8
AM_0
  5
1B213
 10
590.417
 20
415.326
 30
0.000000
  70
    32
  0
VERTEX
  8
AM_0
  5
1B214
 10
590.091
 20
415.434
 30
0.000000
  70
    32
  0
VERTEX
  8
AM_0
  5
1B215
 10
589.770
 20
415.558
 30
0.000000
  70
    32
  0
VERTEX
  8
AM_0
  5
1B216
 10
589.456
 20
415.697
 30
0.000000
  70
    32
  0
VERTEX
  8
AM_0
  5
1B217
 10
589.149
 20
415.851
 30
0.000000
  70
    32
  0
VERTEX
  8
AM_0
  5
1B218
 10
588.850
 20
416.021
 30
0.000000
  70
    32
  0
VERTEX
  8
AM_0
  5
1B219
 10
588.560
 20
416.205
 30
0.000000
  70
    32
  0
VERTEX
  8
AM_0
  5
1B21A
 10
588.279
 20
416.402
 30
0.000000
  70
    32
  0
VERTEX
  8
AM_0
  5
1B21B
 10
588.008
 20
416.614
 30
0.000000
  70
    32
  0
VERTEX
  8
AM_0
  5
1B21C
 10
587.748
 20
416.838
 30
0.000000
  70
    32
  0
VERTEX
  8
AM_0
  5
1B21D
 10
587.499
 20
417.075
 30
0.000000
  70
    32
  0
VERTEX
  8
AM_0
  5
1B21E
 10
587.262
 20
417.324
 30
0.000000
  70
    32
  0
VERTEX
  8
AM_0
  5
1B21F
 10
587.038
 20
417.584
 30
0.000000
  70
    32
  0
VERTEX
  8
AM_0
  5
1B220
 10
586.826
 20
417.855
 30
0.000000
  70
    32
  0
VERTEX
  8
AM_0
  5
1B221
 10
586.629
 20
418.136
 30
0.000000
  70
    32
  0
VERTEX
  8
AM_0
  5
1B222
 10
586.445
 20
418.426
 30
0.000000
  70
    32
  0
VERTEX
  8
AM_0
  5
1B223
 10
586.275
 20
418.725
 30
0.000000
  70
    32
  0
VERTEX
  8
AM_0
  5
1B224
 10
586.121
 20
419.032
 30
0.000000
  70
    32
  0
VERTEX
  8
AM_0
  5
1B225
 10
585.982
 20
419.346
 30
0.000000
  70
    32
  0
VERTEX
  8
AM_0
  5
1B226
 10
585.858
 20
419.667
 30
0.000000
  70
    32
  0
VERTEX
  8
AM_0
  5
1B227
 10
585.750
 20
419.993
 30
0.000000
  70
    32
  0
VERTEX
  8
AM_0
  5
1B228
 10
585.659
 20
420.324
 30
0.000000
  70
    32
  0
VERTEX
  8
AM_0
  5
1B229
 10
585.583
 20
420.659
 30
0.000000
  70
    32
  0
VERTEX
  8
AM_0
  5
1B22A
 10
585.525
 20
420.998
 30
0.000000
  70
    32
  0
VERTEX
  8
AM_0
  5
1B22B
 10
585.483
 20
421.339
 30
0.000000
  70
    32
  0
VERTEX
  8
AM_0
  5
1B22C
 10
585.457
 20
421.681
 30
0.000000
  70
    32
  0
VERTEX
  8
AM_0
  5
1B22D
 10
585.449
 20
422.025
 30
0.000000
  70
    32
  0
SEQEND
  8
AM_0
  5
1B22E
  0
LINE
  5
19B02
  8
ﾁｭｳｼﾝｾﾝ1
 10
592.44893131459855
 20
434.02521103541801
 30
0.0
 11
592.44893131459855
 21
410.02473031966781
 31
0.0
  0
POLYLINE
  5
19B03
  8
AM_0
 10
577.44893086726404
 20
422.02497067754302
 30
0.0
 66
     1
 70
     8
  0
VERTEX
  8
AM_0
  5
1B22F
 10
577.449
 20
422.025
 30
0.000000
  70
    32
  0
VERTEX
  8
AM_0
  5
1B230
 10
577.450
 20
422.209
 30
0.000000
  70
    32
  0
VERTEX
  8
AM_0
  5
1B231
 10
577.453
 20
422.393
 30
0.000000
  70
    32
  0
VERTEX
  8
AM_0
  5
1B232
 10
577.459
 20
422.577
 30
0.000000
  70
    32
  0
VERTEX
  8
AM_0
  5
1B233
 10
577.467
 20
422.761
 30
0.000000
  70
    32
  0
VERTEX
  8
AM_0
  5
1B234
 10
577.477
 20
422.945
 30
0.000000
  70
    32
  0
VERTEX
  8
AM_0
  5
1B235
 10
577.490
 20
423.128
 30
0.000000
  70
    32
  0
VERTEX
  8
AM_0
  5
1B236
 10
577.504
 20
423.312
 30
0.000000
  70
    32
  0
VERTEX
  8
AM_0
  5
1B237
 10
577.521
 20
423.495
 30
0.000000
  70
    32
  0
VERTEX
  8
AM_0
  5
1B238
 10
577.540
 20
423.678
 30
0.000000
  70
    32
  0
VERTEX
  8
AM_0
  5
1B239
 10
577.562
 20
423.861
 30
0.000000
  70
    32
  0
VERTEX
  8
AM_0
  5
1B23A
 10
577.585
 20
424.044
 30
0.000000
  70
    32
  0
VERTEX
  8
AM_0
  5
1B23B
 10
577.611
 20
424.226
 30
0.000000
  70
    32
  0
VERTEX
  8
AM_0
  5
1B23C
 10
577.639
 20
424.408
 30
0.000000
  70
    32
  0
VERTEX
  8
AM_0
  5
1B23D
 10
577.670
 20
424.589
 30
0.000000
  70
    32
  0
VERTEX
  8
AM_0
  5
1B23E
 10
577.702
 20
424.771
 30
0.000000
  70
    32
  0
VERTEX
  8
AM_0
  5
1B23F
 10
577.737
 20
424.951
 30
0.000000
  70
    32
  0
VERTEX
  8
AM_0
  5
1B240
 10
577.774
 20
425.132
 30
0.000000
  70
    32
  0
VERTEX
  8
AM_0
  5
1B241
 10
577.813
 20
425.312
 30
0.000000
  70
    32
  0
VERTEX
  8
AM_0
  5
1B242
 10
577.855
 20
425.491
 30
0.000000
  70
    32
  0
VERTEX
  8
AM_0
  5
1B243
 10
577.898
 20
425.670
 30
0.000000
  70
    32
  0
VERTEX
  8
AM_0
  5
1B244
 10
577.944
 20
425.848
 30
0.000000
  70
    32
  0
VERTEX
  8
AM_0
  5
1B245
 10
577.992
 20
426.026
 30
0.000000
  70
    32
  0
VERTEX
  8
AM_0
  5
1B246
 10
578.042
 20
426.203
 30
0.000000
  70
    32
  0
VERTEX
  8
AM_0
  5
1B247
 10
578.095
 20
426.379
 30
0.000000
  70
    32
  0
VERTEX
  8
AM_0
  5
1B248
 10
578.149
 20
426.555
 30
0.000000
  70
    32
  0
VERTEX
  8
AM_0
  5
1B249
 10
578.206
 20
426.730
 30
0.000000
  70
    32
  0
VERTEX
  8
AM_0
  5
1B24A
 10
578.265
 20
426.905
 30
0.000000
  70
    32
  0
VERTEX
  8
AM_0
  5
1B24B
 10
578.326
 20
427.078
 30
0.000000
  70
    32
  0
VERTEX
  8
AM_0
  5
1B24C
 10
578.389
 20
427.251
 30
0.000000
  70
    32
  0
VERTEX
  8
AM_0
  5
1B24D
 10
578.454
 20
427.424
 30
0.000000
  70
    32
  0
VERTEX
  8
AM_0
  5
1B24E
 10
578.521
 20
427.595
 30
0.000000
  70
    32
  0
VERTEX
  8
AM_0
  5
1B24F
 10
578.591
 20
427.765
 30
0.000000
  70
    32
  0
VERTEX
  8
AM_0
  5
1B250
 10
578.662
 20
427.935
 30
0.000000
  70
    32
  0
VERTEX
  8
AM_0
  5
1B251
 10
578.736
 20
428.104
 30
0.000000
  70
    32
  0
VERTEX
  8
AM_0
  5
1B252
 10
578.811
 20
428.272
 30
0.000000
  70
    32
  0
VERTEX
  8
AM_0
  5
1B253
 10
578.889
 20
428.438
 30
0.000000
  70
    32
  0
VERTEX
  8
AM_0
  5
1B254
 10
578.969
 20
428.604
 30
0.000000
  70
    32
  0
VERTEX
  8
AM_0
  5
1B255
 10
579.051
 20
428.769
 30
0.000000
  70
    32
  0
VERTEX
  8
AM_0
  5
1B256
 10
579.134
 20
428.933
 30
0.000000
  70
    32
  0
VERTEX
  8
AM_0
  5
1B257
 10
579.220
 20
429.096
 30
0.000000
  70
    32
  0
VERTEX
  8
AM_0
  5
1B258
 10
579.308
 20
429.258
 30
0.000000
  70
    32
  0
VERTEX
  8
AM_0
  5
1B259
 10
579.398
 20
429.419
 30
0.000000
  70
    32
  0
VERTEX
  8
AM_0
  5
1B25A
 10
579.489
 20
429.578
 30
0.000000
  70
    32
  0
VERTEX
  8
AM_0
  5
1B25B
 10
579.583
 20
429.737
 30
0.000000
  70
    32
  0
VERTEX
  8
AM_0
  5
1B25C
 10
579.679
 20
429.894
 30
0.000000
  70
    32
  0
VERTEX
  8
AM_0
  5
1B25D
 10
579.776
 20
430.050
 30
0.000000
  70
    32
  0
VERTEX
  8
AM_0
  5
1B25E
 10
579.876
 20
430.205
 30
0.000000
  70
    32
  0
VERTEX
  8
AM_0
  5
1B25F
 10
579.977
 20
430.359
 30
0.000000
  70
    32
  0
VERTEX
  8
AM_0
  5
1B260
 10
580.080
 20
430.511
 30
0.000000
  70
    32
  0
VERTEX
  8
AM_0
  5
1B261
 10
580.185
 20
430.662
 30
0.000000
  70
    32
  0
VERTEX
  8
AM_0
  5
1B262
 10
580.292
 20
430.812
 30
0.000000
  70
    32
  0
VERTEX
  8
AM_0
  5
1B263
 10
580.401
 20
430.961
 30
0.000000
  70
    32
  0
VERTEX
  8
AM_0
  5
1B264
 10
580.511
 20
431.108
 30
0.000000
  70
    32
  0
VERTEX
  8
AM_0
  5
1B265
 10
580.624
 20
431.254
 30
0.000000
  70
    32
  0
VERTEX
  8
AM_0
  5
1B266
 10
580.738
 20
431.398
 30
0.000000
  70
    32
  0
VERTEX
  8
AM_0
  5
1B267
 10
580.854
 20
431.541
 30
0.000000
  70
    32
  0
VERTEX
  8
AM_0
  5
1B268
 10
580.971
 20
431.683
 30
0.000000
  70
    32
  0
VERTEX
  8
AM_0
  5
1B269
 10
581.091
 20
431.823
 30
0.000000
  70
    32
  0
VERTEX
  8
AM_0
  5
1B26A
 10
581.212
 20
431.961
 30
0.000000
  70
    32
  0
VERTEX
  8
AM_0
  5
1B26B
 10
581.335
 20
432.099
 30
0.000000
  70
    32
  0
VERTEX
  8
AM_0
  5
1B26C
 10
581.459
 20
432.234
 30
0.000000
  70
    32
  0
VERTEX
  8
AM_0
  5
1B26D
 10
581.585
 20
432.368
 30
0.000000
  70
    32
  0
VERTEX
  8
AM_0
  5
1B26E
 10
581.713
 20
432.501
 30
0.000000
  70
    32
  0
VERTEX
  8
AM_0
  5
1B26F
 10
581.842
 20
432.632
 30
0.000000
  70
    32
  0
VERTEX
  8
AM_0
  5
1B270
 10
581.973
 20
432.761
 30
0.000000
  70
    32
  0
VERTEX
  8
AM_0
  5
1B271
 10
582.106
 20
432.889
 30
0.000000
  70
    32
  0
VERTEX
  8
AM_0
  5
1B272
 10
582.240
 20
433.015
 30
0.000000
  70
    32
  0
VERTEX
  8
AM_0
  5
1B273
 10
582.376
 20
433.139
 30
0.000000
  70
    32
  0
VERTEX
  8
AM_0
  5
1B274
 10
582.513
 20
433.262
 30
0.000000
  70
    32
  0
VERTEX
  8
AM_0
  5
1B275
 10
582.651
 20
433.383
 30
0.000000
  70
    32
  0
VERTEX
  8
AM_0
  5
1B276
 10
582.791
 20
433.503
 30
0.000000
  70
    32
  0
VERTEX
  8
AM_0
  5
1B277
 10
582.933
 20
433.620
 30
0.000000
  70
    32
  0
VERTEX
  8
AM_0
  5
1B278
 10
583.076
 20
433.736
 30
0.000000
  70
    32
  0
VERTEX
  8
AM_0
  5
1B279
 10
583.220
 20
433.850
 30
0.000000
  70
    32
  0
VERTEX
  8
AM_0
  5
1B27A
 10
583.366
 20
433.963
 30
0.000000
  70
    32
  0
VERTEX
  8
AM_0
  5
1B27B
 10
583.513
 20
434.073
 30
0.000000
  70
    32
  0
VERTEX
  8
AM_0
  5
1B27C
 10
583.662
 20
434.182
 30
0.000000
  70
    32
  0
VERTEX
  8
AM_0
  5
1B27D
 10
583.812
 20
434.289
 30
0.000000
  70
    32
  0
VERTEX
  8
AM_0
  5
1B27E
 10
583.963
 20
434.394
 30
0.000000
  70
    32
  0
VERTEX
  8
AM_0
  5
1B27F
 10
584.115
 20
434.497
 30
0.000000
  70
    32
  0
VERTEX
  8
AM_0
  5
1B280
 10
584.269
 20
434.599
 30
0.000000
  70
    32
  0
VERTEX
  8
AM_0
  5
1B281
 10
584.424
 20
434.698
 30
0.000000
  70
    32
  0
VERTEX
  8
AM_0
  5
1B282
 10
584.580
 20
434.796
 30
0.000000
  70
    32
  0
VERTEX
  8
AM_0
  5
1B283
 10
584.737
 20
434.891
 30
0.000000
  70
    32
  0
VERTEX
  8
AM_0
  5
1B284
 10
584.896
 20
434.985
 30
0.000000
  70
    32
  0
VERTEX
  8
AM_0
  5
1B285
 10
585.055
 20
435.077
 30
0.000000
  70
    32
  0
VERTEX
  8
AM_0
  5
1B286
 10
585.216
 20
435.166
 30
0.000000
  70
    32
  0
VERTEX
  8
AM_0
  5
1B287
 10
585.378
 20
435.254
 30
0.000000
  70
    32
  0
VERTEX
  8
AM_0
  5
1B288
 10
585.541
 20
435.340
 30
0.000000
  70
    32
  0
VERTEX
  8
AM_0
  5
1B289
 10
585.705
 20
435.424
 30
0.000000
  70
    32
  0
VERTEX
  8
AM_0
  5
1B28A
 10
585.870
 20
435.505
 30
0.000000
  70
    32
  0
VERTEX
  8
AM_0
  5
1B28B
 10
586.036
 20
435.585
 30
0.000000
  70
    32
  0
VERTEX
  8
AM_0
  5
1B28C
 10
586.202
 20
435.663
 30
0.000000
  70
    32
  0
VERTEX
  8
AM_0
  5
1B28D
 10
586.370
 20
435.738
 30
0.000000
  70
    32
  0
VERTEX
  8
AM_0
  5
1B28E
 10
586.539
 20
435.812
 30
0.000000
  70
    32
  0
VERTEX
  8
AM_0
  5
1B28F
 10
586.709
 20
435.883
 30
0.000000
  70
    32
  0
VERTEX
  8
AM_0
  5
1B290
 10
586.879
 20
435.953
 30
0.000000
  70
    32
  0
VERTEX
  8
AM_0
  5
1B291
 10
587.051
 20
436.020
 30
0.000000
  70
    32
  0
VERTEX
  8
AM_0
  5
1B292
 10
587.223
 20
436.085
 30
0.000000
  70
    32
  0
VERTEX
  8
AM_0
  5
1B293
 10
587.396
 20
436.148
 30
0.000000
  70
    32
  0
VERTEX
  8
AM_0
  5
1B294
 10
587.569
 20
436.209
 30
0.000000
  70
    32
  0
VERTEX
  8
AM_0
  5
1B295
 10
587.744
 20
436.268
 30
0.000000
  70
    32
  0
VERTEX
  8
AM_0
  5
1B296
 10
587.919
 20
436.325
 30
0.000000
  70
    32
  0
VERTEX
  8
AM_0
  5
1B297
 10
588.095
 20
436.379
 30
0.000000
  70
    32
  0
VERTEX
  8
AM_0
  5
1B298
 10
588.271
 20
436.432
 30
0.000000
  70
    32
  0
VERTEX
  8
AM_0
  5
1B299
 10
588.448
 20
436.482
 30
0.000000
  70
    32
  0
VERTEX
  8
AM_0
  5
1B29A
 10
588.626
 20
436.530
 30
0.000000
  70
    32
  0
VERTEX
  8
AM_0
  5
1B29B
 10
588.804
 20
436.576
 30
0.000000
  70
    32
  0
VERTEX
  8
AM_0
  5
1B29C
 10
588.983
 20
436.619
 30
0.000000
  70
    32
  0
VERTEX
  8
AM_0
  5
1B29D
 10
589.162
 20
436.661
 30
0.000000
  70
    32
  0
VERTEX
  8
AM_0
  5
1B29E
 10
589.342
 20
436.700
 30
0.000000
  70
    32
  0
VERTEX
  8
AM_0
  5
1B29F
 10
589.523
 20
436.737
 30
0.000000
  70
    32
  0
VERTEX
  8
AM_0
  5
1B2A0
 10
589.703
 20
436.772
 30
0.000000
  70
    32
  0
VERTEX
  8
AM_0
  5
1B2A1
 10
589.885
 20
436.804
 30
0.000000
  70
    32
  0
VERTEX
  8
AM_0
  5
1B2A2
 10
590.066
 20
436.835
 30
0.000000
  70
    32
  0
VERTEX
  8
AM_0
  5
1B2A3
 10
590.248
 20
436.863
 30
0.000000
  70
    32
  0
VERTEX
  8
AM_0
  5
1B2A4
 10
590.430
 20
436.889
 30
0.000000
  70
    32
  0
VERTEX
  8
AM_0
  5
1B2A5
 10
590.613
 20
436.912
 30
0.000000
  70
    32
  0
VERTEX
  8
AM_0
  5
1B2A6
 10
590.796
 20
436.934
 30
0.000000
  70
    32
  0
VERTEX
  8
AM_0
  5
1B2A7
 10
590.979
 20
436.953
 30
0.000000
  70
    32
  0
VERTEX
  8
AM_0
  5
1B2A8
 10
591.162
 20
436.970
 30
0.000000
  70
    32
  0
VERTEX
  8
AM_0
  5
1B2A9
 10
591.345
 20
436.985
 30
0.000000
  70
    32
  0
VERTEX
  8
AM_0
  5
1B2AA
 10
591.529
 20
436.997
 30
0.000000
  70
    32
  0
VERTEX
  8
AM_0
  5
1B2AB
 10
591.713
 20
437.007
 30
0.000000
  70
    32
  0
VERTEX
  8
AM_0
  5
1B2AC
 10
591.897
 20
437.015
 30
0.000000
  70
    32
  0
VERTEX
  8
AM_0
  5
1B2AD
 10
592.081
 20
437.021
 30
0.000000
  70
    32
  0
VERTEX
  8
AM_0
  5
1B2AE
 10
592.265
 20
437.024
 30
0.000000
  70
    32
  0
VERTEX
  8
AM_0
  5
1B2AF
 10
592.449
 20
437.025
 30
0.000000
  70
    32
  0
SEQEND
  8
AM_0
  5
1B2B0
  0
LINE
  5
19B04
  8
ﾁｭｳｼﾝｾﾝ1
 10
604.44893167246664
 20
422.02497067754302
 30
0.0
 11
580.44893095673069
 21
422.02497067754302
 31
0.0
  0
LINE
  5
19B0B
  8
AM_0
 10
386.57660910018927
 20
277.3362511129551
 30
0.0
 11
386.57660910018927
 21
436.71105584696062
 31
0.0
  0
LINE
  5
19B0C
  8
AM_0
 10
361.57660835463128
 20
277.02366873745302
 30
0.0
 11
361.5766083546315
 21
437.02366874065308
 31
0.0
  0
LINE
  5
19B0D
  8
ﾁｭｳｼﾝｾﾝ1
 10
327.57660734067252
 20
270.02402927386538
 30
0.0
 11
327.57660734067252
 21
444.01608074427349
 31
0.0
  0
LINE
  5
19B0E
  8
AM_0
 10
268.57660558115538
 20
278.76761523156949
 30
0.0
 11
268.57660558115538
 21
435.27972224653598
 31
0.0
  0
LINE
  5
19B11
  8
AM_0
 10
263.57660543204372
 20
307.02286754593581
 30
0.0
 11
263.57660543204372
 21
407.02446993216961
 31
0.0
  0
LINE
  5
19B13
  8
AM_0
 10
391.57660924930099
 20
307.02286754593581
 30
0.0
 11
391.57660924930099
 21
407.02446993216961
 31
0.0
  0
LINE
  5
19B18
  8
AM_0
 10
361.57660835463128
 20
277.02206635321937
 30
0.0
 11
386.57660910018927
 21
277.3362511129551
 31
0.0
  0
LINE
  5
19B19
  8
ﾁｭｳｼﾝｾﾝ1
 10
489.83822164814001
 20
357.02366873905282
 30
0.0
 11
253.57660528293209
 21
357.02366873905311
 31
0.0
  0
LINE
  5
19B1A
  8
ﾁｭｳｼﾝｾﾝ1
 10
265.57660558115549
 20
292.02236680056359
 30
0.0
 11
389.57660910018939
 21
292.02236680056359
 31
0.0
  0
LINE
  5
19B1B
  8
ｶｸﾚｾﾝ2
 10
268.57660558115538
 20
299.02250700932387
 30
0.0
 11
386.57660910018927
 21
299.02250700932387
 31
0.0
  0
LINE
  5
19B1C
  8
ｶｸﾚｾﾝ2
 10
268.57660558115538
 20
285.02222659180308
 30
0.0
 11
386.57660910018927
 21
285.02222659180308
 31
0.0
  0
LINE
  5
19B1D
  8
AM_0
 10
304.57660734021249
 20
278.02402927392541
 30
0.0
 11
309.766607340316
 21
275.02402927386532
 31
0.0
  0
LINE
  5
19B1E
  8
AM_0
 10
268.57660558115538
 20
278.76761523156949
 30
0.0
 11
361.57660835463128
 21
277.02206635321937
 31
0.0
  0
LINE
  5
19B1F
  8
AM_0
 10
345.37659734102829
 20
275.02402927386532
 30
0.0
 11
309.766607340316
 21
275.02402927386532
 31
0.0
  0
LINE
  5
19B20
  8
AM_0
 10
349.21718552139572
 20
277.23976373454252
 30
0.0
 11
345.37659734102829
 21
275.02402927386532
 31
0.0
  0
LINE
  5
19B24
  8
AM_0
 10
263.57660543204372
 20
307.02286754593581
 30
0.0
 11
268.57660558115538
 21
307.02286754593581
 31
0.0
  0
LINE
  5
19B37
  8
AM_0
 10
263.57660543204372
 20
391.03385378676251
 30
0.0
 11
263.29660734067249
 21
391.02402927586519
 31
0.0
  0
LINE
  5
19B3C
  8
AM_0
 10
263.57660543204372
 20
389.01435967210921
 30
0.0
 11
263.29660734067249
 21
389.02402927586519
 31
0.0
  0
ARC
  5
19B3E
  8
AM_0
 10
263.33805234067239
 20
390.02360027586582
 30
0.0
 40
1.000429999999999
 50
90.08275800000014
 51
267.62571600000371
  0
LINE
  5
19B5E
  8
ﾁｭｳｼﾝｾﾝ1
 10
393.38192380747449
 20
375.0240292758653
 30
0.0
 11
261.7712908738705
 21
375.0240292758653
 31
0.0
  0
LINE
  5
19B5F
  8
AM_0
 10
396.5766093984127
 20
332.02316799347972
 30
0.0
 11
396.5766093984127
 21
382.02416948462599
 31
0.0
  0
POLYLINE
  5
19B60
  8
AM_0
 10
383.57660909814507
 20
305.52263720317228
 30
0.0
 66
     1
 70
     8
  0
VERTEX
  8
AM_0
  5
1B2B1
 10
383.577
 20
305.523
 30
0.000000
  70
    32
  0
VERTEX
  8
AM_0
  5
1B2B2
 10
383.601
 20
305.523
 30
0.000000
  70
    32
  0
VERTEX
  8
AM_0
  5
1B2B3
 10
383.626
 20
305.523
 30
0.000000
  70
    32
  0
VERTEX
  8
AM_0
  5
1B2B4
 10
383.650
 20
305.524
 30
0.000000
  70
    32
  0
VERTEX
  8
AM_0
  5
1B2B5
 10
383.675
 20
305.525
 30
0.000000
  70
    32
  0
VERTEX
  8
AM_0
  5
1B2B6
 10
383.699
 20
305.526
 30
0.000000
  70
    32
  0
VERTEX
  8
AM_0
  5
1B2B7
 10
383.724
 20
305.528
 30
0.000000
  70
    32
  0
VERTEX
  8
AM_0
  5
1B2B8
 10
383.748
 20
305.530
 30
0.000000
  70
    32
  0
VERTEX
  8
AM_0
  5
1B2B9
 10
383.773
 20
305.532
 30
0.000000
  70
    32
  0
VERTEX
  8
AM_0
  5
1B2BA
 10
383.797
 20
305.535
 30
0.000000
  70
    32
  0
VERTEX
  8
AM_0
  5
1B2BB
 10
383.821
 20
305.538
 30
0.000000
  70
    32
  0
VERTEX
  8
AM_0
  5
1B2BC
 10
383.846
 20
305.541
 30
0.000000
  70
    32
  0
VERTEX
  8
AM_0
  5
1B2BD
 10
383.870
 20
305.544
 30
0.000000
  70
    32
  0
VERTEX
  8
AM_0
  5
1B2BE
 10
383.894
 20
305.548
 30
0.000000
  70
    32
  0
VERTEX
  8
AM_0
  5
1B2BF
 10
383.919
 20
305.552
 30
0.000000
  70
    32
  0
VERTEX
  8
AM_0
  5
1B2C0
 10
383.943
 20
305.556
 30
0.000000
  70
    32
  0
VERTEX
  8
AM_0
  5
1B2C1
 10
383.967
 20
305.561
 30
0.000000
  70
    32
  0
VERTEX
  8
AM_0
  5
1B2C2
 10
383.991
 20
305.566
 30
0.000000
  70
    32
  0
VERTEX
  8
AM_0
  5
1B2C3
 10
384.015
 20
305.571
 30
0.000000
  70
    32
  0
VERTEX
  8
AM_0
  5
1B2C4
 10
384.039
 20
305.577
 30
0.000000
  70
    32
  0
VERTEX
  8
AM_0
  5
1B2C5
 10
384.063
 20
305.583
 30
0.000000
  70
    32
  0
VERTEX
  8
AM_0
  5
1B2C6
 10
384.086
 20
305.589
 30
0.000000
  70
    32
  0
VERTEX
  8
AM_0
  5
1B2C7
 10
384.110
 20
305.595
 30
0.000000
  70
    32
  0
VERTEX
  8
AM_0
  5
1B2C8
 10
384.134
 20
305.602
 30
0.000000
  70
    32
  0
VERTEX
  8
AM_0
  5
1B2C9
 10
384.157
 20
305.609
 30
0.000000
  70
    32
  0
VERTEX
  8
AM_0
  5
1B2CA
 10
384.181
 20
305.616
 30
0.000000
  70
    32
  0
VERTEX
  8
AM_0
  5
1B2CB
 10
384.204
 20
305.624
 30
0.000000
  70
    32
  0
VERTEX
  8
AM_0
  5
1B2CC
 10
384.227
 20
305.631
 30
0.000000
  70
    32
  0
VERTEX
  8
AM_0
  5
1B2CD
 10
384.250
 20
305.640
 30
0.000000
  70
    32
  0
VERTEX
  8
AM_0
  5
1B2CE
 10
384.273
 20
305.648
 30
0.000000
  70
    32
  0
VERTEX
  8
AM_0
  5
1B2CF
 10
384.296
 20
305.657
 30
0.000000
  70
    32
  0
VERTEX
  8
AM_0
  5
1B2D0
 10
384.319
 20
305.666
 30
0.000000
  70
    32
  0
VERTEX
  8
AM_0
  5
1B2D1
 10
384.342
 20
305.675
 30
0.000000
  70
    32
  0
VERTEX
  8
AM_0
  5
1B2D2
 10
384.365
 20
305.684
 30
0.000000
  70
    32
  0
VERTEX
  8
AM_0
  5
1B2D3
 10
384.387
 20
305.694
 30
0.000000
  70
    32
  0
VERTEX
  8
AM_0
  5
1B2D4
 10
384.409
 20
305.704
 30
0.000000
  70
    32
  0
VERTEX
  8
AM_0
  5
1B2D5
 10
384.432
 20
305.715
 30
0.000000
  70
    32
  0
VERTEX
  8
AM_0
  5
1B2D6
 10
384.454
 20
305.725
 30
0.000000
  70
    32
  0
VERTEX
  8
AM_0
  5
1B2D7
 10
384.476
 20
305.736
 30
0.000000
  70
    32
  0
VERTEX
  8
AM_0
  5
1B2D8
 10
384.498
 20
305.747
 30
0.000000
  70
    32
  0
VERTEX
  8
AM_0
  5
1B2D9
 10
384.519
 20
305.759
 30
0.000000
  70
    32
  0
VERTEX
  8
AM_0
  5
1B2DA
 10
384.541
 20
305.771
 30
0.000000
  70
    32
  0
VERTEX
  8
AM_0
  5
1B2DB
 10
384.562
 20
305.782
 30
0.000000
  70
    32
  0
VERTEX
  8
AM_0
  5
1B2DC
 10
384.584
 20
305.795
 30
0.000000
  70
    32
  0
VERTEX
  8
AM_0
  5
1B2DD
 10
384.605
 20
305.807
 30
0.000000
  70
    32
  0
VERTEX
  8
AM_0
  5
1B2DE
 10
384.626
 20
305.820
 30
0.000000
  70
    32
  0
VERTEX
  8
AM_0
  5
1B2DF
 10
384.647
 20
305.833
 30
0.000000
  70
    32
  0
VERTEX
  8
AM_0
  5
1B2E0
 10
384.667
 20
305.846
 30
0.000000
  70
    32
  0
VERTEX
  8
AM_0
  5
1B2E1
 10
384.688
 20
305.860
 30
0.000000
  70
    32
  0
VERTEX
  8
AM_0
  5
1B2E2
 10
384.708
 20
305.873
 30
0.000000
  70
    32
  0
VERTEX
  8
AM_0
  5
1B2E3
 10
384.728
 20
305.887
 30
0.000000
  70
    32
  0
VERTEX
  8
AM_0
  5
1B2E4
 10
384.748
 20
305.902
 30
0.000000
  70
    32
  0
VERTEX
  8
AM_0
  5
1B2E5
 10
384.768
 20
305.916
 30
0.000000
  70
    32
  0
VERTEX
  8
AM_0
  5
1B2E6
 10
384.788
 20
305.931
 30
0.000000
  70
    32
  0
VERTEX
  8
AM_0
  5
1B2E7
 10
384.807
 20
305.946
 30
0.000000
  70
    32
  0
VERTEX
  8
AM_0
  5
1B2E8
 10
384.826
 20
305.961
 30
0.000000
  70
    32
  0
VERTEX
  8
AM_0
  5
1B2E9
 10
384.845
 20
305.977
 30
0.000000
  70
    32
  0
VERTEX
  8
AM_0
  5
1B2EA
 10
384.864
 20
305.992
 30
0.000000
  70
    32
  0
VERTEX
  8
AM_0
  5
1B2EB
 10
384.883
 20
306.008
 30
0.000000
  70
    32
  0
VERTEX
  8
AM_0
  5
1B2EC
 10
384.901
 20
306.024
 30
0.000000
  70
    32
  0
VERTEX
  8
AM_0
  5
1B2ED
 10
384.920
 20
306.041
 30
0.000000
  70
    32
  0
VERTEX
  8
AM_0
  5
1B2EE
 10
384.938
 20
306.057
 30
0.000000
  70
    32
  0
VERTEX
  8
AM_0
  5
1B2EF
 10
384.956
 20
306.074
 30
0.000000
  70
    32
  0
VERTEX
  8
AM_0
  5
1B2F0
 10
384.973
 20
306.091
 30
0.000000
  70
    32
  0
VERTEX
  8
AM_0
  5
1B2F1
 10
384.991
 20
306.108
 30
0.000000
  70
    32
  0
VERTEX
  8
AM_0
  5
1B2F2
 10
385.008
 20
306.126
 30
0.000000
  70
    32
  0
VERTEX
  8
AM_0
  5
1B2F3
 10
385.025
 20
306.144
 30
0.000000
  70
    32
  0
VERTEX
  8
AM_0
  5
1B2F4
 10
385.042
 20
306.161
 30
0.000000
  70
    32
  0
VERTEX
  8
AM_0
  5
1B2F5
 10
385.059
 20
306.180
 30
0.000000
  70
    32
  0
VERTEX
  8
AM_0
  5
1B2F6
 10
385.075
 20
306.198
 30
0.000000
  70
    32
  0
VERTEX
  8
AM_0
  5
1B2F7
 10
385.091
 20
306.216
 30
0.000000
  70
    32
  0
VERTEX
  8
AM_0
  5
1B2F8
 10
385.107
 20
306.235
 30
0.000000
  70
    32
  0
VERTEX
  8
AM_0
  5
1B2F9
 10
385.123
 20
306.254
 30
0.000000
  70
    32
  0
VERTEX
  8
AM_0
  5
1B2FA
 10
385.138
 20
306.273
 30
0.000000
  70
    32
  0
VERTEX
  8
AM_0
  5
1B2FB
 10
385.153
 20
306.292
 30
0.000000
  70
    32
  0
VERTEX
  8
AM_0
  5
1B2FC
 10
385.168
 20
306.312
 30
0.000000
  70
    32
  0
VERTEX
  8
AM_0
  5
1B2FD
 10
385.183
 20
306.331
 30
0.000000
  70
    32
  0
VERTEX
  8
AM_0
  5
1B2FE
 10
385.198
 20
306.351
 30
0.000000
  70
    32
  0
VERTEX
  8
AM_0
  5
1B2FF
 10
385.212
 20
306.371
 30
0.000000
  70
    32
  0
VERTEX
  8
AM_0
  5
1B300
 10
385.226
 20
306.391
 30
0.000000
  70
    32
  0
VERTEX
  8
AM_0
  5
1B301
 10
385.240
 20
306.412
 30
0.000000
  70
    32
  0
VERTEX
  8
AM_0
  5
1B302
 10
385.253
 20
306.432
 30
0.000000
  70
    32
  0
VERTEX
  8
AM_0
  5
1B303
 10
385.266
 20
306.453
 30
0.000000
  70
    32
  0
VERTEX
  8
AM_0
  5
1B304
 10
385.279
 20
306.473
 30
0.000000
  70
    32
  0
VERTEX
  8
AM_0
  5
1B305
 10
385.292
 20
306.494
 30
0.000000
  70
    32
  0
VERTEX
  8
AM_0
  5
1B306
 10
385.305
 20
306.516
 30
0.000000
  70
    32
  0
VERTEX
  8
AM_0
  5
1B307
 10
385.317
 20
306.537
 30
0.000000
  70
    32
  0
VERTEX
  8
AM_0
  5
1B308
 10
385.329
 20
306.558
 30
0.000000
  70
    32
  0
VERTEX
  8
AM_0
  5
1B309
 10
385.340
 20
306.580
 30
0.000000
  70
    32
  0
VERTEX
  8
AM_0
  5
1B30A
 10
385.352
 20
306.602
 30
0.000000
  70
    32
  0
VERTEX
  8
AM_0
  5
1B30B
 10
385.363
 20
306.623
 30
0.000000
  70
    32
  0
VERTEX
  8
AM_0
  5
1B30C
 10
385.374
 20
306.645
 30
0.000000
  70
    32
  0
VERTEX
  8
AM_0
  5
1B30D
 10
385.385
 20
306.668
 30
0.000000
  70
    32
  0
VERTEX
  8
AM_0
  5
1B30E
 10
385.395
 20
306.690
 30
0.000000
  70
    32
  0
VERTEX
  8
AM_0
  5
1B30F
 10
385.405
 20
306.712
 30
0.000000
  70
    32
  0
VERTEX
  8
AM_0
  5
1B310
 10
385.415
 20
306.735
 30
0.000000
  70
    32
  0
VERTEX
  8
AM_0
  5
1B311
 10
385.424
 20
306.757
 30
0.000000
  70
    32
  0
VERTEX
  8
AM_0
  5
1B312
 10
385.434
 20
306.780
 30
0.000000
  70
    32
  0
VERTEX
  8
AM_0
  5
1B313
 10
385.443
 20
306.803
 30
0.000000
  70
    32
  0
VERTEX
  8
AM_0
  5
1B314
 10
385.451
 20
306.826
 30
0.000000
  70
    32
  0
VERTEX
  8
AM_0
  5
1B315
 10
385.460
 20
306.849
 30
0.000000
  70
    32
  0
VERTEX
  8
AM_0
  5
1B316
 10
385.468
 20
306.872
 30
0.000000
  70
    32
  0
VERTEX
  8
AM_0
  5
1B317
 10
385.476
 20
306.895
 30
0.000000
  70
    32
  0
VERTEX
  8
AM_0
  5
1B318
 10
385.483
 20
306.919
 30
0.000000
  70
    32
  0
VERTEX
  8
AM_0
  5
1B319
 10
385.490
 20
306.942
 30
0.000000
  70
    32
  0
VERTEX
  8
AM_0
  5
1B31A
 10
385.497
 20
306.966
 30
0.000000
  70
    32
  0
VERTEX
  8
AM_0
  5
1B31B
 10
385.504
 20
306.989
 30
0.000000
  70
    32
  0
VERTEX
  8
AM_0
  5
1B31C
 10
385.511
 20
307.013
 30
0.000000
  70
    32
  0
VERTEX
  8
AM_0
  5
1B31D
 10
385.517
 20
307.037
 30
0.000000
  70
    32
  0
VERTEX
  8
AM_0
  5
1B31E
 10
385.522
 20
307.061
 30
0.000000
  70
    32
  0
VERTEX
  8
AM_0
  5
1B31F
 10
385.528
 20
307.084
 30
0.000000
  70
    32
  0
VERTEX
  8
AM_0
  5
1B320
 10
385.533
 20
307.108
 30
0.000000
  70
    32
  0
VERTEX
  8
AM_0
  5
1B321
 10
385.538
 20
307.132
 30
0.000000
  70
    32
  0
VERTEX
  8
AM_0
  5
1B322
 10
385.543
 20
307.157
 30
0.000000
  70
    32
  0
VERTEX
  8
AM_0
  5
1B323
 10
385.547
 20
307.181
 30
0.000000
  70
    32
  0
VERTEX
  8
AM_0
  5
1B324
 10
385.551
 20
307.205
 30
0.000000
  70
    32
  0
VERTEX
  8
AM_0
  5
1B325
 10
385.555
 20
307.229
 30
0.000000
  70
    32
  0
VERTEX
  8
AM_0
  5
1B326
 10
385.558
 20
307.254
 30
0.000000
  70
    32
  0
VERTEX
  8
AM_0
  5
1B327
 10
385.562
 20
307.278
 30
0.000000
  70
    32
  0
VERTEX
  8
AM_0
  5
1B328
 10
385.564
 20
307.302
 30
0.000000
  70
    32
  0
VERTEX
  8
AM_0
  5
1B329
 10
385.567
 20
307.327
 30
0.000000
  70
    32
  0
VERTEX
  8
AM_0
  5
1B32A
 10
385.569
 20
307.351
 30
0.000000
  70
    32
  0
VERTEX
  8
AM_0
  5
1B32B
 10
385.571
 20
307.376
 30
0.000000
  70
    32
  0
VERTEX
  8
AM_0
  5
1B32C
 10
385.573
 20
307.400
 30
0.000000
  70
    32
  0
VERTEX
  8
AM_0
  5
1B32D
 10
385.574
 20
307.425
 30
0.000000
  70
    32
  0
VERTEX
  8
AM_0
  5
1B32E
 10
385.575
 20
307.449
 30
0.000000
  70
    32
  0
VERTEX
  8
AM_0
  5
1B32F
 10
385.576
 20
307.474
 30
0.000000
  70
    32
  0
VERTEX
  8
AM_0
  5
1B330
 10
385.576
 20
307.498
 30
0.000000
  70
    32
  0
VERTEX
  8
AM_0
  5
1B331
 10
385.577
 20
307.523
 30
0.000000
  70
    32
  0
SEQEND
  8
AM_0
  5
1B332
  0
LINE
  5
19B61
  8
AM_0
 10
377.57660883178858
 20
304.52261717334937
 30
0.0
 11
377.57660883178858
 21
319.52291762069319
 31
0.0
  0
LINE
  5
19B62
  8
AM_0
 10
383.57660901072239
 20
305.52263720317239
 30
0.0
 11
377.57660883178858
 21
305.52263720317239
 31
0.0
  0
LINE
  5
19B63
  8
AM_0
 10
386.57660910018927
 20
304.52261717334937
 30
0.0
 11
377.57660883178858
 21
304.52261717334937
 31
0.0
  0
LINE
  5
19B64
  8
AM_0
 10
396.5766093984127
 20
332.02316799347972
 30
0.0
 11
391.57660924930099
 21
332.02316799347972
 31
0.0
  0
LINE
  5
19B65
  8
AM_0
 10
383.57660901072239
 20
318.5228975908704
 30
0.0
 11
377.57660883178858
 21
318.5228975908704
 31
0.0
  0
LINE
  5
19B66
  8
AM_0
 10
386.57660910018927
 20
319.52291762069319
 30
0.0
 11
377.57660883178858
 21
319.52291762069319
 31
0.0
  0
POLYLINE
  5
19B67
  8
AM_0
 10
385.57660907036706
 20
316.52285770607352
 30
0.0
 66
     1
 70
     8
  0
VERTEX
  8
AM_0
  5
1B333
 10
385.577
 20
316.523
 30
0.000000
  70
    32
  0
VERTEX
  8
AM_0
  5
1B334
 10
385.576
 20
316.547
 30
0.000000
  70
    32
  0
VERTEX
  8
AM_0
  5
1B335
 10
385.576
 20
316.572
 30
0.000000
  70
    32
  0
VERTEX
  8
AM_0
  5
1B336
 10
385.575
 20
316.596
 30
0.000000
  70
    32
  0
VERTEX
  8
AM_0
  5
1B337
 10
385.574
 20
316.621
 30
0.000000
  70
    32
  0
VERTEX
  8
AM_0
  5
1B338
 10
385.573
 20
316.646
 30
0.000000
  70
    32
  0
VERTEX
  8
AM_0
  5
1B339
 10
385.571
 20
316.670
 30
0.000000
  70
    32
  0
VERTEX
  8
AM_0
  5
1B33A
 10
385.569
 20
316.694
 30
0.000000
  70
    32
  0
VERTEX
  8
AM_0
  5
1B33B
 10
385.567
 20
316.719
 30
0.000000
  70
    32
  0
VERTEX
  8
AM_0
  5
1B33C
 10
385.564
 20
316.743
 30
0.000000
  70
    32
  0
VERTEX
  8
AM_0
  5
1B33D
 10
385.562
 20
316.768
 30
0.000000
  70
    32
  0
VERTEX
  8
AM_0
  5
1B33E
 10
385.558
 20
316.792
 30
0.000000
  70
    32
  0
VERTEX
  8
AM_0
  5
1B33F
 10
385.555
 20
316.816
 30
0.000000
  70
    32
  0
VERTEX
  8
AM_0
  5
1B340
 10
385.551
 20
316.841
 30
0.000000
  70
    32
  0
VERTEX
  8
AM_0
  5
1B341
 10
385.547
 20
316.865
 30
0.000000
  70
    32
  0
VERTEX
  8
AM_0
  5
1B342
 10
385.543
 20
316.889
 30
0.000000
  70
    32
  0
VERTEX
  8
AM_0
  5
1B343
 10
385.538
 20
316.913
 30
0.000000
  70
    32
  0
VERTEX
  8
AM_0
  5
1B344
 10
385.533
 20
316.937
 30
0.000000
  70
    32
  0
VERTEX
  8
AM_0
  5
1B345
 10
385.528
 20
316.961
 30
0.000000
  70
    32
  0
VERTEX
  8
AM_0
  5
1B346
 10
385.522
 20
316.985
 30
0.000000
  70
    32
  0
VERTEX
  8
AM_0
  5
1B347
 10
385.517
 20
317.009
 30
0.000000
  70
    32
  0
VERTEX
  8
AM_0
  5
1B348
 10
385.511
 20
317.033
 30
0.000000
  70
    32
  0
VERTEX
  8
AM_0
  5
1B349
 10
385.504
 20
317.056
 30
0.000000
  70
    32
  0
VERTEX
  8
AM_0
  5
1B34A
 10
385.497
 20
317.080
 30
0.000000
  70
    32
  0
VERTEX
  8
AM_0
  5
1B34B
 10
385.490
 20
317.103
 30
0.000000
  70
    32
  0
VERTEX
  8
AM_0
  5
1B34C
 10
385.483
 20
317.127
 30
0.000000
  70
    32
  0
VERTEX
  8
AM_0
  5
1B34D
 10
385.476
 20
317.150
 30
0.000000
  70
    32
  0
VERTEX
  8
AM_0
  5
1B34E
 10
385.468
 20
317.173
 30
0.000000
  70
    32
  0
VERTEX
  8
AM_0
  5
1B34F
 10
385.460
 20
317.197
 30
0.000000
  70
    32
  0
VERTEX
  8
AM_0
  5
1B350
 10
385.451
 20
317.220
 30
0.000000
  70
    32
  0
VERTEX
  8
AM_0
  5
1B351
 10
385.443
 20
317.243
 30
0.000000
  70
    32
  0
VERTEX
  8
AM_0
  5
1B352
 10
385.434
 20
317.266
 30
0.000000
  70
    32
  0
VERTEX
  8
AM_0
  5
1B353
 10
385.424
 20
317.288
 30
0.000000
  70
    32
  0
VERTEX
  8
AM_0
  5
1B354
 10
385.415
 20
317.311
 30
0.000000
  70
    32
  0
VERTEX
  8
AM_0
  5
1B355
 10
385.405
 20
317.333
 30
0.000000
  70
    32
  0
VERTEX
  8
AM_0
  5
1B356
 10
385.395
 20
317.356
 30
0.000000
  70
    32
  0
VERTEX
  8
AM_0
  5
1B357
 10
385.385
 20
317.378
 30
0.000000
  70
    32
  0
VERTEX
  8
AM_0
  5
1B358
 10
385.374
 20
317.400
 30
0.000000
  70
    32
  0
VERTEX
  8
AM_0
  5
1B359
 10
385.363
 20
317.422
 30
0.000000
  70
    32
  0
VERTEX
  8
AM_0
  5
1B35A
 10
385.352
 20
317.444
 30
0.000000
  70
    32
  0
VERTEX
  8
AM_0
  5
1B35B
 10
385.340
 20
317.466
 30
0.000000
  70
    32
  0
VERTEX
  8
AM_0
  5
1B35C
 10
385.329
 20
317.487
 30
0.000000
  70
    32
  0
VERTEX
  8
AM_0
  5
1B35D
 10
385.317
 20
317.509
 30
0.000000
  70
    32
  0
VERTEX
  8
AM_0
  5
1B35E
 10
385.305
 20
317.530
 30
0.000000
  70
    32
  0
VERTEX
  8
AM_0
  5
1B35F
 10
385.292
 20
317.551
 30
0.000000
  70
    32
  0
VERTEX
  8
AM_0
  5
1B360
 10
385.279
 20
317.572
 30
0.000000
  70
    32
  0
VERTEX
  8
AM_0
  5
1B361
 10
385.266
 20
317.593
 30
0.000000
  70
    32
  0
VERTEX
  8
AM_0
  5
1B362
 10
385.253
 20
317.614
 30
0.000000
  70
    32
  0
VERTEX
  8
AM_0
  5
1B363
 10
385.240
 20
317.634
 30
0.000000
  70
    32
  0
VERTEX
  8
AM_0
  5
1B364
 10
385.226
 20
317.654
 30
0.000000
  70
    32
  0
VERTEX
  8
AM_0
  5
1B365
 10
385.212
 20
317.674
 30
0.000000
  70
    32
  0
VERTEX
  8
AM_0
  5
1B366
 10
385.198
 20
317.694
 30
0.000000
  70
    32
  0
VERTEX
  8
AM_0
  5
1B367
 10
385.183
 20
317.714
 30
0.000000
  70
    32
  0
VERTEX
  8
AM_0
  5
1B368
 10
385.168
 20
317.734
 30
0.000000
  70
    32
  0
VERTEX
  8
AM_0
  5
1B369
 10
385.153
 20
317.753
 30
0.000000
  70
    32
  0
VERTEX
  8
AM_0
  5
1B36A
 10
385.138
 20
317.773
 30
0.000000
  70
    32
  0
VERTEX
  8
AM_0
  5
1B36B
 10
385.123
 20
317.792
 30
0.000000
  70
    32
  0
VERTEX
  8
AM_0
  5
1B36C
 10
385.107
 20
317.811
 30
0.000000
  70
    32
  0
VERTEX
  8
AM_0
  5
1B36D
 10
385.091
 20
317.829
 30
0.000000
  70
    32
  0
VERTEX
  8
AM_0
  5
1B36E
 10
385.075
 20
317.848
 30
0.000000
  70
    32
  0
VERTEX
  8
AM_0
  5
1B36F
 10
385.059
 20
317.866
 30
0.000000
  70
    32
  0
VERTEX
  8
AM_0
  5
1B370
 10
385.042
 20
317.884
 30
0.000000
  70
    32
  0
VERTEX
  8
AM_0
  5
1B371
 10
385.025
 20
317.902
 30
0.000000
  70
    32
  0
VERTEX
  8
AM_0
  5
1B372
 10
385.008
 20
317.920
 30
0.000000
  70
    32
  0
VERTEX
  8
AM_0
  5
1B373
 10
384.991
 20
317.937
 30
0.000000
  70
    32
  0
VERTEX
  8
AM_0
  5
1B374
 10
384.973
 20
317.954
 30
0.000000
  70
    32
  0
VERTEX
  8
AM_0
  5
1B375
 10
384.956
 20
317.971
 30
0.000000
  70
    32
  0
VERTEX
  8
AM_0
  5
1B376
 10
384.938
 20
317.988
 30
0.000000
  70
    32
  0
VERTEX
  8
AM_0
  5
1B377
 10
384.920
 20
318.005
 30
0.000000
  70
    32
  0
VERTEX
  8
AM_0
  5
1B378
 10
384.901
 20
318.021
 30
0.000000
  70
    32
  0
VERTEX
  8
AM_0
  5
1B379
 10
384.883
 20
318.037
 30
0.000000
  70
    32
  0
VERTEX
  8
AM_0
  5
1B37A
 10
384.864
 20
318.053
 30
0.000000
  70
    32
  0
VERTEX
  8
AM_0
  5
1B37B
 10
384.845
 20
318.069
 30
0.000000
  70
    32
  0
VERTEX
  8
AM_0
  5
1B37C
 10
384.826
 20
318.084
 30
0.000000
  70
    32
  0
VERTEX
  8
AM_0
  5
1B37D
 10
384.807
 20
318.100
 30
0.000000
  70
    32
  0
VERTEX
  8
AM_0
  5
1B37E
 10
384.788
 20
318.115
 30
0.000000
  70
    32
  0
VERTEX
  8
AM_0
  5
1B37F
 10
384.768
 20
318.129
 30
0.000000
  70
    32
  0
VERTEX
  8
AM_0
  5
1B380
 10
384.748
 20
318.144
 30
0.000000
  70
    32
  0
VERTEX
  8
AM_0
  5
1B381
 10
384.728
 20
318.158
 30
0.000000
  70
    32
  0
VERTEX
  8
AM_0
  5
1B382
 10
384.708
 20
318.172
 30
0.000000
  70
    32
  0
VERTEX
  8
AM_0
  5
1B383
 10
384.688
 20
318.186
 30
0.000000
  70
    32
  0
VERTEX
  8
AM_0
  5
1B384
 10
384.667
 20
318.199
 30
0.000000
  70
    32
  0
VERTEX
  8
AM_0
  5
1B385
 10
384.647
 20
318.213
 30
0.000000
  70
    32
  0
VERTEX
  8
AM_0
  5
1B386
 10
384.626
 20
318.226
 30
0.000000
  70
    32
  0
VERTEX
  8
AM_0
  5
1B387
 10
384.605
 20
318.238
 30
0.000000
  70
    32
  0
VERTEX
  8
AM_0
  5
1B388
 10
384.584
 20
318.251
 30
0.000000
  70
    32
  0
VERTEX
  8
AM_0
  5
1B389
 10
384.562
 20
318.263
 30
0.000000
  70
    32
  0
VERTEX
  8
AM_0
  5
1B38A
 10
384.541
 20
318.275
 30
0.000000
  70
    32
  0
VERTEX
  8
AM_0
  5
1B38B
 10
384.519
 20
318.287
 30
0.000000
  70
    32
  0
VERTEX
  8
AM_0
  5
1B38C
 10
384.498
 20
318.298
 30
0.000000
  70
    32
  0
VERTEX
  8
AM_0
  5
1B38D
 10
384.476
 20
318.309
 30
0.000000
  70
    32
  0
VERTEX
  8
AM_0
  5
1B38E
 10
384.454
 20
318.320
 30
0.000000
  70
    32
  0
VERTEX
  8
AM_0
  5
1B38F
 10
384.432
 20
318.331
 30
0.000000
  70
    32
  0
VERTEX
  8
AM_0
  5
1B390
 10
384.409
 20
318.341
 30
0.000000
  70
    32
  0
VERTEX
  8
AM_0
  5
1B391
 10
384.387
 20
318.351
 30
0.000000
  70
    32
  0
VERTEX
  8
AM_0
  5
1B392
 10
384.365
 20
318.361
 30
0.000000
  70
    32
  0
VERTEX
  8
AM_0
  5
1B393
 10
384.342
 20
318.371
 30
0.000000
  70
    32
  0
VERTEX
  8
AM_0
  5
1B394
 10
384.319
 20
318.380
 30
0.000000
  70
    32
  0
VERTEX
  8
AM_0
  5
1B395
 10
384.296
 20
318.389
 30
0.000000
  70
    32
  0
VERTEX
  8
AM_0
  5
1B396
 10
384.273
 20
318.398
 30
0.000000
  70
    32
  0
VERTEX
  8
AM_0
  5
1B397
 10
384.250
 20
318.406
 30
0.000000
  70
    32
  0
VERTEX
  8
AM_0
  5
1B398
 10
384.227
 20
318.414
 30
0.000000
  70
    32
  0
VERTEX
  8
AM_0
  5
1B399
 10
384.204
 20
318.422
 30
0.000000
  70
    32
  0
VERTEX
  8
AM_0
  5
1B39A
 10
384.181
 20
318.430
 30
0.000000
  70
    32
  0
VERTEX
  8
AM_0
  5
1B39B
 10
384.157
 20
318.437
 30
0.000000
  70
    32
  0
VERTEX
  8
AM_0
  5
1B39C
 10
384.134
 20
318.444
 30
0.000000
  70
    32
  0
VERTEX
  8
AM_0
  5
1B39D
 10
384.110
 20
318.450
 30
0.000000
  70
    32
  0
VERTEX
  8
AM_0
  5
1B39E
 10
384.086
 20
318.457
 30
0.000000
  70
    32
  0
VERTEX
  8
AM_0
  5
1B39F
 10
384.063
 20
318.463
 30
0.000000
  70
    32
  0
VERTEX
  8
AM_0
  5
1B3A0
 10
384.039
 20
318.469
 30
0.000000
  70
    32
  0
VERTEX
  8
AM_0
  5
1B3A1
 10
384.015
 20
318.474
 30
0.000000
  70
    32
  0
VERTEX
  8
AM_0
  5
1B3A2
 10
383.991
 20
318.480
 30
0.000000
  70
    32
  0
VERTEX
  8
AM_0
  5
1B3A3
 10
383.967
 20
318.484
 30
0.000000
  70
    32
  0
VERTEX
  8
AM_0
  5
1B3A4
 10
383.943
 20
318.489
 30
0.000000
  70
    32
  0
VERTEX
  8
AM_0
  5
1B3A5
 10
383.919
 20
318.493
 30
0.000000
  70
    32
  0
VERTEX
  8
AM_0
  5
1B3A6
 10
383.894
 20
318.497
 30
0.000000
  70
    32
  0
VERTEX
  8
AM_0
  5
1B3A7
 10
383.870
 20
318.501
 30
0.000000
  70
    32
  0
VERTEX
  8
AM_0
  5
1B3A8
 10
383.846
 20
318.505
 30
0.000000
  70
    32
  0
VERTEX
  8
AM_0
  5
1B3A9
 10
383.821
 20
318.508
 30
0.000000
  70
    32
  0
VERTEX
  8
AM_0
  5
1B3AA
 10
383.797
 20
318.511
 30
0.000000
  70
    32
  0
VERTEX
  8
AM_0
  5
1B3AB
 10
383.773
 20
318.513
 30
0.000000
  70
    32
  0
VERTEX
  8
AM_0
  5
1B3AC
 10
383.748
 20
318.516
 30
0.000000
  70
    32
  0
VERTEX
  8
AM_0
  5
1B3AD
 10
383.724
 20
318.517
 30
0.000000
  70
    32
  0
VERTEX
  8
AM_0
  5
1B3AE
 10
383.699
 20
318.519
 30
0.000000
  70
    32
  0
VERTEX
  8
AM_0
  5
1B3AF
 10
383.675
 20
318.520
 30
0.000000
  70
    32
  0
VERTEX
  8
AM_0
  5
1B3B0
 10
383.650
 20
318.522
 30
0.000000
  70
    32
  0
VERTEX
  8
AM_0
  5
1B3B1
 10
383.626
 20
318.522
 30
0.000000
  70
    32
  0
VERTEX
  8
AM_0
  5
1B3B2
 10
383.601
 20
318.523
 30
0.000000
  70
    32
  0
VERTEX
  8
AM_0
  5
1B3B3
 10
383.577
 20
318.523
 30
0.000000
  70
    32
  0
SEQEND
  8
AM_0
  5
1B3B4
  0
LINE
  5
19B68
  8
AM_0
 10
391.57660924930099
 20
307.02286754593581
 30
0.0
 11
386.57660910018927
 21
307.02286754593581
 31
0.0
  0
LINE
  5
19B69
  8
AM_0
 10
385.57660907036723
 20
307.52267726281809
 30
0.0
 11
385.57660907036723
 21
316.52285753122447
 31
0.0
  0
LINE
  5
19B7D
  8
AM_0
 10
391.57660924930099
 20
391.03385378676251
 30
0.0
 11
391.85660734067238
 21
391.02402927586519
 31
0.0
  0
LINE
  5
19B82
  8
AM_0
 10
391.57660924930099
 20
389.01435967210921
 30
0.0
 11
391.85660734067238
 21
389.02402927586519
 31
0.0
  0
ARC
  5
19B83
  8
AM_0
 10
391.8151623406726
 20
390.02360027586582
 30
0.0
 40
1.000429999999999
 50
272.37428399999629
 51
89.917241999999845
  0
LINE
  5
19B85
  8
AM_0
 10
361.5766083546315
 20
437.02366874065308
 30
0.0
 11
386.57660910018927
 21
436.71105584696062
 31
0.0
  0
LINE
  5
19B88
  8
ﾁｭｳｼﾝｾﾝ1
 10
265.57660558115538
 20
422.02497067754302
 30
0.0
 11
389.57660910018939
 21
422.02497067754302
 31
0.0
  0
LINE
  5
19B89
  8
ｶｸﾚｾﾝ2
 10
268.57660558115538
 20
415.02483046878251
 30
0.0
 11
386.57660910018927
 21
415.02483046878251
 31
0.0
  0
LINE
  5
19B8A
  8
ｶｸﾚｾﾝ2
 10
268.57660558115538
 20
429.02511088630342
 30
0.0
 11
386.57660910018927
 21
429.02511088630342
 31
0.0
  0
LINE
  5
19B8F
  8
AM_0
 10
268.57660558115538
 20
435.27972224653598
 30
0.0
 11
361.5766083546315
 21
437.02366874065308
 31
0.0
  0
LINE
  5
19B94
  8
AM_0
 10
263.57660543204372
 20
407.02446993216961
 30
0.0
 11
268.57660558115538
 21
407.02446993216961
 31
0.0
  0
LINE
  5
19B97
  8
AM_0
 10
268.57660558115509
 20
408.95795867422061
 30
0.0
 11
266.70660734067229
 21
409.0240292758653
 31
0.0
  0
LINE
  5
19B98
  8
AM_0
 10
268.57660558115538
 20
411.08765004714951
 30
0.0
 11
266.70660734067229
 21
411.02402927586519
 31
0.0
  0
ARC
  5
19B99
  8
AM_0
 10
266.7501003406723
 20
410.02355927586541
 30
0.0
 40
1.000475999999999
 50
90.200047999992421
 51
267.50842600000419
  0
ARC
  5
19B9A
  8
AM_0
 10
327.57660734067252
 20
375.0240292758653
 30
0.0
 40
63.503836254666012
 50
76.113685254995943
 51
106.03489670621479
  0
LINE
  5
19B9C
  8
AM_0
 10
301.50390863873179
 20
435.89717873057361
 30
0.0
 11
301.57657734015231
 21
437.94403427712359
 31
0.0
  0
LINE
  5
19B9D
  8
AM_0
 10
303.64582973774378
 20
435.93734427551863
 30
0.0
 11
303.5766073401922
 21
437.94402627712361
 31
0.0
  0
ARC
  5
19B9E
  8
AM_0
 10
292.57678834067241
 20
435.8569552758654
 30
0.0
 40
1.0001850000000001
 50
1.551130999995167
 51
180.16761299999791
  0
ARC
  5
19BA6
  8
AM_0
 10
302.57684734017232
 20
437.90781727712277
 30
0.0
 40
1.000393500020007
 50
2.0744399999949339
 51
179.0714379999965
  0
LINE
  5
19BA7
  8
AM_0
 10
311.47620784616907
 20
436.45296671724401
 30
0.0
 11
311.57660734035233
 21
439.30403527715077
 31
0.0
  0
ARC
  5
19BA8
  8
AM_0
 10
312.57700734037252
 20
439.26333927715029
 30
0.0
 40
1.000414000020007
 50
2.331049999997969
 51
179.96048300000029
  0
LINE
  5
19BA9
  8
AM_0
 10
313.65661689832302
 20
436.98346023794193
 30
0.0
 11
313.57657734039242
 21
439.3040312771509
 31
0.0
  0
LINE
  5
19BAA
  8
AM_0
 10
321.51640090783383
 20
438.23803972490123
 30
0.0
 11
321.57660734055241
 21
439.98402727716478
 31
0.0
  0
LINE
  5
19BAB
  8
AM_0
 10
323.61658115011181
 20
438.40427392377978
 30
0.0
 11
323.5766073405922
 21
439.98403127716477
 31
0.0
  0
ARC
  5
19BAC
  8
AM_0
 10
322.57715734057228
 20
439.93628627716362
 30
0.0
 40
1.0005848000200099
 50
2.735039999997932
 51
179.5564910000007
  0
LINE
  5
19BAE
  8
AM_0
 10
343.6687353198534
 20
436.6878582947956
 30
0.0
 11
343.57660734099238
 21
439.3040312771509
 31
0.0
  0
LINE
  5
19BAF
  8
AM_0
 10
331.51666389273839
 20
438.40551847757109
 30
0.0
 11
331.57660734075228
 21
439.98402727716478
 31
0.0
  0
LINE
  5
19BB0
  8
AM_0
 10
333.63681387765922
 20
438.23803971491691
 30
0.0
 11
333.57660734079229
 21
439.98402727716478
 31
0.0
  0
ARC
  5
19BB1
  8
AM_0
 10
332.57602734077221
 20
439.9356072771634
 30
0.0
 40
1.0006038000200119
 50
0.4821899999981778
 51
177.22628299999701
  0
LINE
  5
19BB2
  8
AM_0
 10
341.49659779029741
 20
436.98346023630711
 30
0.0
 11
341.57660734095242
 21
439.3040312771509
 31
0.0
  0
ARC
  5
19BB3
  8
AM_0
 10
342.57617734097221
 20
439.26266427715012
 30
0.0
 40
1.0004282000200071
 50
0.0782200000044964
 51
177.6302479999965
  0
LINE
  5
19BBA
  8
AM_0
 10
353.61046566337211
 20
436.87428673846222
 30
0.0
 11
353.57660734119253
 21
437.9440302771236
 31
0.0
  0
LINE
  5
19BBB
  8
AM_0
 10
351.5329705271696
 20
436.83532931640542
 30
0.0
 11
351.57657734115242
 21
437.94403427712359
 31
0.0
  0
ARC
  5
19BBC
  8
AM_0
 10
352.57633734117252
 20
437.90747827712312
 30
0.0
 40
1.000402500020007
 50
0.9479099999999
 51
177.90620799999991
  0
POLYLINE
  5
19BBE
  8
AM_0
 10
385.57660907036706
 20
406.52466039013643
 30
0.0
 66
     1
 70
     8
  0
VERTEX
  8
AM_0
  5
1B3B5
 10
385.577
 20
406.525
 30
0.000000
  70
    32
  0
VERTEX
  8
AM_0
  5
1B3B6
 10
385.576
 20
406.549
 30
0.000000
  70
    32
  0
VERTEX
  8
AM_0
  5
1B3B7
 10
385.576
 20
406.574
 30
0.000000
  70
    32
  0
VERTEX
  8
AM_0
  5
1B3B8
 10
385.575
 20
406.598
 30
0.000000
  70
    32
  0
VERTEX
  8
AM_0
  5
1B3B9
 10
385.574
 20
406.623
 30
0.000000
  70
    32
  0
VERTEX
  8
AM_0
  5
1B3BA
 10
385.573
 20
406.647
 30
0.000000
  70
    32
  0
VERTEX
  8
AM_0
  5
1B3BB
 10
385.571
 20
406.672
 30
0.000000
  70
    32
  0
VERTEX
  8
AM_0
  5
1B3BC
 10
385.569
 20
406.696
 30
0.000000
  70
    32
  0
VERTEX
  8
AM_0
  5
1B3BD
 10
385.567
 20
406.721
 30
0.000000
  70
    32
  0
VERTEX
  8
AM_0
  5
1B3BE
 10
385.564
 20
406.745
 30
0.000000
  70
    32
  0
VERTEX
  8
AM_0
  5
1B3BF
 10
385.562
 20
406.769
 30
0.000000
  70
    32
  0
VERTEX
  8
AM_0
  5
1B3C0
 10
385.558
 20
406.794
 30
0.000000
  70
    32
  0
VERTEX
  8
AM_0
  5
1B3C1
 10
385.555
 20
406.818
 30
0.000000
  70
    32
  0
VERTEX
  8
AM_0
  5
1B3C2
 10
385.551
 20
406.842
 30
0.000000
  70
    32
  0
VERTEX
  8
AM_0
  5
1B3C3
 10
385.547
 20
406.867
 30
0.000000
  70
    32
  0
VERTEX
  8
AM_0
  5
1B3C4
 10
385.543
 20
406.891
 30
0.000000
  70
    32
  0
VERTEX
  8
AM_0
  5
1B3C5
 10
385.538
 20
406.915
 30
0.000000
  70
    32
  0
VERTEX
  8
AM_0
  5
1B3C6
 10
385.533
 20
406.939
 30
0.000000
  70
    32
  0
VERTEX
  8
AM_0
  5
1B3C7
 10
385.528
 20
406.963
 30
0.000000
  70
    32
  0
VERTEX
  8
AM_0
  5
1B3C8
 10
385.522
 20
406.987
 30
0.000000
  70
    32
  0
VERTEX
  8
AM_0
  5
1B3C9
 10
385.517
 20
407.011
 30
0.000000
  70
    32
  0
VERTEX
  8
AM_0
  5
1B3CA
 10
385.511
 20
407.034
 30
0.000000
  70
    32
  0
VERTEX
  8
AM_0
  5
1B3CB
 10
385.504
 20
407.058
 30
0.000000
  70
    32
  0
VERTEX
  8
AM_0
  5
1B3CC
 10
385.497
 20
407.082
 30
0.000000
  70
    32
  0
VERTEX
  8
AM_0
  5
1B3CD
 10
385.490
 20
407.105
 30
0.000000
  70
    32
  0
VERTEX
  8
AM_0
  5
1B3CE
 10
385.483
 20
407.129
 30
0.000000
  70
    32
  0
VERTEX
  8
AM_0
  5
1B3CF
 10
385.476
 20
407.152
 30
0.000000
  70
    32
  0
VERTEX
  8
AM_0
  5
1B3D0
 10
385.468
 20
407.175
 30
0.000000
  70
    32
  0
VERTEX
  8
AM_0
  5
1B3D1
 10
385.460
 20
407.198
 30
0.000000
  70
    32
  0
VERTEX
  8
AM_0
  5
1B3D2
 10
385.451
 20
407.222
 30
0.000000
  70
    32
  0
VERTEX
  8
AM_0
  5
1B3D3
 10
385.443
 20
407.244
 30
0.000000
  70
    32
  0
VERTEX
  8
AM_0
  5
1B3D4
 10
385.434
 20
407.267
 30
0.000000
  70
    32
  0
VERTEX
  8
AM_0
  5
1B3D5
 10
385.424
 20
407.290
 30
0.000000
  70
    32
  0
VERTEX
  8
AM_0
  5
1B3D6
 10
385.415
 20
407.313
 30
0.000000
  70
    32
  0
VERTEX
  8
AM_0
  5
1B3D7
 10
385.405
 20
407.335
 30
0.000000
  70
    32
  0
VERTEX
  8
AM_0
  5
1B3D8
 10
385.395
 20
407.358
 30
0.000000
  70
    32
  0
VERTEX
  8
AM_0
  5
1B3D9
 10
385.385
 20
407.380
 30
0.000000
  70
    32
  0
VERTEX
  8
AM_0
  5
1B3DA
 10
385.374
 20
407.402
 30
0.000000
  70
    32
  0
VERTEX
  8
AM_0
  5
1B3DB
 10
385.363
 20
407.424
 30
0.000000
  70
    32
  0
VERTEX
  8
AM_0
  5
1B3DC
 10
385.352
 20
407.446
 30
0.000000
  70
    32
  0
VERTEX
  8
AM_0
  5
1B3DD
 10
385.340
 20
407.467
 30
0.000000
  70
    32
  0
VERTEX
  8
AM_0
  5
1B3DE
 10
385.329
 20
407.489
 30
0.000000
  70
    32
  0
VERTEX
  8
AM_0
  5
1B3DF
 10
385.317
 20
407.510
 30
0.000000
  70
    32
  0
VERTEX
  8
AM_0
  5
1B3E0
 10
385.305
 20
407.532
 30
0.000000
  70
    32
  0
VERTEX
  8
AM_0
  5
1B3E1
 10
385.292
 20
407.553
 30
0.000000
  70
    32
  0
VERTEX
  8
AM_0
  5
1B3E2
 10
385.279
 20
407.574
 30
0.000000
  70
    32
  0
VERTEX
  8
AM_0
  5
1B3E3
 10
385.266
 20
407.595
 30
0.000000
  70
    32
  0
VERTEX
  8
AM_0
  5
1B3E4
 10
385.253
 20
407.615
 30
0.000000
  70
    32
  0
VERTEX
  8
AM_0
  5
1B3E5
 10
385.240
 20
407.636
 30
0.000000
  70
    32
  0
VERTEX
  8
AM_0
  5
1B3E6
 10
385.226
 20
407.656
 30
0.000000
  70
    32
  0
VERTEX
  8
AM_0
  5
1B3E7
 10
385.212
 20
407.676
 30
0.000000
  70
    32
  0
VERTEX
  8
AM_0
  5
1B3E8
 10
385.198
 20
407.696
 30
0.000000
  70
    32
  0
VERTEX
  8
AM_0
  5
1B3E9
 10
385.183
 20
407.716
 30
0.000000
  70
    32
  0
VERTEX
  8
AM_0
  5
1B3EA
 10
385.168
 20
407.736
 30
0.000000
  70
    32
  0
VERTEX
  8
AM_0
  5
1B3EB
 10
385.153
 20
407.755
 30
0.000000
  70
    32
  0
VERTEX
  8
AM_0
  5
1B3EC
 10
385.138
 20
407.774
 30
0.000000
  70
    32
  0
VERTEX
  8
AM_0
  5
1B3ED
 10
385.123
 20
407.793
 30
0.000000
  70
    32
  0
VERTEX
  8
AM_0
  5
1B3EE
 10
385.107
 20
407.812
 30
0.000000
  70
    32
  0
VERTEX
  8
AM_0
  5
1B3EF
 10
385.091
 20
407.831
 30
0.000000
  70
    32
  0
VERTEX
  8
AM_0
  5
1B3F0
 10
385.075
 20
407.850
 30
0.000000
  70
    32
  0
VERTEX
  8
AM_0
  5
1B3F1
 10
385.059
 20
407.868
 30
0.000000
  70
    32
  0
VERTEX
  8
AM_0
  5
1B3F2
 10
385.042
 20
407.886
 30
0.000000
  70
    32
  0
VERTEX
  8
AM_0
  5
1B3F3
 10
385.025
 20
407.904
 30
0.000000
  70
    32
  0
VERTEX
  8
AM_0
  5
1B3F4
 10
385.008
 20
407.921
 30
0.000000
  70
    32
  0
VERTEX
  8
AM_0
  5
1B3F5
 10
384.991
 20
407.939
 30
0.000000
  70
    32
  0
VERTEX
  8
AM_0
  5
1B3F6
 10
384.973
 20
407.956
 30
0.000000
  70
    32
  0
VERTEX
  8
AM_0
  5
1B3F7
 10
384.956
 20
407.973
 30
0.000000
  70
    32
  0
VERTEX
  8
AM_0
  5
1B3F8
 10
384.938
 20
407.990
 30
0.000000
  70
    32
  0
VERTEX
  8
AM_0
  5
1B3F9
 10
384.920
 20
408.007
 30
0.000000
  70
    32
  0
VERTEX
  8
AM_0
  5
1B3FA
 10
384.901
 20
408.023
 30
0.000000
  70
    32
  0
VERTEX
  8
AM_0
  5
1B3FB
 10
384.883
 20
408.039
 30
0.000000
  70
    32
  0
VERTEX
  8
AM_0
  5
1B3FC
 10
384.864
 20
408.055
 30
0.000000
  70
    32
  0
VERTEX
  8
AM_0
  5
1B3FD
 10
384.845
 20
408.071
 30
0.000000
  70
    32
  0
VERTEX
  8
AM_0
  5
1B3FE
 10
384.826
 20
408.086
 30
0.000000
  70
    32
  0
VERTEX
  8
AM_0
  5
1B3FF
 10
384.807
 20
408.101
 30
0.000000
  70
    32
  0
VERTEX
  8
AM_0
  5
1B400
 10
384.788
 20
408.116
 30
0.000000
  70
    32
  0
VERTEX
  8
AM_0
  5
1B401
 10
384.768
 20
408.131
 30
0.000000
  70
    32
  0
VERTEX
  8
AM_0
  5
1B402
 10
384.748
 20
408.146
 30
0.000000
  70
    32
  0
VERTEX
  8
AM_0
  5
1B403
 10
384.728
 20
408.160
 30
0.000000
  70
    32
  0
VERTEX
  8
AM_0
  5
1B404
 10
384.708
 20
408.174
 30
0.000000
  70
    32
  0
VERTEX
  8
AM_0
  5
1B405
 10
384.688
 20
408.188
 30
0.000000
  70
    32
  0
VERTEX
  8
AM_0
  5
1B406
 10
384.667
 20
408.201
 30
0.000000
  70
    32
  0
VERTEX
  8
AM_0
  5
1B407
 10
384.647
 20
408.214
 30
0.000000
  70
    32
  0
VERTEX
  8
AM_0
  5
1B408
 10
384.626
 20
408.227
 30
0.000000
  70
    32
  0
VERTEX
  8
AM_0
  5
1B409
 10
384.605
 20
408.240
 30
0.000000
  70
    32
  0
VERTEX
  8
AM_0
  5
1B40A
 10
384.584
 20
408.253
 30
0.000000
  70
    32
  0
VERTEX
  8
AM_0
  5
1B40B
 10
384.562
 20
408.265
 30
0.000000
  70
    32
  0
VERTEX
  8
AM_0
  5
1B40C
 10
384.541
 20
408.277
 30
0.000000
  70
    32
  0
VERTEX
  8
AM_0
  5
1B40D
 10
384.519
 20
408.289
 30
0.000000
  70
    32
  0
VERTEX
  8
AM_0
  5
1B40E
 10
384.498
 20
408.300
 30
0.000000
  70
    32
  0
VERTEX
  8
AM_0
  5
1B40F
 10
384.476
 20
408.311
 30
0.000000
  70
    32
  0
VERTEX
  8
AM_0
  5
1B410
 10
384.454
 20
408.322
 30
0.000000
  70
    32
  0
VERTEX
  8
AM_0
  5
1B411
 10
384.432
 20
408.333
 30
0.000000
  70
    32
  0
VERTEX
  8
AM_0
  5
1B412
 10
384.409
 20
408.343
 30
0.000000
  70
    32
  0
VERTEX
  8
AM_0
  5
1B413
 10
384.387
 20
408.353
 30
0.000000
  70
    32
  0
VERTEX
  8
AM_0
  5
1B414
 10
384.365
 20
408.363
 30
0.000000
  70
    32
  0
VERTEX
  8
AM_0
  5
1B415
 10
384.342
 20
408.372
 30
0.000000
  70
    32
  0
VERTEX
  8
AM_0
  5
1B416
 10
384.319
 20
408.382
 30
0.000000
  70
    32
  0
VERTEX
  8
AM_0
  5
1B417
 10
384.296
 20
408.391
 30
0.000000
  70
    32
  0
VERTEX
  8
AM_0
  5
1B418
 10
384.273
 20
408.399
 30
0.000000
  70
    32
  0
VERTEX
  8
AM_0
  5
1B419
 10
384.250
 20
408.408
 30
0.000000
  70
    32
  0
VERTEX
  8
AM_0
  5
1B41A
 10
384.227
 20
408.416
 30
0.000000
  70
    32
  0
VERTEX
  8
AM_0
  5
1B41B
 10
384.204
 20
408.424
 30
0.000000
  70
    32
  0
VERTEX
  8
AM_0
  5
1B41C
 10
384.181
 20
408.431
 30
0.000000
  70
    32
  0
VERTEX
  8
AM_0
  5
1B41D
 10
384.157
 20
408.439
 30
0.000000
  70
    32
  0
VERTEX
  8
AM_0
  5
1B41E
 10
384.134
 20
408.446
 30
0.000000
  70
    32
  0
VERTEX
  8
AM_0
  5
1B41F
 10
384.110
 20
408.452
 30
0.000000
  70
    32
  0
VERTEX
  8
AM_0
  5
1B420
 10
384.086
 20
408.459
 30
0.000000
  70
    32
  0
VERTEX
  8
AM_0
  5
1B421
 10
384.063
 20
408.465
 30
0.000000
  70
    32
  0
VERTEX
  8
AM_0
  5
1B422
 10
384.039
 20
408.471
 30
0.000000
  70
    32
  0
VERTEX
  8
AM_0
  5
1B423
 10
384.015
 20
408.476
 30
0.000000
  70
    32
  0
VERTEX
  8
AM_0
  5
1B424
 10
383.991
 20
408.481
 30
0.000000
  70
    32
  0
VERTEX
  8
AM_0
  5
1B425
 10
383.967
 20
408.486
 30
0.000000
  70
    32
  0
VERTEX
  8
AM_0
  5
1B426
 10
383.943
 20
408.491
 30
0.000000
  70
    32
  0
VERTEX
  8
AM_0
  5
1B427
 10
383.919
 20
408.495
 30
0.000000
  70
    32
  0
VERTEX
  8
AM_0
  5
1B428
 10
383.894
 20
408.499
 30
0.000000
  70
    32
  0
VERTEX
  8
AM_0
  5
1B429
 10
383.870
 20
408.503
 30
0.000000
  70
    32
  0
VERTEX
  8
AM_0
  5
1B42A
 10
383.846
 20
408.507
 30
0.000000
  70
    32
  0
VERTEX
  8
AM_0
  5
1B42B
 10
383.821
 20
408.510
 30
0.000000
  70
    32
  0
VERTEX
  8
AM_0
  5
1B42C
 10
383.797
 20
408.513
 30
0.000000
  70
    32
  0
VERTEX
  8
AM_0
  5
1B42D
 10
383.773
 20
408.515
 30
0.000000
  70
    32
  0
VERTEX
  8
AM_0
  5
1B42E
 10
383.748
 20
408.517
 30
0.000000
  70
    32
  0
VERTEX
  8
AM_0
  5
1B42F
 10
383.724
 20
408.519
 30
0.000000
  70
    32
  0
VERTEX
  8
AM_0
  5
1B430
 10
383.699
 20
408.521
 30
0.000000
  70
    32
  0
VERTEX
  8
AM_0
  5
1B431
 10
383.675
 20
408.522
 30
0.000000
  70
    32
  0
VERTEX
  8
AM_0
  5
1B432
 10
383.650
 20
408.523
 30
0.000000
  70
    32
  0
VERTEX
  8
AM_0
  5
1B433
 10
383.626
 20
408.524
 30
0.000000
  70
    32
  0
VERTEX
  8
AM_0
  5
1B434
 10
383.601
 20
408.525
 30
0.000000
  70
    32
  0
VERTEX
  8
AM_0
  5
1B435
 10
383.577
 20
408.525
 30
0.000000
  70
    32
  0
SEQEND
  8
AM_0
  5
1B436
  0
LINE
  5
19BBF
  8
AM_0
 10
377.57660883178858
 20
394.52441985741223
 30
0.0
 11
377.57660883178858
 21
409.5247203047561
 31
0.0
  0
LINE
  5
19BC0
  8
AM_0
 10
383.57660901072239
 20
395.52443988723519
 30
0.0
 11
377.57660883178858
 21
395.52443988723519
 31
0.0
  0
LINE
  5
19BC1
  8
AM_0
 10
386.57660910018927
 20
394.52441985741223
 30
0.0
 11
377.57660883178858
 21
394.52441985741223
 31
0.0
  0
LINE
  5
19BC5
  8
AM_0
 10
391.57660924930099
 20
407.02446993216961
 30
0.0
 11
386.57660910018927
 21
407.02446993216961
 31
0.0
  0
POLYLINE
  5
19BC6
  8
AM_0
 10
383.57660909814507
 20
395.5244398872353
 30
0.0
 66
     1
 70
     8
  0
VERTEX
  8
AM_0
  5
1B437
 10
383.577
 20
395.524
 30
0.000000
  70
    32
  0
VERTEX
  8
AM_0
  5
1B438
 10
383.601
 20
395.525
 30
0.000000
  70
    32
  0
VERTEX
  8
AM_0
  5
1B439
 10
383.626
 20
395.525
 30
0.000000
  70
    32
  0
VERTEX
  8
AM_0
  5
1B43A
 10
383.650
 20
395.526
 30
0.000000
  70
    32
  0
VERTEX
  8
AM_0
  5
1B43B
 10
383.675
 20
395.527
 30
0.000000
  70
    32
  0
VERTEX
  8
AM_0
  5
1B43C
 10
383.699
 20
395.528
 30
0.000000
  70
    32
  0
VERTEX
  8
AM_0
  5
1B43D
 10
383.724
 20
395.530
 30
0.000000
  70
    32
  0
VERTEX
  8
AM_0
  5
1B43E
 10
383.748
 20
395.532
 30
0.000000
  70
    32
  0
VERTEX
  8
AM_0
  5
1B43F
 10
383.773
 20
395.534
 30
0.000000
  70
    32
  0
VERTEX
  8
AM_0
  5
1B440
 10
383.797
 20
395.537
 30
0.000000
  70
    32
  0
VERTEX
  8
AM_0
  5
1B441
 10
383.821
 20
395.539
 30
0.000000
  70
    32
  0
VERTEX
  8
AM_0
  5
1B442
 10
383.846
 20
395.543
 30
0.000000
  70
    32
  0
VERTEX
  8
AM_0
  5
1B443
 10
383.870
 20
395.546
 30
0.000000
  70
    32
  0
VERTEX
  8
AM_0
  5
1B444
 10
383.894
 20
395.550
 30
0.000000
  70
    32
  0
VERTEX
  8
AM_0
  5
1B445
 10
383.919
 20
395.554
 30
0.000000
  70
    32
  0
VERTEX
  8
AM_0
  5
1B446
 10
383.943
 20
395.558
 30
0.000000
  70
    32
  0
VERTEX
  8
AM_0
  5
1B447
 10
383.967
 20
395.563
 30
0.000000
  70
    32
  0
VERTEX
  8
AM_0
  5
1B448
 10
383.991
 20
395.568
 30
0.000000
  70
    32
  0
VERTEX
  8
AM_0
  5
1B449
 10
384.015
 20
395.573
 30
0.000000
  70
    32
  0
VERTEX
  8
AM_0
  5
1B44A
 10
384.039
 20
395.579
 30
0.000000
  70
    32
  0
VERTEX
  8
AM_0
  5
1B44B
 10
384.063
 20
395.584
 30
0.000000
  70
    32
  0
VERTEX
  8
AM_0
  5
1B44C
 10
384.086
 20
395.590
 30
0.000000
  70
    32
  0
VERTEX
  8
AM_0
  5
1B44D
 10
384.110
 20
395.597
 30
0.000000
  70
    32
  0
VERTEX
  8
AM_0
  5
1B44E
 10
384.134
 20
395.604
 30
0.000000
  70
    32
  0
VERTEX
  8
AM_0
  5
1B44F
 10
384.157
 20
395.611
 30
0.000000
  70
    32
  0
VERTEX
  8
AM_0
  5
1B450
 10
384.181
 20
395.618
 30
0.000000
  70
    32
  0
VERTEX
  8
AM_0
  5
1B451
 10
384.204
 20
395.625
 30
0.000000
  70
    32
  0
VERTEX
  8
AM_0
  5
1B452
 10
384.227
 20
395.633
 30
0.000000
  70
    32
  0
VERTEX
  8
AM_0
  5
1B453
 10
384.250
 20
395.641
 30
0.000000
  70
    32
  0
VERTEX
  8
AM_0
  5
1B454
 10
384.273
 20
395.650
 30
0.000000
  70
    32
  0
VERTEX
  8
AM_0
  5
1B455
 10
384.296
 20
395.658
 30
0.000000
  70
    32
  0
VERTEX
  8
AM_0
  5
1B456
 10
384.319
 20
395.667
 30
0.000000
  70
    32
  0
VERTEX
  8
AM_0
  5
1B457
 10
384.342
 20
395.677
 30
0.000000
  70
    32
  0
VERTEX
  8
AM_0
  5
1B458
 10
384.365
 20
395.686
 30
0.000000
  70
    32
  0
VERTEX
  8
AM_0
  5
1B459
 10
384.387
 20
395.696
 30
0.000000
  70
    32
  0
VERTEX
  8
AM_0
  5
1B45A
 10
384.409
 20
395.706
 30
0.000000
  70
    32
  0
VERTEX
  8
AM_0
  5
1B45B
 10
384.432
 20
395.716
 30
0.000000
  70
    32
  0
VERTEX
  8
AM_0
  5
1B45C
 10
384.454
 20
395.727
 30
0.000000
  70
    32
  0
VERTEX
  8
AM_0
  5
1B45D
 10
384.476
 20
395.738
 30
0.000000
  70
    32
  0
VERTEX
  8
AM_0
  5
1B45E
 10
384.498
 20
395.749
 30
0.000000
  70
    32
  0
VERTEX
  8
AM_0
  5
1B45F
 10
384.519
 20
395.761
 30
0.000000
  70
    32
  0
VERTEX
  8
AM_0
  5
1B460
 10
384.541
 20
395.772
 30
0.000000
  70
    32
  0
VERTEX
  8
AM_0
  5
1B461
 10
384.562
 20
395.784
 30
0.000000
  70
    32
  0
VERTEX
  8
AM_0
  5
1B462
 10
384.584
 20
395.796
 30
0.000000
  70
    32
  0
VERTEX
  8
AM_0
  5
1B463
 10
384.605
 20
395.809
 30
0.000000
  70
    32
  0
VERTEX
  8
AM_0
  5
1B464
 10
384.626
 20
395.822
 30
0.000000
  70
    32
  0
VERTEX
  8
AM_0
  5
1B465
 10
384.647
 20
395.835
 30
0.000000
  70
    32
  0
VERTEX
  8
AM_0
  5
1B466
 10
384.667
 20
395.848
 30
0.000000
  70
    32
  0
VERTEX
  8
AM_0
  5
1B467
 10
384.688
 20
395.862
 30
0.000000
  70
    32
  0
VERTEX
  8
AM_0
  5
1B468
 10
384.708
 20
395.875
 30
0.000000
  70
    32
  0
VERTEX
  8
AM_0
  5
1B469
 10
384.728
 20
395.889
 30
0.000000
  70
    32
  0
VERTEX
  8
AM_0
  5
1B46A
 10
384.748
 20
395.904
 30
0.000000
  70
    32
  0
VERTEX
  8
AM_0
  5
1B46B
 10
384.768
 20
395.918
 30
0.000000
  70
    32
  0
VERTEX
  8
AM_0
  5
1B46C
 10
384.788
 20
395.933
 30
0.000000
  70
    32
  0
VERTEX
  8
AM_0
  5
1B46D
 10
384.807
 20
395.948
 30
0.000000
  70
    32
  0
VERTEX
  8
AM_0
  5
1B46E
 10
384.826
 20
395.963
 30
0.000000
  70
    32
  0
VERTEX
  8
AM_0
  5
1B46F
 10
384.845
 20
395.978
 30
0.000000
  70
    32
  0
VERTEX
  8
AM_0
  5
1B470
 10
384.864
 20
395.994
 30
0.000000
  70
    32
  0
VERTEX
  8
AM_0
  5
1B471
 10
384.883
 20
396.010
 30
0.000000
  70
    32
  0
VERTEX
  8
AM_0
  5
1B472
 10
384.901
 20
396.026
 30
0.000000
  70
    32
  0
VERTEX
  8
AM_0
  5
1B473
 10
384.920
 20
396.043
 30
0.000000
  70
    32
  0
VERTEX
  8
AM_0
  5
1B474
 10
384.938
 20
396.059
 30
0.000000
  70
    32
  0
VERTEX
  8
AM_0
  5
1B475
 10
384.956
 20
396.076
 30
0.000000
  70
    32
  0
VERTEX
  8
AM_0
  5
1B476
 10
384.973
 20
396.093
 30
0.000000
  70
    32
  0
VERTEX
  8
AM_0
  5
1B477
 10
384.991
 20
396.110
 30
0.000000
  70
    32
  0
VERTEX
  8
AM_0
  5
1B478
 10
385.008
 20
396.128
 30
0.000000
  70
    32
  0
VERTEX
  8
AM_0
  5
1B479
 10
385.025
 20
396.145
 30
0.000000
  70
    32
  0
VERTEX
  8
AM_0
  5
1B47A
 10
385.042
 20
396.163
 30
0.000000
  70
    32
  0
VERTEX
  8
AM_0
  5
1B47B
 10
385.059
 20
396.181
 30
0.000000
  70
    32
  0
VERTEX
  8
AM_0
  5
1B47C
 10
385.075
 20
396.200
 30
0.000000
  70
    32
  0
VERTEX
  8
AM_0
  5
1B47D
 10
385.091
 20
396.218
 30
0.000000
  70
    32
  0
VERTEX
  8
AM_0
  5
1B47E
 10
385.107
 20
396.237
 30
0.000000
  70
    32
  0
VERTEX
  8
AM_0
  5
1B47F
 10
385.123
 20
396.256
 30
0.000000
  70
    32
  0
VERTEX
  8
AM_0
  5
1B480
 10
385.138
 20
396.275
 30
0.000000
  70
    32
  0
VERTEX
  8
AM_0
  5
1B481
 10
385.153
 20
396.294
 30
0.000000
  70
    32
  0
VERTEX
  8
AM_0
  5
1B482
 10
385.168
 20
396.313
 30
0.000000
  70
    32
  0
VERTEX
  8
AM_0
  5
1B483
 10
385.183
 20
396.333
 30
0.000000
  70
    32
  0
VERTEX
  8
AM_0
  5
1B484
 10
385.198
 20
396.353
 30
0.000000
  70
    32
  0
VERTEX
  8
AM_0
  5
1B485
 10
385.212
 20
396.373
 30
0.000000
  70
    32
  0
VERTEX
  8
AM_0
  5
1B486
 10
385.226
 20
396.393
 30
0.000000
  70
    32
  0
VERTEX
  8
AM_0
  5
1B487
 10
385.240
 20
396.413
 30
0.000000
  70
    32
  0
VERTEX
  8
AM_0
  5
1B488
 10
385.253
 20
396.434
 30
0.000000
  70
    32
  0
VERTEX
  8
AM_0
  5
1B489
 10
385.266
 20
396.454
 30
0.000000
  70
    32
  0
VERTEX
  8
AM_0
  5
1B48A
 10
385.279
 20
396.475
 30
0.000000
  70
    32
  0
VERTEX
  8
AM_0
  5
1B48B
 10
385.292
 20
396.496
 30
0.000000
  70
    32
  0
VERTEX
  8
AM_0
  5
1B48C
 10
385.305
 20
396.517
 30
0.000000
  70
    32
  0
VERTEX
  8
AM_0
  5
1B48D
 10
385.317
 20
396.539
 30
0.000000
  70
    32
  0
VERTEX
  8
AM_0
  5
1B48E
 10
385.329
 20
396.560
 30
0.000000
  70
    32
  0
VERTEX
  8
AM_0
  5
1B48F
 10
385.340
 20
396.582
 30
0.000000
  70
    32
  0
VERTEX
  8
AM_0
  5
1B490
 10
385.352
 20
396.603
 30
0.000000
  70
    32
  0
VERTEX
  8
AM_0
  5
1B491
 10
385.363
 20
396.625
 30
0.000000
  70
    32
  0
VERTEX
  8
AM_0
  5
1B492
 10
385.374
 20
396.647
 30
0.000000
  70
    32
  0
VERTEX
  8
AM_0
  5
1B493
 10
385.385
 20
396.669
 30
0.000000
  70
    32
  0
VERTEX
  8
AM_0
  5
1B494
 10
385.395
 20
396.692
 30
0.000000
  70
    32
  0
VERTEX
  8
AM_0
  5
1B495
 10
385.405
 20
396.714
 30
0.000000
  70
    32
  0
VERTEX
  8
AM_0
  5
1B496
 10
385.415
 20
396.736
 30
0.000000
  70
    32
  0
VERTEX
  8
AM_0
  5
1B497
 10
385.424
 20
396.759
 30
0.000000
  70
    32
  0
VERTEX
  8
AM_0
  5
1B498
 10
385.434
 20
396.782
 30
0.000000
  70
    32
  0
VERTEX
  8
AM_0
  5
1B499
 10
385.443
 20
396.805
 30
0.000000
  70
    32
  0
VERTEX
  8
AM_0
  5
1B49A
 10
385.451
 20
396.828
 30
0.000000
  70
    32
  0
VERTEX
  8
AM_0
  5
1B49B
 10
385.460
 20
396.851
 30
0.000000
  70
    32
  0
VERTEX
  8
AM_0
  5
1B49C
 10
385.468
 20
396.874
 30
0.000000
  70
    32
  0
VERTEX
  8
AM_0
  5
1B49D
 10
385.476
 20
396.897
 30
0.000000
  70
    32
  0
VERTEX
  8
AM_0
  5
1B49E
 10
385.483
 20
396.920
 30
0.000000
  70
    32
  0
VERTEX
  8
AM_0
  5
1B49F
 10
385.490
 20
396.944
 30
0.000000
  70
    32
  0
VERTEX
  8
AM_0
  5
1B4A0
 10
385.497
 20
396.967
 30
0.000000
  70
    32
  0
VERTEX
  8
AM_0
  5
1B4A1
 10
385.504
 20
396.991
 30
0.000000
  70
    32
  0
VERTEX
  8
AM_0
  5
1B4A2
 10
385.511
 20
397.015
 30
0.000000
  70
    32
  0
VERTEX
  8
AM_0
  5
1B4A3
 10
385.517
 20
397.039
 30
0.000000
  70
    32
  0
VERTEX
  8
AM_0
  5
1B4A4
 10
385.522
 20
397.062
 30
0.000000
  70
    32
  0
VERTEX
  8
AM_0
  5
1B4A5
 10
385.528
 20
397.086
 30
0.000000
  70
    32
  0
VERTEX
  8
AM_0
  5
1B4A6
 10
385.533
 20
397.110
 30
0.000000
  70
    32
  0
VERTEX
  8
AM_0
  5
1B4A7
 10
385.538
 20
397.134
 30
0.000000
  70
    32
  0
VERTEX
  8
AM_0
  5
1B4A8
 10
385.543
 20
397.158
 30
0.000000
  70
    32
  0
VERTEX
  8
AM_0
  5
1B4A9
 10
385.547
 20
397.183
 30
0.000000
  70
    32
  0
VERTEX
  8
AM_0
  5
1B4AA
 10
385.551
 20
397.207
 30
0.000000
  70
    32
  0
VERTEX
  8
AM_0
  5
1B4AB
 10
385.555
 20
397.231
 30
0.000000
  70
    32
  0
VERTEX
  8
AM_0
  5
1B4AC
 10
385.558
 20
397.255
 30
0.000000
  70
    32
  0
VERTEX
  8
AM_0
  5
1B4AD
 10
385.562
 20
397.280
 30
0.000000
  70
    32
  0
VERTEX
  8
AM_0
  5
1B4AE
 10
385.564
 20
397.304
 30
0.000000
  70
    32
  0
VERTEX
  8
AM_0
  5
1B4AF
 10
385.567
 20
397.328
 30
0.000000
  70
    32
  0
VERTEX
  8
AM_0
  5
1B4B0
 10
385.569
 20
397.353
 30
0.000000
  70
    32
  0
VERTEX
  8
AM_0
  5
1B4B1
 10
385.571
 20
397.377
 30
0.000000
  70
    32
  0
VERTEX
  8
AM_0
  5
1B4B2
 10
385.573
 20
397.402
 30
0.000000
  70
    32
  0
VERTEX
  8
AM_0
  5
1B4B3
 10
385.574
 20
397.426
 30
0.000000
  70
    32
  0
VERTEX
  8
AM_0
  5
1B4B4
 10
385.575
 20
397.451
 30
0.000000
  70
    32
  0
VERTEX
  8
AM_0
  5
1B4B5
 10
385.576
 20
397.475
 30
0.000000
  70
    32
  0
VERTEX
  8
AM_0
  5
1B4B6
 10
385.576
 20
397.500
 30
0.000000
  70
    32
  0
VERTEX
  8
AM_0
  5
1B4B7
 10
385.577
 20
397.524
 30
0.000000
  70
    32
  0
SEQEND
  8
AM_0
  5
1B4B8
  0
LINE
  5
19BC7
  8
AM_0
 10
385.57660907036723
 20
406.52466021528733
 30
0.0
 11
385.57660907036723
 21
397.52447994688112
 31
0.0
  0
LINE
  5
19BCA
  8
AM_0
 10
383.57660901072239
 20
408.5247002749328
 30
0.0
 11
377.57660883178858
 21
408.5247002749328
 31
0.0
  0
LINE
  5
19BCB
  8
AM_0
 10
386.57660910018927
 20
409.5247203047561
 30
0.0
 11
377.57660883178858
 21
409.5247203047561
 31
0.0
  0
LINE
  5
19BCC
  8
AM_0
 10
386.57660910018961
 20
408.95795867422061
 30
0.0
 11
388.44660734067259
 21
409.0240292758653
 31
0.0
  0
LINE
  5
19BCD
  8
AM_0
 10
386.57660910018927
 20
411.08765004714951
 30
0.0
 11
388.44660734067259
 21
411.02402927586519
 31
0.0
  0
ARC
  5
19BCE
  8
AM_0
 10
388.40311434067269
 20
410.02355927586541
 30
0.0
 40
1.000475999999999
 50
272.49157399999581
 51
89.799952000007593
  0
LINE
  5
19F29
  8
AM_0
 10
424.57660734067252
 20
377.0236687390526
 30
0.0
 11
396.57660941773298
 21
382.02366949161132
 31
0.0
  0
LINE
  5
19F2A
  8
AM_0
 10
424.57660734067252
 20
337.0236687390526
 30
0.0
 11
396.57660941773298
 21
332.02366798649479
 31
0.0
  0
LINE
  5
19F2B
  8
AM_0
 10
424.57660734067252
 20
377.0236687390526
 30
0.0
 11
424.57660734067252
 21
337.0236687390526
 31
0.0
  0
LINE
  5
19F2C
  8
AM_0
 10
482.57660734067281
 20
341.0236687390526
 30
0.0
 11
482.57660734067281
 21
376.02366873905271
 31
0.0
  0
LINE
  5
19F2D
  8
0
 10
482.57660734067281
 20
341.0236687390526
 30
0.0
 11
424.57660734067252
 21
341.0236687390526
 31
0.0
  0
LINE
  5
19F2E
  8
0
 10
482.57660734067281
 20
373.0236687390526
 30
0.0
 11
424.57660734067252
 21
373.0236687390526
 31
0.0
  0
LINE
  5
19F2F
  8
0
 10
482.57660734067281
 20
376.02366873905271
 30
0.0
 11
437.57660734067281
 21
376.02366873905271
 31
0.0
  0
LINE
  5
19F30
  8
0
 10
437.57660734067281
 20
376.02366873905271
 30
0.0
 11
437.57660734067281
 21
373.0236687390526
 31
0.0
  0
CIRCLE
  5
1A569
  8
AM_0
 10
652.44893310393786
 20
357.02366873905288
 30
0.0
 40
3.399999999999999
  0
LINE
  5
1A56A
  8
AM_0
 10
396.5766093984127
 20
382.02316950549618
 30
0.0
 11
391.57660924930099
 21
382.02316950549618
 31
0.0
  0
LINE
  5
1A723
  8
AM_0
 10
780.70697131489408
 20
756.18068385233983
 30
0.0
 11
579.19649109136424
 21
756.18068385233983
 31
0.0
  0
LINE
  5
1A724
  8
AM_0
 10
702.44973429705499
 20
761.1806840014516
 30
0.0
 11
602.44813191082142
 21
761.1806840014516
 31
0.0
  0
LINE
  5
1A725
  8
AM_0
 10
702.44973429705499
 20
633.1806801841941
 30
0.0
 11
602.44813191082142
 21
633.1806801841941
 31
0.0
  0
POLYLINE
  5
1A726
  8
AM_0
 10
682.94884279488576
 20
639.1806803631282
 30
0.0
 66
     1
 70
     8
  0
VERTEX
  8
AM_0
  5
1B4B9
 10
682.949
 20
639.181
 30
0.000000
  70
    32
  0
VERTEX
  8
AM_0
  5
1B4BA
 10
682.924
 20
639.181
 30
0.000000
  70
    32
  0
VERTEX
  8
AM_0
  5
1B4BB
 10
682.900
 20
639.181
 30
0.000000
  70
    32
  0
VERTEX
  8
AM_0
  5
1B4BC
 10
682.875
 20
639.182
 30
0.000000
  70
    32
  0
VERTEX
  8
AM_0
  5
1B4BD
 10
682.851
 20
639.183
 30
0.000000
  70
    32
  0
VERTEX
  8
AM_0
  5
1B4BE
 10
682.826
 20
639.184
 30
0.000000
  70
    32
  0
VERTEX
  8
AM_0
  5
1B4BF
 10
682.802
 20
639.186
 30
0.000000
  70
    32
  0
VERTEX
  8
AM_0
  5
1B4C0
 10
682.777
 20
639.188
 30
0.000000
  70
    32
  0
VERTEX
  8
AM_0
  5
1B4C1
 10
682.753
 20
639.190
 30
0.000000
  70
    32
  0
VERTEX
  8
AM_0
  5
1B4C2
 10
682.728
 20
639.193
 30
0.000000
  70
    32
  0
VERTEX
  8
AM_0
  5
1B4C3
 10
682.704
 20
639.196
 30
0.000000
  70
    32
  0
VERTEX
  8
AM_0
  5
1B4C4
 10
682.680
 20
639.199
 30
0.000000
  70
    32
  0
VERTEX
  8
AM_0
  5
1B4C5
 10
682.655
 20
639.202
 30
0.000000
  70
    32
  0
VERTEX
  8
AM_0
  5
1B4C6
 10
682.631
 20
639.206
 30
0.000000
  70
    32
  0
VERTEX
  8
AM_0
  5
1B4C7
 10
682.607
 20
639.210
 30
0.000000
  70
    32
  0
VERTEX
  8
AM_0
  5
1B4C8
 10
682.583
 20
639.214
 30
0.000000
  70
    32
  0
VERTEX
  8
AM_0
  5
1B4C9
 10
682.559
 20
639.219
 30
0.000000
  70
    32
  0
VERTEX
  8
AM_0
  5
1B4CA
 10
682.535
 20
639.224
 30
0.000000
  70
    32
  0
VERTEX
  8
AM_0
  5
1B4CB
 10
682.511
 20
639.229
 30
0.000000
  70
    32
  0
VERTEX
  8
AM_0
  5
1B4CC
 10
682.487
 20
639.235
 30
0.000000
  70
    32
  0
VERTEX
  8
AM_0
  5
1B4CD
 10
682.463
 20
639.241
 30
0.000000
  70
    32
  0
VERTEX
  8
AM_0
  5
1B4CE
 10
682.439
 20
639.247
 30
0.000000
  70
    32
  0
VERTEX
  8
AM_0
  5
1B4CF
 10
682.415
 20
639.253
 30
0.000000
  70
    32
  0
VERTEX
  8
AM_0
  5
1B4D0
 10
682.392
 20
639.260
 30
0.000000
  70
    32
  0
VERTEX
  8
AM_0
  5
1B4D1
 10
682.368
 20
639.267
 30
0.000000
  70
    32
  0
VERTEX
  8
AM_0
  5
1B4D2
 10
682.345
 20
639.274
 30
0.000000
  70
    32
  0
VERTEX
  8
AM_0
  5
1B4D3
 10
682.321
 20
639.282
 30
0.000000
  70
    32
  0
VERTEX
  8
AM_0
  5
1B4D4
 10
682.298
 20
639.289
 30
0.000000
  70
    32
  0
VERTEX
  8
AM_0
  5
1B4D5
 10
682.275
 20
639.298
 30
0.000000
  70
    32
  0
VERTEX
  8
AM_0
  5
1B4D6
 10
682.252
 20
639.306
 30
0.000000
  70
    32
  0
VERTEX
  8
AM_0
  5
1B4D7
 10
682.229
 20
639.315
 30
0.000000
  70
    32
  0
VERTEX
  8
AM_0
  5
1B4D8
 10
682.206
 20
639.324
 30
0.000000
  70
    32
  0
VERTEX
  8
AM_0
  5
1B4D9
 10
682.183
 20
639.333
 30
0.000000
  70
    32
  0
VERTEX
  8
AM_0
  5
1B4DA
 10
682.161
 20
639.342
 30
0.000000
  70
    32
  0
VERTEX
  8
AM_0
  5
1B4DB
 10
682.138
 20
639.352
 30
0.000000
  70
    32
  0
VERTEX
  8
AM_0
  5
1B4DC
 10
682.116
 20
639.362
 30
0.000000
  70
    32
  0
VERTEX
  8
AM_0
  5
1B4DD
 10
682.094
 20
639.373
 30
0.000000
  70
    32
  0
VERTEX
  8
AM_0
  5
1B4DE
 10
682.072
 20
639.383
 30
0.000000
  70
    32
  0
VERTEX
  8
AM_0
  5
1B4DF
 10
682.050
 20
639.394
 30
0.000000
  70
    32
  0
VERTEX
  8
AM_0
  5
1B4E0
 10
682.028
 20
639.405
 30
0.000000
  70
    32
  0
VERTEX
  8
AM_0
  5
1B4E1
 10
682.006
 20
639.417
 30
0.000000
  70
    32
  0
VERTEX
  8
AM_0
  5
1B4E2
 10
681.984
 20
639.429
 30
0.000000
  70
    32
  0
VERTEX
  8
AM_0
  5
1B4E3
 10
681.963
 20
639.441
 30
0.000000
  70
    32
  0
VERTEX
  8
AM_0
  5
1B4E4
 10
681.942
 20
639.453
 30
0.000000
  70
    32
  0
VERTEX
  8
AM_0
  5
1B4E5
 10
681.921
 20
639.465
 30
0.000000
  70
    32
  0
VERTEX
  8
AM_0
  5
1B4E6
 10
681.900
 20
639.478
 30
0.000000
  70
    32
  0
VERTEX
  8
AM_0
  5
1B4E7
 10
681.879
 20
639.491
 30
0.000000
  70
    32
  0
VERTEX
  8
AM_0
  5
1B4E8
 10
681.858
 20
639.504
 30
0.000000
  70
    32
  0
VERTEX
  8
AM_0
  5
1B4E9
 10
681.838
 20
639.518
 30
0.000000
  70
    32
  0
VERTEX
  8
AM_0
  5
1B4EA
 10
681.817
 20
639.532
 30
0.000000
  70
    32
  0
VERTEX
  8
AM_0
  5
1B4EB
 10
681.797
 20
639.546
 30
0.000000
  70
    32
  0
VERTEX
  8
AM_0
  5
1B4EC
 10
681.777
 20
639.560
 30
0.000000
  70
    32
  0
VERTEX
  8
AM_0
  5
1B4ED
 10
681.757
 20
639.574
 30
0.000000
  70
    32
  0
VERTEX
  8
AM_0
  5
1B4EE
 10
681.738
 20
639.589
 30
0.000000
  70
    32
  0
VERTEX
  8
AM_0
  5
1B4EF
 10
681.718
 20
639.604
 30
0.000000
  70
    32
  0
VERTEX
  8
AM_0
  5
1B4F0
 10
681.699
 20
639.619
 30
0.000000
  70
    32
  0
VERTEX
  8
AM_0
  5
1B4F1
 10
681.680
 20
639.635
 30
0.000000
  70
    32
  0
VERTEX
  8
AM_0
  5
1B4F2
 10
681.661
 20
639.650
 30
0.000000
  70
    32
  0
VERTEX
  8
AM_0
  5
1B4F3
 10
681.642
 20
639.666
 30
0.000000
  70
    32
  0
VERTEX
  8
AM_0
  5
1B4F4
 10
681.624
 20
639.682
 30
0.000000
  70
    32
  0
VERTEX
  8
AM_0
  5
1B4F5
 10
681.606
 20
639.699
 30
0.000000
  70
    32
  0
VERTEX
  8
AM_0
  5
1B4F6
 10
681.588
 20
639.715
 30
0.000000
  70
    32
  0
VERTEX
  8
AM_0
  5
1B4F7
 10
681.570
 20
639.732
 30
0.000000
  70
    32
  0
VERTEX
  8
AM_0
  5
1B4F8
 10
681.552
 20
639.749
 30
0.000000
  70
    32
  0
VERTEX
  8
AM_0
  5
1B4F9
 10
681.535
 20
639.766
 30
0.000000
  70
    32
  0
VERTEX
  8
AM_0
  5
1B4FA
 10
681.517
 20
639.784
 30
0.000000
  70
    32
  0
VERTEX
  8
AM_0
  5
1B4FB
 10
681.500
 20
639.802
 30
0.000000
  70
    32
  0
VERTEX
  8
AM_0
  5
1B4FC
 10
681.484
 20
639.819
 30
0.000000
  70
    32
  0
VERTEX
  8
AM_0
  5
1B4FD
 10
681.467
 20
639.838
 30
0.000000
  70
    32
  0
VERTEX
  8
AM_0
  5
1B4FE
 10
681.451
 20
639.856
 30
0.000000
  70
    32
  0
VERTEX
  8
AM_0
  5
1B4FF
 10
681.434
 20
639.874
 30
0.000000
  70
    32
  0
VERTEX
  8
AM_0
  5
1B500
 10
681.418
 20
639.893
 30
0.000000
  70
    32
  0
VERTEX
  8
AM_0
  5
1B501
 10
681.403
 20
639.912
 30
0.000000
  70
    32
  0
VERTEX
  8
AM_0
  5
1B502
 10
681.387
 20
639.931
 30
0.000000
  70
    32
  0
VERTEX
  8
AM_0
  5
1B503
 10
681.372
 20
639.950
 30
0.000000
  70
    32
  0
VERTEX
  8
AM_0
  5
1B504
 10
681.357
 20
639.970
 30
0.000000
  70
    32
  0
VERTEX
  8
AM_0
  5
1B505
 10
681.342
 20
639.989
 30
0.000000
  70
    32
  0
VERTEX
  8
AM_0
  5
1B506
 10
681.328
 20
640.009
 30
0.000000
  70
    32
  0
VERTEX
  8
AM_0
  5
1B507
 10
681.314
 20
640.029
 30
0.000000
  70
    32
  0
VERTEX
  8
AM_0
  5
1B508
 10
681.300
 20
640.049
 30
0.000000
  70
    32
  0
VERTEX
  8
AM_0
  5
1B509
 10
681.286
 20
640.070
 30
0.000000
  70
    32
  0
VERTEX
  8
AM_0
  5
1B50A
 10
681.272
 20
640.090
 30
0.000000
  70
    32
  0
VERTEX
  8
AM_0
  5
1B50B
 10
681.259
 20
640.111
 30
0.000000
  70
    32
  0
VERTEX
  8
AM_0
  5
1B50C
 10
681.246
 20
640.132
 30
0.000000
  70
    32
  0
VERTEX
  8
AM_0
  5
1B50D
 10
681.233
 20
640.152
 30
0.000000
  70
    32
  0
VERTEX
  8
AM_0
  5
1B50E
 10
681.221
 20
640.174
 30
0.000000
  70
    32
  0
VERTEX
  8
AM_0
  5
1B50F
 10
681.209
 20
640.195
 30
0.000000
  70
    32
  0
VERTEX
  8
AM_0
  5
1B510
 10
681.197
 20
640.216
 30
0.000000
  70
    32
  0
VERTEX
  8
AM_0
  5
1B511
 10
681.185
 20
640.238
 30
0.000000
  70
    32
  0
VERTEX
  8
AM_0
  5
1B512
 10
681.174
 20
640.260
 30
0.000000
  70
    32
  0
VERTEX
  8
AM_0
  5
1B513
 10
681.162
 20
640.281
 30
0.000000
  70
    32
  0
VERTEX
  8
AM_0
  5
1B514
 10
681.151
 20
640.303
 30
0.000000
  70
    32
  0
VERTEX
  8
AM_0
  5
1B515
 10
681.141
 20
640.326
 30
0.000000
  70
    32
  0
VERTEX
  8
AM_0
  5
1B516
 10
681.130
 20
640.348
 30
0.000000
  70
    32
  0
VERTEX
  8
AM_0
  5
1B517
 10
681.120
 20
640.370
 30
0.000000
  70
    32
  0
VERTEX
  8
AM_0
  5
1B518
 10
681.111
 20
640.393
 30
0.000000
  70
    32
  0
VERTEX
  8
AM_0
  5
1B519
 10
681.101
 20
640.415
 30
0.000000
  70
    32
  0
VERTEX
  8
AM_0
  5
1B51A
 10
681.092
 20
640.438
 30
0.000000
  70
    32
  0
VERTEX
  8
AM_0
  5
1B51B
 10
681.083
 20
640.461
 30
0.000000
  70
    32
  0
VERTEX
  8
AM_0
  5
1B51C
 10
681.074
 20
640.484
 30
0.000000
  70
    32
  0
VERTEX
  8
AM_0
  5
1B51D
 10
681.066
 20
640.507
 30
0.000000
  70
    32
  0
VERTEX
  8
AM_0
  5
1B51E
 10
681.058
 20
640.530
 30
0.000000
  70
    32
  0
VERTEX
  8
AM_0
  5
1B51F
 10
681.050
 20
640.553
 30
0.000000
  70
    32
  0
VERTEX
  8
AM_0
  5
1B520
 10
681.042
 20
640.577
 30
0.000000
  70
    32
  0
VERTEX
  8
AM_0
  5
1B521
 10
681.035
 20
640.600
 30
0.000000
  70
    32
  0
VERTEX
  8
AM_0
  5
1B522
 10
681.028
 20
640.624
 30
0.000000
  70
    32
  0
VERTEX
  8
AM_0
  5
1B523
 10
681.021
 20
640.647
 30
0.000000
  70
    32
  0
VERTEX
  8
AM_0
  5
1B524
 10
681.015
 20
640.671
 30
0.000000
  70
    32
  0
VERTEX
  8
AM_0
  5
1B525
 10
681.009
 20
640.695
 30
0.000000
  70
    32
  0
VERTEX
  8
AM_0
  5
1B526
 10
681.003
 20
640.719
 30
0.000000
  70
    32
  0
VERTEX
  8
AM_0
  5
1B527
 10
680.997
 20
640.742
 30
0.000000
  70
    32
  0
VERTEX
  8
AM_0
  5
1B528
 10
680.992
 20
640.766
 30
0.000000
  70
    32
  0
VERTEX
  8
AM_0
  5
1B529
 10
680.987
 20
640.790
 30
0.000000
  70
    32
  0
VERTEX
  8
AM_0
  5
1B52A
 10
680.983
 20
640.815
 30
0.000000
  70
    32
  0
VERTEX
  8
AM_0
  5
1B52B
 10
680.978
 20
640.839
 30
0.000000
  70
    32
  0
VERTEX
  8
AM_0
  5
1B52C
 10
680.974
 20
640.863
 30
0.000000
  70
    32
  0
VERTEX
  8
AM_0
  5
1B52D
 10
680.970
 20
640.887
 30
0.000000
  70
    32
  0
VERTEX
  8
AM_0
  5
1B52E
 10
680.967
 20
640.912
 30
0.000000
  70
    32
  0
VERTEX
  8
AM_0
  5
1B52F
 10
680.964
 20
640.936
 30
0.000000
  70
    32
  0
VERTEX
  8
AM_0
  5
1B530
 10
680.961
 20
640.960
 30
0.000000
  70
    32
  0
VERTEX
  8
AM_0
  5
1B531
 10
680.958
 20
640.985
 30
0.000000
  70
    32
  0
VERTEX
  8
AM_0
  5
1B532
 10
680.956
 20
641.009
 30
0.000000
  70
    32
  0
VERTEX
  8
AM_0
  5
1B533
 10
680.954
 20
641.034
 30
0.000000
  70
    32
  0
VERTEX
  8
AM_0
  5
1B534
 10
680.953
 20
641.058
 30
0.000000
  70
    32
  0
VERTEX
  8
AM_0
  5
1B535
 10
680.951
 20
641.083
 30
0.000000
  70
    32
  0
VERTEX
  8
AM_0
  5
1B536
 10
680.950
 20
641.107
 30
0.000000
  70
    32
  0
VERTEX
  8
AM_0
  5
1B537
 10
680.949
 20
641.132
 30
0.000000
  70
    32
  0
VERTEX
  8
AM_0
  5
1B538
 10
680.949
 20
641.156
 30
0.000000
  70
    32
  0
VERTEX
  8
AM_0
  5
1B539
 10
680.949
 20
641.181
 30
0.000000
  70
    32
  0
SEQEND
  8
AM_0
  5
1B53A
  0
LINE
  5
1A727
  8
AM_0
 10
694.94908332760986
 20
647.18068060170663
 30
0.0
 11
679.94878288026632
 21
647.18068060170663
 31
0.0
  0
LINE
  5
1A728
  8
AM_0
 10
782.13833543350825
 20
638.18068033330565
 30
0.0
 11
577.76515749093949
 21
638.18068033330565
 31
0.0
  0
LINE
  5
1A729
  8
AM_0
 10
782.45252019324414
 20
663.1806810788637
 30
0.0
 11
577.45254459724708
 21
663.1806810788637
 31
0.0
  0
LINE
  5
1A72A
  8
ﾁｭｳｼﾝｾﾝ1
 10
979.19642019378398
 20
697.18068209282239
 30
0.0
 11
572.4525445972472
 21
697.18068209282262
 31
0.0
1001
GENIUS_GENODEF_13
1002
{
1000
HIER
1070
     0
1002
}
1002
{
1000
MANEDIT
1070
     0
1002
}
1002
{
1000
NOSEL
1070
     0
1002
}
1002
{
1000
BEHIND
1070
     0
1002
}
1002
{
1000
REACTOR
1002
}
1001
GENIUS_GENOBJ-N-CEN_13
1002
{
1000
OWNER
1000
GEN
1002
}
  0
LINE
  5
1A72B
  8
AM_0
 10
780.70697131489408
 20
756.18068385233983
 30
0.0
 11
782.45252019339614
 21
663.1806810788637
 31
0.0
  0
LINE
  5
1A72C
  8
ﾁｭｳｼﾝｾﾝ1
 10
767.4525197459094
 20
759.1806838523396
 30
0.0
 11
767.4525197459094
 21
635.18068033330565
 31
0.0
  0
LINE
  5
1A72D
  8
ｶｸﾚｾﾝ2
 10
774.4526599546698
 20
756.18068385233983
 30
0.0
 11
774.4526599546698
 21
638.18068033330565
 31
0.0
  0
LINE
  5
1A72E
  8
ｶｸﾚｾﾝ2
 10
760.45237953714923
 20
756.18068385233983
 30
0.0
 11
760.45237953714923
 21
638.18068033330565
 31
0.0
  0
LINE
  5
1A72F
  8
AM_0
 10
798.45252019378404
 20
758.68067709282286
 30
0.0
 11
798.45252019378404
 21
635.6806970928227
 31
0.0
  0
LINE
  5
1A730
  8
AM_0
 10
809.45252019378393
 20
761.18071209282323
 30
0.0
 11
809.4525201937837
 21
633.18069709282258
 31
0.0
  0
ARC
  5
1A731
  8
AM_0
 10
795.45252019378393
 20
632.68069709282292
 30
0.0
 40
2.9999999999999978
 50
35.685334712654601
 51
90.0
1001
GENIUS_GENOBJ-N-FIL_13
1002
{
1000
OWNER
1000
GEN
1002
}
1001
GENIUS_GENODEF_13
1002
{
1000
HIER
1070
     0
1002
}
1002
{
1000
MANEDIT
1070
     0
1002
}
1002
{
1000
NOSEL
1070
     0
1002
}
1002
{
1000
BEHIND
1070
     0
1002
}
1002
{
1000
OTHER
1070
     0
1002
}
1002
{
1000
REACTOR
1002
}
  0
LINE
  5
1A732
  8
AM_0
 10
809.4525201937837
 20
633.18069709282258
 30
0.0
 11
800.32591736618838
 21
633.18069709282258
 31
0.0
  0
ARC
  5
1A733
  8
AM_0
 10
800.32591736618838
 20
636.1806970928227
 30
0.0
 40
2.9999999999999978
 50
215.68533471265459
 51
270.0
1001
GENIUS_GENOBJ-N-FIL_13
1002
{
1000
OWNER
1000
GEN
1002
}
1001
GENIUS_GENODEF_13
1002
{
1000
HIER
1070
     0
1002
}
1002
{
1000
MANEDIT
1070
     0
1002
}
1002
{
1000
NOSEL
1070
     0
1002
}
1002
{
1000
BEHIND
1070
     0
1002
}
1002
{
1000
OTHER
1070
     0
1002
}
1002
{
1000
REACTOR
1002
}
  0
LINE
  5
1A734
  8
AM_0
 10
809.4525201937837
 20
645.14069709282285
 30
0.0
 11
799.4525201937837
 21
645.14069709282285
 31
0.0
  0
LINE
  5
1A735
  8
AM_0
 10
809.45257801600133
 20
645.14068709285448
 30
0.0
 11
799.45257801600735
 21
645.14067598174324
 31
0.0
  0
LINE
  5
1A736
  8
AM_0
 10
809.4525201937837
 20
660.04070709282303
 30
0.0
 11
799.4525201937837
 21
660.04070709282303
 31
0.0
  0
LINE
  5
1A737
  8
AM_0
 10
809.45256146043425
 20
660.04069709284533
 30
0.0
 11
799.45256146044062
 21
660.04068598173421
 31
0.0
  0
ARC
  5
1A738
  8
AM_0
 10
792.86609671479346
 20
637.68069709282292
 30
0.0
 40
2.0
 50
185.0
 51
270.0
1001
GENIUS_GENODEF_13
1002
{
1000
HIER
1070
     0
1002
}
1002
{
1000
MANEDIT
1070
     0
1002
}
1002
{
1000
NOSEL
1070
     0
1002
}
1002
{
1000
BEHIND
1070
     0
1002
}
1002
{
1000
OTHER
1070
     0
1002
}
1002
{
1000
REACTOR
1002
}
1001
GENIUS_GENOBJ-N-FIL_13
1002
{
1000
OWNER
1000
GEN
1002
}
  0
LINE
  5
1A739
  8
AM_0
 10
702.44973429705499
 20
633.1806801841941
 30
0.0
 11
702.44973429705499
 21
638.18068033330565
 31
0.0
  0
LINE
  5
1A73A
  8
AM_0
 10
795.45252019378404
 20
635.6806970928227
 30
0.0
 11
792.86609671479346
 21
635.68069709282292
 31
0.0
  0
LINE
  5
1A73B
  8
AM_0
 10
788.61224724193255
 20
663.35499256435924
 30
0.0
 11
790.87370731861006
 21
637.50638560732762
 31
0.0
  0
LINE
  5
1A73C
  8
AM_0
 10
782.45252019324414
 20
663.1806810788637
 30
0.0
 11
782.13833543350825
 21
638.18068033330565
 31
0.0
  0
ARC
  5
1A73D
  8
AM_0
 10
783.43392697976924
 20
664.18068107886393
 30
0.0
 40
1.0
 50
90.0
 51
181.0752778360611
1001
GENIUS_GENODEF_13
1002
{
1000
HIER
1070
     0
1002
}
1002
{
1000
MANEDIT
1070
     0
1002
}
1002
{
1000
NOSEL
1070
     0
1002
}
1002
{
1000
BEHIND
1070
     0
1002
}
1002
{
1000
OTHER
1070
     0
1002
}
1002
{
1000
REACTOR
1002
}
1001
GENIUS_GENOBJ-N-FIL_13
1002
{
1000
OWNER
1000
GEN
1002
}
  0
ARC
  5
1A73E
  8
AM_0
 10
786.61985784574904
 20
663.1806810788637
 30
0.0
 40
2.0
 50
4.9999999999999813
 51
90.0
1001
GENIUS_GENOBJ-N-FIL_13
1002
{
1000
OWNER
1000
GEN
1002
}
1001
GENIUS_GENODEF_13
1002
{
1000
HIER
1070
     0
1002
}
1002
{
1000
MANEDIT
1070
     0
1002
}
1002
{
1000
NOSEL
1070
     0
1002
}
1002
{
1000
BEHIND
1070
     0
1002
}
1002
{
1000
OTHER
1070
     0
1002
}
1002
{
1000
REACTOR
1002
}
  0
LINE
  5
1A73F
  8
AM_0
 10
786.61985784574904
 20
665.18068107886393
 30
0.0
 11
783.43392697976924
 21
665.18068107886393
 31
0.0
  0
LINE
  5
1A740
  8
AM_0
 10
693.94906329778701
 20
641.18068042277287
 30
0.0
 11
693.94906329778701
 21
647.18068060170663
 31
0.0
  0
LINE
  5
1A741
  8
AM_0
 10
694.94908332760986
 20
638.18068033330565
 30
0.0
 11
694.94908332760986
 21
647.18068060170663
 31
0.0
  0
LINE
  5
1A742
  8
AM_0
 10
682.94884296973487
 20
639.18068036312775
 30
0.0
 11
691.94902323814085
 21
639.18068036312775
 31
0.0
  0
POLYLINE
  5
1A743
  8
AM_0
 10
693.94906329778667
 20
641.18068033535019
 30
0.0
 66
     1
 70
     8
  0
VERTEX
  8
AM_0
  5
1B53B
 10
693.949
 20
641.181
 30
0.000000
  70
    32
  0
VERTEX
  8
AM_0
  5
1B53C
 10
693.949
 20
641.156
 30
0.000000
  70
    32
  0
VERTEX
  8
AM_0
  5
1B53D
 10
693.948
 20
641.132
 30
0.000000
  70
    32
  0
VERTEX
  8
AM_0
  5
1B53E
 10
693.948
 20
641.107
 30
0.000000
  70
    32
  0
VERTEX
  8
AM_0
  5
1B53F
 10
693.947
 20
641.083
 30
0.000000
  70
    32
  0
VERTEX
  8
AM_0
  5
1B540
 10
693.945
 20
641.058
 30
0.000000
  70
    32
  0
VERTEX
  8
AM_0
  5
1B541
 10
693.944
 20
641.034
 30
0.000000
  70
    32
  0
VERTEX
  8
AM_0
  5
1B542
 10
693.942
 20
641.009
 30
0.000000
  70
    32
  0
VERTEX
  8
AM_0
  5
1B543
 10
693.939
 20
640.985
 30
0.000000
  70
    32
  0
VERTEX
  8
AM_0
  5
1B544
 10
693.937
 20
640.960
 30
0.000000
  70
    32
  0
VERTEX
  8
AM_0
  5
1B545
 10
693.934
 20
640.936
 30
0.000000
  70
    32
  0
VERTEX
  8
AM_0
  5
1B546
 10
693.931
 20
640.912
 30
0.000000
  70
    32
  0
VERTEX
  8
AM_0
  5
1B547
 10
693.927
 20
640.887
 30
0.000000
  70
    32
  0
VERTEX
  8
AM_0
  5
1B548
 10
693.924
 20
640.863
 30
0.000000
  70
    32
  0
VERTEX
  8
AM_0
  5
1B549
 10
693.920
 20
640.839
 30
0.000000
  70
    32
  0
VERTEX
  8
AM_0
  5
1B54A
 10
693.915
 20
640.815
 30
0.000000
  70
    32
  0
VERTEX
  8
AM_0
  5
1B54B
 10
693.911
 20
640.790
 30
0.000000
  70
    32
  0
VERTEX
  8
AM_0
  5
1B54C
 10
693.906
 20
640.766
 30
0.000000
  70
    32
  0
VERTEX
  8
AM_0
  5
1B54D
 10
693.900
 20
640.742
 30
0.000000
  70
    32
  0
VERTEX
  8
AM_0
  5
1B54E
 10
693.895
 20
640.719
 30
0.000000
  70
    32
  0
VERTEX
  8
AM_0
  5
1B54F
 10
693.889
 20
640.695
 30
0.000000
  70
    32
  0
VERTEX
  8
AM_0
  5
1B550
 10
693.883
 20
640.671
 30
0.000000
  70
    32
  0
VERTEX
  8
AM_0
  5
1B551
 10
693.877
 20
640.647
 30
0.000000
  70
    32
  0
VERTEX
  8
AM_0
  5
1B552
 10
693.870
 20
640.624
 30
0.000000
  70
    32
  0
VERTEX
  8
AM_0
  5
1B553
 10
693.863
 20
640.600
 30
0.000000
  70
    32
  0
VERTEX
  8
AM_0
  5
1B554
 10
693.856
 20
640.577
 30
0.000000
  70
    32
  0
VERTEX
  8
AM_0
  5
1B555
 10
693.848
 20
640.553
 30
0.000000
  70
    32
  0
VERTEX
  8
AM_0
  5
1B556
 10
693.840
 20
640.530
 30
0.000000
  70
    32
  0
VERTEX
  8
AM_0
  5
1B557
 10
693.832
 20
640.507
 30
0.000000
  70
    32
  0
VERTEX
  8
AM_0
  5
1B558
 10
693.824
 20
640.484
 30
0.000000
  70
    32
  0
VERTEX
  8
AM_0
  5
1B559
 10
693.815
 20
640.461
 30
0.000000
  70
    32
  0
VERTEX
  8
AM_0
  5
1B55A
 10
693.806
 20
640.438
 30
0.000000
  70
    32
  0
VERTEX
  8
AM_0
  5
1B55B
 10
693.797
 20
640.415
 30
0.000000
  70
    32
  0
VERTEX
  8
AM_0
  5
1B55C
 10
693.787
 20
640.393
 30
0.000000
  70
    32
  0
VERTEX
  8
AM_0
  5
1B55D
 10
693.777
 20
640.370
 30
0.000000
  70
    32
  0
VERTEX
  8
AM_0
  5
1B55E
 10
693.767
 20
640.348
 30
0.000000
  70
    32
  0
VERTEX
  8
AM_0
  5
1B55F
 10
693.757
 20
640.326
 30
0.000000
  70
    32
  0
VERTEX
  8
AM_0
  5
1B560
 10
693.746
 20
640.303
 30
0.000000
  70
    32
  0
VERTEX
  8
AM_0
  5
1B561
 10
693.736
 20
640.281
 30
0.000000
  70
    32
  0
VERTEX
  8
AM_0
  5
1B562
 10
693.724
 20
640.260
 30
0.000000
  70
    32
  0
VERTEX
  8
AM_0
  5
1B563
 10
693.713
 20
640.238
 30
0.000000
  70
    32
  0
VERTEX
  8
AM_0
  5
1B564
 10
693.701
 20
640.216
 30
0.000000
  70
    32
  0
VERTEX
  8
AM_0
  5
1B565
 10
693.689
 20
640.195
 30
0.000000
  70
    32
  0
VERTEX
  8
AM_0
  5
1B566
 10
693.677
 20
640.174
 30
0.000000
  70
    32
  0
VERTEX
  8
AM_0
  5
1B567
 10
693.665
 20
640.152
 30
0.000000
  70
    32
  0
VERTEX
  8
AM_0
  5
1B568
 10
693.652
 20
640.132
 30
0.000000
  70
    32
  0
VERTEX
  8
AM_0
  5
1B569
 10
693.639
 20
640.111
 30
0.000000
  70
    32
  0
VERTEX
  8
AM_0
  5
1B56A
 10
693.626
 20
640.090
 30
0.000000
  70
    32
  0
VERTEX
  8
AM_0
  5
1B56B
 10
693.612
 20
640.070
 30
0.000000
  70
    32
  0
VERTEX
  8
AM_0
  5
1B56C
 10
693.598
 20
640.049
 30
0.000000
  70
    32
  0
VERTEX
  8
AM_0
  5
1B56D
 10
693.584
 20
640.029
 30
0.000000
  70
    32
  0
VERTEX
  8
AM_0
  5
1B56E
 10
693.570
 20
640.009
 30
0.000000
  70
    32
  0
VERTEX
  8
AM_0
  5
1B56F
 10
693.555
 20
639.989
 30
0.000000
  70
    32
  0
VERTEX
  8
AM_0
  5
1B570
 10
693.541
 20
639.970
 30
0.000000
  70
    32
  0
VERTEX
  8
AM_0
  5
1B571
 10
693.526
 20
639.950
 30
0.000000
  70
    32
  0
VERTEX
  8
AM_0
  5
1B572
 10
693.511
 20
639.931
 30
0.000000
  70
    32
  0
VERTEX
  8
AM_0
  5
1B573
 10
693.495
 20
639.912
 30
0.000000
  70
    32
  0
VERTEX
  8
AM_0
  5
1B574
 10
693.479
 20
639.893
 30
0.000000
  70
    32
  0
VERTEX
  8
AM_0
  5
1B575
 10
693.463
 20
639.874
 30
0.000000
  70
    32
  0
VERTEX
  8
AM_0
  5
1B576
 10
693.447
 20
639.856
 30
0.000000
  70
    32
  0
VERTEX
  8
AM_0
  5
1B577
 10
693.431
 20
639.838
 30
0.000000
  70
    32
  0
VERTEX
  8
AM_0
  5
1B578
 10
693.414
 20
639.819
 30
0.000000
  70
    32
  0
VERTEX
  8
AM_0
  5
1B579
 10
693.398
 20
639.802
 30
0.000000
  70
    32
  0
VERTEX
  8
AM_0
  5
1B57A
 10
693.381
 20
639.784
 30
0.000000
  70
    32
  0
VERTEX
  8
AM_0
  5
1B57B
 10
693.363
 20
639.766
 30
0.000000
  70
    32
  0
VERTEX
  8
AM_0
  5
1B57C
 10
693.346
 20
639.749
 30
0.000000
  70
    32
  0
VERTEX
  8
AM_0
  5
1B57D
 10
693.328
 20
639.732
 30
0.000000
  70
    32
  0
VERTEX
  8
AM_0
  5
1B57E
 10
693.310
 20
639.715
 30
0.000000
  70
    32
  0
VERTEX
  8
AM_0
  5
1B57F
 10
693.292
 20
639.699
 30
0.000000
  70
    32
  0
VERTEX
  8
AM_0
  5
1B580
 10
693.274
 20
639.682
 30
0.000000
  70
    32
  0
VERTEX
  8
AM_0
  5
1B581
 10
693.255
 20
639.666
 30
0.000000
  70
    32
  0
VERTEX
  8
AM_0
  5
1B582
 10
693.237
 20
639.650
 30
0.000000
  70
    32
  0
VERTEX
  8
AM_0
  5
1B583
 10
693.218
 20
639.635
 30
0.000000
  70
    32
  0
VERTEX
  8
AM_0
  5
1B584
 10
693.199
 20
639.619
 30
0.000000
  70
    32
  0
VERTEX
  8
AM_0
  5
1B585
 10
693.180
 20
639.604
 30
0.000000
  70
    32
  0
VERTEX
  8
AM_0
  5
1B586
 10
693.160
 20
639.589
 30
0.000000
  70
    32
  0
VERTEX
  8
AM_0
  5
1B587
 10
693.140
 20
639.574
 30
0.000000
  70
    32
  0
VERTEX
  8
AM_0
  5
1B588
 10
693.121
 20
639.560
 30
0.000000
  70
    32
  0
VERTEX
  8
AM_0
  5
1B589
 10
693.101
 20
639.546
 30
0.000000
  70
    32
  0
VERTEX
  8
AM_0
  5
1B58A
 10
693.081
 20
639.532
 30
0.000000
  70
    32
  0
VERTEX
  8
AM_0
  5
1B58B
 10
693.060
 20
639.518
 30
0.000000
  70
    32
  0
VERTEX
  8
AM_0
  5
1B58C
 10
693.040
 20
639.504
 30
0.000000
  70
    32
  0
VERTEX
  8
AM_0
  5
1B58D
 10
693.019
 20
639.491
 30
0.000000
  70
    32
  0
VERTEX
  8
AM_0
  5
1B58E
 10
692.998
 20
639.478
 30
0.000000
  70
    32
  0
VERTEX
  8
AM_0
  5
1B58F
 10
692.977
 20
639.465
 30
0.000000
  70
    32
  0
VERTEX
  8
AM_0
  5
1B590
 10
692.956
 20
639.453
 30
0.000000
  70
    32
  0
VERTEX
  8
AM_0
  5
1B591
 10
692.935
 20
639.441
 30
0.000000
  70
    32
  0
VERTEX
  8
AM_0
  5
1B592
 10
692.913
 20
639.429
 30
0.000000
  70
    32
  0
VERTEX
  8
AM_0
  5
1B593
 10
692.892
 20
639.417
 30
0.000000
  70
    32
  0
VERTEX
  8
AM_0
  5
1B594
 10
692.870
 20
639.405
 30
0.000000
  70
    32
  0
VERTEX
  8
AM_0
  5
1B595
 10
692.848
 20
639.394
 30
0.000000
  70
    32
  0
VERTEX
  8
AM_0
  5
1B596
 10
692.826
 20
639.383
 30
0.000000
  70
    32
  0
VERTEX
  8
AM_0
  5
1B597
 10
692.804
 20
639.373
 30
0.000000
  70
    32
  0
VERTEX
  8
AM_0
  5
1B598
 10
692.782
 20
639.362
 30
0.000000
  70
    32
  0
VERTEX
  8
AM_0
  5
1B599
 10
692.760
 20
639.352
 30
0.000000
  70
    32
  0
VERTEX
  8
AM_0
  5
1B59A
 10
692.737
 20
639.342
 30
0.000000
  70
    32
  0
VERTEX
  8
AM_0
  5
1B59B
 10
692.714
 20
639.333
 30
0.000000
  70
    32
  0
VERTEX
  8
AM_0
  5
1B59C
 10
692.692
 20
639.324
 30
0.000000
  70
    32
  0
VERTEX
  8
AM_0
  5
1B59D
 10
692.669
 20
639.315
 30
0.000000
  70
    32
  0
VERTEX
  8
AM_0
  5
1B59E
 10
692.646
 20
639.306
 30
0.000000
  70
    32
  0
VERTEX
  8
AM_0
  5
1B59F
 10
692.623
 20
639.298
 30
0.000000
  70
    32
  0
VERTEX
  8
AM_0
  5
1B5A0
 10
692.600
 20
639.289
 30
0.000000
  70
    32
  0
VERTEX
  8
AM_0
  5
1B5A1
 10
692.576
 20
639.282
 30
0.000000
  70
    32
  0
VERTEX
  8
AM_0
  5
1B5A2
 10
692.553
 20
639.274
 30
0.000000
  70
    32
  0
VERTEX
  8
AM_0
  5
1B5A3
 10
692.530
 20
639.267
 30
0.000000
  70
    32
  0
VERTEX
  8
AM_0
  5
1B5A4
 10
692.506
 20
639.260
 30
0.000000
  70
    32
  0
VERTEX
  8
AM_0
  5
1B5A5
 10
692.482
 20
639.253
 30
0.000000
  70
    32
  0
VERTEX
  8
AM_0
  5
1B5A6
 10
692.459
 20
639.247
 30
0.000000
  70
    32
  0
VERTEX
  8
AM_0
  5
1B5A7
 10
692.435
 20
639.241
 30
0.000000
  70
    32
  0
VERTEX
  8
AM_0
  5
1B5A8
 10
692.411
 20
639.235
 30
0.000000
  70
    32
  0
VERTEX
  8
AM_0
  5
1B5A9
 10
692.387
 20
639.229
 30
0.000000
  70
    32
  0
VERTEX
  8
AM_0
  5
1B5AA
 10
692.363
 20
639.224
 30
0.000000
  70
    32
  0
VERTEX
  8
AM_0
  5
1B5AB
 10
692.339
 20
639.219
 30
0.000000
  70
    32
  0
VERTEX
  8
AM_0
  5
1B5AC
 10
692.315
 20
639.214
 30
0.000000
  70
    32
  0
VERTEX
  8
AM_0
  5
1B5AD
 10
692.291
 20
639.210
 30
0.000000
  70
    32
  0
VERTEX
  8
AM_0
  5
1B5AE
 10
692.267
 20
639.206
 30
0.000000
  70
    32
  0
VERTEX
  8
AM_0
  5
1B5AF
 10
692.242
 20
639.202
 30
0.000000
  70
    32
  0
VERTEX
  8
AM_0
  5
1B5B0
 10
692.218
 20
639.199
 30
0.000000
  70
    32
  0
VERTEX
  8
AM_0
  5
1B5B1
 10
692.194
 20
639.196
 30
0.000000
  70
    32
  0
VERTEX
  8
AM_0
  5
1B5B2
 10
692.169
 20
639.193
 30
0.000000
  70
    32
  0
VERTEX
  8
AM_0
  5
1B5B3
 10
692.145
 20
639.190
 30
0.000000
  70
    32
  0
VERTEX
  8
AM_0
  5
1B5B4
 10
692.121
 20
639.188
 30
0.000000
  70
    32
  0
VERTEX
  8
AM_0
  5
1B5B5
 10
692.096
 20
639.186
 30
0.000000
  70
    32
  0
VERTEX
  8
AM_0
  5
1B5B6
 10
692.072
 20
639.184
 30
0.000000
  70
    32
  0
VERTEX
  8
AM_0
  5
1B5B7
 10
692.047
 20
639.183
 30
0.000000
  70
    32
  0
VERTEX
  8
AM_0
  5
1B5B8
 10
692.023
 20
639.182
 30
0.000000
  70
    32
  0
VERTEX
  8
AM_0
  5
1B5B9
 10
691.998
 20
639.181
 30
0.000000
  70
    32
  0
VERTEX
  8
AM_0
  5
1B5BA
 10
691.974
 20
639.181
 30
0.000000
  70
    32
  0
VERTEX
  8
AM_0
  5
1B5BB
 10
691.949
 20
639.181
 30
0.000000
  70
    32
  0
SEQEND
  8
AM_0
  5
1B5BC
  0
ARC
  5
1A744
  8
AM_0
 10
795.45252019378393
 20
761.68067709282298
 30
0.0
 40
2.9999999999999978
 50
270.0
 51
324.31466528734541
1001
GENIUS_GENOBJ-N-FIL_13
1002
{
1000
OWNER
1000
GEN
1002
}
1001
GENIUS_GENODEF_13
1002
{
1000
HIER
1070
     0
1002
}
1002
{
1000
MANEDIT
1070
     0
1002
}
1002
{
1000
NOSEL
1070
     0
1002
}
1002
{
1000
BEHIND
1070
     0
1002
}
1002
{
1000
OTHER
1070
     0
1002
}
1002
{
1000
REACTOR
1002
}
  0
LINE
  5
1A745
  8
AM_0
 10
809.45252019378393
 20
734.32066709282265
 30
0.0
 11
799.45252019378393
 21
734.32066709282265
 31
0.0
  0
LINE
  5
1A746
  8
AM_0
 10
809.45252019378393
 20
749.22067709282271
 30
0.0
 11
799.45252019378393
 21
749.22067709282271
 31
0.0
  0
LINE
  5
1A747
  8
AM_0
 10
809.45252019378393
 20
761.18067709282309
 30
0.0
 11
800.32591736618838
 21
761.18067709282309
 31
0.0
  0
ARC
  5
1A748
  8
AM_0
 10
800.32591736618838
 20
758.18067709282286
 30
0.0
 40
2.9999999999999978
 50
90.0
 51
144.31466528734541
1001
GENIUS_GENOBJ-N-FIL_13
1002
{
1000
OWNER
1000
GEN
1002
}
1001
GENIUS_GENODEF_13
1002
{
1000
HIER
1070
     0
1002
}
1002
{
1000
MANEDIT
1070
     0
1002
}
1002
{
1000
NOSEL
1070
     0
1002
}
1002
{
1000
BEHIND
1070
     0
1002
}
1002
{
1000
OTHER
1070
     0
1002
}
1002
{
1000
REACTOR
1002
}
  0
ARC
  5
1A749
  8
AM_0
 10
782.7073235720801
 20
756.18068385233983
 30
0.0
 40
2.0
 50
181.07527783597001
 51
270.0
1001
GENIUS_GENODEF_13
1002
{
1000
HIER
1070
     0
1002
}
1002
{
1000
MANEDIT
1070
     0
1002
}
1002
{
1000
NOSEL
1070
     0
1002
}
1002
{
1000
BEHIND
1070
     0
1002
}
1002
{
1000
OTHER
1070
     0
1002
}
1002
{
1000
REACTOR
1002
}
1001
GENIUS_GENOBJ-N-FIL_13
1002
{
1000
OWNER
1000
GEN
1002
}
  0
LINE
  5
1A74A
  8
AM_0
 10
788.68649154012087
 20
756.85498857831806
 30
0.0
 11
788.61224724193255
 21
756.00637236684452
 31
0.0
  0
ARC
  5
1A74B
  8
AM_0
 10
786.61985784574904
 20
756.18068385233983
 30
0.0
 40
2.0
 50
270.0
 51
355.0
1001
GENIUS_GENODEF_13
1002
{
1000
HIER
1070
     0
1002
}
1002
{
1000
MANEDIT
1070
     0
1002
}
1002
{
1000
NOSEL
1070
     0
1002
}
1002
{
1000
BEHIND
1070
     0
1002
}
1002
{
1000
OTHER
1070
     0
1002
}
1002
{
1000
REACTOR
1002
}
1001
GENIUS_GENOBJ-N-FIL_13
1002
{
1000
OWNER
1000
GEN
1002
}
  0
LINE
  5
1A74C
  8
AM_0
 10
786.61985784574904
 20
754.18068385233983
 30
0.0
 11
782.7073235720801
 21
754.18068385233983
 31
0.0
  0
ARC
  5
1A74D
  8
AM_0
 10
790.67888093630415
 20
756.68067709282298
 30
0.0
 40
2.0
 50
90.0
 51
174.99999999999989
1001
GENIUS_GENOBJ-N-FIL_13
1002
{
1000
OWNER
1000
GEN
1002
}
1001
GENIUS_GENODEF_13
1002
{
1000
HIER
1070
     0
1002
}
1002
{
1000
MANEDIT
1070
     0
1002
}
1002
{
1000
NOSEL
1070
     0
1002
}
1002
{
1000
BEHIND
1070
     0
1002
}
1002
{
1000
OTHER
1070
     0
1002
}
1002
{
1000
REACTOR
1002
}
  0
LINE
  5
1A74E
  8
AM_0
 10
795.45252019378404
 20
758.68067709282286
 30
0.0
 11
790.67888093630415
 21
758.68067709282275
 31
0.0
  0
LINE
  5
1A74F
  8
AM_0
 10
702.44973429705499
 20
761.1806840014516
 30
0.0
 11
702.44973429705499
 21
756.18068385233983
 31
0.0
  0
LINE
  5
1A750
  8
ﾁｭｳｼﾝｾﾝ1
 10
652.44893310393786
 20
771.1806841505628
 30
0.0
 11
652.4489331039382
 21
537.18068209282205
 31
0.0
  0
LINE
  5
1A751
  8
ﾁｭｳｼﾝｾﾝ1
 10
592.45124266035725
 20
759.18068385233983
 30
0.0
 11
592.45124266035725
 21
635.18068033330565
 31
0.0
  0
LINE
  5
1A752
  8
ｶｸﾚｾﾝ2
 10
585.45110245159697
 20
756.18068385233983
 30
0.0
 11
585.45110245159697
 21
638.18068033330565
 31
0.0
  0
LINE
  5
1A753
  8
ｶｸﾚｾﾝ2
 10
599.45138286911799
 20
756.18068385233983
 30
0.0
 11
599.45138286911799
 21
638.18068033330565
 31
0.0
  0
LINE
  5
1A754
  8
AM_0
 10
579.19649109136424
 20
756.18068385233983
 30
0.0
 11
577.45254459724708
 21
663.1806810788637
 31
0.0
  0
LINE
  5
1A755
  8
AM_0
 10
602.44813191082142
 20
633.1806801841941
 30
0.0
 11
602.44813191082142
 21
638.18068033330565
 31
0.0
  0
LINE
  5
1A756
  8
AM_0
 10
677.44943384951125
 20
628.18068003508245
 30
0.0
 11
627.44843235836481
 21
628.18068003508245
 31
0.0
  0
LINE
  5
1A757
  8
AM_0
 10
677.44943384951125
 20
628.18068003508245
 30
0.0
 11
677.44943384951125
 21
633.1806801841941
 31
0.0
  0
LINE
  5
1A758
  8
AM_0
 10
627.44843235836481
 20
628.18068003508245
 30
0.0
 11
627.44843235836481
 21
633.1806801841941
 31
0.0
  0
LINE
  5
1A759
  8
AM_0
 10
680.94880291008894
 20
641.18068042277287
 30
0.0
 11
680.94880291008894
 21
647.18068060170663
 31
0.0
  0
LINE
  5
1A75A
  8
AM_0
 10
679.94878288026632
 20
638.18068033330565
 30
0.0
 11
679.94878288026632
 21
647.18068060170663
 31
0.0
  0
LINE
  5
1A75B
  8
AM_0
 10
577.45254459724708
 20
663.1806810788637
 30
0.0
 11
577.76515749093949
 21
638.18068033330565
 31
0.0
  0
LINE
  5
1A75C
  8
AM_0
 10
602.44813191082142
 20
761.1806840014516
 30
0.0
 11
602.44813191082142
 21
756.18068385233983
 31
0.0
  0
LINE
  5
1A75D
  8
ｶｸﾚｾﾝ2
 10
840.95258019378389
 20
665.68068209282251
 30
0.0
 11
914.95258019378389
 21
665.68068209282251
 31
0.0
  0
LINE
  5
1A75E
  8
ｶｸﾚｾﾝ2
 10
840.95258019378389
 20
728.68068209282262
 30
0.0
 11
914.95258019378389
 21
728.68068209282262
 31
0.0
  0
LINE
  5
1A75F
  8
AM_0
 10
942.45255019378408
 20
633.29067109282232
 30
0.0
 11
889.45255019378396
 21
633.29067109282232
 31
0.0
  0
LINE
  5
1A760
  8
AM_0
 10
942.45255019378408
 20
631.94065709282245
 30
0.0
 11
889.45255019378396
 21
631.94065709282245
 31
0.0
  0
LINE
  5
1A761
  8
AM_0
 10
942.45255019378408
 20
631.27067509282233
 30
0.0
 11
889.45255019378396
 21
631.27067509282233
 31
0.0
  0
LINE
  5
1A762
  8
AM_0
 10
920.45255019378396
 20
650.83066209282254
 30
0.0
 11
822.05253006022906
 21
650.83066209282265
 31
0.0
  0
LINE
  5
1A763
  8
AM_0
 10
920.45255019378396
 20
743.53067209282256
 30
0.0
 11
822.05253006022906
 21
743.53067209282267
 31
0.0
  0
LINE
  5
1A764
  8
AM_0
 10
825.1025201937839
 20
661.18068209282251
 30
0.0
 11
959.90250019378414
 21
661.18068209282217
 31
0.0
  0
LINE
  5
1A765
  8
AM_0
 10
942.45255019378408
 20
635.32067009282252
 30
0.0
 11
825.64256019378399
 21
635.32067009282264
 31
0.0
  0
LINE
  5
1A766
  8
AM_0
 10
951.77256019378399
 20
733.90066209282236
 30
0.0
 11
821.63255019378403
 21
733.90066209282247
 31
0.0
  0
LINE
  5
1A767
  8
AM_0
 10
825.10252019378402
 20
733.18068209282262
 30
0.0
 11
950.90250019378414
 21
733.18068209282239
 31
0.0
  0
LINE
  5
1A768
  8
AM_0
 10
825.1025201937839
 20
663.18067209282253
 30
0.0
 11
959.90250019378414
 21
663.18067209282219
 31
0.0
  0
LINE
  5
1A769
  8
AM_0
 10
821.63255019378403
 20
663.81067209282264
 30
0.0
 11
960.77256019378376
 21
663.81067209282253
 31
0.0
  0
LINE
  5
1A76A
  8
AM_0
 10
960.77256019378376
 20
660.4606620928223
 30
0.0
 11
821.63255019378403
 21
660.46066209282253
 31
0.0
  0
LINE
  5
1A76B
  8
AM_0
 10
821.63255019378403
 20
730.55066209282268
 30
0.0
 11
951.77256019378399
 21
730.55066209282245
 31
0.0
  0
LINE
  5
1A76C
  8
AM_0
 10
822.50758019378395
 20
671.18066799282235
 30
0.0
 11
959.90250019378414
 21
671.18066209282233
 31
0.0
  0
LINE
  5
1A76D
  8
AM_0
 10
822.50758014142377
 20
673.1806761928226
 30
0.0
 11
959.90250019378414
 21
673.18068209282217
 31
0.0
  0
LINE
  5
1A76E
  8
AM_0
 10
960.99253019378398
 20
670.70067209282217
 30
0.0
 11
821.41755019378388
 21
670.70066209282254
 31
0.0
  0
LINE
  5
1A76F
  8
AM_0
 10
960.99253019378398
 20
673.62068209282234
 30
0.0
 11
821.41755011733858
 21
673.62066209282261
 31
0.0
  0
LINE
  5
1A770
  8
AM_0
 10
961.12254019378361
 20
680.84066209282253
 30
0.0
 11
821.28754019378391
 21
680.8406820928227
 31
0.0
  0
LINE
  5
1A771
  8
AM_0
 10
822.51757465162495
 20
681.18068406306429
 30
0.0
 11
959.89256019378388
 21
681.18068209282217
 31
0.0
  0
LINE
  5
1A772
  8
AM_0
 10
822.51757454690551
 20
683.18068012349318
 30
0.0
 11
959.89256019378388
 21
683.18066209282233
 31
0.0
  0
LINE
  5
1A773
  8
AM_0
 10
961.12254019378395
 20
683.50067209282224
 30
0.0
 11
821.28754012414538
 21
683.50068209282233
 31
0.0
  0
LINE
  5
1A774
  8
AM_0
 10
961.18253019378392
 20
690.91067209282244
 30
0.0
 11
821.22755019378405
 21
690.91065809282247
 31
0.0
  0
LINE
  5
1A775
  8
AM_0
 10
822.51757465162507
 20
691.18066406306423
 30
0.0
 11
959.89256019378388
 21
691.18068209282239
 31
0.0
  0
LINE
  5
1A776
  8
AM_0
 10
822.51757454690551
 20
693.18066012349334
 30
0.0
 11
959.89256019378388
 21
693.18068209282228
 31
0.0
  0
LINE
  5
1A777
  8
AM_0
 10
961.18253019378392
 20
693.4506720928224
 30
0.0
 11
821.22755012728658
 21
693.45066609282253
 31
0.0
  0
LINE
  5
1A778
  8
AM_0
 10
961.18253019378392
 20
700.92067209282243
 30
0.0
 11
821.22755019378405
 21
700.92064809282249
 31
0.0
  0
LINE
  5
1A779
  8
AM_0
 10
822.51757465162507
 20
701.18066406306423
 30
0.0
 11
959.89256019378388
 21
701.18066209282244
 31
0.0
  0
LINE
  5
1A77A
  8
AM_0
 10
822.51757454690551
 20
703.18066012349334
 30
0.0
 11
959.89256019378388
 21
703.18068209282239
 31
0.0
  0
LINE
  5
1A77B
  8
AM_0
 10
961.18253019378392
 20
703.4506720928224
 30
0.0
 11
821.22755012754862
 21
703.45065609282256
 31
0.0
  0
LINE
  5
1A77C
  8
AM_0
 10
961.12254019378395
 20
710.86067209282226
 30
0.0
 11
821.28754019378391
 21
710.8606720928226
 31
0.0
  0
LINE
  5
1A77D
  8
AM_0
 10
822.51757465162507
 20
711.18068406306418
 30
0.0
 11
959.89256019378388
 21
711.18066209282244
 31
0.0
  0
LINE
  5
1A77E
  8
AM_0
 10
822.51757454690551
 20
713.1806801234934
 30
0.0
 11
959.89256019378388
 21
713.18066209282244
 31
0.0
  0
LINE
  5
1A77F
  8
AM_0
 10
961.12254019378395
 20
713.52066209282225
 30
0.0
 11
821.28754012414538
 21
713.52067209282245
 31
0.0
  0
LINE
  5
1A780
  8
AM_0
 10
951.99253019378398
 20
720.74067209282225
 30
0.0
 11
821.42254019378402
 21
720.74067209282259
 31
0.0
  0
LINE
  5
1A781
  8
AM_0
 10
822.51257019378409
 20
721.18065799282226
 30
0.0
 11
950.90250019378414
 21
721.18068209282239
 31
0.0
  0
LINE
  5
1A782
  8
AM_0
 10
822.51257014142379
 20
723.18066619282263
 30
0.0
 11
950.90250019378414
 21
723.18066209282244
 31
0.0
  0
LINE
  5
1A783
  8
AM_0
 10
951.99253019378398
 20
723.67065209282225
 30
0.0
 11
821.42254011707655
 21
723.67067209282254
 31
0.0
  0
LINE
  5
1A784
  8
AM_0
 10
825.10253919390618
 20
731.18066373855447
 30
0.0
 11
950.90250019378414
 21
731.18066209282244
 31
0.0
  0
LINE
  5
1A785
  8
AM_0
 10
942.45255019378408
 20
761.07066209282254
 30
0.0
 11
889.45255019378396
 21
761.07066209282254
 31
0.0
  0
LINE
  5
1A786
  8
AM_0
 10
942.45255019378408
 20
762.42067209282243
 30
0.0
 11
889.45255019378396
 21
762.42067209282243
 31
0.0
  0
LINE
  5
1A787
  8
AM_0
 10
942.45255019378408
 20
763.10066209282252
 30
0.0
 11
889.45255019378396
 21
763.10066209282252
 31
0.0
  0
LINE
  5
1A788
  8
AM_0
 10
942.45255019378408
 20
759.04066209282246
 30
0.0
 11
825.64256019378399
 21
759.04066209282246
 31
0.0
  0
LINE
  5
1A789
  8
ｶｸﾚｾﾝ2
 10
917.95258019378377
 20
725.68068209282251
 30
0.0
 11
917.95258019378377
 21
668.68068209282251
 31
0.0
  0
LINE
  5
1A78A
  8
AM_0
 10
970.45252019378404
 20
648.5906720928225
 30
0.0
 11
970.45252019378404
 21
692.1806920928226
 31
0.0
  0
LINE
  5
1A78B
  8
AM_0
 10
965.45258019378377
 20
639.75068309282233
 30
0.0
 11
965.452580193784
 21
697.18068209282239
 31
0.0
  0
LINE
  5
1A78C
  8
AM_0
 10
971.95252019378393
 20
717.18067209282231
 30
0.0
 11
971.95252019378393
 21
677.18069209282248
 31
0.0
  0
LINE
  5
1A78D
  8
AM_0
 10
972.94642019378398
 20
681.95879209282225
 30
0.0
 11
972.94642019378398
 21
712.40242209282223
 31
0.0
  0
LINE
  5
1A78E
  8
AM_0
 10
961.7325201937839
 20
745.53067209282256
 30
0.0
 11
961.19248019378369
 21
748.52067209282245
 31
0.0
  0
LINE
  5
1A78F
  8
AM_0
 10
968.45258019378389
 20
746.68068209282262
 30
0.0
 11
968.45258019378389
 21
746.15068209282242
 31
0.0
  0
LINE
  5
1A790
  8
AM_0
 10
968.68256019378396
 20
746.80068209282229
 30
0.0
 11
969.952580193784
 21
746.06067209282253
 31
0.0
  0
LINE
  5
1A791
  8
AM_0
 10
965.452580193784
 20
754.61067209282226
 30
0.0
 11
965.452580193784
 21
697.18068209282239
 31
0.0
  0
ARC
  5
1A792
  8
AM_0
 10
942.45799019378387
 20
760.42610209282225
 30
0.0
 40
1.9945760999999991
 50
359.84400999999718
 51
90.155991999999955
  0
ARC
  5
1A793
  8
AM_0
 10
942.45005019378368
 20
761.10582209282245
 30
0.0
 40
1.994844099999999
 50
14.362800000000091
 51
89.928342000002075
  0
LINE
  5
1A794
  8
AM_0
 10
959.22257019378401
 20
750.16066209282246
 30
0.0
 11
945.95255019378408
 21
750.16066209282246
 31
0.0
  0
LINE
  5
1A795
  8
AM_0
 10
959.34257019378413
 20
760.4806620928224
 30
0.0
 11
945.8425701937839
 21
760.4806620928224
 31
0.0
  0
LINE
  5
1A796
  8
AM_0
 10
959.312540193784
 20
758.85066209282252
 30
0.0
 11
945.95255019378408
 21
758.85066209282252
 31
0.0
  0
LINE
  5
1A797
  8
AM_0
 10
959.28251019378399
 20
755.45067209282217
 30
0.0
 11
945.95255019378408
 21
755.45067209282217
 31
0.0
  0
ARC
  5
1A798
  8
AM_0
 10
959.28086019378406
 20
753.45527209282261
 30
0.0
 40
1.9953879999999991
 50
12.01538000000024
 51
89.951933000002214
  0
LINE
  5
1A799
  8
AM_0
 10
961.26255019378402
 20
757.31067209282253
 30
0.0
 11
962.18259019378388
 21
753.43068209282239
 31
0.0
  0
ARC
  5
1A79A
  8
AM_0
 10
963.62425019378406
 20
755.80777209282269
 30
0.0
 40
1.5070961
 50
194.09782000000419
 51
269.9351799999983
  0
LINE
  5
1A79B
  8
AM_0
 10
963.62254019378395
 20
754.30067209282254
 30
0.0
 11
961.97251019378405
 21
754.30067209282254
 31
0.0
  0
LINE
  5
1A79C
  8
AM_0
 10
965.45261019378404
 20
754.61067209282226
 30
0.0
 11
962.63255019378403
 21
754.68066209282244
 31
0.0
  0
LINE
  5
1A79D
  8
AM_0
 10
961.28257019378395
 20
758.97068209282224
 30
0.0
 11
962.16258019378358
 21
755.44069209282225
 31
0.0
  0
ARC
  5
1A79E
  8
AM_0
 10
959.31974019378345
 20
756.85521209282263
 30
0.0
 40
1.9954841000000001
 50
13.194079999998889
 51
90.206542000000866
  0
ARC
  5
1A79F
  8
AM_0
 10
959.34525019378407
 20
758.48289209282257
 30
0.0
 40
1.9977800999999991
 50
14.13223000000314
 51
90.076919000002306
  0
LINE
  5
1A7A0
  8
AM_0
 10
963.66258019378415
 20
748.22065209282243
 30
0.0
 11
961.24253019378398
 21
748.22065209282243
 31
0.0
  0
ARC
  5
1A7A1
  8
AM_0
 10
963.66135019378407
 20
749.72480209282253
 30
0.0
 40
1.50414
 50
192.44475000000341
 51
270.04575000000148
  0
LINE
  5
1A7A2
  8
AM_0
 10
963.64256019378399
 20
752.28065209282238
 30
0.0
 11
961.58256019378405
 21
752.28065209282238
 31
0.0
  0
ARC
  5
1A7A3
  8
AM_0
 10
963.64335019378404
 20
753.78347209282254
 30
0.0
 40
1.5028081
 50
193.57782000000279
 51
269.96920999999838
  0
ARC
  5
1A7A4
  8
AM_0
 10
968.19055019378413
 20
745.93480209282245
 30
0.0
 40
0.9959119600000002
 50
60.393009999995428
 51
90.45855599999615
  0
ARC
  5
1A7A5
  8
AM_0
 10
965.95716019378392
 20
747.43530209282255
 30
0.0
 40
0.5046359900000002
 50
180.5237599999995
 51
269.47624000000047
  0
LINE
  5
1A7A6
  8
AM_0
 10
968.18256019378407
 20
746.93068209282262
 30
0.0
 11
965.95252019378415
 21
746.93068209282262
 31
0.0
  0
ARC
  5
1A7A7
  8
AM_0
 10
959.23069019378397
 20
748.16723209282247
 30
0.0
 40
1.993431999999999
 50
10.21196999999983
 51
90.234116000000725
  0
LINE
  5
1A7A8
  8
AM_0
 10
961.23252019378401
 20
753.87066209282227
 30
0.0
 11
962.192540193784
 21
749.40066209282247
 31
0.0
  0
LINE
  5
1A7A9
  8
AM_0
 10
944.45255019378408
 20
759.07066209282254
 30
0.0
 11
944.45255019378408
 21
751.66066209282235
 31
0.0
  0
ARC
  5
1A7AA
  8
AM_0
 10
945.9543201937837
 20
756.95245209282257
 30
0.0
 40
1.5017959999999979
 50
180.06854999999891
 51
269.93145000000101
  0
ARC
  5
1A7AB
  8
AM_0
 10
945.83891019378382
 20
761.9875620928226
 30
0.0
 40
1.506888
 50
194.8769300000055
 51
270.1377700000005
  0
ARC
  5
1A7AC
  8
AM_0
 10
942.45530019378407
 20
759.07345209282266
 30
0.0
 40
1.9972080000000001
 50
359.91986000000099
 51
90.080142999999566
  0
ARC
  5
1A7AD
  8
AM_0
 10
942.45615019378408
 20
757.04428209282253
 30
0.0
 40
1.996383999999999
 50
359.89615999999739
 51
90.103836999999984
  0
ARC
  5
1A7AE
  8
AM_0
 10
945.95640019378357
 20
760.35450209282237
 30
0.0
 40
1.503848099999999
 50
180.14640000000301
 51
269.85359999999702
  0
ARC
  5
1A7AF
  8
AM_0
 10
945.95823019378406
 20
751.66633209282247
 30
0.0
 40
1.505676
 50
180.21552999999901
 51
269.78448000000111
  0
LINE
  5
1A7B0
  8
AM_0
 10
971.95252019378393
 20
712.33069209282235
 30
0.0
 11
967.67255019378388
 21
712.33069209282235
 31
0.0
  0
LINE
  5
1A7B1
  8
AM_0
 10
966.45258019378389
 20
713.18068209282251
 30
0.0
 11
969.45258019378412
 21
713.18068209282251
 31
0.0
  0
LINE
  5
1A7B2
  8
AM_0
 10
966.45258019378389
 20
711.18067209282242
 30
0.0
 11
969.45258019378412
 21
711.18067209282242
 31
0.0
  0
LINE
  5
1A7B3
  8
AM_0
 10
966.45258019378389
 20
723.18067209282242
 30
0.0
 11
969.45258019378412
 21
723.18067209282242
 31
0.0
  0
LINE
  5
1A7B4
  8
AM_0
 10
966.45258019378389
 20
721.18068209282262
 30
0.0
 11
969.45258019378412
 21
721.18068209282262
 31
0.0
  0
LINE
  5
1A7B5
  8
AM_0
 10
968.64258019378406
 20
732.79070209282247
 30
0.0
 11
969.84259019378396
 21
732.28070209282225
 31
0.0
  0
LINE
  5
1A7B6
  8
AM_0
 10
968.59253019378411
 20
730.88068209282244
 30
0.0
 11
969.74256019378402
 21
730.53067209282244
 31
0.0
  0
LINE
  5
1A7B7
  8
AM_0
 10
968.69257019378392
 20
744.68068209282262
 30
0.0
 11
969.97260019378405
 21
743.9106920928225
 31
0.0
  0
LINE
  5
1A7B8
  8
AM_0
 10
968.702580193784
 20
740.14064209282253
 30
0.0
 11
970.00257019378387
 21
739.29065209282237
 31
0.0
  0
LINE
  5
1A7B9
  8
AM_0
 10
968.68256019378396
 20
739.03066209282247
 30
0.0
 11
969.96259019378408
 21
738.28066209282235
 31
0.0
  0
LINE
  5
1A7BA
  8
AM_0
 10
968.66254019378403
 20
745.68071209282243
 30
0.0
 11
969.90253019378395
 21
745.05071209282244
 31
0.0
  0
LINE
  5
1A7BB
  8
AM_0
 10
968.67255019378388
 20
743.57070209282244
 30
0.0
 11
969.92261019378395
 21
742.90070209282226
 31
0.0
  0
LINE
  5
1A7BC
  8
AM_0
 10
966.45258019378389
 20
691.18068209282262
 30
0.0
 11
969.45258019378412
 21
691.18068209282262
 31
0.0
  0
LINE
  5
1A7BD
  8
AM_0
 10
966.45258019378389
 20
693.18067209282242
 30
0.0
 11
969.45258019378412
 21
693.18067209282242
 31
0.0
  0
LINE
  5
1A7BE
  8
AM_0
 10
966.45258019378389
 20
703.18068209282262
 30
0.0
 11
969.45258019378412
 21
703.18068209282262
 31
0.0
  0
LINE
  5
1A7BF
  8
AM_0
 10
966.45258019378389
 20
701.18068209282239
 30
0.0
 11
969.45258019378412
 21
701.18068209282239
 31
0.0
  0
LINE
  5
1A7C0
  8
AM_0
 10
970.45252019378404
 20
745.20069209282258
 30
0.0
 11
970.45252019378404
 21
702.18067209282242
 31
0.0
  0
ARC
  5
1A7C1
  8
AM_0
 10
969.45777019378397
 20
738.4582820928224
 30
0.0
 40
0.9948279899999999
 50
359.56186999999977
 51
56.795310000000541
  0
ARC
  5
1A7C2
  8
AM_0
 10
969.45935019378408
 20
742.02211209282245
 30
0.0
 40
0.9932120399999999
 50
359.91816999999918
 51
62.200659999995572
  0
ARC
  5
1A7C3
  8
AM_0
 10
969.45935019378408
 20
745.19860209282263
 30
0.0
 40
0.99319202
 50
0.1204399999996219
 51
60.226600000003252
  0
ARC
  5
1A7C4
  8
AM_0
 10
969.45697019378395
 20
744.16037209282263
 30
0.0
 40
0.99558806
 50
0.0177499999989372
 51
63.412509999995592
  0
ARC
  5
1A7C5
  8
AM_0
 10
969.45813019378386
 20
743.0596520928226
 30
0.0
 40
0.9944360299999999
 50
0.0595100000006976
 51
58.847829999999441
  0
ARC
  5
1A7C6
  8
AM_0
 10
969.45618019378401
 20
731.36226209282245
 30
0.0
 40
0.99640006
 50
359.90960000000132
 51
67.18261000000129
  0
ARC
  5
1A7C7
  8
AM_0
 10
969.45850019378395
 20
737.42388209282262
 30
0.0
 40
0.99407601
 50
359.81535999999909
 51
59.530799999997029
  0
ARC
  5
1A7C8
  8
AM_0
 10
969.4563001937837
 20
729.57643209282253
 30
0.0
 40
0.9962600499999998
 50
359.66950999999978
 51
73.302510000000908
  0
LINE
  5
1A7C9
  8
AM_0
 10
971.95258019378389
 20
717.18070209282234
 30
0.0
 11
970.452580193784
 21
717.31070209282245
 31
0.0
  0
ARC
  5
1A7CA
  8
AM_0
 10
969.45752019378415
 20
722.18561209282245
 30
0.0
 40
0.9950800499999999
 50
359.7159300000007
 51
90.284078999998727
  0
ARC
  5
1A7CB
  8
AM_0
 10
969.45240019378389
 20
722.18090209282252
 30
0.0
 40
1.0002040000000001
 50
270.01167999999927
 51
359.9883299999953
  0
ARC
  5
1A7CC
  8
AM_0
 10
969.45752019378415
 20
712.18559209282262
 30
0.0
 40
0.99508399
 50
359.71613000000212
 51
90.283867000002516
  0
ARC
  5
1A7CD
  8
AM_0
 10
969.45240019378389
 20
712.18088209282246
 30
0.0
 40
1.000199999999998
 50
270.01146999999992
 51
359.98853000000008
  0
LINE
  5
1A7CE
  8
AM_0
 10
971.95252019378393
 20
714.46068209282225
 30
0.0
 11
970.45252019378404
 21
714.46068209282225
 31
0.0
  0
LINE
  5
1A7CF
  8
AM_0
 10
972.44642019378375
 20
715.17244209282217
 30
0.0
 11
971.94642019378387
 21
715.13243209282223
 31
0.0
  0
LINE
  5
1A7D0
  8
AM_0
 10
972.94642019378398
 20
712.40242209282223
 30
0.0
 11
972.44642019378375
 21
715.17244209282217
 31
0.0
  0
ARC
  5
1A7D1
  8
AM_0
 10
969.45752019378415
 20
702.18561209282257
 30
0.0
 40
0.9950879799999999
 50
359.71634999999952
 51
90.283654999997125
  0
ARC
  5
1A7D2
  8
AM_0
 10
969.45240019378389
 20
702.18088209282246
 30
0.0
 40
1.0001959999999981
 50
270.01126000000068
 51
359.98875000000061
  0
ARC
  5
1A7D3
  8
AM_0
 10
969.45752019378415
 20
692.18561209282245
 30
0.0
 40
0.9950800499999999
 50
359.71590000000032
 51
90.284105999997195
  0
POINT
  5
1A7D4
  8
AM_0
 10
972.94642019378398
 20
697.18065209282224
 30
0.0
  0
ARC
  5
1A7D5
  8
AM_0
 10
969.45240019378389
 20
692.18090209282252
 30
0.0
 40
1.0002040000000001
 50
270.01169999999519
 51
359.98829999999828
  0
LINE
  5
1A7D6
  8
AM_0
 10
920.45255019378396
 20
743.53065209282215
 30
0.0
 11
955.45255019378396
 21
741.50065209282241
 31
0.0
  0
ARC
  5
1A7D7
  8
AM_0
 10
943.45255019378408
 20
732.18066209282244
 30
0.0
 40
1.0000040999999991
 50
270.0
 51
89.999997000002296
  0
ARC
  5
1A7D8
  8
AM_0
 10
950.90250019378345
 20
732.18066209282244
 30
0.0
 40
1.0000040999999991
 50
270.0
 51
89.999997000002296
  0
ARC
  5
1A7D9
  8
AM_0
 10
951.77256019378399
 20
732.22566209282252
 30
0.0
 40
1.6750081000000001
 50
270.0
 51
89.999997000002296
  0
LINE
  5
1A7DA
  8
AM_0
 10
965.45255019378396
 20
731.49066209282239
 30
0.0
 11
955.45255019378396
 21
731.49066209282239
 31
0.0
  0
LINE
  5
1A7DB
  8
AM_0
 10
965.45255019378396
 20
745.53065209282238
 30
0.0
 11
955.45255019378396
 21
745.53065209282238
 31
0.0
  0
LINE
  5
1A7DC
  8
AM_0
 10
965.45255019378396
 20
739.8706620928225
 30
0.0
 11
955.45255019378396
 21
739.8706620928225
 31
0.0
  0
ARC
  5
1A7DD
  8
AM_0
 10
966.45496019378402
 20
738.16831209282259
 30
0.0
 40
1.002375999999999
 50
90.135590000000704
 51
179.864408009996
  0
ARC
  5
1A7DE
  8
AM_0
 10
968.21747019378415
 20
742.68532209282262
 30
0.0
 40
0.99546796
 50
62.796340000000029
 51
90.858551999998383
  0
ARC
  5
1A7DF
  8
AM_0
 10
966.45154019378401
 20
742.68167209282262
 30
0.0
 40
0.9990080599999998
 50
89.943157000003893
 51
180.05685000000281
  0
LINE
  5
1A7E0
  8
AM_0
 10
968.20252019378404
 20
743.68068209282262
 30
0.0
 11
966.45258019378389
 21
743.68068209282262
 31
0.0
  0
ARC
  5
1A7E1
  8
AM_0
 10
968.14594019378387
 20
739.31449209282255
 30
0.0
 40
0.9962120099999999
 50
56.030099999999067
 51
89.618093999998152
  0
ARC
  5
1A7E2
  8
AM_0
 10
968.17316019378404
 20
738.17420209282261
 30
0.0
 40
0.9965200400000001
 50
59.256719999997742
 51
89.45878700000047
  0
LINE
  5
1A7E3
  8
AM_0
 10
968.15253019378395
 20
740.31069209282225
 30
0.0
 11
965.452580193784
 21
740.31069209282225
 31
0.0
  0
LINE
  5
1A7E4
  8
AM_0
 10
968.18256019378407
 20
739.17067209282243
 30
0.0
 11
966.45258019378389
 21
739.17067209282243
 31
0.0
  0
LINE
  5
1A7E5
  8
AM_0
 10
968.45258019378389
 20
740.01067209282235
 30
0.0
 11
968.45258019378389
 21
739.54068209282252
 31
0.0
  0
ARC
  5
1A7E6
  8
AM_0
 10
968.22779019378402
 20
744.78665209282258
 30
0.0
 40
0.9941280500000002
 50
64.065190000002104
 51
90.877191999998061
  0
ARC
  5
1A7E7
  8
AM_0
 10
968.18372019378398
 20
743.82648209282252
 30
0.0
 40
0.9942600099999999
 50
59.218909999997692
 51
90.644117999997505
  0
ARC
  5
1A7E8
  8
AM_0
 10
965.95093019378407
 20
745.2823220928226
 30
0.0
 40
0.4983640000000002
 50
89.811402000005671
 51
180.18858999999841
  0
LINE
  5
1A7E9
  8
AM_0
 10
968.17255019378399
 20
744.82067209282252
 30
0.0
 11
965.452580193784
 21
744.82067209282252
 31
0.0
  0
LINE
  5
1A7EA
  8
AM_0
 10
968.21259019378397
 20
745.78067209282244
 30
0.0
 11
965.95252019378415
 21
745.78067209282244
 31
0.0
  0
LINE
  5
1A7EB
  8
AM_0
 10
968.45258019378389
 20
744.58069209282235
 30
0.0
 11
968.45258019378389
 21
744.03069209282228
 31
0.0
  0
ARC
  5
1A7EC
  8
AM_0
 10
968.25159019378395
 20
731.87520209282252
 30
0.0
 40
0.99548006
 50
66.872970000004372
 51
89.942678999994712
  0
ARC
  5
1A7ED
  8
AM_0
 10
966.15711019378386
 20
733.5752320928226
 30
0.0
 40
0.7045519900000002
 50
180.36910999999949
 51
269.63089000000048
  0
LINE
  5
1A7EE
  8
AM_0
 10
968.25257019378387
 20
732.87068209282245
 30
0.0
 11
966.15259019378402
 21
732.87068209282245
 31
0.0
  0
LINE
  5
1A7EF
  8
AM_0
 10
968.45258019378389
 20
732.57068209282261
 30
0.0
 11
968.45258019378389
 21
731.51068209282255
 31
0.0
  0
ARC
  5
1A7F0
  8
AM_0
 10
952.30265019378396
 20
738.39082209282253
 30
0.0
 40
1.004135999999999
 50
134.2025639999982
 51
185.1511600000045
  0
LINE
  5
1A7F1
  8
AM_0
 10
955.45255019378396
 20
745.53065209282238
 30
0.0
 11
955.45255019378396
 21
731.49066209282239
 31
0.0
  0
ARC
  5
1A7F2
  8
AM_0
 10
955.83134019378349
 20
734.84872209282253
 30
0.0
 40
6.0039081999999979
 50
93.61728599999789
 51
134.7763069999983
  0
ARC
  5
1A7F3
  8
AM_0
 10
956.28764019378377
 20
738.77844209282262
 30
0.0
 40
5.0078917000000001
 50
185.47467999999949
 51
260.40127999999839
  0
ARC
  5
1A7F4
  8
AM_0
 10
966.45746019378407
 20
724.18559209282262
 30
0.0
 40
1.0049318999999981
 50
180.2804200000034
 51
269.71958000000308
  0
ARC
  5
1A7F5
  8
AM_0
 10
968.31342019378405
 20
729.92797209282253
 30
0.0
 40
0.99277198
 50
73.668180000001442
 51
90.625191999999927
  0
ARC
  5
1A7F6
  8
AM_0
 10
966.450870193784
 20
729.92238209282255
 30
0.0
 40
0.99829602
 50
89.902038999994502
 51
180.09795999999611
  0
LINE
  5
1A7F7
  8
AM_0
 10
968.30255019378387
 20
730.92067209282243
 30
0.0
 11
966.45258019378389
 21
730.92067209282243
 31
0.0
  0
LINE
  5
1A7F8
  8
AM_0
 10
968.45258019378389
 20
722.81069209282225
 30
0.0
 11
968.45258019378389
 21
721.44069209282236
 31
0.0
  0
ARC
  5
1A7F9
  8
AM_0
 10
966.452400193784
 20
720.18083209282247
 30
0.0
 40
0.99985206
 50
89.991452999997875
 51
180.00854999999979
  0
ARC
  5
1A7FA
  8
AM_0
 10
951.99253019378375
 20
722.20567209282262
 30
0.0
 40
1.4650000000000001
 50
270.0
 51
89.999997000002296
  0
ARC
  5
1A7FB
  8
AM_0
 10
950.90250019378345
 20
722.18066209282256
 30
0.0
 40
1.0000040999999991
 50
270.0
 51
89.999997000002296
  0
ARC
  5
1A7FC
  8
AM_0
 10
943.45255019378408
 20
722.18066209282256
 30
0.0
 40
1.0000040999999991
 50
270.0
 51
89.999997000002296
  0
ARC
  5
1A7FD
  8
ｶｸﾚｾﾝ2
 10
914.95258019378389
 20
725.68068209282251
 30
0.0
 40
3.0
 50
0.0
 51
90.0
  0
ARC
  5
1A7FE
  8
AM_0
 10
966.452400193784
 20
700.18083209282247
 30
0.0
 40
0.99984801
 50
89.991220999995363
 51
180.00877999999949
  0
ARC
  5
1A7FF
  8
AM_0
 10
961.12254019378395
 20
712.19067209282252
 30
0.0
 40
1.3300000000000001
 50
270.0
 51
89.999997000002296
  0
ARC
  5
1A800
  8
AM_0
 10
966.452400193784
 20
710.18082209282261
 30
0.0
 40
0.9998440099999999
 50
89.991008999994946
 51
180.00899000000371
  0
LINE
  5
1A801
  8
AM_0
 10
968.45258019378389
 20
712.79067209282255
 30
0.0
 11
968.45258019378389
 21
711.58069209282235
 31
0.0
  0
ARC
  5
1A802
  8
AM_0
 10
966.45746019378407
 20
714.18559209282262
 30
0.0
 40
1.004928
 50
180.28021999999979
 51
269.71978000000018
  0
ARC
  5
1A803
  8
AM_0
 10
959.90122019378373
 20
712.18068209282262
 30
0.0
 40
1.000035999999999
 50
269.50070999999838
 51
90.499283999999903
  0
ARC
  5
1A804
  8
AM_0
 10
961.18253019378392
 20
702.18565209282269
 30
0.0
 40
1.265004
 50
270.0
 51
89.999997000002296
  0
LINE
  5
1A805
  8
AM_0
 10
968.45258019378389
 20
702.79068209282252
 30
0.0
 11
968.45258019378389
 21
701.6306620928226
 31
0.0
  0
ARC
  5
1A806
  8
AM_0
 10
966.45746019378407
 20
704.18558209282253
 30
0.0
 40
1.0049238999999981
 50
180.2800100000027
 51
269.71999000000369
  0
ARC
  5
1A807
  8
AM_0
 10
959.90122019378373
 20
702.18066209282244
 30
0.0
 40
1.000035999999999
 50
269.50070999999838
 51
90.499283999999903
  0
ARC
  5
1A808
  8
AM_0
 10
943.45255019378408
 20
712.18068209282262
 30
0.0
 40
1.0000040999999991
 50
270.0
 51
89.999997000002296
  0
ARC
  5
1A809
  8
AM_0
 10
943.45255019378408
 20
702.18066209282244
 30
0.0
 40
1.0000040999999991
 50
270.0
 51
89.999997000002296
  0
ARC
  5
1A80A
  8
AM_0
 10
959.90122019378373
 20
692.18066209282244
 30
0.0
 40
1.000035999999999
 50
269.50070999999838
 51
90.499283999999903
  0
ARC
  5
1A80B
  8
AM_0
 10
966.45752019378392
 20
694.18560209282248
 30
0.0
 40
1.0049318999999981
 50
180.280450000001
 51
269.719549999999
  0
ARC
  5
1A80C
  8
AM_0
 10
961.18253019378392
 20
692.18066209282244
 30
0.0
 40
1.270003999999999
 50
270.0
 51
89.999997000002296
  0
LINE
  5
1A80D
  8
AM_0
 10
968.45258019378389
 20
691.57067209282252
 30
0.0
 11
968.45258019378389
 21
692.73069209282244
 31
0.0
  0
ARC
  5
1A80E
  8
AM_0
 10
966.452400193784
 20
690.18083209282258
 30
0.0
 40
0.99985206
 50
89.991425999998739
 51
180.00857000000201
  0
ARC
  5
1A80F
  8
AM_0
 10
943.45255019378408
 20
692.18066209282244
 30
0.0
 40
1.0000040999999991
 50
270.0
 51
89.999997000002296
  0
LINE
  5
1A810
  8
AM_0
 10
968.68256019378373
 20
647.57071309282253
 30
0.0
 11
969.95258019378377
 21
648.30070909282233
 31
0.0
  0
LINE
  5
1A811
  8
AM_0
 10
968.66260019378399
 20
648.69070809282232
 30
0.0
 11
969.90259019378368
 21
649.32070609282232
 31
0.0
  0
LINE
  5
1A812
  8
AM_0
 10
968.702580193784
 20
654.22069209282233
 30
0.0
 11
970.00257019378387
 21
655.07069809282234
 31
0.0
  0
LINE
  5
1A813
  8
AM_0
 10
968.69257019378392
 20
649.68071409282254
 30
0.0
 11
969.97260019378405
 21
650.45072609282249
 31
0.0
  0
LINE
  5
1A814
  8
AM_0
 10
968.68256019378373
 20
655.33070009282233
 30
0.0
 11
969.96253019378412
 21
656.08068509282248
 31
0.0
  0
LINE
  5
1A815
  8
AM_0
 10
968.67255019378388
 20
650.80067909282252
 30
0.0
 11
969.92255019378399
 21
651.46066709282252
 31
0.0
  0
LINE
  5
1A816
  8
AM_0
 10
968.64258019378406
 20
661.57070609282221
 30
0.0
 11
969.84253019378377
 21
662.0906720928225
 31
0.0
  0
LINE
  5
1A817
  8
AM_0
 10
968.59253019378411
 20
663.48070209282253
 30
0.0
 11
969.74256019378402
 21
663.84070209282231
 31
0.0
  0
LINE
  5
1A818
  8
AM_0
 10
971.95252019378393
 20
682.03067209282233
 30
0.0
 11
967.37256019378412
 21
682.03067209282233
 31
0.0
  0
LINE
  5
1A819
  8
AM_0
 10
966.45258019378389
 20
671.18069209282248
 30
0.0
 11
969.45258019378412
 21
671.18069209282248
 31
0.0
  0
LINE
  5
1A81A
  8
AM_0
 10
966.45258019378389
 20
673.18068209282251
 30
0.0
 11
969.45258019378412
 21
673.18068209282251
 31
0.0
  0
LINE
  5
1A81B
  8
AM_0
 10
966.45258019378389
 20
681.18067209282231
 30
0.0
 11
969.45258019378412
 21
681.18067209282231
 31
0.0
  0
LINE
  5
1A81C
  8
AM_0
 10
966.45258019378389
 20
683.18069209282226
 30
0.0
 11
969.45258019378412
 21
683.18069209282226
 31
0.0
  0
LINE
  5
1A81D
  8
AM_0
 10
971.95252019378393
 20
679.90068209282254
 30
0.0
 11
970.45252019378404
 21
679.90068209282254
 31
0.0
  0
LINE
  5
1A81E
  8
AM_0
 10
972.44642019378375
 20
679.18883209282205
 30
0.0
 11
971.94639019378405
 21
679.22884209282222
 31
0.0
  0
ARC
  5
1A81F
  8
AM_0
 10
969.45240019378389
 20
682.18089209282255
 30
0.0
 40
1.000199999999998
 50
270.01148999999577
 51
359.98849999999652
  0
LINE
  5
1A820
  8
AM_0
 10
972.94642019378398
 20
681.95882209282217
 30
0.0
 11
972.44642019378375
 21
679.18883209282205
 31
0.0
  0
ARC
  5
1A821
  8
AM_0
 10
969.45752019378415
 20
682.18560209282236
 30
0.0
 40
0.99508399
 50
359.71610999999569
 51
90.283894000000515
  0
ARC
  5
1A822
  8
AM_0
 10
969.45240019378389
 20
672.18088209282257
 30
0.0
 40
1.0001959999999981
 50
270.01127999999659
 51
359.98871999999687
  0
ARC
  5
1A823
  8
AM_0
 10
969.45752019378415
 20
672.18562209282254
 30
0.0
 40
0.99508399
 50
359.71632000000022
 51
90.283676000003936
  0
LINE
  5
1A824
  8
AM_0
 10
971.95252019378393
 20
677.18068209282251
 30
0.0
 11
970.452580193784
 21
677.05068209282251
 31
0.0
  0
ARC
  5
1A825
  8
AM_0
 10
969.45606019378397
 20
663.00915209282255
 30
0.0
 40
0.9964760499999998
 50
292.82034000000129
 51
0.0874199999992698
  0
ARC
  5
1A826
  8
AM_0
 10
969.45618019378401
 20
664.79502509282236
 30
0.0
 40
0.9963800299999999
 50
286.70292999999862
 51
359.75050999999979
  0
ARC
  5
1A827
  8
AM_0
 10
969.45349019378398
 20
655.90536909282264
 30
0.0
 40
0.9991000299999999
 50
303.3382299999958
 51
0.3045799999989818
  0
ARC
  5
1A828
  8
AM_0
 10
969.45410019378414
 20
656.93998409282244
 30
0.0
 40
0.9984599899999999
 50
300.61344999999829
 51
0.0403800000005283
  0
ARC
  5
1A829
  8
AM_0
 10
969.45484019378398
 20
652.34197609282262
 30
0.0
 40
0.99770796
 50
297.95523999999739
 51
359.9259500000004
  0
ARC
  5
1A82A
  8
AM_0
 10
969.45691019378398
 20
650.21104109282237
 30
0.0
 40
0.99566799
 50
296.59016999999852
 51
359.97956999999923
  0
ARC
  5
1A82B
  8
AM_0
 10
969.45496019378356
 20
649.16534809282246
 30
0.0
 40
0.9976240400000001
 50
299.92046000000022
 51
359.73248999999612
  0
ARC
  5
1A82C
  8
AM_0
 10
969.45380019378388
 20
651.30418009282255
 30
0.0
 40
0.9987800700000001
 50
301.29144999999937
 51
0.3733299999999318
  0
ARC
  5
1A82D
  8
AM_0
 10
955.82230019378403
 20
659.52717209282264
 30
0.0
 40
6.007896399999999
 50
225.38273000000569
 51
266.47155000000168
  0
LINE
  5
1A82E
  8
AM_0
 10
955.45255019378396
 20
648.83067209282251
 30
0.0
 11
955.45255019378396
 21
660.52067248069113
 31
0.0
  0
ARC
  5
1A82F
  8
AM_0
 10
966.452400193784
 20
670.18084209282245
 30
0.0
 40
0.99984801
 50
89.991192999994809
 51
180.00881000000291
  0
ARC
  5
1A830
  8
AM_0
 10
961.12254019378395
 20
682.17068209282252
 30
0.0
 40
1.3300000000000001
 50
270.0
 51
89.999997000002296
  0
LINE
  5
1A831
  8
AM_0
 10
968.45258019378389
 20
681.57069209282236
 30
0.0
 11
968.45258019378389
 21
682.79067209282232
 31
0.0
  0
ARC
  5
1A832
  8
AM_0
 10
966.452400193784
 20
680.18083209282236
 30
0.0
 40
0.9998440099999999
 50
89.99098200000229
 51
180.0090200000005
  0
ARC
  5
1A833
  8
AM_0
 10
966.45746019378407
 20
684.1855920928225
 30
0.0
 40
1.004928
 50
180.28023999999991
 51
269.71976000000001
  0
ARC
  5
1A834
  8
AM_0
 10
959.90122019378373
 20
682.18068209282251
 30
0.0
 40
1.000035999999999
 50
269.50070999999838
 51
90.499283999999903
  0
ARC
  5
1A835
  8
AM_0
 10
960.99253019378375
 20
672.16066209282235
 30
0.0
 40
1.4599999999999991
 50
270.0
 51
89.999997000002296
  0
LINE
  5
1A836
  8
AM_0
 10
968.45258019378389
 20
671.55068209282251
 30
0.0
 11
968.45258019378389
 21
672.92067209282231
 31
0.0
  0
ARC
  5
1A837
  8
AM_0
 10
966.45746019378407
 20
674.18559209282262
 30
0.0
 40
1.0049238999999981
 50
180.2800300000026
 51
269.7199600000007
  0
ARC
  5
1A838
  8
AM_0
 10
959.90250019378345
 20
672.18067209282253
 30
0.0
 40
1.0000040999999991
 50
270.0
 51
89.999997000002296
  0
ARC
  5
1A839
  8
AM_0
 10
943.45255019378408
 20
682.18068209282251
 30
0.0
 40
1.0000040999999991
 50
270.0
 51
89.999997000002296
  0
ARC
  5
1A83A
  8
AM_0
 10
943.45255019378408
 20
672.18067209282253
 30
0.0
 40
1.0000040999999991
 50
270.0
 51
89.999997000002296
  0
ARC
  5
1A83B
  8
AM_0
 10
959.90249756386243
 20
662.18066504282251
 30
0.0
 40
1.000007050003423
 50
270.00015068234609
 51
89.999849317647346
  0
LINE
  5
1A83C
  8
AM_0
 10
968.45258019378389
 20
661.79067609282254
 30
0.0
 11
968.45258019378389
 21
662.85067409282249
 31
0.0
  0
ARC
  5
1A83D
  8
AM_0
 10
960.77256019378399
 20
662.13566209282226
 30
0.0
 40
1.6750081000000001
 50
270.0
 51
89.999997000002296
  0
LINE
  5
1A83E
  8
AM_0
 10
965.45255019378396
 20
662.88067209282235
 30
0.0
 11
962.28251019378399
 21
662.88067209282235
 31
0.0
  0
ARC
  5
1A83F
  8
AM_0
 10
966.45587019378399
 20
664.44403509282245
 30
0.0
 40
1.003363999999999
 50
180.19171999999699
 51
269.80829000000131
  0
ARC
  5
1A840
  8
AM_0
 10
968.31201019378398
 20
664.44337109282264
 30
0.0
 40
1.0027280000000001
 50
269.45960000000059
 51
286.24702999999738
  0
LINE
  5
1A841
  8
AM_0
 10
968.30255019378387
 20
663.44068609282238
 30
0.0
 11
966.45258019378389
 21
663.44068609282238
 31
0.0
  0
ARC
  5
1A842
  8
AM_0
 10
968.18921019378399
 20
656.20168009282236
 30
0.0
 40
1.001012
 50
269.6197999999963
 51
299.52863999999983
  0
ARC
  5
1A843
  8
AM_0
 10
966.45502019378398
 20
656.20314409282264
 30
0.0
 40
1.0024599999999999
 50
180.1403799999988
 51
269.85961999999461
  0
LINE
  5
1A844
  8
AM_0
 10
968.18256019378407
 20
655.20068809282247
 30
0.0
 11
966.45258019378389
 21
655.20068809282247
 31
0.0
  0
ARC
  5
1A845
  8
AM_0
 10
966.15198019378397
 20
660.7912410928227
 30
0.0
 40
0.69944
 50
89.954159999999803
 51
180.04584000000011
  0
ARC
  5
1A846
  8
AM_0
 10
968.24958019378391
 20
662.49590709282245
 30
0.0
 40
1.005223999999999
 50
270.1706399999963
 51
293.01371000000171
  0
LINE
  5
1A847
  8
AM_0
 10
968.25257019378387
 20
661.49068109282234
 30
0.0
 11
966.15259019378402
 21
661.49068109282234
 31
0.0
  0
ARC
  5
1A848
  8
AM_0
 10
943.45255019378408
 20
662.18066209282244
 30
0.0
 40
1.0000040999999991
 50
270.0
 51
89.999997000002296
  0
ARC
  5
1A849
  8
AM_0
 10
952.30601019378378
 20
655.97176209282247
 30
0.0
 40
1.007376
 50
174.93659510000259
 51
225.7096799999976
  0
ARC
  5
1A84A
  8
AM_0
 10
956.28233019378376
 20
655.58779209282238
 30
0.0
 40
5.0021839000000003
 50
99.548574999998934
 51
174.57547400000229
  0
ARC
  5
1A84B
  8
ｶｸﾚｾﾝ2
 10
914.95258019378389
 20
668.68068209282262
 30
0.0
 40
3.0
 50
270.0
 51
0.0
  0
LINE
  5
1A84C
  8
AM_0
 10
920.45249019378412
 20
650.83067209282228
 30
0.0
 11
955.45249019378366
 21
652.86067209282226
 31
0.0
  0
LINE
  5
1A84D
  8
AM_0
 10
944.45255019378408
 20
635.29066409282245
 30
0.0
 11
944.45255019378408
 21
642.70066709282253
 31
0.0
  0
ARC
  5
1A84E
  8
AM_0
 10
959.28062019378376
 20
640.91637309282248
 30
0.0
 40
1.995695899999999
 50
270.05521999999718
 51
347.97746999999998
  0
LINE
  5
1A84F
  8
AM_0
 10
965.45255019378396
 20
639.75066309282249
 30
0.0
 11
962.63255019378357
 21
639.68066309282244
 31
0.0
  0
ARC
  5
1A850
  8
AM_0
 10
963.61759019378405
 20
638.55889009282259
 30
0.0
 40
1.501779999999999
 50
89.810617000000875
 51
165.66716400000089
  0
LINE
  5
1A851
  8
AM_0
 10
961.26255019378402
 20
637.05065809282269
 30
0.0
 11
962.18259019378388
 21
640.93065509282224
 31
0.0
  0
LINE
  5
1A852
  8
AM_0
 10
959.22257019378355
 20
644.20066709282253
 30
0.0
 11
945.95255019378408
 21
644.20066709282253
 31
0.0
  0
LINE
  5
1A853
  8
AM_0
 10
965.45255019378396
 20
648.83067209282251
 30
0.0
 11
955.45255019378396
 21
648.83067209282251
 31
0.0
  0
LINE
  5
1A854
  8
AM_0
 10
965.45255019378396
 20
654.49067209282225
 30
0.0
 11
955.45255019378396
 21
654.49067209282225
 31
0.0
  0
LINE
  5
1A855
  8
AM_0
 10
961.73252019378356
 20
648.83067209282251
 30
0.0
 11
961.19248019378369
 21
645.84065109282233
 31
0.0
  0
ARC
  5
1A856
  8
AM_0
 10
965.95215019378395
 20
646.93111809282254
 30
0.0
 40
0.49955601
 50
89.949105999995879
 51
180.0508899999968
  0
ARC
  5
1A857
  8
AM_0
 10
968.17188019378398
 20
648.43175909282263
 30
0.0
 40
1.001135899999998
 50
270.61249000000061
 51
300.67199999999639
  0
ARC
  5
1A858
  8
AM_0
 10
968.20673019378398
 20
649.57994509282253
 30
0.0
 40
0.99928796
 50
270.33380999999861
 51
297.13873000000308
  0
ARC
  5
1A859
  8
AM_0
 10
965.95600019378401
 20
649.08407209282245
 30
0.0
 40
0.50340396
 50
180.3861299999981
 51
269.61387000000178
  0
LINE
  5
1A85A
  8
AM_0
 10
968.18256019378407
 20
647.43067609282252
 30
0.0
 11
965.95252019378415
 21
647.43067609282252
 31
0.0
  0
LINE
  5
1A85B
  8
AM_0
 10
968.21259019378397
 20
648.58069309282234
 30
0.0
 11
965.95252019378415
 21
648.58069309282234
 31
0.0
  0
LINE
  5
1A85C
  8
AM_0
 10
968.45258019378389
 20
647.68068309282251
 30
0.0
 11
968.45258019378389
 21
648.21068209282225
 31
0.0
  0
ARC
  5
1A85D
  8
AM_0
 10
968.18122019378416
 20
650.54433909282261
 30
0.0
 40
1.003687999999999
 50
269.50724999999602
 51
300.6297300000009
  0
LINE
  5
1A85E
  8
AM_0
 10
968.17255019378399
 20
649.5406920928225
 30
0.0
 11
965.45258019378377
 21
649.5406920928225
 31
0.0
  0
LINE
  5
1A85F
  8
AM_0
 10
968.20252019378404
 20
650.68068309282239
 30
0.0
 11
966.45258019378389
 21
650.68068309282239
 31
0.0
  0
LINE
  5
1A860
  8
AM_0
 10
968.45258019378389
 20
649.78067409282232
 30
0.0
 11
968.45258019378389
 21
650.3306770928225
 31
0.0
  0
ARC
  5
1A861
  8
AM_0
 10
968.19739019378414
 20
651.68130909282263
 30
0.0
 40
1.0006280000000001
 50
270.29529000000059
 51
298.35013999999939
  0
ARC
  5
1A862
  8
AM_0
 10
966.45661019378394
 20
651.68476509282254
 30
0.0
 40
1.004083999999998
 50
180.23263000000361
 51
269.76736999999639
  0
ARC
  5
1A863
  8
AM_0
 10
968.15979019378392
 20
655.0611840928226
 30
0.0
 40
1.0005360000000001
 50
269.58677999999787
 51
302.85360000000082
  0
LINE
  5
1A864
  8
AM_0
 10
968.15253019378395
 20
654.0606730928223
 30
0.0
 11
965.45258019378377
 21
654.0606730928223
 31
0.0
  0
LINE
  5
1A865
  8
AM_0
 10
968.45258019378389
 20
654.35068909282234
 30
0.0
 11
968.45258019378389
 21
654.8206750928224
 31
0.0
  0
LINE
  5
1A866
  8
AM_0
 10
963.62254019378395
 20
640.06067509282229
 30
0.0
 11
961.97251019378359
 21
640.06067509282229
 31
0.0
  0
LINE
  5
1A867
  8
AM_0
 10
963.64256019378399
 20
642.08067209282251
 30
0.0
 11
961.58256019378405
 21
642.08067209282251
 31
0.0
  0
ARC
  5
1A868
  8
AM_0
 10
963.63822019378404
 20
640.58433409282247
 30
0.0
 40
1.4963319999999991
 50
89.835409999999186
 51
166.61756199999891
  0
LINE
  5
1A869
  8
AM_0
 10
963.66258019378415
 20
646.15067209282233
 30
0.0
 11
961.24253019378398
 21
646.15067209282233
 31
0.0
  0
ARC
  5
1A86A
  8
AM_0
 10
963.66239019378361
 20
644.64787909282256
 30
0.0
 40
1.5027881000000001
 50
89.995332000003117
 51
167.98665799999719
  0
ARC
  5
1A86B
  8
AM_0
 10
959.22556019378408
 20
646.20029309282256
 30
0.0
 40
1.9996280999999989
 50
269.91467
 51
349.63923999999719
  0
LINE
  5
1A86C
  8
AM_0
 10
961.23252019378344
 20
640.50066309282249
 30
0.0
 11
962.192540193784
 21
644.96067709282249
 31
0.0
  0
ARC
  5
1A86D
  8
AM_0
 10
945.9529201937836
 20
642.70030109282266
 30
0.0
 40
1.5003600999999991
 50
90.013814999999965
 51
179.9861839999985
  0
LINE
  5
1A86E
  8
AM_0
 10
959.31254019378378
 20
635.51066509282248
 30
0.0
 11
945.95255019378408
 21
635.51066509282248
 31
0.0
  0
LINE
  5
1A86F
  8
AM_0
 10
959.34257019378344
 20
633.8806600928225
 30
0.0
 11
945.84257019378344
 21
633.8806600928225
 31
0.0
  0
LINE
  5
1A870
  8
AM_0
 10
959.28251019378399
 20
638.92066109282246
 30
0.0
 11
945.95255019378408
 21
638.92066109282246
 31
0.0
  0
ARC
  5
1A871
  8
AM_0
 10
959.31461019378401
 20
637.51260309282247
 30
0.0
 40
2.001947899999998
 50
269.94051999999903
 51
346.6588600000016
  0
ARC
  5
1A872
  8
AM_0
 10
959.34013019378403
 20
635.88497809282262
 30
0.0
 40
2.0043239999999991
 50
270.0689100000011
 51
345.72195000000079
  0
LINE
  5
1A873
  8
AM_0
 10
961.28251019378399
 20
635.39067709282244
 30
0.0
 11
962.16251019378387
 21
638.93067809282218
 31
0.0
  0
ARC
  5
1A874
  8
AM_0
 10
942.45145019378401
 20
633.26709609282261
 30
0.0
 40
1.996427999999999
 50
270.0323900000019
 51
345.3053699999993
  0
ARC
  5
1A875
  8
AM_0
 10
942.45274019378371
 20
633.94049009282253
 30
0.0
 40
1.999824
 50
269.99493999999879
 51
0.0050600000012402
  0
ARC
  5
1A876
  8
AM_0
 10
945.95115019378386
 20
634.01210709282236
 30
0.0
 40
1.498559999999999
 50
89.944884999996916
 51
180.05511999999939
  0
ARC
  5
1A877
  8
AM_0
 10
942.45005019378368
 20
635.29318109282235
 30
0.0
 40
2.0025157999999981
 50
270.0718999999998
 51
359.92810000000009
  0
ARC
  5
1A878
  8
AM_0
 10
945.83384019378366
 20
632.38038509282251
 30
0.0
 40
1.5003120000000001
 50
89.668336999999084
 51
165.3169660000006
  0
ARC
  5
1A879
  8
AM_0
 10
945.95408019378408
 20
637.41915009282252
 30
0.0
 40
1.5015080999999979
 50
90.057548999996854
 51
179.94245300200021
  0
ARC
  5
1A87A
  8
AM_0
 10
942.4509101937839
 20
637.32231009282259
 30
0.0
 40
2.001640099999999
 50
270.04695999999808
 51
359.95303999999533
  0
LINE
  5
1A87B
  8
ｶｸﾚｾﾝ2
 10
837.95258019378389
 20
668.68068209282262
 30
0.0
 11
837.95258019378389
 21
725.68068209282251
 31
0.0
  0
LINE
  5
1A87C
  8
ﾁｭｳｼﾝｾﾝ1
 10
869.45258019378423
 20
731.68068209282262
 30
0.0
 11
869.45258019378389
 21
662.68068209282251
 31
0.0
1001
GENIUS_GENODEF_13
1002
{
1000
HIER
1070
     0
1002
}
1002
{
1000
MANEDIT
1070
     0
1002
}
1002
{
1000
NOSEL
1070
     0
1002
}
1002
{
1000
BEHIND
1070
     0
1002
}
1002
{
1000
REACTOR
1002
}
1001
GENIUS_GENOBJ-N-CEN_13
1002
{
1000
OWNER
1000
GEN
1002
}
  0
LINE
  5
1A87D
  8
AM_0
 10
818.45255019378374
 20
760.18067709282275
 30
0.0
 11
818.45255017759098
 21
634.18070811698783
 31
0.0
  0
LINE
  5
1A87E
  8
AM_0
 10
823.712530193784
 20
757.56067209282253
 30
0.0
 11
820.94687451344578
 21
747.23338019224445
 31
0.0
  0
ARC
  5
1A87F
  8
AM_0
 10
889.45316019378367
 20
761.10005209282247
 30
0.0
 40
2.000623899999999
 50
90.017824000002122
 51
179.9821759990013
  0
ARC
  5
1A880
  8
AM_0
 10
889.44962019378386
 20
760.42358209282247
 30
0.0
 40
1.9970881
 50
89.916374999999235
 51
180.08362000000139
  0
ARC
  5
1A881
  8
AM_0
 10
889.452310193784
 20
759.07093209282255
 30
0.0
 40
1.9997199999999991
 50
89.991937999999706
 51
180.00806000000401
  0
LINE
  5
1A882
  8
AM_0
 10
887.45255019378385
 20
761.1006620928224
 30
0.0
 11
887.45255019378385
 21
759.04066209282246
 31
0.0
  0
LINE
  5
1A883
  8
AM_0
 10
818.74253019378386
 20
748.22065209282255
 30
0.0
 11
821.15253019378395
 21
748.22065209282255
 31
0.0
  0
ARC
  5
1A884
  8
AM_0
 10
818.74671019378388
 20
749.72114209282245
 30
0.0
 40
1.500475999999999
 50
269.84172000000018
 51
347.66777000000133
  0
LINE
  5
1A885
  8
AM_0
 10
823.74256019378402
 20
757.68066209282244
 30
0.0
 11
818.45255019378374
 21
757.68066209282244
 31
0.0
  0
LINE
  5
1A886
  8
AM_0
 10
821.64256019378388
 20
756.10070209282253
 30
0.0
 11
820.20255019378374
 21
749.40071209282269
 31
0.0
  0
ARC
  5
1A887
  8
AM_0
 10
823.59809019378372
 20
755.68049209282253
 30
0.0
 40
2.0001799999999981
 50
89.872485000002044
 51
167.8736480000027
  0
ARC
  5
1A888
  8
AM_0
 10
825.6421001937839
 20
757.04286209282247
 30
0.0
 40
1.997795899999999
 50
89.986419000002854
 51
164.97840299999771
  0
LINE
  5
1A889
  8
AM_0
 10
817.45255019378385
 20
761.18067709282275
 30
0.0
 11
809.45252019378393
 21
761.18067709282275
 31
0.0
  0
ARC
  5
1A88A
  8
AM_0
 10
817.45750019378386
 20
760.18563709282273
 30
0.0
 40
0.9950640200000001
 50
359.714940000002
 51
90.285061999999584
  0
LINE
  5
1A88B
  8
AM_0
 10
817.45255019378385
 20
749.2206720928225
 30
0.0
 11
809.45252019378393
 21
749.2206720928225
 31
0.0
  0
ARC
  5
1A88C
  8
AM_0
 10
817.45814019378395
 20
748.22628209282277
 30
0.0
 40
0.9944000200000001
 50
359.67649000000227
 51
90.323509000000016
  0
ARC
  5
1A88D
  8
ｶｸﾚｾﾝ2
 10
840.952580193784
 20
725.68068209282274
 30
0.0
 40
3.0
 50
90.0
 51
180.0
  0
ARC
  5
1A88E
  8
AM_0
 10
825.11073019378387
 20
732.18066209282244
 30
0.0
 40
1.000031899999998
 50
90.469299999997844
 51
269.53070000000201
  0
ARC
  5
1A88F
  8
AM_0
 10
821.63255019378403
 20
732.22566209282252
 30
0.0
 40
1.675
 50
89.999997000002296
 51
270.0
  0
LINE
  5
1A890
  8
AM_0
 10
818.45255019378374
 20
734.33067209282262
 30
0.0
 11
809.45252019378393
 21
734.33067209282262
 31
0.0
  0
ARC
  5
1A891
  8
AM_0
 10
821.42254019378356
 20
722.20567209282262
 30
0.0
 40
1.4650000000000001
 50
90.00000299999769
 51
270.0
  0
ARC
  5
1A892
  8
AM_0
 10
822.51257019378374
 20
722.18066209282256
 30
0.0
 40
1.0000040999999991
 50
90.00000299999769
 51
270.0
  0
ARC
  5
1A893
  8
AM_0
 10
822.5088601937839
 20
712.18068209282262
 30
0.0
 40
1.000035999999999
 50
89.500716000000082
 51
270.49929000000162
  0
ARC
  5
1A894
  8
AM_0
 10
821.28754019378391
 20
712.19067209282252
 30
0.0
 40
1.3300000000000001
 50
90.00000299999769
 51
270.0
  0
ARC
  5
1A895
  8
AM_0
 10
822.5088601937839
 20
702.18066209282244
 30
0.0
 40
1.000035999999999
 50
89.500716000000082
 51
270.49929000000162
  0
ARC
  5
1A896
  8
AM_0
 10
821.22755019378371
 20
702.18565209282269
 30
0.0
 40
1.265004
 50
90.00000299999769
 51
270.0
  0
ARC
  5
1A897
  8
AM_0
 10
821.22755019378371
 20
692.18066209282244
 30
0.0
 40
1.270003999999999
 50
90.00000299999769
 51
270.0
  0
ARC
  5
1A898
  8
AM_0
 10
822.5088601937839
 20
692.18066209282244
 30
0.0
 40
1.000035999999999
 50
89.500716000000082
 51
270.49929000000162
  0
ARC
  5
1A899
  8
AM_0
 10
889.45341019378372
 20
633.27153709282277
 30
0.0
 40
2.0008759
 50
180.0251100000024
 51
269.97488999999757
  0
ARC
  5
1A89A
  8
AM_0
 10
889.4548701937839
 20
633.94300709282265
 30
0.0
 40
2.002332
 50
180.06674000000129
 51
269.93325999999871
  0
ARC
  5
1A89B
  8
AM_0
 10
889.45756019378371
 20
635.29567609282253
 30
0.0
 40
2.0050240000000001
 50
180.1434100000013
 51
269.85658999999868
  0
LINE
  5
1A89C
  8
AM_0
 10
887.45255019378385
 20
633.27066709282235
 30
0.0
 11
887.45255019378385
 21
635.32067009282252
 31
0.0
  0
ARC
  5
1A89D
  8
ｶｸﾚｾﾝ2
 10
840.952580193784
 20
668.68068209282274
 30
0.0
 40
3.0
 50
180.0
 51
270.0
  0
ARC
  5
1A89E
  8
AM_0
 10
821.28754019378391
 20
682.17068209282252
 30
0.0
 40
1.3300000000000001
 50
90.00000299999769
 51
270.0
  0
ARC
  5
1A89F
  8
AM_0
 10
822.5088601937839
 20
682.18068209282251
 30
0.0
 40
1.000035999999999
 50
89.500716000000082
 51
270.49929000000162
  0
ARC
  5
1A8A0
  8
AM_0
 10
822.50758019378395
 20
672.18067209282253
 30
0.0
 40
1.0000040999999991
 50
90.00000299999769
 51
270.0
  0
ARC
  5
1A8A1
  8
AM_0
 10
821.41755019378388
 20
672.16066209282235
 30
0.0
 40
1.4599999999999991
 50
90.00000299999769
 51
270.0
  0
ARC
  5
1A8A2
  8
AM_0
 10
825.11073019378387
 20
662.18066209282244
 30
0.0
 40
1.000031899999998
 50
90.469299999997844
 51
269.53070000000201
  0
ARC
  5
1A8A3
  8
AM_0
 10
821.63255019378403
 20
662.13566209282226
 30
0.0
 40
1.675
 50
89.999997000002296
 51
270.0
  0
LINE
  5
1A8A4
  8
AM_0
 10
818.45255019378374
 20
660.03066209282247
 30
0.0
 11
809.4525201937837
 21
660.03066209282247
 31
0.0
  0
LINE
  5
1A8A5
  8
AM_0
 10
821.64253019378395
 20
638.26065709282261
 30
0.0
 11
820.20252019378393
 21
644.96065409282255
 31
0.0
  0
LINE
  5
1A8A6
  8
AM_0
 10
823.712530193784
 20
636.80065809282257
 30
0.0
 11
820.94685839206136
 21
647.12799900198274
 31
0.0
  0
LINE
  5
1A8A7
  8
AM_0
 10
818.74253019378386
 20
646.15067209282245
 30
0.0
 11
821.1525301937836
 21
646.15067209282245
 31
0.0
  0
ARC
  5
1A8A8
  8
AM_0
 10
818.74546019378397
 20
644.65133609282225
 30
0.0
 40
1.499328
 50
11.906159999998589
 51
90.111848999999921
  0
LINE
  5
1A8A9
  8
AM_0
 10
817.45255019378385
 20
645.14066209282237
 30
0.0
 11
809.45252019378393
 21
645.14066209282237
 31
0.0
  0
ARC
  5
1A8AA
  8
AM_0
 10
817.45307019378356
 20
646.14014309282265
 30
0.0
 40
0.9994760199999999
 50
269.9700799999996
 51
0.0299099999979458
  0
LINE
  5
1A8AB
  8
AM_0
 10
823.74256019378402
 20
636.68066309282256
 30
0.0
 11
818.45255019378374
 21
636.68066309282256
 31
0.0
  0
ARC
  5
1A8AC
  8
AM_0
 10
825.64713019378371
 20
637.32508009282265
 30
0.0
 40
2.0044159999999991
 50
195.16665999999881
 51
269.86852000000118
  0
ARC
  5
1A8AD
  8
AM_0
 10
823.60322019378361
 20
638.68720109282253
 30
0.0
 40
2.0065319999999991
 50
192.2731300000045
 51
269.98073000000318
  0
LINE
  5
1A8AE
  8
AM_0
 10
817.45255019378385
 20
633.18069709282258
 30
0.0
 11
809.45252019378393
 21
633.18069709282258
 31
0.0
  0
ARC
  5
1A8AF
  8
AM_0
 10
817.45237019378385
 20
634.18088809282256
 30
0.0
 40
1.000179999999999
 50
270.01032000000009
 51
359.98968999999448
  0
LINE
  5
1A8B1
  8
0
 10
632.44893310393786
 20
600.18068209282205
 30
0.0
 11
627.44893235137943
 21
628.18068001576273
 31
0.0
  0
LINE
  5
1A8B3
  8
0
 10
672.44893310393797
 20
600.18068209282205
 30
0.0
 11
677.44893385649516
 21
628.18068001576273
 31
0.0
  0
LINE
  5
1A8B5
  8
0
 10
636.44893310393763
 20
542.18068209282205
 30
0.0
 11
636.44893310393763
 21
600.18068209282205
 31
0.0
  0
LINE
  5
1A8B6
  8
0
 10
668.44893310393797
 20
542.18068209282205
 30
0.0
 11
668.44893310393797
 21
600.18068209282205
 31
0.0
  0
LINE
  5
1A8B7
  8
AM_0
 10
668.44893310393797
 20
542.18068209282205
 30
0.0
 11
636.44893310393763
 21
542.18068209282205
 31
0.0
  0
LINE
  5
1A8B8
  8
0
 10
632.44893310393786
 20
600.18068209282205
 30
0.0
 11
672.44893310393797
 21
600.18068209282205
 31
0.0
  0
LINE
  5
1A8B9
  8
0
 10
647.44893310393797
 20
587.18068209282205
 30
0.0
 11
657.44893310393786
 21
587.18068209282205
 31
0.0
  0
LINE
  5
1A8BA
  8
AM_0
 10
647.44893310393797
 20
542.18068209282239
 30
0.0
 11
647.44893310393797
 21
587.18068209282205
 31
0.0
  0
LINE
  5
1A8BB
  8
AM_0
 10
657.44893310393786
 20
542.18068209282239
 30
0.0
 11
657.44893310393786
 21
587.18068209282205
 31
0.0
  0
ARC
  5
1A8BC
  8
AM_0
 10
652.44893310393786
 20
587.18068209282205
 30
0.0
 40
4.9999999999999432
 50
0.0
 51
180.0
  0
LINE
  5
1A8BE
  8
AM_0
 10
818.45255006015725
 20
740.04065260576249
 30
0.0
 11
818.45255006015725
 21
747.64065260591451
 31
0.0
  0
LINE
  5
1A8BF
  8
AM_0
 10
819.45255006017715
 20
740.04065260576249
 30
0.0
 11
819.45255006017715
 21
747.64065260591451
 31
0.0
  0
LINE
  5
1A8C0
  8
AM_0
 10
818.45255006015725
 20
743.06329260582311
 30
0.0
 11
819.45255006017715
 21
743.64062260583432
 31
0.0
  0
LINE
  5
1A8C1
  8
AM_0
 10
818.45255006015725
 20
744.06329260584278
 30
0.0
 11
819.45255006017715
 21
744.64065260585437
 31
0.0
  0
LINE
  5
1A8C2
  8
AM_0
 10
819.45255006017715
 20
747.64065260591451
 30
0.0
 11
818.45255006015725
 21
747.64065260591451
 31
0.0
  0
LINE
  5
1A8C3
  8
AM_0
 10
819.45255006017715
 20
747.34065260590853
 30
0.0
 11
820.35255006019509
 21
747.34065260590853
 31
0.0
  0
LINE
  5
1A8C4
  8
AM_0
 10
819.45255006017715
 20
740.04065260576249
 30
0.0
 11
818.45255006015725
 21
740.04065260576249
 31
0.0
  0
LINE
  5
1A8C5
  8
AM_0
 10
819.45255006017715
 20
740.34066260576844
 30
0.0
 11
820.35255006019509
 21
740.34066260576844
 31
0.0
  0
LINE
  5
1A8C6
  8
AM_0
 10
822.05253006022906
 20
742.04065260580251
 30
0.0
 11
822.05253006022906
 21
745.64065260587415
 31
0.0
  0
ARC
  5
1A8C7
  8
AM_0
 10
820.35255006019509
 20
742.04065260580251
 30
0.0
 40
1.6999969000339989
 50
270.00000299999761
 51
359.999979999998
  0
ARC
  5
1A8C8
  8
AM_0
 10
820.35255006019509
 20
745.64065260587415
 30
0.0
 40
1.700000800033999
 50
0.0000100000009873
 51
89.999979999998018
  0
LINE
  5
1A8C9
  8
AM_0
 10
818.45255006015725
 20
650.29809260396758
 30
0.0
 11
819.45255006017715
 21
649.72073260395598
 31
0.0
  0
LINE
  5
1A8CA
  8
AM_0
 10
822.05253006022906
 20
652.32073260400784
 30
0.0
 11
822.05253006022906
 21
648.72073260393574
 31
0.0
  0
LINE
  5
1A8CB
  8
AM_0
 10
819.45255006017715
 20
654.32073260404775
 30
0.0
 11
819.45255006017715
 21
646.72073260389595
 31
0.0
  0
LINE
  5
1A8CC
  8
AM_0
 10
818.45255006015725
 20
654.32073260404775
 30
0.0
 11
818.45255006015725
 21
646.72073260389595
 31
0.0
  0
LINE
  5
1A8CD
  8
AM_0
 10
819.45255006017715
 20
654.02072260404179
 30
0.0
 11
820.35255006019509
 21
654.02072260404179
 31
0.0
  0
LINE
  5
1A8CE
  8
AM_0
 10
819.45255006017715
 20
654.32073260404775
 30
0.0
 11
818.45255006015725
 21
654.32073260404775
 31
0.0
  0
ARC
  5
1A8CF
  8
AM_0
 10
820.35255006019509
 20
652.32073260400784
 30
0.0
 40
1.6999969000339989
 50
0.0000199999954997
 51
89.999997000002296
  0
LINE
  5
1A8D0
  8
AM_0
 10
818.45255006015725
 20
651.29809260398736
 30
0.0
 11
819.45255006017715
 21
650.72076260397603
 31
0.0
  0
LINE
  5
1A8D1
  8
AM_0
 10
819.45255006017715
 20
647.02073260390193
 30
0.0
 11
820.35255006019509
 21
647.02073260390193
 31
0.0
  0
LINE
  5
1A8D2
  8
AM_0
 10
819.45255006017715
 20
646.72073260389595
 30
0.0
 11
818.45255006015725
 21
646.72073260389595
 31
0.0
  0
ARC
  5
1A8D3
  8
AM_0
 10
820.35255006019509
 20
648.72073260393574
 30
0.0
 40
1.700000800033999
 50
270.000020000002
 51
359.999989999999
  0
LINE
  5
1AC7F
  8
AM_0
 10
263.57660543204372
 20
359.01420476496799
 30
0.0
 11
263.29660734067249
 21
359.0240292758653
 31
0.0
  0
LINE
  5
1AC80
  8
AM_0
 10
263.57660543204372
 20
361.0336988796214
 30
0.0
 11
263.29660734067249
 21
361.0240292758653
 31
0.0
  0
ARC
  5
1AC81
  8
AM_0
 10
263.33805234067239
 20
360.02445827586479
 30
0.0
 40
1.000429999999999
 50
92.374283999996265
 51
269.91724199999999
  0
TEXT
  5
1ADC4
  8
AM_0
 10
180.6140352649754
 20
715.30258608806957
 30
0.0
 40
15.0
  1
VC04-080MR~VC04-240MR
1001
ACAD
1000
MTEXTBEGIN
1070
    73
1070
     1
1070
    44
1040
1.0
1070
    74
1070
     0
1000
MTEXTEND
  0
VIEWPORT
  5
89
 67
     1
  8
0
 10
210.0
 20
148.5
 30
0.0
 40
420.0
 41
297.0
 68
     1
 69
     1
1001
ACAD
1000
MVIEW
1002
{
1070
    16
1010
0.0
1020
0.0
1030
0.0
1010
0.0
1020
0.0
1030
1.0
1040
0.0
1040
297.0
1040
221.70154043645701
1040
148.5
1040
50.0
1040
0.0
1040
0.0
1070
     0
1070
   100
1070
     1
1070
     1
1070
     0
1070
     0
1070
     0
1070
     0
1040
0.0
1040
0.0
1040
0.0
1040
10.0
1040
10.0
1040
10.0
1040
10.0
1070
     0
1002
{
1002
}
1002
}
1001
GENIUS_GENOREF_13
1005
1B94
1001
GENIUS_GENSCREG_15
1000
PF
1040
1.0
1000
DF
1040
1.0
1000
MIN
1011
0.0
1021
0.0
1031
0.0
1021
0.0
1031
0.0
1000
MAX
1011
420.0
1021
0.0
1031
0.0
1021
297.0
1031
0.0
1000
FLAGS
1070
     4
  0
ENDSEC
  0
EOF
