  0
SECTION
  2
HEADER
  9
$ACADVER
  1
AC1009
  9
$INSBASE
 10
0.0
 20
0.0
 30
0.0
  9
$EXTMIN
 10
137.17522645110171
 20
192.26785796988489
 30
-0.0000000000112498
  9
$EXTMAX
 10
654.52885612569378
 20
613.31919322817237
 30
0.0000000000002956
  9
$LIMMIN
 10
0.0
 20
0.0
  9
$LIMMAX
 10
853.5
 20
555.00000000000011
  9
$ORTHOMODE
 70
     0
  9
$REGENMODE
 70
     1
  9
$FILLMODE
 70
     1
  9
$QTEXTMODE
 70
     0
  9
$MIRRTEXT
 70
     1
  9
$DRAGMODE
 70
     2
  9
$LTSCALE
 40
3.0
  9
$OSMODE
 70
   551
  9
$ATTMODE
 70
     1
  9
$TEXTSIZE
 40
2.5
  9
$TRACEWID
 40
1.0
  9
$TEXTSTYLE
  7
STANDARD
  9
$CLAYER
  8
AM_0
  9
$CELTYPE
  6
BYLAYER
  9
$CECOLOR
 62
   256
  9
$DIMSCALE
 40
1.0
  9
$DIMASZ
 40
2.5
  9
$DIMEXO
 40
1.0
  9
$DIMDLI
 40
8.0
  9
$DIMRND
 40
0.0
  9
$DIMDLE
 40
0.0
  9
$DIMEXE
 40
0.6
  9
$DIMTP
 40
0.1
  9
$DIMTM
 40
0.1
  9
$DIMTXT
 40
2.5
  9
$DIMCEN
 40
0.0
  9
$DIMTSZ
 40
0.0
  9
$DIMTOL
 70
     0
  9
$DIMLIM
 70
     0
  9
$DIMTIH
 70
     0
  9
$DIMTOH
 70
     0
  9
$DIMSE1
 70
     0
  9
$DIMSE2
 70
     0
  9
$DIMTAD
 70
     1
  9
$DIMZIN
 70
     8
  9
$DIMBLK
  1

  9
$DIMASO
 70
     1
  9
$DIMSHO
 70
     1
  9
$DIMPOST
  1

  9
$DIMAPOST
  1
"
  9
$DIMALT
 70
     0
  9
$DIMALTD
 70
     2
  9
$DIMALTF
 40
0.0393701
  9
$DIMLFAC
 40
1.0
  9
$DIMTOFL
 70
     1
  9
$DIMTVP
 40
0.0
  9
$DIMTIX
 70
     0
  9
$DIMSOXD
 70
     0
  9
$DIMSAH
 70
     0
  9
$DIMBLK1
  1

  9
$DIMBLK2
  1

  9
$DIMSTYLE
  2
AM_ISO
  9
$DIMCLRD
 70
   256
  9
$DIMCLRE
 70
   256
  9
$DIMCLRT
 70
     4
  9
$DIMTFAC
 40
0.71
  9
$DIMGAP
 40
0.8
  9
$LUNITS
 70
     2
  9
$LUPREC
 70
     2
  9
$SKETCHINC
 40
1.0
  9
$FILLETRAD
 40
15.0
  9
$AUNITS
 70
     0
  9
$AUPREC
 70
     0
  9
$MENU
  1
.
  9
$ELEVATION
 40
0.0
  9
$PELEVATION
 40
0.0
  9
$THICKNESS
 40
0.0
  9
$LIMCHECK
 70
     0
  9
$BLIPMODE
 70
     0
  9
$CHAMFERA
 40
6.0
  9
$CHAMFERB
 40
3.0
  9
$SKPOLY
 70
     0
  9
$TDCREATE
 40
2452066.390688472
  9
$TDUPDATE
 40
2458541.4130568639
  9
$TDINDWG
 40
0.1302654398
  9
$TDUSRTIMER
 40
0.1302652431
  9
$USRTIMER
 70
     1
  9
$ANGBASE
 50
0.0
  9
$ANGDIR
 70
     0
  9
$PDMODE
 70
     0
  9
$PDSIZE
 40
0.0
  9
$PLINEWID
 40
0.0
  9
$COORDS
 70
     1
  9
$SPLFRAME
 70
     0
  9
$SPLINETYPE
 70
     6
  9
$SPLINESEGS
 70
     8
  9
$ATTDIA
 70
     1
  9
$ATTREQ
 70
     1
  9
$HANDLING
 70
     1
  9
$HANDSEED
  5
2E98
  9
$SURFTAB1
 70
     6
  9
$SURFTAB2
 70
     6
  9
$SURFTYPE
 70
     6
  9
$SURFU
 70
     6
  9
$SURFV
 70
     6
  9
$UCSNAME
  2

  9
$UCSORG
 10
0.0
 20
0.0
 30
0.0
  9
$UCSXDIR
 10
1.0
 20
0.0
 30
0.0
  9
$UCSYDIR
 10
0.0
 20
1.0
 30
0.0
  9
$PUCSNAME
  2

  9
$PUCSORG
 10
0.0
 20
0.0
 30
0.0
  9
$PUCSXDIR
 10
1.0
 20
0.0
 30
0.0
  9
$PUCSYDIR
 10
0.0
 20
1.0
 30
0.0
  9
$USERI1
 70
     0
  9
$USERI2
 70
     0
  9
$USERI3
 70
     0
  9
$USERI4
 70
     0
  9
$USERI5
 70
     0
  9
$USERR1
 40
0.0
  9
$USERR2
 40
0.0
  9
$USERR3
 40
0.0
  9
$USERR4
 40
0.0
  9
$USERR5
 40
0.0
  9
$WORLDVIEW
 70
     1
  9
$SHADEDGE
 70
     3
  9
$SHADEDIF
 70
    70
  9
$TILEMODE
 70
     1
  9
$MAXACTVP
 70
    64
  9
$PLIMCHECK
 70
     0
  9
$PEXTMIN
 10
1.0000000000000000E+020
 20
1.0000000000000000E+020
 30
1.0000000000000000E+020
  9
$PEXTMAX
 10
-1.0000000000000000E+020
 20
-1.0000000000000000E+020
 30
-1.0000000000000000E+020
  9
$PLIMMIN
 10
0.0
 20
0.0
  9
$PLIMMAX
 10
420.0
 20
297.0
  9
$UNITMODE
 70
     0
  9
$VISRETAIN
 70
     1
  9
$PLINEGEN
 70
     0
  9
$PSLTSCALE
 70
     1
  0
ENDSEC
  0
SECTION
  2
TABLES
  0
TABLE
  2
VPORT
 70
     1
  0
VPORT
  2
*ACTIVE
 70
     0
 10
0.0
 20
0.0
 11
1.0
 21
1.0
 12
395.8520412883978
 22
402.79352559902873
 13
0.0
 23
0.0
 14
7.5
 24
7.5
 15
30.0
 25
30.0
 16
0.0
 26
0.0
 36
1.0
 17
0.0
 27
0.0
 37
0.0
 40
423.9418478573146
 41
1.7571592210767459
 42
50.0
 43
0.0
 44
0.0
 50
0.0
 51
0.0
 71
     0
 72
   100
 73
     1
 74
     3
 75
     0
 76
     0
 77
     0
 78
     0
  0
ENDTAB
  0
TABLE
  2
LTYPE
 70
    27
  0
LTYPE
  2
CONTINUOUS
 70
     0
  3
Solid line
 72
    65
 73
     0
 40
0.0
  0
LTYPE
  2
AM_ISO02W050
 70
     0
  3
__ __ __ __ __ __ __ __ __ __ __ __ __ __ __
 72
    65
 73
     2
 40
7.5
 49
6.0
 49
-1.5
  0
LTYPE
  2
AM_ISO08W050
 70
     0
  3
____ . ____ . ____ . ____ . ____ . ____ . ____
 72
    65
 73
     4
 40
18.0
 49
12.0
 49
-1.5
 49
3.0
 49
-1.5
  0
LTYPE
  2
AM_ISO09W050
 70
     0
  3
_____ . . _____ . . _____ . . ____ .. ____
 72
    65
 73
     6
 40
22.5
 49
12.0
 49
-1.5
 49
3.0
 49
-1.5
 49
3.0
 49
-1.5
  0
LTYPE
  2
AMCONSTR
 70
     0
  3
_______________________
 72
    65
 73
     2
 40
9999.0
 49
9999.0
 49
0.0
  0
LTYPE
  2
AM_ISO08W050X2
 70
     0
  3
__ . __ . __ . __ . __ . __
 72
    65
 73
     4
 40
9.0
 49
6.0
 49
-0.75
 49
1.5
 49
-0.75
  0
LTYPE
  2
AM_ISO02W050X2
 70
     0
  3
 _ _ _ _ _ _ _ _ _ _ _ _
 72
    65
 73
     2
 40
3.75
 49
3.0
 49
-0.75
  0
LTYPE
  2
AMZIGZAG
 70
     0
  3
/\/-/\/-/\/-/\/-/\/-/\/
 72
    65
 73
     2
 40
11.000099999999991
 49
0.0001
 49
-11.0
  0
LTYPE
  2
ACISOWELD
 70
     0
  3
_ _ _ _ _
 72
    65
 73
     2
 40
2.0
 49
2.0
 49
-1.0
  0
LTYPE
  2
ACISOTGB
 70
     0
  3
__ . . __ . .
 72
    65
 73
     6
 40
9.0
 49
4.0
 49
-1.0
 49
1.0
 49
-1.0
 49
1.0
 49
-1.0
  0
LTYPE
  2
ACISOTGL
 70
     0
  3
_ _ _ _ _
 72
    65
 73
     2
 40
3.0
 49
2.0
 49
-1.0
  0
LTYPE
  2
CENTER
 70
     0
  3
__ . __
 72
    65
 73
     4
 40
7.0
 49
4.0
 49
-1.0
 49
1.0
 49
-1.0
  0
LTYPE
  2
PHANTOM2
 70
     0
  3
Phantom (.5x) ___ _ _ ___ _ _ ___ _ _ ___ _ _
 72
    65
 73
     6
 40
31.75
 49
15.875
 49
-3.174999999999998
 49
3.174999999999998
 49
-3.174999999999998
 49
3.174999999999998
 49
-3.174999999999998
  0
LTYPE
  2
ACANSTGBM
 70
     0
  3
__ . . __ . .
 72
    65
 73
     6
 40
9.0
 49
4.0
 49
-1.0
 49
1.0
 49
-1.0
 49
1.0
 49
-1.0
  0
LTYPE
  2
ACANSTGLM
 70
     0
  3
_ _ _ _ _
 72
    65
 73
     2
 40
3.0
 49
2.0
 49
-1.0
  0
LTYPE
  2
GEN7
 70
     0
  3
____ . ____ . ____ . ____ . ____ . ____ . ____
 72
    65
 73
     4
 40
14.25
 49
9.75
 49
-1.5
 49
1.5
 49
-1.5
  0
LTYPE
  2
GEN3B
 70
     0
  3
 - - - - -
 72
    65
 73
     2
 40
1.0
 49
0.5
 49
-0.5
  0
LTYPE
  2
GEN7A
 70
     0
  3
__ . __ . __
 72
    65
 73
     4
 40
7.375
 49
4.75
 49
-0.875
 49
0.875
 49
-0.875
  0
LTYPE
  2
ACJISTGB
 70
     0
  3
__ . . __ . .
 72
    65
 73
     6
 40
9.0
 49
4.0
 49
-1.0
 49
1.0
 49
-1.0
 49
1.0
 49
-1.0
  0
LTYPE
  2
ACJISTGL
 70
     0
  3
_ _ _ _ _
 72
    65
 73
     2
 40
3.0
 49
2.0
 49
-1.0
  0
LTYPE
  2
HIDDEN
 70
     0
  3
Hidden __ __ __ __ __ __ __ __ __ __ __ __ __ _
 72
    65
 73
     2
 40
0.375
 49
0.25
 49
-0.125
  0
LTYPE
  2
CENTER2
 70
     0
  3
Center (.5x) ___ _ ___ _ ___ _ ___ _ ___ _ ___
 72
    65
 73
     4
 40
1.125
 49
0.75
 49
-0.125
 49
0.125
 49
-0.125
  0
LTYPE
  2
HIDDEN2
 70
     0
  3
Hidden (.5x) _ _ _ _ _ _ _ _ _ _ _ _ _ _ _ _ _
 72
    65
 73
     2
 40
0.1875
 49
0.125
 49
-0.0625
  0
LTYPE
  2
AMZIGZAG2
 70
     0
  3
/\/-/\/-/\/-/\/-/\/-/\/
 72
    65
 73
     2
 40
0.4401
 49
0.0001
 49
-0.4400000000000002
  0
LTYPE
  2
ACANSTGB
 70
     0
  3
__ . . __ . .
 72
    65
 73
     6
 40
0.35433070866
 49
0.15748031496
 49
-0.03937007874
 49
0.03937007874
 49
-0.03937007874
 49
0.03937007874
 49
-0.03937007874
  0
LTYPE
  2
ACANSTGL
 70
     0
  3
_ _ _ _ _
 72
    65
 73
     2
 40
0.11811023622
 49
0.07874015748
 49
-0.03937007874
  0
ENDTAB
  0
TABLE
  2
LAYER
 70
     7
  0
LAYER
  2
0
 70
     0
 62
     7
  6
CONTINUOUS
  0
LAYER
  2
AM_0
 70
     0
 62
     7
  6
CONTINUOUS
  0
LAYER
  2
AM_5
 70
     0
 62
     2
  6
CONTINUOUS
  0
LAYER
  2
DEFPOINTS
 70
     0
 62
     7
  6
CONTINUOUS
  0
LAYER
  2
ｶｸﾚｾﾝ2
 70
     0
 62
     3
  6
GEN3B
  0
LAYER
  2
ﾁｭｳｼﾝｾﾝ
 70
     0
 62
     1
  6
GEN7
  0
LAYER
  2
ﾁｭｳｼﾝｾﾝ1
 70
     0
 62
     1
  6
GEN7A
  0
ENDTAB
  0
TABLE
  2
STYLE
 70
     9
  0
STYLE
  2
STANDARD
 70
     0
 40
0.0
 41
0.8299999999999999
 50
0.0
 71
     0
 42
2.5
  3
txt.shx
  4
bigfont.shx
  0
STYLE
  2
ANNOTATIVE
 70
     0
 40
0.0
 41
1.0
 50
0.0
 71
     0
 42
0.2
  3
txt
  4

  0
STYLE
  2

 70
     1
 40
0.0
 41
1.0
 50
0.0
 71
     0
 42
2.5
  3
ltypeshp.shx
  4

  0
STYLE
  2
ACISOTS
 70
     0
 40
1.0
 41
1.0
 50
0.0
 71
     0
 42
2.5
  3
isocp.shx
  4
extfont.shx
  0
STYLE
  2
ACISOGDT
 70
     0
 40
0.0
 41
1.0
 50
0.0
 71
     0
 42
2.5
  3
amgdt.shx
  4

  0
STYLE
  2
ACANSTS
 70
     0
 40
1.0
 41
1.0
 50
0.0
 71
     0
 42
2.5
  3
romans.shx
  4
bigfont.shx
  0
STYLE
  2
ACANSGDT
 70
     0
 40
0.0
 41
1.0
 50
0.0
 71
     0
 42
2.5
  3
amgdt.shx
  4

  0
STYLE
  2
ACJISTS
 70
     0
 40
1.0
 41
1.0
 50
0.0
 71
     0
 42
2.5
  3
isocp.shx
  4
bigfont.shx
  0
STYLE
  2
ACJISGDT
 70
     0
 40
0.0
 41
1.0
 50
0.0
 71
     0
 42
2.5
  3
amgdt.shx
  4

  0
ENDTAB
  0
TABLE
  2
VIEW
 70
     6
  0
VIEW
  2
AM_VIEW1
 70
     0
 40
277.49999999999989
 10
249.64779005524849
 20
416.24999999999989
 41
499.2955801104971
 11
0.0
 21
0.0
 31
1.0
 12
0.0
 22
0.0
 32
0.0
 42
50.0
 43
0.0
 44
0.0
 50
0.0
 71
     0
  0
VIEW
  2
AM_VIEW2
 70
     0
 40
277.49999999999989
 10
603.85220994475117
 20
416.24999999999989
 41
499.2955801104971
 11
0.0
 21
0.0
 31
1.0
 12
0.0
 22
0.0
 32
0.0
 42
50.0
 43
0.0
 44
0.0
 50
0.0
 71
     0
  0
VIEW
  2
AM_VIEW3
 70
     0
 40
277.49999999999989
 10
249.64779005524849
 20
138.7499999999998
 41
499.2955801104971
 11
0.0
 21
0.0
 31
1.0
 12
0.0
 22
0.0
 32
0.0
 42
50.0
 43
0.0
 44
0.0
 50
0.0
 71
     0
  0
VIEW
  2
AM_VIEW4
 70
     0
 40
277.49999999999989
 10
603.85220994475117
 20
138.7499999999998
 41
499.2955801104971
 11
0.0
 21
0.0
 31
1.0
 12
0.0
 22
0.0
 32
0.0
 42
50.0
 43
0.0
 44
0.0
 50
0.0
 71
     0
  0
VIEW
  2
AM_VIEW5
 70
     0
 40
277.5
 10
426.75
 20
277.49999999999989
 41
499.2955801104971
 11
0.0
 21
0.0
 31
1.0
 12
0.0
 22
0.0
 32
0.0
 42
50.0
 43
0.0
 44
0.0
 50
0.0
 71
     0
  0
VIEW
  2
AM_VIEW6
 70
     0
 40
554.99445000000014
 10
426.75
 20
277.49999999999989
 41
998.5811743093924
 11
0.0
 21
0.0
 31
1.0
 12
0.0
 22
0.0
 32
0.0
 42
50.0
 43
0.0
 44
0.0
 50
0.0
 71
     0
  0
ENDTAB
  0
TABLE
  2
UCS
 70
     0
  0
ENDTAB
  0
TABLE
  2
APPID
 70
    95
  0
APPID
  2
ACAD
 70
     0
  0
APPID
  2
ACADANNOTATIVE
 70
     0
  0
APPID
  2
MCAD_NO_VIS
 70
     0
  0
APPID
  2
ACAD_TEMP_GRAPHIC
 70
     0
  0
APPID
  2
ACATTRIBSERVICES
 70
     0
  0
APPID
  2
GENIUS_GENREC_14
 70
     0
  0
APPID
  2
GENIUS_GENOBJ-N-REC_13
 70
     0
  0
APPID
  2
GENIUS_GENODEF_13
 70
     0
  0
APPID
  2
GENIUS_GENOLIS_13
 70
     0
  0
APPID
  2
GENIUS_GENOBJ-N-TIT_13
 70
     0
  0
APPID
  2
GENIUS_GENOENT_13
 70
     0
  0
APPID
  2
GENIUS_GENTITLE_13
 70
     0
  0
APPID
  2
GENIUS_GENOREF_13
 70
     0
  0
APPID
  2
GENIUS_GENSCREG_15
 70
     0
  0
APPID
  2
GENIUS_GENOBJ-N-SDF_13
 70
     0
  0
APPID
  2
GENIUS_GENFIL_13
 70
     0
  0
APPID
  2
GENIUS_GENOBJ-N-CHA_13
 70
     0
  0
APPID
  2
GENIUS_GENDTOL_13
 70
     0
  0
APPID
  2
GENIUS_GENOBJ-N-FIL_13
 70
     0
  0
APPID
  2
AD_DRAW
 70
     0
  0
APPID
  2
DESIGNERASSEMBLIES
 70
     0
  0
APPID
  2
ASURF_PCURVE_APPNAME
 70
     0
  0
APPID
  2
GENIUS_GE3SECT_13
 70
     0
  0
APPID
  2
GENIUS_GENCFG_13
 70
     0
  0
APPID
  2
GENIUS_GE3CFG0_13
 70
     0
  0
APPID
  2
GENIUS_GENCFG0_13
 70
     0
  0
APPID
  2
GENIUS_GENCFG1_13
 70
     0
  0
APPID
  2
GENIUS_GENCFG2_13
 70
     0
  0
APPID
  2
GENIUS_GENCFG3_13
 70
     0
  0
APPID
  2
GENIUS_GENCFG4_13
 70
     0
  0
APPID
  2
GENIUS_GEVCFG0_13
 70
     0
  0
APPID
  2
GENIUS_GENHINW_13
 70
     0
  0
APPID
  2
GENIUS_FIRSTVISTXT_14
 70
     0
  0
APPID
  2
GENIUS_GENOBJ-N-LEADER_13
 70
     0
  0
APPID
  2
GEV_VCCNULL_SWITCH_OFF
 70
     0
  0
APPID
  2
GENIUS_GEFCFG0_13
 70
     0
  0
APPID
  2
GENIUS_GENZVEED_13
 70
     0
  0
APPID
  2
GENIUS_GENSCREG_13
 70
     0
  0
APPID
  2
GENIUS_DUMCFG0_13
 70
     0
  0
APPID
  2
GEVID936201362
 70
     0
  0
APPID
  2
GEVDC
 70
     0
  0
APPID
  2
GEVCON
 70
     0
  0
APPID
  2
VCC
 70
     0
  0
APPID
  2
GEVPT
 70
     0
  0
APPID
  2
GEVIT
 70
     0
  0
APPID
  2
GENBH
 70
     0
  0
APPID
  2
GEVMK
 70
     0
  0
APPID
  2
GENIUS_GENBH_13
 70
     0
  0
APPID
  2
GENIUS_GENOBJ-NBEHI-BHF_13
 70
     0
  0
APPID
  2
GENIUS_GENOBJ-NBEHI-BHB_13
 70
     0
  0
APPID
  2
GENIUS_GENOBJ-F-DESC_13
 70
     0
  0
APPID
  2
GENIUS_GEFDESC_14
 70
     0
  0
APPID
  2
GENIUS_GENOBJ-F-PART_13
 70
     0
  0
APPID
  2
GENIUS_GEFSTDP_13
 70
     0
  0
APPID
  2
GENIUS_GEFPARTINS_13
 70
     0
  0
APPID
  2
GENIUS_GENTRA_14
 70
     0
  0
APPID
  2
GENIUS_GENINF13_13
 70
     0
  0
APPID
  2
GENIUS_GENOBJ-N-INFOPT_13
 70
     0
  0
APPID
  2
GENIUS_GENOBJ-N-RSSYM_13
 70
     0
  0
APPID
  2
GENIUS_GENSYMENT_13
 70
     0
  0
APPID
  2
GENIUS_GENSCSYM_13
 70
     0
  0
APPID
  2
GENIUS_GEFINFNAM_13
 70
     0
  0
APPID
  2
GENIUS_GENOBJ-N-CEN_13
 70
     0
  0
APPID
  2
GENIUS_GENOBJ-N-CRS_13
 70
     0
  0
APPID
  2
GENIUS_GENOBJ-N-CRC_13
 70
     0
  0
APPID
  2
GENIUS_GENCRC_14
 70
     0
  0
APPID
  2
GEVID942827039
 70
     0
  0
APPID
  2
GEVID942827040
 70
     0
  0
APPID
  2
GEVID942827041
 70
     0
  0
APPID
  2
GENIUS_GENOBJ-F-SCPASSM_13
 70
     0
  0
APPID
  2
GENIUS_GENDIMSH_14
 70
     0
  0
APPID
  2
GEVID942827042
 70
     0
  0
APPID
  2
GEVID946020473
 70
     0
  0
APPID
  2
GEVID946020474
 70
     0
  0
APPID
  2
GEVID946020475
 70
     0
  0
APPID
  2
GENIUS_GENOBJ-N-HTC_13
 70
     0
  0
APPID
  2
GENIUS_GENHATCH_13
 70
     0
  0
APPID
  2
GEVID948854295
 70
     0
  0
APPID
  2
GEVID939402019
 70
     0
  0
APPID
  2
GEVID952919491
 70
     0
  0
APPID
  2
GEVID952919492
 70
     0
  0
APPID
  2
GENIUS_GEFWELD_13
 70
     0
  0
APPID
  2
GENIUS_GENOBJ-F-WELS_13
 70
     0
  0
APPID
  2
GEVID952919493
 70
     0
  0
APPID
  2
GENIUS_GENOBJ-N-RSBK_13
 70
     0
  0
APPID
  2
GENIUS_GENOBJ-N-LIB_13
 70
     0
  0
APPID
  2
GENIUS_GENSCALE_13
 70
     0
  0
APPID
  2
GEVID986376691
 70
     0
  0
APPID
  2
DCO15
 70
     0
  0
APPID
  2
ACAD_DSTYLE_DIMBREAK
 70
     0
  0
APPID
  2
ACAD_DSTYLE_DIMJAG
 70
     0
  0
APPID
  2
ACAD_NAV_VCDISPLAY
 70
     0
  0
APPID
  2
ACADANNOPO
 70
     0
  0
APPID
  2
ACAD_EXEMPT_FROM_CAD_STANDARDS
 70
     0
  0
APPID
  2
ACAD_MLEADERVER
 70
     0
  0
ENDTAB
  0
TABLE
  2
DIMSTYLE
 70
    22
  0
DIMSTYLE
  2
STANDARD
 70
     0
  3

  4

  5

  6

  7

 40
1.0
 41
0.18
 42
0.0625
 43
0.38
 44
0.18
 45
0.0
 46
0.0
 47
0.0
 48
0.0
140
0.18
141
0.09
142
0.0
143
25.399999999999999
144
1.0
145
0.0
146
1.0
147
0.09
 71
     0
 72
     0
 73
     1
 74
     1
 75
     0
 76
     0
 77
     0
 78
     0
170
     0
171
     2
172
     0
173
     0
174
     0
175
     0
176
     0
177
     0
178
     0
  0
DIMSTYLE
  2
ANNOTATIVE
 70
     0
  3

  4

  5

  6

  7

 40
1.0
 41
0.18
 42
0.0625
 43
0.38
 44
0.18
 45
0.0
 46
0.0
 47
0.0
 48
0.0
140
0.18
141
0.09
142
0.0
143
25.399999999999999
144
1.0
145
0.0
146
1.0
147
0.09
 71
     0
 72
     0
 73
     1
 74
     1
 75
     0
 76
     0
 77
     0
 78
     0
170
     0
171
     2
172
     0
173
     0
174
     0
175
     0
176
     0
177
     0
178
     0
  0
DIMSTYLE
  2
AM_ISO
 70
     0
  3

  4
"
  5

  6

  7

 40
1.0
 41
2.5
 42
1.0
 43
8.0
 44
0.6
 45
0.0
 46
0.0
 47
0.1
 48
0.1
140
2.5
141
0.0
142
0.0
143
0.0393701
144
1.0
145
0.0
146
0.71
147
0.8
 71
     0
 72
     0
 73
     0
 74
     0
 75
     0
 76
     0
 77
     1
 78
     8
170
     0
171
     2
172
     1
173
     0
174
     0
175
     0
176
   256
177
   256
178
     4
  0
DIMSTYLE
  2
AM_ISO$3
 70
     0
  3

  4
"
  5

  6

  7

 40
1.0
 41
2.5
 42
1.0
 43
8.0
 44
0.6
 45
0.0
 46
0.0
 47
0.1
 48
0.1
140
2.5
141
0.0
142
0.0
143
0.0393701
144
1.0
145
0.0
146
0.71
147
0.8
 71
     0
 72
     0
 73
     0
 74
     1
 75
     0
 76
     0
 77
     1
 78
     8
170
     0
171
     2
172
     0
173
     0
174
     0
175
     0
176
   256
177
   256
178
     4
  0
DIMSTYLE
  2
AM_ISO$4
 70
     0
  3

  4
"
  5

  6

  7

 40
1.0
 41
2.5
 42
1.0
 43
8.0
 44
0.6
 45
0.0
 46
0.0
 47
0.1
 48
0.1
140
2.5
141
0.0
142
0.0
143
0.0393701
144
1.0
145
0.0
146
0.71
147
0.8
 71
     0
 72
     0
 73
     0
 74
     1
 75
     0
 76
     0
 77
     1
 78
     8
170
     0
171
     2
172
     0
173
     0
174
     0
175
     0
176
   256
177
   256
178
     4
  0
DIMSTYLE
  2
AM_ISO$6
 70
     0
  3

  4
"
  5

  6

  7

 40
1.0
 41
2.5
 42
1.0
 43
8.0
 44
0.6
 45
0.0
 46
0.0
 47
0.1
 48
0.1
140
2.5
141
0.0
142
0.0
143
0.0393701
144
1.0
145
0.0
146
0.71
147
0.8
 71
     0
 72
     0
 73
     0
 74
     0
 75
     0
 76
     0
 77
     0
 78
     8
170
     0
171
     2
172
     1
173
     0
174
     0
175
     0
176
   256
177
   256
178
     4
  0
DIMSTYLE
  2
AM_ISO$7
 70
     0
  3

  4
"
  5

  6

  7

 40
1.0
 41
2.5
 42
1.0
 43
8.0
 44
0.6
 45
0.0
 46
0.0
 47
0.1
 48
0.1
140
2.5
141
0.0
142
0.0
143
0.0393701
144
1.0
145
0.0
146
0.71
147
0.8
 71
     0
 72
     0
 73
     0
 74
     0
 75
     0
 76
     0
 77
     1
 78
     8
170
     0
171
     2
172
     1
173
     0
174
     0
175
     0
176
   256
177
   256
178
     4
  0
DIMSTYLE
  2
AM_ISO$SF
 70
     0
  3

  4
"
  5

  6

  7

 40
1.0
 41
2.5
 42
1.0
 43
10.0
 44
1.0
 45
0.0
 46
0.0
 47
0.1
 48
0.1
140
3.5
141
0.0
142
0.0
143
0.0393701
144
1.0
145
0.0
146
0.71
147
1.5
 71
     0
 72
     0
 73
     0
 74
     0
 75
     1
 76
     1
 77
     1
 78
     8
170
     0
171
     2
172
     1
173
     0
174
     0
175
     0
176
   256
177
   256
178
     2
  0
DIMSTYLE
  2
AM_ISO$SH
 70
     0
  3

  4
"
  5

  6

  7

 40
1.0
 41
2.5
 42
1.0
 43
10.0
 44
1.0
 45
0.0
 46
0.0
 47
0.1
 48
0.1
140
3.5
141
0.0
142
0.0
143
0.0393701
144
2.0
145
0.0
146
0.71
147
1.5
 71
     0
 72
     0
 73
     0
 74
     0
 75
     1
 76
     1
 77
     1
 78
     8
170
     0
171
     2
172
     1
173
     1
174
     0
175
     0
176
   256
177
   256
178
     2
  0
DIMSTYLE
  2
AM_JIS
 70
     0
  3

  4
"
  5

  6

  7

 40
1.0
 41
2.5
 42
1.0
 43
7.0
 44
1.0
 45
0.0
 46
0.0
 47
0.1
 48
0.1000000001
140
2.5
141
0.0
142
0.0
143
0.0393701
144
1.0
145
0.0
146
0.71
147
1.0
 71
     0
 72
     0
 73
     0
 74
     0
 75
     0
 76
     0
 77
     3
 78
     8
170
     0
171
     2
172
     1
173
     0
174
     0
175
     0
176
   256
177
   256
178
     4
  0
DIMSTYLE
  2
AM_JIS$3
 70
     0
  3

  4
"
  5

  6

  7

 40
1.0
 41
2.5
 42
1.0
 43
7.0
 44
1.0
 45
0.0
 46
0.0
 47
0.1
 48
0.1000000001
140
2.5
141
0.0
142
0.0
143
0.0393701
144
1.0
145
0.0
146
0.71
147
1.0
 71
     0
 72
     0
 73
     0
 74
     1
 75
     0
 76
     0
 77
     3
 78
     8
170
     0
171
     2
172
     0
173
     0
174
     0
175
     0
176
   256
177
   256
178
     4
  0
DIMSTYLE
  2
AM_JIS$4
 70
     0
  3

  4
"
  5

  6

  7

 40
1.0
 41
2.5
 42
1.0
 43
7.0
 44
1.0
 45
0.0
 46
0.0
 47
0.1
 48
0.1000000001
140
2.5
141
0.0
142
0.0
143
0.0393701
144
1.0
145
0.0
146
0.71
147
1.0
 71
     0
 72
     0
 73
     0
 74
     0
 75
     0
 76
     0
 77
     3
 78
     8
170
     0
171
     2
172
     0
173
     0
174
     0
175
     0
176
   256
177
   256
178
     4
  0
DIMSTYLE
  2
AM_JIS$6
 70
     0
  3

  4
"
  5

  6

  7

 40
1.0
 41
2.5
 42
1.0
 43
7.0
 44
1.0
 45
0.0
 46
0.0
 47
0.1
 48
0.1000000001
140
2.5
141
0.0
142
0.0
143
0.0393701
144
1.0
145
0.0
146
0.71
147
1.0
 71
     0
 72
     0
 73
     0
 74
     0
 75
     0
 76
     0
 77
     0
 78
     8
170
     0
171
     2
172
     1
173
     0
174
     0
175
     0
176
   256
177
   256
178
     4
  0
DIMSTYLE
  2
AM_JIS$7
 70
     0
  3

  4
"
  5

  6

  7

 40
1.0
 41
2.5
 42
1.0
 43
7.0
 44
1.0
 45
0.0
 46
0.0
 47
0.1
 48
0.1000000001
140
2.5
141
0.0
142
0.0
143
0.0393701
144
1.0
145
0.0
146
0.71
147
1.0
 71
     0
 72
     0
 73
     0
 74
     0
 75
     0
 76
     0
 77
     3
 78
     8
170
     0
171
     2
172
     1
173
     0
174
     0
175
     0
176
   256
177
   256
178
     4
  0
DIMSTYLE
  2
AM_JIS$SF
 70
     0
  3

  4
"
  5

  6

  7

 40
1.0
 41
2.5
 42
1.0
 43
10.0
 44
1.0
 45
0.0
 46
0.0
 47
0.1
 48
0.1
140
3.5
141
0.0
142
0.0
143
0.0393701
144
1.0
145
0.0
146
0.71
147
1.5
 71
     0
 72
     0
 73
     0
 74
     0
 75
     1
 76
     1
 77
     3
 78
     8
170
     0
171
     2
172
     1
173
     0
174
     0
175
     0
176
   256
177
   256
178
     4
  0
DIMSTYLE
  2
AM_JIS$SH
 70
     0
  3

  4
"
  5

  6

  7

 40
1.0
 41
2.5
 42
1.0
 43
10.0
 44
1.0
 45
0.0
 46
0.0
 47
0.1
 48
0.1
140
3.5
141
0.0
142
0.0
143
0.0393701
144
1.0
145
0.0
146
0.71
147
1.5
 71
     0
 72
     0
 73
     0
 74
     0
 75
     1
 76
     0
 77
     3
 78
     8
170
     0
171
     2
172
     1
173
     1
174
     0
175
     0
176
   256
177
   256
178
     4
  0
DIMSTYLE
  2
AM_ANSI
 70
     0
  3

  4
mm
  5

  6

  7

 40
1.0
 41
0.1
 42
0.05
 43
0.5
 44
0.1
 45
0.0
 46
0.0
 47
0.1
 48
0.1
140
0.12
141
0.0
142
0.0
143
25.399999999999999
144
1.0
145
0.0
146
0.71
147
0.06
 71
     0
 72
     0
 73
     1
 74
     1
 75
     0
 76
     0
 77
     0
 78
     7
170
     0
171
     2
172
     0
173
     0
174
     0
175
     0
176
   256
177
   256
178
     2
  0
DIMSTYLE
  2
AM_ANSI$3
 70
     0
  3

  4
mm
  5

  6

  7

 40
1.0
 41
0.1
 42
0.05
 43
0.5
 44
0.1
 45
0.0
 46
0.0
 47
0.1
 48
0.1
140
0.12
141
0.0
142
0.0
143
25.399999999999999
144
1.0
145
0.0
146
0.71
147
0.06
 71
     0
 72
     0
 73
     1
 74
     1
 75
     0
 76
     0
 77
     0
 78
     7
170
     0
171
     2
172
     0
173
     0
174
     0
175
     0
176
   256
177
   256
178
     2
  0
DIMSTYLE
  2
AM_ANSI$4
 70
     0
  3

  4
mm
  5

  6

  7

 40
1.0
 41
0.1
 42
0.05
 43
0.5
 44
0.1
 45
0.0
 46
0.0
 47
0.1
 48
0.1
140
0.12
141
0.0
142
0.0
143
25.399999999999999
144
1.0
145
0.0
146
0.71
147
0.06
 71
     0
 72
     0
 73
     1
 74
     1
 75
     0
 76
     0
 77
     0
 78
     7
170
     0
171
     2
172
     0
173
     0
174
     0
175
     0
176
   256
177
   256
178
     2
  0
DIMSTYLE
  2
AM_ANSI$7
 70
     0
  3

  4
mm
  5

  6

  7

 40
1.0
 41
0.1
 42
0.05
 43
0.5
 44
0.1
 45
0.0
 46
0.0
 47
0.1
 48
0.1
140
0.24
141
0.0
142
0.0
143
25.399999999999999
144
1.0
145
0.0
146
0.71
147
0.06
 71
     0
 72
     0
 73
     1
 74
     1
 75
     0
 76
     0
 77
     0
 78
     7
170
     0
171
     2
172
     0
173
     0
174
     0
175
     0
176
   256
177
   256
178
     2
  0
DIMSTYLE
  2
AM_ANSI$SF
 70
     0
  3

  4
mm
  5

  6

  7

 40
1.0
 41
0.1
 42
0.05
 43
0.5
 44
0.1
 45
0.0
 46
0.0
 47
0.1
 48
0.1
140
0.12
141
0.0
142
0.0
143
25.399999999999999
144
1.0
145
0.0
146
0.71
147
0.06
 71
     0
 72
     0
 73
     1
 74
     1
 75
     1
 76
     1
 77
     0
 78
     7
170
     0
171
     2
172
     0
173
     0
174
     0
175
     0
176
   256
177
   256
178
     2
  0
DIMSTYLE
  2
AM_ANSI$SH
 70
     0
  3

  4
mm
  5

  6

  7

 40
1.0
 41
0.1
 42
0.05
 43
0.5
 44
0.1
 45
0.0
 46
0.0
 47
0.1
 48
0.1
140
0.12
141
0.0
142
0.0
143
25.399999999999999
144
1.0
145
0.0
146
0.71
147
0.06
 71
     0
 72
     0
 73
     1
 74
     1
 75
     1
 76
     1
 77
     0
 78
     7
170
     0
171
     2
172
     0
173
     1
174
     0
175
     0
176
   256
177
   256
178
     2
  0
ENDTAB
  0
ENDSEC
  0
SECTION
  2
BLOCKS
  0
BLOCK
  8
0
  2
$MODEL_SPACE
 70
     0
 10
0.0
 20
0.0
 30
0.0
  3
$MODEL_SPACE
  1

  0
ENDBLK
  5
2D06
  8
0
  0
BLOCK
 67
     1
  8
0
  2
$PAPER_SPACE
 70
     0
 10
0.0
 20
0.0
 30
0.0
  3
$PAPER_SPACE
  1

  0
ENDBLK
  5
2D02
 67
     1
  8
0
  0
BLOCK
  8
0
  2
GENAXEH
 70
     0
 10
0.0
 20
0.0
 30
0.0
  3
GENAXEH
  1

  0
LINE
  5
2A96
  8
0
 10
-1.0
 20
0.0
 30
0.0
 11
1.0
 21
0.0
 31
0.0
  0
ENDBLK
  5
2A97
  8
0
  0
BLOCK
  8
0
  2
_OPEN30
 70
     0
 10
0.0
 20
0.0
 30
0.0
  3
_OPEN30
  1

  0
LINE
  5
2A9A
  8
0
 62
     0
 10
-1.0
 20
0.26794919
 30
0.0
 11
0.0
 21
0.0
 31
0.0
  0
LINE
  5
2A9B
  8
0
 62
     0
 10
0.0
 20
0.0
 30
0.0
 11
-1.0
 21
-0.26794919
 31
0.0
  0
LINE
  5
2A9C
  8
0
 62
     0
 10
0.0
 20
0.0
 30
0.0
 11
-1.0
 21
0.0
 31
0.0
  0
ENDBLK
  5
2A9D
  8
0
  0
BLOCK
  8
0
  2
_NONE
 70
     0
 10
0.0
 20
0.0
 30
0.0
  3
_NONE
  1

  0
ENDBLK
  5
2AA0
  8
0
  0
BLOCK
  8
0
  2
*U5
 70
     1
 10
0.0
 20
0.0
 30
0.0
  3
*U5
  1

  0
TEXT
  5
2AA3
  8
AM_0
 62
     4
 10
726.60316616633042
 20
234.760155
 30
0.0
 40
7.5
  1
106
 50
90.0
 41
0.8299999999999999
  0
TEXT
  5
2AA4
  8
AM_0
 62
     3
 10
719.50316616633029
 20
250.322655
 30
0.0
 40
5.3249999999999993
  1
 0
 50
90.0
 41
0.8299999999999999
  0
TEXT
  5
2AA5
  8
AM_0
 62
     3
 10
726.60316616633042
 20
250.322655
 30
0.0
 40
5.3249999999999993
  1
-0.5
 50
90.0
 41
0.8299999999999999
  0
ENDBLK
  5
2AA6
  8
0
  0
BLOCK
  8
0
  2
_ACMFILLEDHALF
 70
     0
 10
0.0
 20
0.0
 30
0.0
  3
_ACMFILLEDHALF
  1

  0
TRACE
  5
2E00
  8
AM_0
 62
     0
 10
-0.8
 20
0.0
 30
0.0
 11
-1.0
 21
0.166666666
 31
0.0
 12
0.0
 22
0.0
 32
0.0
 13
0.0
 23
0.0
 33
0.0
  0
LINE
  5
2E01
  8
AM_0
 62
     0
 10
-1.0
 20
0.0
 30
0.0
 11
-0.8
 21
0.0
 31
0.0
  0
ENDBLK
  5
2DFF
  8
0
  0
ENDSEC
  0
SECTION
  2
ENTITIES
  0
POLYLINE
  5
2AA7
  8
AM_0
 66
     1
 10
0.0
 20
0.0
 30
0.0
  0
VERTEX
  5
2AA8
  8
AM_0
  6
CONTINUOUS
 10
285.98091090673557
 20
210.80270899999991
 30
0.0
 42
0.12791153
  0
VERTEX
  5
2AA9
  8
AM_0
  6
CONTINUOUS
 10
292.07502090673597
 20
212.46812600000001
 30
0.0
 42
0.075873116
  0
VERTEX
  5
2AAA
  8
AM_0
  6
CONTINUOUS
 10
297.05640090673569
 20
216.4270249999999
 30
0.0
 42
0.04391337
  0
VERTEX
  5
2AAB
  8
AM_0
  6
CONTINUOUS
 10
300.99717090673568
 20
221.444141
 30
0.0
 42
0.028464649
  0
VERTEX
  5
2AAC
  8
AM_0
  6
CONTINUOUS
 10
304.1893209067357
 20
226.97076499999989
 30
0.0
 42
0.020370658
  0
VERTEX
  5
2AAD
  8
AM_0
  6
CONTINUOUS
 10
306.83604090673572
 20
232.7831119999999
 30
0.0
 42
0.01565625
  0
VERTEX
  5
2AAE
  8
AM_0
  6
CONTINUOUS
 10
309.06105090673572
 20
238.769732
 30
0.0
 42
0.012688908
  0
VERTEX
  5
2AAF
  8
AM_0
  6
CONTINUOUS
 10
310.94544090673571
 20
244.87283300000001
 30
0.0
 42
0.010707695
  0
VERTEX
  5
2AB0
  8
AM_0
  6
CONTINUOUS
 10
312.54375090673562
 20
251.058257
 30
0.0
 42
0.009324549
  0
VERTEX
  5
2AB1
  8
AM_0
  6
CONTINUOUS
 10
313.8936909067358
 20
257.30217499999992
 30
0.0
 42
0.0083349477
  0
VERTEX
  5
2AB2
  8
AM_0
  6
CONTINUOUS
 10
315.02307090673582
 20
263.59117700000002
 30
0.0
 42
0.0076122067
  0
VERTEX
  5
2AB3
  8
AM_0
  6
CONTINUOUS
 10
315.95175090673558
 20
269.91335000000009
 30
0.0
 42
0.0070829649
  0
VERTEX
  5
2AB4
  8
AM_0
  6
CONTINUOUS
 10
316.69449090673561
 20
276.26011099999999
 30
0.0
 42
0.0067007814
  0
VERTEX
  5
2AB5
  8
AM_0
  6
CONTINUOUS
 10
317.26227090673598
 20
282.62515999999999
 30
0.0
 42
0.0064353086
  0
VERTEX
  5
2AB6
  8
AM_0
  6
CONTINUOUS
 10
317.6628009067357
 20
289.00314800000001
 30
0.0
 42
0.0062673647
  0
VERTEX
  5
2AB7
  8
AM_0
  6
CONTINUOUS
 10
317.90136090673542
 20
295.38929899999988
 30
0.0
 42
0.0061857305
  0
VERTEX
  5
2AB8
  8
AM_0
  6
CONTINUOUS
 10
317.98092090673561
 20
301.779293
 30
0.0
  0
SEQEND
  5
2AB9
  8
AM_0
  0
LINE
  5
2ABA
  8
AM_0
 10
275.98092090673561
 20
309.75193100000001
 30
0.0
 11
275.98092090673561
 21
219.05873600000001
 31
0.0
  0
LINE
  5
2ABB
  8
AM_0
 10
265.98096090673562
 20
349.42504700000001
 30
0.0
 11
265.98096090673562
 21
210.80270899999991
 31
0.0
  0
LINE
  5
2ABC
  8
AM_0
 10
282.98097090673582
 20
359.60272700000002
 30
0.0
 11
282.98097090673582
 21
231.94557800000001
 31
0.0
  0
LINE
  5
2ABD
  8
AM_0
 10
358.98093090673592
 20
273.77687600000002
 30
0.0
 11
358.98093090673592
 21
329.82856700000002
 31
0.0
  0
LINE
  5
2ABE
  8
AM_0
 10
343.98093090673592
 20
228.416021
 30
0.0
 11
343.98093090673592
 21
353.13457700000009
 31
0.0
  0
LINE
  5
2ABF
  8
AM_0
 10
285.98097090673582
 20
248.27153599999991
 30
0.0
 11
285.98097090673582
 21
283.59137600000008
 31
0.0
  0
LINE
  5
2AC0
  8
AM_0
 10
325.98093090673598
 20
215.80270700000011
 30
0.0
 11
325.98093090673598
 21
323.03601800000013
 31
0.0
  0
LINE
  5
2AC1
  8
AM_0
 10
355.98093090673592
 20
212.675693
 30
0.0
 11
355.98093090673592
 21
338.05372699999998
 31
0.0
  0
LINE
  5
2AC2
  8
AM_0
 10
171.98098306608321
 20
295.6885134376268
 30
0.0
 11
171.98098306608321
 21
261.51694056237312
 31
0.0
  0
LINE
  5
2AC3
  8
AM_0
 10
173.98098306608321
 20
253.6027269999999
 30
0.0
 11
173.98098306608321
 21
303.60272700000002
 31
0.0
  0
LINE
  5
2AC4
  8
AM_0
 10
229.48097090673571
 20
341.60272700000002
 30
0.0
 11
229.48097090673571
 21
215.60272699999999
 31
0.0
  0
LINE
  5
2AC5
  8
AM_0
 10
198.98097853613029
 20
305.60272700000002
 30
0.0
 11
198.98097853613029
 21
251.6027269999999
 31
0.0
  0
LINE
  5
2AC6
  8
AM_0
 10
169.9809830660833
 20
287.10272700000002
 30
0.0
 11
169.9809830660833
 21
270.10272700000002
 31
0.0
  0
LINE
  5
2AC7
  8
AM_0
 10
141.9809830660833
 20
288.60272700000007
 30
0.0
 11
141.9809830660833
 21
270.60272700000002
 31
0.0
  0
LINE
  5
2AC8
  8
AM_0
 10
239.48097090673571
 20
342.60272700000002
 30
0.0
 11
239.48097090673571
 21
214.6027269999999
 31
0.0
  0
LINE
  5
2AC9
  8
AM_0
 10
141.9809830660833
 20
270.60272700000002
 30
0.0
 11
169.9809830660833
 21
270.60272700000002
 31
0.0
  0
LINE
  5
2ACA
  8
AM_0
 10
276.98097090673582
 20
196.80270799999991
 30
0.0
 11
330.98097090673582
 21
196.80270799999991
 31
0.0
  0
LINE
  5
2ACB
  8
AM_0
 10
228.01650481266839
 20
222.56720072346181
 30
0.0
 11
201.90991072426479
 21
248.67379481186549
 31
0.0
  0
LINE
  5
2ACC
  8
AM_0
 10
175.9809830660833
 20
251.6027269999999
 30
0.0
 11
194.83884291239909
 21
251.6027269999999
 31
0.0
  0
ARC
  5
2ACD
  8
AM_0
 10
175.9809830660833
 20
253.6027269999999
 30
0.0
 40
2.0
 50
180.0
 51
270.0
1001
GENIUS_GENOBJ-N-FIL_13
1002
{
1000
OWNER
1000
GEN
1002
}
1001
GENIUS_GENODEF_13
1002
{
1000
HIER
1070
     0
1002
}
1002
{
1000
MANEDIT
1070
     0
1002
}
1002
{
1000
NOSEL
1070
     0
1002
}
1002
{
1000
BEHIND
1070
     0
1002
}
1002
{
1000
OTHER
1070
     0
1002
}
1002
{
1000
REACTOR
1002
}
  0
LINE
  5
2ACE
  8
AM_0
 10
172.2738762848968
 20
260.80983378118663
 30
0.0
 11
173.68808984726979
 21
259.39562021881352
 31
0.0
  0
ARC
  5
2ACF
  8
AM_0
 10
172.98098306608321
 20
258.6885134376268
 30
0.0
 40
1.0
 50
0.0
 51
45.0
1001
GENIUS_GENODEF_13
1002
{
1000
HIER
1070
     0
1002
}
1002
{
1000
MANEDIT
1070
     0
1002
}
1002
{
1000
NOSEL
1070
     0
1002
}
1002
{
1000
BEHIND
1070
     0
1002
}
1002
{
1000
OTHER
1070
     0
1002
}
1002
{
1000
REACTOR
1002
}
1001
GENIUS_GENOBJ-N-FIL_13
1002
{
1000
OWNER
1000
GEN
1002
}
  0
ARC
  5
2AD0
  8
AM_0
 10
172.98098306608321
 20
261.51694056237312
 30
0.0
 40
1.0
 50
180.0
 51
225.0
1001
GENIUS_GENODEF_13
1002
{
1000
HIER
1070
     0
1002
}
1002
{
1000
MANEDIT
1070
     0
1002
}
1002
{
1000
NOSEL
1070
     0
1002
}
1002
{
1000
BEHIND
1070
     0
1002
}
1002
{
1000
OTHER
1070
     0
1002
}
1002
{
1000
REACTOR
1002
}
1001
GENIUS_GENOBJ-N-FIL_13
1002
{
1000
OWNER
1000
GEN
1002
}
  0
LINE
  5
2AD1
  8
AM_0
 10
169.9809830660833
 20
270.10273233305003
 30
0.0
 11
171.98098306608321
 21
270.10273126643978
 31
0.0
  0
ARC
  5
2AD2
  8
AM_0
 10
194.83884291239909
 20
241.6027269999999
 30
0.0
 40
10.0
 50
45.0
 51
90.0
1001
GENIUS_GENODEF_13
1002
{
1000
HIER
1070
     0
1002
}
1002
{
1000
MANEDIT
1070
     0
1002
}
1002
{
1000
NOSEL
1070
     0
1002
}
1002
{
1000
BEHIND
1070
     0
1002
}
1002
{
1000
OTHER
1070
     0
1002
}
1002
{
1000
REACTOR
1002
}
1001
GENIUS_GENOBJ-N-FIL_13
1002
{
1000
OWNER
1000
GEN
1002
}
  0
LINE
  5
2AD3
  8
AM_0
 10
285.8938209067357
 20
247.342061
 30
0.0
 11
279.44301090673571
 21
213.24503000000001
 31
0.0
  0
LINE
  5
2AD4
  8
AM_0
 10
250.98096090673559
 20
210.80270899999991
 30
0.0
 11
276.49527090673581
 21
210.80270899999991
 31
0.0
  0
LINE
  5
2AD5
  8
AM_0
 10
248.98095090673581
 20
195.80270899999999
 30
0.0
 11
275.98092090673561
 21
195.80270899999999
 31
0.0
  0
LINE
  5
2AD6
  8
AM_0
 10
239.48097090673571
 20
227.10271099999991
 30
0.0
 11
265.98096090673562
 21
227.10271099999991
 31
0.0
  0
LINE
  5
2AD7
  8
AM_0
 10
239.48097090673571
 20
215.1027259999999
 30
0.0
 11
261.7077609067357
 21
214.32654199999999
 31
0.0
  0
LINE
  5
2AD8
  8
ｶｸﾚｾﾝ2
 10
257.98095090673581
 20
210.80270899999991
 30
0.0
 11
257.98095090673581
 21
195.80270899999999
 31
0.0
  0
LINE
  5
2AD9
  8
AM_0
 10
248.98095090673581
 20
208.80272299999999
 30
0.0
 11
248.98095090673581
 21
195.80270899999999
 31
0.0
  0
ARC
  5
2ADA
  8
AM_0
 10
250.98096090673559
 20
208.80272299999999
 30
0.0
 40
2.00000007
 50
90.000003000000007
 51
180.00001
  0
LINE
  5
2ADB
  8
AM_0
 10
239.48097090673571
 20
214.6027269999999
 30
0.0
 11
230.48097090673571
 21
214.6027269999999
 31
0.0
  0
ARC
  5
2ADC
  8
AM_0
 10
224.48097090673571
 20
219.0316668175289
 30
0.0
 40
5.0
 50
0.0
 51
45.0
1001
GENIUS_GENODEF_13
1002
{
1000
HIER
1070
     0
1002
}
1002
{
1000
MANEDIT
1070
     0
1002
}
1002
{
1000
NOSEL
1070
     0
1002
}
1002
{
1000
BEHIND
1070
     0
1002
}
1002
{
1000
OTHER
1070
     0
1002
}
1002
{
1000
REACTOR
1002
}
1001
GENIUS_GENOBJ-N-FIL_13
1002
{
1000
OWNER
1000
GEN
1002
}
  0
ARC
  5
2ADD
  8
AM_0
 10
230.48097090673571
 20
215.60272699999999
 30
0.0
 40
1.0
 50
180.0
 51
270.0
1001
GENIUS_GENODEF_13
1002
{
1000
HIER
1070
     0
1002
}
1002
{
1000
MANEDIT
1070
     0
1002
}
1002
{
1000
NOSEL
1070
     0
1002
}
1002
{
1000
BEHIND
1070
     0
1002
}
1002
{
1000
OTHER
1070
     0
1002
}
1002
{
1000
REACTOR
1002
}
1001
GENIUS_GENOBJ-N-FIL_13
1002
{
1000
OWNER
1000
GEN
1002
}
  0
LINE
  5
2ADE
  8
ﾁｭｳｼﾝｾﾝ1
 10
263.98095090673581
 20
213.3961119039524
 30
0.0
 11
263.98095090673581
 21
192.9303998358568
 31
0.0
  0
ARC
  5
2ADF
  8
AM_0
 10
262.98096090673562
 20
211.08542299999999
 30
0.0
 40
3.0
 50
0.0
 51
79.999998000000005
  0
ARC
  5
2AE0
  8
AM_0
 10
276.49527090673581
 20
213.80270899999999
 30
0.0
 40
3.0
 50
270.0
 51
349.28688
  0
ARC
  5
2AE1
  8
AM_0
 10
276.98097090673582
 20
195.80270899999999
 30
0.0
 40
1.0000000199999981
 50
90.000003000000007
 51
180.00001
  0
LINE
  5
2AE2
  8
ｶｸﾚｾﾝ2
 10
269.98095090673581
 20
210.80270899999991
 30
0.0
 11
269.98095090673581
 21
195.80270899999999
 31
0.0
  0
LINE
  5
2AE3
  8
AM_0
 10
275.98092090673561
 20
195.80270899999999
 30
0.0
 11
275.98092090673561
 21
195.80270899999999
 31
0.0
  0
LINE
  5
2AE4
  8
AM_0
 10
267.98097090673582
 20
217.05873500000001
 30
0.0
 11
273.98097090673582
 21
217.05873500000001
 31
0.0
  0
ARC
  5
2AE5
  8
AM_0
 10
261.60309090673582
 20
211.32839000000001
 30
0.0
 40
3.0
 50
79.999998000000005
 51
88.0
  0
LINE
  5
2AE6
  8
AM_0
 10
262.12401090673569
 20
214.28279599999999
 30
0.0
 11
263.50188090673561
 21
214.0398439999999
 31
0.0
  0
ARC
  5
2AE7
  8
AM_0
 10
267.98097090673582
 20
215.05875200000011
 30
0.0
 40
2.00000007
 50
90.000003000000007
 51
180.00001
  0
ARC
  5
2AE8
  8
AM_0
 10
273.98097090673582
 20
219.05873600000001
 30
0.0
 40
2.00000007
 50
270.0
 51
0.0
  0
LINE
  5
2AE9
  8
AM_0
 10
239.48097090673571
 20
241.45479199999991
 30
0.0
 11
265.98096090673562
 21
241.45479199999991
 31
0.0
  0
ARC
  5
2AEA
  8
AM_0
 10
280.98093090673592
 20
248.27153599999991
 30
0.0
 40
5.0000001000000003
 50
349.28688
 51
0.0
  0
LINE
  5
2AEB
  8
AM_0
 10
325.98093090673598
 20
223.41600500000001
 30
0.0
 11
338.98092090673561
 21
223.41600500000001
 31
0.0
  0
ARC
  5
2AEC
  8
AM_0
 10
330.98097090673582
 20
215.80270700000011
 30
0.0
 40
5.0000001000000003
 50
179.99998999999991
 51
270.0
  0
LINE
  5
2AED
  8
ﾁｭｳｼﾝｾﾝ1
 10
343.9809009067356
 20
213.3961119039524
 30
0.0
 11
343.9809009067356
 21
192.9303998358568
 31
0.0
  0
ARC
  5
2AEE
  8
AM_0
 10
357.98097090673582
 20
212.675693
 30
0.0
 40
2.00000007
 50
179.99998999999991
 51
255.52249
  0
LINE
  5
2AEF
  8
AM_0
 10
331.98093090673598
 20
195.80270899999999
 30
0.0
 11
358.98093090673592
 21
195.80270899999999
 31
0.0
  0
LINE
  5
2AF0
  8
AM_0
 10
330.98097090673582
 20
210.80270899999991
 30
0.0
 11
356.98092090673561
 21
210.80270899999991
 31
0.0
  0
LINE
  5
2AF1
  8
ｶｸﾚｾﾝ2
 10
337.98093090673598
 20
210.80270899999991
 30
0.0
 11
337.98093090673598
 21
195.80270899999999
 31
0.0
  0
ARC
  5
2AF2
  8
AM_0
 10
330.98097090673582
 20
195.80270899999999
 30
0.0
 40
1.0000000199999981
 50
0.0
 51
90.000003000000007
  0
LINE
  5
2AF3
  8
AM_0
 10
331.98093090673598
 20
195.80270899999999
 30
0.0
 11
331.98093090673598
 21
195.80270899999999
 31
0.0
  0
LINE
  5
2AF4
  8
ｶｸﾚｾﾝ2
 10
349.98093090673592
 20
210.80270899999991
 30
0.0
 11
349.98093090673592
 21
195.80270899999999
 31
0.0
  0
LINE
  5
2AF5
  8
AM_0
 10
358.98093090673592
 20
208.80272299999999
 30
0.0
 11
358.98093090673592
 21
195.80270899999999
 31
0.0
  0
ARC
  5
2AF6
  8
AM_0
 10
356.98092090673561
 20
208.80272299999999
 30
0.0
 40
2.00000007
 50
0.0
 51
90.000003000000007
  0
ARC
  5
2AF7
  8
AM_0
 10
338.98092090673561
 20
228.416021
 30
0.0
 40
5.0000001000000003
 50
270.0
 51
0.0
  0
ARC
  5
2AF8
  8
AM_0
 10
356.98092090673561
 20
271.74999200000002
 30
0.0
 40
1.0000000199999981
 50
91.500000999999969
 51
180.00001
  0
LINE
  5
2AF9
  8
AM_0
 10
356.95476090673583
 20
272.74964
 30
0.0
 11
358.00710090673562
 21
272.777198
 31
0.0
  0
ARC
  5
2AFA
  8
AM_0
 10
357.98097090673582
 20
273.77687600000002
 30
0.0
 40
1.0000000199999981
 50
271.49999999999972
 51
0.0
  0
LINE
  5
2AFB
  8
AM_0
 10
141.9809830660833
 20
288.60272700000007
 30
0.0
 11
163.9809830660833
 21
288.60272700000007
 31
0.0
  0
LINE
  5
2AFC
  8
AM_0
 10
141.9809830660833
 20
286.60272700000002
 30
0.0
 11
169.9809830660833
 21
286.60272700000002
 31
0.0
  0
LINE
  5
2AFD
  8
ﾁｭｳｼﾝｾﾝ
 10
137.18274517995951
 20
278.60272700000002
 30
0.0
 11
261.8441422271012
 21
278.60272700000002
 31
0.0
  0
POLYLINE
  5
2AFE
  8
AM_0
 66
     1
 10
0.0
 20
0.0
 30
0.0
  0
VERTEX
  5
2AFF
  8
AM_0
  6
CONTINUOUS
 10
316.05996090673563
 20
320.98146200000002
 30
0.0
 42
0.032705737
  0
VERTEX
  5
2B00
  8
AM_0
  6
CONTINUOUS
 10
314.1138309067357
 20
321.72997700000002
 30
0.0
 42
0.016814103
  0
VERTEX
  5
2B01
  8
AM_0
  6
CONTINUOUS
 10
312.10299090673578
 20
322.29217399999987
 30
0.0
 42
0.010836057
  0
VERTEX
  5
2B02
  8
AM_0
  6
CONTINUOUS
 10
310.06359090673578
 20
322.74501199999992
 30
0.0
 42
0.007863161
  0
VERTEX
  5
2B03
  8
AM_0
  6
CONTINUOUS
 10
308.00922090673549
 20
323.12213600000001
 30
0.0
 42
0.0061455438
  0
VERTEX
  5
2B04
  8
AM_0
  6
CONTINUOUS
 10
305.94495090673581
 20
323.44202300000001
 30
0.0
 42
0.0050541015
  0
VERTEX
  5
2B05
  8
AM_0
  6
CONTINUOUS
 10
303.87330090673561
 20
323.71592900000007
 30
0.0
 42
0.0043145835
  0
VERTEX
  5
2B06
  8
AM_0
  6
CONTINUOUS
 10
301.7955609067356
 20
323.95126399999998
 30
0.0
 42
0.0037842963
  0
VERTEX
  5
2B07
  8
AM_0
  6
CONTINUOUS
 10
299.71641090673569
 20
324.15280100000001
 30
0.0
 42
0.003403486
  0
VERTEX
  5
2B08
  8
AM_0
  6
CONTINUOUS
 10
297.63237090673579
 20
324.32466799999992
 30
0.0
 42
0.0031173927
  0
VERTEX
  5
2B09
  8
AM_0
  6
CONTINUOUS
 10
295.54587090673562
 20
324.46941500000008
 30
0.0
 42
0.0029018743
  0
VERTEX
  5
2B0A
  8
AM_0
  6
CONTINUOUS
 10
293.45778090673582
 20
324.58906400000001
 30
0.0
 42
0.0027404553
  0
VERTEX
  5
2B0B
  8
AM_0
  6
CONTINUOUS
 10
291.36846090673561
 20
324.68517200000002
 30
0.0
 42
0.0026217012
  0
VERTEX
  5
2B0C
  8
AM_0
  6
CONTINUOUS
 10
289.27815090673568
 20
324.75888800000001
 30
0.0
 42
0.0025380412
  0
VERTEX
  5
2B0D
  8
AM_0
  6
CONTINUOUS
 10
287.18715090673561
 20
324.81104599999992
 30
0.0
 42
0.0024845601
  0
VERTEX
  5
2B0E
  8
AM_0
  6
CONTINUOUS
 10
285.09576090673562
 20
324.84221600000001
 30
0.0
 42
0.002458447
  0
VERTEX
  5
2B0F
  8
AM_0
  6
CONTINUOUS
 10
283.00407090673571
 20
324.85271899999992
 30
0.0
  0
SEQEND
  5
2B10
  8
AM_0
  0
LINE
  5
2B11
  8
ﾁｭｳｼﾝｾﾝ
 10
257.33991090673578
 20
301.80271099999987
 30
0.0
 11
408.92874090673581
 21
301.80271099999987
 31
0.0
  0
POLYLINE
  5
2B12
  8
AM_0
 66
     1
 10
0.0
 20
0.0
 30
0.0
  0
VERTEX
  5
2B13
  8
AM_0
  6
CONTINUOUS
 10
317.98092090673561
 20
319.10272700000002
 30
0.0
 42
0.029628731
  0
VERTEX
  5
2B14
  8
AM_0
  6
CONTINUOUS
 10
317.78928090673571
 20
322.33202
 30
0.0
 42
0.029327543
  0
VERTEX
  5
2B15
  8
AM_0
  6
CONTINUOUS
 10
317.21958090673559
 20
325.51295900000008
 30
0.0
 42
0.028837186
  0
VERTEX
  5
2B16
  8
AM_0
  6
CONTINUOUS
 10
316.2837309067358
 20
328.608677
 30
0.0
 42
0.028139479
  0
VERTEX
  5
2B17
  8
AM_0
  6
CONTINUOUS
 10
315.00135090673569
 20
331.57921700000009
 30
0.0
 42
0.027280614
  0
VERTEX
  5
2B18
  8
AM_0
  6
CONTINUOUS
 10
313.39887090673562
 20
334.38862699999999
 30
0.0
 42
0.026363464
  0
VERTEX
  5
2B19
  8
AM_0
  6
CONTINUOUS
 10
311.50425090673571
 20
337.01104700000002
 30
0.0
 42
0.025439158
  0
VERTEX
  5
2B1A
  8
AM_0
  6
CONTINUOUS
 10
309.3466809067358
 20
339.425657
 30
0.0
 42
0.024503424
  0
VERTEX
  5
2B1B
  8
AM_0
  6
CONTINUOUS
 10
306.96027090673562
 20
341.61217700000009
 30
0.0
 42
0.023638789
  0
VERTEX
  5
2B1C
  8
AM_0
  6
CONTINUOUS
 10
304.3747209067356
 20
343.55929700000002
 30
0.0
 42
0.022857682
  0
VERTEX
  5
2B1D
  8
AM_0
  6
CONTINUOUS
 10
301.61946090673558
 20
345.25810699999982
 30
0.0
 42
0.022175457
  0
VERTEX
  5
2B1E
  8
AM_0
  6
CONTINUOUS
 10
298.7223909067356
 20
346.702427
 30
0.0
 42
0.021601125
  0
VERTEX
  5
2B1F
  8
AM_0
  6
CONTINUOUS
 10
295.7099709067358
 20
347.88811700000008
 30
0.0
 42
0.021139333
  0
VERTEX
  5
2B20
  8
AM_0
  6
CONTINUOUS
 10
292.60713090673568
 20
348.812477
 30
0.0
 42
0.020791974
  0
VERTEX
  5
2B21
  8
AM_0
  6
CONTINUOUS
 10
289.43772090673548
 20
349.47382700000009
 30
0.0
 42
0.020559394
  0
VERTEX
  5
2B22
  8
AM_0
  6
CONTINUOUS
 10
286.2246009067357
 20
349.87123700000001
 30
0.0
 42
0.020441745
  0
VERTEX
  5
2B23
  8
AM_0
  6
CONTINUOUS
 10
282.98994090673568
 20
350.00422700000001
 30
0.0
  0
SEQEND
  5
2B24
  8
AM_0
  0
LINE
  5
2B25
  8
AM_0
 10
282.98097090673582
 20
359.60272700000002
 30
0.0
 11
339.11184090673561
 21
358.13290700000022
 31
0.0
  0
LINE
  5
2B26
  8
AM_0
 10
228.01650481266839
 20
334.63825327653831
 30
0.0
 11
201.90991072426479
 21
308.53165918813443
 31
0.0
  0
LINE
  5
2B27
  8
AM_0
 10
175.9809830660833
 20
305.60272700000002
 30
0.0
 11
194.83884291239909
 21
305.60272700000002
 31
0.0
  0
LINE
  5
2B28
  8
AM_0
 10
163.9809830660833
 20
286.60272700000002
 30
0.0
 11
163.9809830660833
 21
288.60272700000007
 31
0.0
  0
LINE
  5
2B29
  8
AM_0
 10
169.9809830660833
 20
287.10272700000002
 30
0.0
 11
171.98098306608321
 21
287.10272700000002
 31
0.0
  0
ARC
  5
2B2A
  8
AM_0
 10
172.98098306608321
 20
295.6885134376268
 30
0.0
 40
1.0
 50
135.0
 51
180.0
1001
GENIUS_GENODEF_13
1002
{
1000
HIER
1070
     0
1002
}
1002
{
1000
MANEDIT
1070
     0
1002
}
1002
{
1000
NOSEL
1070
     0
1002
}
1002
{
1000
BEHIND
1070
     0
1002
}
1002
{
1000
OTHER
1070
     0
1002
}
1002
{
1000
REACTOR
1002
}
1001
GENIUS_GENOBJ-N-FIL_13
1002
{
1000
OWNER
1000
GEN
1002
}
  0
ARC
  5
2B2B
  8
AM_0
 10
172.98098306608321
 20
298.51694056237312
 30
0.0
 40
1.0
 50
315.0
 51
0.0
1001
GENIUS_GENODEF_13
1002
{
1000
HIER
1070
     0
1002
}
1002
{
1000
MANEDIT
1070
     0
1002
}
1002
{
1000
NOSEL
1070
     0
1002
}
1002
{
1000
BEHIND
1070
     0
1002
}
1002
{
1000
OTHER
1070
     0
1002
}
1002
{
1000
REACTOR
1002
}
1001
GENIUS_GENOBJ-N-FIL_13
1002
{
1000
OWNER
1000
GEN
1002
}
  0
LINE
  5
2B2C
  8
AM_0
 10
172.2738762848968
 20
296.39562021881318
 30
0.0
 11
173.68808984726979
 21
297.80983378118663
 31
0.0
  0
ARC
  5
2B2D
  8
AM_0
 10
175.9809830660833
 20
303.60272700000002
 30
0.0
 40
2.0
 50
90.0
 51
180.0
1001
GENIUS_GENOBJ-N-FIL_13
1002
{
1000
OWNER
1000
GEN
1002
}
1001
GENIUS_GENODEF_13
1002
{
1000
HIER
1070
     0
1002
}
1002
{
1000
MANEDIT
1070
     0
1002
}
1002
{
1000
NOSEL
1070
     0
1002
}
1002
{
1000
BEHIND
1070
     0
1002
}
1002
{
1000
OTHER
1070
     0
1002
}
1002
{
1000
REACTOR
1002
}
  0
ARC
  5
2B2E
  8
AM_0
 10
194.83884291239909
 20
315.60272700000002
 30
0.0
 40
10.0
 50
270.0
 51
315.0
1001
GENIUS_GENODEF_13
1002
{
1000
HIER
1070
     0
1002
}
1002
{
1000
MANEDIT
1070
     0
1002
}
1002
{
1000
NOSEL
1070
     0
1002
}
1002
{
1000
BEHIND
1070
     0
1002
}
1002
{
1000
OTHER
1070
     0
1002
}
1002
{
1000
REACTOR
1002
}
1001
GENIUS_GENOBJ-N-FIL_13
1002
{
1000
OWNER
1000
GEN
1002
}
  0
LINE
  5
2B2F
  8
AM_0
 10
239.48097090673571
 20
315.75064700000001
 30
0.0
 11
265.98096090673562
 21
315.75064700000001
 31
0.0
  0
ARC
  5
2B30
  8
AM_0
 10
273.98097090673582
 20
309.75193100000001
 30
0.0
 40
2.00000007
 50
0.0
 51
90.000003000000007
  0
LINE
  5
2B31
  8
AM_0
 10
266.89635090673562
 20
305.27481799999998
 30
0.0
 11
273.98097090673582
 21
305.27481799999998
 31
0.0
  0
ARC
  5
2B32
  8
AM_0
 10
273.98097090673582
 20
303.27481699999998
 30
0.0
 40
2.00000007
 50
0.0
 51
90.000003000000007
  0
LINE
  5
2B33
  8
AM_0
 10
267.98097090673582
 20
311.75192900000002
 30
0.0
 11
273.98097090673582
 21
311.75192900000002
 31
0.0
  0
ARC
  5
2B34
  8
AM_0
 10
267.98097090673582
 20
313.75193000000007
 30
0.0
 40
2.00000007
 50
179.99998999999991
 51
270.0
  0
LINE
  5
2B35
  8
AM_0
 10
239.48097090673571
 20
330.1027370000001
 30
0.0
 11
265.98096090673562
 21
330.1027370000001
 31
0.0
  0
LINE
  5
2B36
  8
AM_0
 10
239.48097090673571
 20
342.10273699999999
 30
0.0
 11
261.56805090673561
 21
342.8740370000001
 31
0.0
  0
ARC
  5
2B37
  8
AM_0
 10
230.48097090673571
 20
341.60272700000002
 30
0.0
 40
1.0
 50
90.0
 51
180.0
1001
GENIUS_GENODEF_13
1002
{
1000
HIER
1070
     0
1002
}
1002
{
1000
MANEDIT
1070
     0
1002
}
1002
{
1000
NOSEL
1070
     0
1002
}
1002
{
1000
BEHIND
1070
     0
1002
}
1002
{
1000
OTHER
1070
     0
1002
}
1002
{
1000
REACTOR
1002
}
1001
GENIUS_GENOBJ-N-FIL_13
1002
{
1000
OWNER
1000
GEN
1002
}
  0
ARC
  5
2B38
  8
AM_0
 10
224.48097090673571
 20
338.17378718247107
 30
0.0
 40
5.0
 50
315.0
 51
0.0
1001
GENIUS_GENODEF_13
1002
{
1000
HIER
1070
     0
1002
}
1002
{
1000
MANEDIT
1070
     0
1002
}
1002
{
1000
NOSEL
1070
     0
1002
}
1002
{
1000
BEHIND
1070
     0
1002
}
1002
{
1000
OTHER
1070
     0
1002
}
1002
{
1000
REACTOR
1002
}
1001
GENIUS_GENOBJ-N-FIL_13
1002
{
1000
OWNER
1000
GEN
1002
}
  0
LINE
  5
2B39
  8
AM_0
 10
239.48097090673571
 20
342.60272700000002
 30
0.0
 11
230.48097090673571
 21
342.60272700000002
 31
0.0
  0
LINE
  5
2B3A
  8
AM_0
 10
275.98092090673561
 20
357.42691699999978
 30
0.0
 11
275.98092090673561
 21
334.93681700000002
 31
0.0
  0
ARC
  5
2B3B
  8
AM_0
 10
267.98097090673582
 20
330.93679700000001
 30
0.0
 40
2.00000007
 50
90.000003000000007
 51
180.00001
  0
LINE
  5
2B3C
  8
AM_0
 10
267.98097090673582
 20
332.9368070000001
 30
0.0
 11
273.98097090673582
 21
332.9368070000001
 31
0.0
  0
ARC
  5
2B3D
  8
AM_0
 10
273.98097090673582
 20
334.93681700000002
 30
0.0
 40
2.00000007
 50
270.0
 51
0.0
  0
ARC
  5
2B3E
  8
AM_0
 10
277.98093090673592
 20
357.42691699999978
 30
0.0
 40
2.00000007
 50
91.999997999999948
 51
163.27365
  0
ARC
  5
2B3F
  8
AM_0
 10
270.98097090673582
 20
349.42504700000001
 30
0.0
 40
5.0000001000000003
 50
91.999997999999948
 51
180.00001
  0
ARC
  5
2B40
  8
AM_0
 10
262.98096090673562
 20
346.12003700000002
 30
0.0
 40
3.0
 50
280.0
 51
0.0
  0
ARC
  5
2B41
  8
AM_0
 10
261.39357090673582
 20
347.87098700000001
 30
0.0
 40
5.0000001000000003
 50
272.0
 51
280.0
  0
LINE
  5
2B42
  8
AM_0
 10
262.26183090673561
 20
342.94690700000001
 30
0.0
 11
263.50188090673561
 21
343.16557699999993
 31
0.0
  0
LINE
  5
2B43
  8
AM_0
 10
270.80646090673571
 20
354.42202700000001
 30
0.0
 11
271.45161090673582
 21
354.44455700000009
 31
0.0
  0
ARC
  5
2B44
  8
AM_0
 10
271.27716090673567
 20
359.441507
 30
0.0
 40
5.0000001000000003
 50
272.0
 51
343.27366000000001
  0
LINE
  5
2B45
  8
AM_0
 10
282.98100090673557
 20
359.60272700000002
 30
0.0
 11
277.9111509067356
 21
359.4256969999999
 31
0.0
  0
LINE
  5
2B46
  8
AM_0
 10
358.98093090673592
 20
316.80271099999999
 30
0.0
 11
361.98093090673592
 21
316.80271099999999
 31
0.0
  0
LINE
  5
2B47
  8
AM_0
 10
358.98093090673592
 20
286.80271099999987
 30
0.0
 11
361.98093090673592
 21
286.80271099999987
 31
0.0
  0
LINE
  5
2B48
  8
AM_0
 10
317.98092090673561
 20
319.10273000000001
 30
0.0
 11
317.98092090673561
 21
301.80271099999987
 31
0.0
  0
ARC
  5
2B49
  8
AM_0
 10
335.98092090673561
 20
323.03601800000013
 30
0.0
 40
10.000000200000001
 50
90.000003000000007
 51
180.00001
  0
ARC
  5
2B4A
  8
AM_0
 10
348.98097090673582
 20
346.434257
 30
0.0
 40
5.0000001000000003
 50
179.99998999999991
 51
265.0
  0
LINE
  5
2B4B
  8
AM_0
 10
335.98092090673561
 20
333.03598699999992
 30
0.0
 11
343.98093090673592
 21
333.03598699999992
 31
0.0
  0
ARC
  5
2B4C
  8
AM_0
 10
356.98092090673561
 20
331.85542700000002
 30
0.0
 40
1.0000000199999981
 50
179.99998999999991
 51
268.50000999999992
  0
LINE
  5
2B4D
  8
AM_0
 10
356.95476090673583
 20
330.85573699999992
 30
0.0
 11
358.00710090673562
 21
330.82819699999988
 31
0.0
  0
ARC
  5
2B4E
  8
AM_0
 10
357.98097090673582
 20
329.82856700000002
 30
0.0
 40
1.0000000199999981
 50
0.0
 51
88.499996999999965
  0
LINE
  5
2B4F
  8
AM_0
 10
348.54516090673548
 20
341.45326699999993
 30
0.0
 11
353.24244090673562
 21
341.04229700000002
 31
0.0
  0
ARC
  5
2B50
  8
AM_0
 10
352.98093090673592
 20
338.05372699999998
 30
0.0
 40
3.0
 50
0.0
 51
84.999996999999979
  0
ARC
  5
2B51
  8
AM_0
 10
338.98092090673561
 20
353.13457700000009
 30
0.0
 40
5.0000001000000003
 50
0.0
 51
88.499996999999965
  0
LINE
  5
2B52
  8
AM_0
 10
371.98092090673561
 20
318.80274200000002
 30
0.0
 11
403.98096090673562
 21
318.80274200000002
 31
0.0
  0
LINE
  5
2B53
  8
AM_0
 10
361.98093090673592
 20
287.80270999999999
 30
0.0
 11
403.98096090673562
 21
287.80270999999999
 31
0.0
  0
LINE
  5
2B54
  8
AM_0
 10
361.98093090673592
 20
315.80274200000002
 30
0.0
 11
403.98096090673562
 21
315.80274200000002
 31
0.0
  0
LINE
  5
2B55
  8
AM_0
 10
361.98093090673592
 20
316.80271099999999
 30
0.0
 11
361.98093090673592
 21
286.80271099999987
 31
0.0
  0
LINE
  5
2B56
  8
AM_0
 10
371.98092090673561
 20
318.80274200000002
 30
0.0
 11
371.98092090673561
 21
315.80274200000002
 31
0.0
  0
LINE
  5
2B57
  8
AM_0
 10
403.98096090673562
 20
318.80274200000002
 30
0.0
 11
403.98096090673562
 21
287.80270999999999
 31
0.0
  0
CIRCLE
  5
2B58
  8
AM_0
 10
556.0635788288489
 20
301.80271099999987
 30
0.0
 40
29.000001000000001
  0
ARC
  5
2B59
  8
AM_0
 10
556.0635788288489
 20
286.80271099999987
 30
0.0
 40
54.000003000000007
 50
0.0
 51
180.00001
  0
LINE
  5
2B5A
  8
AM_0
 10
646.06357282884869
 20
210.80270899999991
 30
0.0
 11
638.27242882884912
 21
318.01239800000002
 31
0.0
  0
LINE
  5
2B5B
  8
AM_0
 10
466.0635758288488
 20
210.80270899999991
 30
0.0
 11
473.85471382884879
 21
318.01239800000002
 31
0.0
  0
LINE
  5
2B5C
  8
ﾁｭｳｼﾝｾﾝ
 10
556.0635788288489
 20
192.26797999999999
 30
0.0
 11
556.0635788288489
 21
365.09323788098078
 31
0.0
  0
LINE
  5
2B5D
  8
AM_0
 10
502.06357582884903
 20
215.80272199999999
 30
0.0
 11
502.06357582884903
 21
286.80271099999987
 31
0.0
  0
LINE
  5
2B5E
  8
AM_0
 10
616.06357882884868
 20
249.60271099999991
 30
0.0
 11
616.06357882884868
 21
331.05268699999988
 31
0.0
  0
LINE
  5
2B5F
  8
AM_0
 10
496.0635758288488
 20
249.60271099999991
 30
0.0
 11
496.0635758288488
 21
331.05268699999988
 31
0.0
  0
LINE
  5
2B60
  8
AM_0
 10
610.0635788288489
 20
215.80272199999999
 30
0.0
 11
610.0635788288489
 21
286.80271099999987
 31
0.0
  0
LINE
  5
2B61
  8
AM_0
 10
466.06354582884887
 20
210.80270899999991
 30
0.0
 11
475.675728828849
 21
288.54233299999999
 31
0.0
  0
LINE
  5
2B62
  8
AM_0
 10
646.06357282884869
 20
210.80270899999991
 30
0.0
 11
636.45141382884867
 21
288.54233299999999
 31
0.0
  0
LINE
  5
2B63
  8
AM_0
 10
519.06357682884891
 20
208.80272299999999
 30
0.0
 11
593.0635808288489
 21
208.80272299999999
 31
0.0
  0
LINE
  5
2B64
  8
AM_0
 10
609.06357982884902
 20
197.802707
 30
0.0
 11
503.06360782884877
 21
197.802707
 31
0.0
  0
ARC
  5
2B65
  8
AM_0
 10
556.0635788288489
 20
249.60271099999991
 30
0.0
 40
60.000002999999992
 50
180.00001
 51
205.84192999999991
  0
LINE
  5
2B66
  8
AM_0
 10
499.06357582884891
 20
210.80270899999991
 30
0.0
 11
468.06358582884872
 21
210.80270899999991
 31
0.0
  0
LINE
  5
2B67
  8
AM_0
 10
501.06357682884868
 20
195.80272400000001
 30
0.0
 11
466.0635758288488
 21
195.80272400000001
 31
0.0
  0
LINE
  5
2B68
  8
ﾁｭｳｼﾝｾﾝ1
 10
481.06357582884903
 20
192.9303998358568
 30
0.0
 11
481.06357582884903
 21
213.3961119039522
 31
0.0
  0
LINE
  5
2B69
  8
AM_0
 10
466.0635758288488
 20
195.80272400000001
 30
0.0
 11
466.0635758288488
 21
210.80270899999991
 31
0.0
  0
ARC
  5
2B6A
  8
AM_0
 10
468.06358582884872
 20
208.80272299999999
 30
0.0
 40
2.00000007
 50
90.000003000000007
 51
180.00001
  0
LINE
  5
2B6B
  8
ｶｸﾚｾﾝ2
 10
475.0635758288488
 20
210.80270899999991
 30
0.0
 11
475.0635758288488
 21
195.80272400000001
 31
0.0
  0
LINE
  5
2B6C
  8
ｶｸﾚｾﾝ2
 10
487.0635758288488
 20
210.80270899999991
 30
0.0
 11
487.0635758288488
 21
195.80272400000001
 31
0.0
  0
ARC
  5
2B6D
  8
AM_0
 10
497.06360782884889
 20
215.80272199999999
 30
0.0
 40
5.0000001000000003
 50
270.0
 51
0.0
  0
LINE
  5
2B6E
  8
AM_0
 10
501.06357682884868
 20
195.80272400000001
 30
0.0
 11
501.06357682884868
 21
208.80272299999999
 31
0.0
  0
ARC
  5
2B6F
  8
AM_0
 10
503.06360782884877
 20
195.80272400000001
 30
0.0
 40
2.00000007
 50
90.000003000000007
 51
180.00001
  0
ARC
  5
2B70
  8
AM_0
 10
499.06357582884891
 20
208.80272299999999
 30
0.0
 40
2.00000007
 50
0.0
 51
90.000003000000007
  0
ARC
  5
2B71
  8
AM_0
 10
509.06360782884889
 20
202.80272299999999
 30
0.0
 40
5.0000001000000003
 50
270.0
 51
0.0
  0
ARC
  5
2B72
  8
AM_0
 10
519.06357682884891
 20
203.80272199999999
 30
0.0
 40
5.0000001000000003
 50
90.000003000000007
 51
180.00001
  0
LINE
  5
2B73
  8
AM_0
 10
514.06357582884891
 20
202.80272299999999
 30
0.0
 11
514.06357582884891
 21
203.80272199999999
 31
0.0
  0
ARC
  5
2B74
  8
AM_0
 10
556.0635788288489
 20
278.602712
 30
0.0
 40
81.000003000000007
 50
265.97275000000002
 51
274.02724999999992
  0
ARC
  5
2B75
  8
AM_0
 10
556.0635788288489
 20
249.60271099999991
 30
0.0
 40
60.000002999999992
 50
334.15807000000001
 51
0.0
  0
LINE
  5
2B76
  8
AM_0
 10
613.0635788288489
 20
210.80270899999991
 30
0.0
 11
644.06358082884867
 21
210.80270899999991
 31
0.0
  0
LINE
  5
2B77
  8
AM_0
 10
611.06356582884871
 20
195.80272400000001
 30
0.0
 11
646.06357282884869
 21
195.80272400000001
 31
0.0
  0
ARC
  5
2B78
  8
AM_0
 10
615.06357982884902
 20
215.80272199999999
 30
0.0
 40
5.0000001000000003
 50
179.99998999999991
 51
270.0
  0
ARC
  5
2B79
  8
AM_0
 10
603.06357982884902
 20
202.80272299999999
 30
0.0
 40
5.0000001000000003
 50
179.99998999999991
 51
270.0
  0
ARC
  5
2B7A
  8
AM_0
 10
593.0635808288489
 20
203.80272199999999
 30
0.0
 40
5.0000001000000003
 50
0.0
 51
90.000003000000007
  0
LINE
  5
2B7B
  8
AM_0
 10
598.0635788288489
 20
202.80272299999999
 30
0.0
 11
598.0635788288489
 21
203.80272199999999
 31
0.0
  0
LINE
  5
2B7C
  8
AM_0
 10
611.06356582884871
 20
195.80272400000001
 30
0.0
 11
611.06356582884871
 21
208.80272299999999
 31
0.0
  0
ARC
  5
2B7D
  8
AM_0
 10
609.06357982884902
 20
195.80272400000001
 30
0.0
 40
2.00000007
 50
0.0
 51
90.000003000000007
  0
ARC
  5
2B7E
  8
AM_0
 10
613.0635788288489
 20
208.80272299999999
 30
0.0
 40
2.00000007
 50
90.000003000000007
 51
180.00001
  0
LINE
  5
2B7F
  8
ﾁｭｳｼﾝｾﾝ1
 10
631.06356682884871
 20
192.9303998358568
 30
0.0
 11
631.06356682884871
 21
213.3961119039522
 31
0.0
  0
LINE
  5
2B80
  8
ｶｸﾚｾﾝ2
 10
637.06358182884901
 20
210.80270899999991
 30
0.0
 11
637.06358182884901
 21
195.80272400000001
 31
0.0
  0
LINE
  5
2B81
  8
ｶｸﾚｾﾝ2
 10
625.06358182884901
 20
210.80270899999991
 30
0.0
 11
625.06358182884901
 21
195.80272400000001
 31
0.0
  0
LINE
  5
2B82
  8
AM_0
 10
646.06357282884869
 20
195.80272400000001
 30
0.0
 11
646.06357282884869
 21
210.80270899999991
 31
0.0
  0
ARC
  5
2B83
  8
AM_0
 10
644.06358082884867
 20
208.80272299999999
 30
0.0
 40
2.00000007
 50
0.0
 51
90.000003000000007
  0
ARC
  5
2B84
  8
AM_0
 10
556.0635788288489
 20
278.60272700000002
 30
0.0
 40
81.000003000000007
 50
7.0485985999999992
 51
172.95139999999981
  0
LINE
  5
2B85
  8
ﾁｭｳｼﾝｾﾝ
 10
469.706865828849
 20
278.60272700000002
 30
0.0
 11
643.5736208288489
 21
278.60272700000002
 31
0.0
  0
LINE
  5
2B86
  8
ﾁｭｳｼﾝｾﾝ
 10
508.85684839660462
 20
301.80271099999987
 30
0.0
 11
602.0615585321857
 21
301.80271099999987
 31
0.0
  0
ARC
  5
2B87
  8
AM_0
 10
489.81263182884879
 20
316.85273000000001
 30
0.0
 40
16.000000499999999
 50
118.1761399999998
 51
175.8435099999999
  0
LINE
  5
2B88
  8
AM_0
 10
482.2576988288489
 20
330.95674700000001
 30
0.0
 11
517.81668982884878
 21
350.004257
 31
0.0
  0
ARC
  5
2B89
  8
AM_0
 10
501.06357682884868
 20
331.05268699999988
 30
0.0
 40
5.0000001000000003
 50
136.35948999999999
 51
180.00001
  0
LINE
  5
2B8A
  8
AM_0
 10
552.06357682884891
 20
311.8027100000001
 30
0.0
 11
560.06356282884894
 21
311.8027100000001
 31
0.0
  0
LINE
  5
2B8B
  8
AM_0
 10
552.06357682884891
 20
318.80274200000002
 30
0.0
 11
560.06356282884894
 21
318.80274200000002
 31
0.0
  0
CIRCLE
  5
2B8C
  8
AM_0
 10
556.0635788288489
 20
301.80271099999987
 30
0.0
 40
3.0
  0
CIRCLE
  5
2B8D
  8
AM_5
 10
556.0635788288489
 20
301.80271099999987
 30
0.0
 40
4.000000199999997
  0
ARC
  5
2B8E
  8
AM_0
 10
556.0635788288489
 20
301.80271099999987
 30
0.0
 40
14.000001299999999
 50
106.6015399999999
 51
73.398452000000006
  0
LINE
  5
2B8F
  8
AM_0
 10
552.06357682884891
 20
311.8027100000001
 30
0.0
 11
552.06357682884891
 21
318.80274200000002
 31
0.0
  0
LINE
  5
2B90
  8
AM_0
 10
560.06356282884894
 20
311.8027100000001
 30
0.0
 11
560.06356282884894
 21
318.80274200000002
 31
0.0
  0
ARC
  5
2B91
  8
AM_0
 10
622.31452582884867
 20
316.85273000000001
 30
0.0
 40
16.000000499999999
 50
4.1564915999999981
 51
61.823859999999989
  0
LINE
  5
2B92
  8
AM_0
 10
629.8694738288491
 20
330.95671700000008
 30
0.0
 11
594.31045282884907
 21
350.00422700000001
 31
0.0
  0
ARC
  5
2B93
  8
AM_0
 10
611.06356582884871
 20
331.05268699999988
 30
0.0
 40
5.0000001000000003
 50
0.0
 51
43.64050000000001
  0
LINE
  5
2B94
  8
AM_0
 10
239.48097090673571
 20
316.59903700000001
 30
0.0
 11
229.48097090673591
 21
316.59903700000001
 31
0.0
  0
LINE
  5
2B95
  8
AM_0
 10
239.48097090673571
 20
330.10272700000002
 30
0.0
 11
229.48097090673591
 21
330.10272700000002
 31
0.0
  0
LINE
  5
2B96
  8
AM_0
 10
239.48097090673571
 20
227.1027269999999
 30
0.0
 11
229.48097090673591
 21
227.1027269999999
 31
0.0
  0
LINE
  5
2B97
  8
AM_0
 10
239.48097090673571
 20
240.60642200000001
 30
0.0
 11
229.48097090673591
 21
240.60642200000001
 31
0.0
  0
LINE
  5
2B98
  8
AM_0
 10
198.9809985361299
 20
550.29444351343045
 30
0.0
 11
198.9809985361299
 21
496.29444351343028
 31
0.0
  0
LINE
  5
2B99
  8
AM_0
 10
229.48099090673551
 20
586.29444351343045
 30
0.0
 11
229.48099090673551
 21
460.29444351343051
 31
0.0
  0
LINE
  5
2B9A
  8
AM_0
 10
173.98100306608291
 20
498.29444351343062
 30
0.0
 11
173.98100306608291
 21
548.29444351343056
 31
0.0
  0
LINE
  5
2B9B
  8
AM_0
 10
171.9810030660831
 20
540.38022995105723
 30
0.0
 11
171.9810030660831
 21
506.20865707580373
 31
0.0
  0
LINE
  5
2B9C
  8
AM_0
 10
175.98100306608299
 20
496.29444351343028
 30
0.0
 11
194.83886291239881
 21
496.29444351343028
 31
0.0
  0
ARC
  5
2B9D
  8
AM_0
 10
175.98100306608299
 20
498.29444351343062
 30
0.0
 40
2.0
 50
180.0
 51
270.0
1001
GENIUS_GENOBJ-N-FIL_13
1002
{
1000
OWNER
1000
GEN
1002
}
1001
GENIUS_GENODEF_13
1002
{
1000
HIER
1070
     0
1002
}
1002
{
1000
MANEDIT
1070
     0
1002
}
1002
{
1000
NOSEL
1070
     0
1002
}
1002
{
1000
BEHIND
1070
     0
1002
}
1002
{
1000
OTHER
1070
     0
1002
}
1002
{
1000
REACTOR
1002
}
  0
ARC
  5
2B9E
  8
AM_0
 10
172.9810030660831
 20
506.20865707580373
 30
0.0
 40
1.0
 50
180.0
 51
225.0
1001
GENIUS_GENODEF_13
1002
{
1000
HIER
1070
     0
1002
}
1002
{
1000
MANEDIT
1070
     0
1002
}
1002
{
1000
NOSEL
1070
     0
1002
}
1002
{
1000
BEHIND
1070
     0
1002
}
1002
{
1000
OTHER
1070
     0
1002
}
1002
{
1000
REACTOR
1002
}
1001
GENIUS_GENOBJ-N-FIL_13
1002
{
1000
OWNER
1000
GEN
1002
}
  0
ARC
  5
2B9F
  8
AM_0
 10
172.9810030660831
 20
503.38022995105752
 30
0.0
 40
1.0
 50
0.0
 51
45.0
1001
GENIUS_GENODEF_13
1002
{
1000
HIER
1070
     0
1002
}
1002
{
1000
MANEDIT
1070
     0
1002
}
1002
{
1000
NOSEL
1070
     0
1002
}
1002
{
1000
BEHIND
1070
     0
1002
}
1002
{
1000
OTHER
1070
     0
1002
}
1002
{
1000
REACTOR
1002
}
1001
GENIUS_GENOBJ-N-FIL_13
1002
{
1000
OWNER
1000
GEN
1002
}
  0
LINE
  5
2BA0
  8
AM_0
 10
172.2738962848963
 20
505.50155029461712
 30
0.0
 11
173.6881098472696
 21
504.08733673224401
 31
0.0
  0
LINE
  5
2BA1
  8
AM_0
 10
228.01652481266819
 20
467.25891723689222
 30
0.0
 11
201.9099307242644
 21
493.36551132529598
 31
0.0
  0
ARC
  5
2BA2
  8
AM_0
 10
230.4809909067356
 20
460.29444351343051
 30
0.0
 40
1.0
 50
180.0
 51
270.0
1001
GENIUS_GENODEF_13
1002
{
1000
HIER
1070
     0
1002
}
1002
{
1000
MANEDIT
1070
     0
1002
}
1002
{
1000
NOSEL
1070
     0
1002
}
1002
{
1000
BEHIND
1070
     0
1002
}
1002
{
1000
OTHER
1070
     0
1002
}
1002
{
1000
REACTOR
1002
}
1001
GENIUS_GENOBJ-N-FIL_13
1002
{
1000
OWNER
1000
GEN
1002
}
  0
ARC
  5
2BA3
  8
AM_0
 10
224.4809909067356
 20
463.72338333095928
 30
0.0
 40
5.0
 50
0.0
 51
45.0
1001
GENIUS_GENODEF_13
1002
{
1000
HIER
1070
     0
1002
}
1002
{
1000
MANEDIT
1070
     0
1002
}
1002
{
1000
NOSEL
1070
     0
1002
}
1002
{
1000
BEHIND
1070
     0
1002
}
1002
{
1000
OTHER
1070
     0
1002
}
1002
{
1000
REACTOR
1002
}
1001
GENIUS_GENOBJ-N-FIL_13
1002
{
1000
OWNER
1000
GEN
1002
}
  0
LINE
  5
2BA4
  8
AM_0
 10
239.4809909067356
 20
459.29444351343051
 30
0.0
 11
230.4809909067356
 21
459.29444351343051
 31
0.0
  0
ARC
  5
2BA5
  8
AM_0
 10
194.83886291239881
 20
486.29444351343062
 30
0.0
 40
10.0
 50
45.0
 51
90.0
1001
GENIUS_GENODEF_13
1002
{
1000
HIER
1070
     0
1002
}
1002
{
1000
MANEDIT
1070
     0
1002
}
1002
{
1000
NOSEL
1070
     0
1002
}
1002
{
1000
BEHIND
1070
     0
1002
}
1002
{
1000
OTHER
1070
     0
1002
}
1002
{
1000
REACTOR
1002
}
1001
GENIUS_GENOBJ-N-FIL_13
1002
{
1000
OWNER
1000
GEN
1002
}
  0
LINE
  5
2BA6
  8
AM_0
 10
239.4809909067356
 20
471.79444351343051
 30
0.0
 11
229.4809909067358
 21
471.79444351343051
 31
0.0
  0
LINE
  5
2BA7
  8
AM_0
 10
239.4809909067356
 20
485.2981385134305
 30
0.0
 11
229.4809909067358
 21
485.2981385134305
 31
0.0
  0
LINE
  5
2BA8
  8
AM_0
 10
175.98100306608299
 20
550.29444351343045
 30
0.0
 11
194.83886291239881
 21
550.29444351343045
 31
0.0
  0
LINE
  5
2BA9
  8
AM_0
 10
141.98100306608299
 20
525.79444351343045
 30
0.0
 11
163.98100306608299
 21
525.79444351343045
 31
0.0
  0
LINE
  5
2BAA
  8
AM_0
 10
141.98100306608299
 20
520.79444351343045
 30
0.0
 11
163.98100306608299
 21
520.79444351343045
 31
0.0
  0
LINE
  5
2BAB
  8
AM_0
 10
141.98100306608299
 20
515.29444351343056
 30
0.0
 11
169.98100306608299
 21
515.29444351343056
 31
0.0
  0
LINE
  5
2BAC
  8
AM_0
 10
141.98100306608299
 20
531.29444351343045
 30
0.0
 11
169.98100306608299
 21
531.29444351343045
 31
0.0
  0
LINE
  5
2BAD
  8
AM_0
 10
141.98100306608299
 20
531.29444351343045
 30
0.0
 11
141.98100306608299
 21
515.29444351343056
 31
0.0
  0
ARC
  5
2BAE
  8
AM_0
 10
163.98100306608299
 20
523.29444351343056
 30
0.0
 40
2.5
 50
270.0
 51
90.0
  0
LINE
  5
2BAF
  8
AM_0
 10
163.98100306608299
 20
525.79444351343045
 30
0.0
 11
163.98100306608299
 21
520.79444351343045
 31
0.0
  0
LINE
  5
2BB0
  8
AM_0
 10
169.98100306608299
 20
531.79444351343056
 30
0.0
 11
169.98100306608299
 21
514.79444351343045
 31
0.0
  0
LINE
  5
2BB1
  8
AM_0
 10
169.98100306608291
 20
514.79444884648058
 30
0.0
 11
171.9810030660831
 21
514.79444777987055
 31
0.0
  0
LINE
  5
2BB2
  8
AM_0
 10
169.98100306608299
 20
531.79444351343056
 30
0.0
 11
171.9810030660831
 21
531.79444351343056
 31
0.0
  0
LINE
  5
2BB3
  8
AM_0
 10
172.2738962848963
 20
541.08733673224401
 30
0.0
 11
173.6881098472696
 21
542.50155029461712
 31
0.0
  0
ARC
  5
2BB4
  8
AM_0
 10
172.9810030660831
 20
543.20865707580367
 30
0.0
 40
1.0
 50
315.0
 51
0.0
1001
GENIUS_GENODEF_13
1002
{
1000
HIER
1070
     0
1002
}
1002
{
1000
MANEDIT
1070
     0
1002
}
1002
{
1000
NOSEL
1070
     0
1002
}
1002
{
1000
BEHIND
1070
     0
1002
}
1002
{
1000
OTHER
1070
     0
1002
}
1002
{
1000
REACTOR
1002
}
1001
GENIUS_GENOBJ-N-FIL_13
1002
{
1000
OWNER
1000
GEN
1002
}
  0
ARC
  5
2BB5
  8
AM_0
 10
172.9810030660831
 20
540.38022995105723
 30
0.0
 40
1.0
 50
135.0
 51
180.0
1001
GENIUS_GENODEF_13
1002
{
1000
HIER
1070
     0
1002
}
1002
{
1000
MANEDIT
1070
     0
1002
}
1002
{
1000
NOSEL
1070
     0
1002
}
1002
{
1000
BEHIND
1070
     0
1002
}
1002
{
1000
OTHER
1070
     0
1002
}
1002
{
1000
REACTOR
1002
}
1001
GENIUS_GENOBJ-N-FIL_13
1002
{
1000
OWNER
1000
GEN
1002
}
  0
ARC
  5
2BB6
  8
AM_0
 10
175.98100306608299
 20
548.29444351343056
 30
0.0
 40
2.0
 50
90.0
 51
180.0
1001
GENIUS_GENOBJ-N-FIL_13
1002
{
1000
OWNER
1000
GEN
1002
}
1001
GENIUS_GENODEF_13
1002
{
1000
HIER
1070
     0
1002
}
1002
{
1000
MANEDIT
1070
     0
1002
}
1002
{
1000
NOSEL
1070
     0
1002
}
1002
{
1000
BEHIND
1070
     0
1002
}
1002
{
1000
OTHER
1070
     0
1002
}
1002
{
1000
REACTOR
1002
}
  0
LINE
  5
2BB7
  8
AM_0
 10
228.01652481266819
 20
579.32996978996891
 30
0.0
 11
201.9099307242644
 21
553.22337570156515
 31
0.0
  0
ARC
  5
2BB8
  8
AM_0
 10
194.83886291239881
 20
560.29444351343045
 30
0.0
 40
10.0
 50
270.0
 51
315.0
1001
GENIUS_GENODEF_13
1002
{
1000
HIER
1070
     0
1002
}
1002
{
1000
MANEDIT
1070
     0
1002
}
1002
{
1000
NOSEL
1070
     0
1002
}
1002
{
1000
BEHIND
1070
     0
1002
}
1002
{
1000
OTHER
1070
     0
1002
}
1002
{
1000
REACTOR
1002
}
1001
GENIUS_GENOBJ-N-FIL_13
1002
{
1000
OWNER
1000
GEN
1002
}
  0
LINE
  5
2BB9
  8
AM_0
 10
239.4809909067356
 20
561.29075351343045
 30
0.0
 11
229.4809909067358
 21
561.29075351343045
 31
0.0
  0
LINE
  5
2BBA
  8
AM_0
 10
239.4809909067356
 20
574.79444351343045
 30
0.0
 11
229.4809909067358
 21
574.79444351343045
 31
0.0
  0
ARC
  5
2BBB
  8
AM_0
 10
230.4809909067356
 20
586.29444351343045
 30
0.0
 40
1.0
 50
90.0
 51
180.0
1001
GENIUS_GENODEF_13
1002
{
1000
HIER
1070
     0
1002
}
1002
{
1000
MANEDIT
1070
     0
1002
}
1002
{
1000
NOSEL
1070
     0
1002
}
1002
{
1000
BEHIND
1070
     0
1002
}
1002
{
1000
OTHER
1070
     0
1002
}
1002
{
1000
REACTOR
1002
}
1001
GENIUS_GENOBJ-N-FIL_13
1002
{
1000
OWNER
1000
GEN
1002
}
  0
ARC
  5
2BBC
  8
AM_0
 10
224.4809909067356
 20
582.86550369590145
 30
0.0
 40
5.0
 50
315.0
 51
0.0
1001
GENIUS_GENODEF_13
1002
{
1000
HIER
1070
     0
1002
}
1002
{
1000
MANEDIT
1070
     0
1002
}
1002
{
1000
NOSEL
1070
     0
1002
}
1002
{
1000
BEHIND
1070
     0
1002
}
1002
{
1000
OTHER
1070
     0
1002
}
1002
{
1000
REACTOR
1002
}
1001
GENIUS_GENOBJ-N-FIL_13
1002
{
1000
OWNER
1000
GEN
1002
}
  0
LINE
  5
2BBD
  8
AM_0
 10
239.4809909067356
 20
587.29444351343045
 30
0.0
 11
230.4809909067356
 21
587.29444351343045
 31
0.0
  0
LINE
  5
2BBF
  8
AM_0
 10
371.98096090673562
 20
527.29441351343053
 30
0.0
 11
403.98096090673562
 21
527.29441351343053
 31
0.0
  0
LINE
  5
2BC0
  8
AM_0
 10
371.98096090673562
 20
519.29444351343056
 30
0.0
 11
403.98096090673562
 21
519.29444351343056
 31
0.0
  0
LINE
  5
2BC1
  8
AM_0
 10
361.9809909067356
 20
509.2944735134306
 30
0.0
 11
403.98096090673562
 21
509.2944735134306
 31
0.0
  0
LINE
  5
2BC2
  8
AM_0
 10
361.9809909067356
 20
537.29447351343038
 30
0.0
 11
403.98096090673562
 21
537.29447351343038
 31
0.0
  0
LINE
  5
2BC3
  8
ﾁｭｳｼﾝｾﾝ
 10
137.18274517995951
 20
523.29444351343056
 30
0.0
 11
408.68799090673559
 21
523.29444351343056
 31
0.0
  0
ARC
  5
2BC4
  8
AM_0
 10
371.98096090673562
 20
523.29441351343053
 30
0.0
 40
3.9999962
 50
90.000003000000945
 51
270.0
  0
LINE
  5
2BC5
  8
AM_0
 10
239.4809909067356
 20
459.29444351343051
 30
0.0
 11
239.4809909067356
 21
587.29444351343045
 31
0.0
  0
LINE
  5
2BC6
  8
AM_0
 10
275.98096090673562
 20
452.20426351343048
 30
0.0
 11
275.98096090673562
 21
594.3846235134306
 31
0.0
  0
LINE
  5
2BC7
  8
AM_0
 10
265.9809909067356
 20
446.46558351343072
 30
0.0
 11
265.9809909067356
 21
600.12330351343053
 31
0.0
  0
LINE
  5
2BC8
  8
AM_0
 10
343.98099090673549
 20
468.12290351343057
 30
0.0
 11
343.98099090673549
 21
578.4659835134305
 31
0.0
  0
LINE
  5
2BC9
  8
AM_0
 10
358.98099090673549
 20
551.32029351343056
 30
0.0
 11
358.98099090673549
 21
495.26859351343029
 31
0.0
  0
LINE
  5
2BCA
  8
AM_0
 10
355.9809909067356
 20
469.16742351343038
 30
0.0
 11
355.9809909067356
 21
577.42145351343027
 31
0.0
  0
LINE
  5
2BCB
  8
AM_0
 10
282.98099090673543
 20
441.04349351343029
 30
0.0
 11
282.98099090673543
 21
605.54539351343044
 31
0.0
  0
LINE
  5
2BCC
  8
AM_0
 10
371.98096090673562
 20
527.29441351343053
 30
0.0
 11
371.98096090673562
 21
519.29444351343056
 31
0.0
  0
LINE
  5
2BCD
  8
AM_0
 10
361.9809909067356
 20
538.29444351343045
 30
0.0
 11
361.9809909067356
 21
508.29444351343039
 31
0.0
  0
POLYLINE
  5
2BCE
  8
AM_0
 66
     1
 10
0.0
 20
0.0
 30
0.0
  0
VERTEX
  5
2BCF
  8
AM_0
 10
284.24453090673558
 20
443.36546351343043
 30
0.0
 42
0.021277534
  0
VERTEX
  5
2BD0
  8
AM_0
 10
295.07467090673549
 20
445.4219835134304
 30
0.0
 42
0.020622971
  0
VERTEX
  5
2BD1
  8
AM_0
 10
305.19943090673542
 20
448.2390235134306
 30
0.0
 42
0.022709
  0
VERTEX
  5
2BD2
  8
AM_0
 10
316.00635090673552
 20
452.2845835134305
 30
0.0
  0
SEQEND
  5
2BD3
  8
AM_0
  0
POLYLINE
  5
2BD4
  8
AM_0
 66
     1
 10
0.0
 20
0.0
 30
0.0
  0
VERTEX
  5
2BD5
  8
AM_0
 10
282.98099090673543
 20
485.0193535134303
 30
0.0
 42
-0.059991193
  0
VERTEX
  5
2BD6
  8
AM_0
 10
308.56980090673562
 20
469.08714351343048
 30
0.0
 42
-0.30883796
  0
VERTEX
  5
2BD7
  8
AM_0
 10
317.98096090673562
 20
453.14640351343041
 30
0.0
 42
-0.25905842
  0
VERTEX
  5
2BD8
  8
AM_0
 10
283.53129090673559
 20
433.3583435134305
 30
0.0
  0
SEQEND
  5
2BD9
  8
AM_0
  0
LINE
  5
2BDA
  8
AM_0
 10
285.98099090673543
 20
433.29444351343039
 30
0.0
 11
356.05951090673562
 21
435.12952351343063
 31
0.0
  0
ARC
  5
2BDB
  8
ｶｸﾚｾﾝ2
 10
263.9809909067356
 20
448.29444351343062
 30
0.0
 40
6.0
 50
302.21188000000092
 51
70.528778999998195
  0
ARC
  5
2BDC
  8
AM_0
 10
270.98099090673549
 20
446.46558351343072
 30
0.0
 40
5.0
 50
180.00001000000091
 51
267.99999999999932
  0
ARC
  5
2BDD
  8
AM_0
 10
263.9809909067356
 20
448.29444351343062
 30
0.0
 40
6.0
 50
70.528778999998195
 51
302.21188000000092
  0
LINE
  5
2BDE
  8
AM_0
 10
248.9809909067356
 20
437.18577351343032
 30
0.0
 11
248.9809909067356
 21
456.07834351343058
 31
0.0
  0
LINE
  5
2BDF
  8
AM_0
 10
282.98099090673543
 20
443.18708351343031
 30
0.0
 11
267.38431090673561
 21
442.99228351343049
 31
0.0
  0
LINE
  5
2BE0
  8
AM_0
 10
251.9024709067354
 20
434.1868035134305
 30
0.0
 11
285.98099090673543
 21
433.29444351343039
 31
0.0
  0
ARC
  5
2BE1
  8
AM_0
 10
251.9809909067356
 20
437.18577351343032
 30
0.0
 40
3.0
 50
180.00001000000091
 51
268.50000000000063
  0
ARC
  5
2BE2
  8
AM_0
 10
280.9809909067356
 20
434.4271035134305
 30
0.0
 40
1.0
 50
270.0
 51
0.0
  0
ARC
  5
2BE3
  8
AM_0
 10
280.9809909067356
 20
438.4271035134305
 30
0.0
 40
5.0
 50
268.50000000000063
 51
0.0000006832495047
  0
LINE
  5
2BE4
  8
AM_0
 10
282.98099090673543
 20
441.04349351343029
 30
0.0
 11
270.80649090673552
 21
441.46863351343029
 31
0.0
  0
ARC
  5
2BE5
  8
AM_0
 10
282.98099090673543
 20
437.77024351343027
 30
0.0
 40
1.0
 50
109.47121999999951
 51
180.00001000000091
  0
ARC
  5
2BE6
  8
AM_0
 10
280.9809909067356
 20
443.4271035134305
 30
0.0
 40
5.0
 50
289.47123000000062
 51
331.5287600000031
  0
LINE
  5
2BE7
  8
AM_0
 10
281.98099090673543
 20
434.4271035134305
 30
0.0
 11
281.98099090673543
 21
437.77024351343027
 31
0.0
  0
LINE
  5
2BE8
  8
AM_0
 10
285.98099090673543
 20
438.4271035134305
 30
0.0
 11
285.98099090673543
 21
441.04349351343029
 31
0.0
  0
LINE
  5
2BE9
  8
AM_0
 10
282.98099090673543
 20
441.04349351343029
 30
0.0
 11
285.98099090673543
 21
441.04349351343029
 31
0.0
  0
LINE
  5
2BEA
  8
AM_0
 10
239.4809909067356
 20
471.25443351343029
 30
0.0
 11
265.98096090673562
 21
471.25443351343029
 31
0.0
  0
LINE
  5
2BEB
  8
AM_0
 10
239.4809909067356
 20
486.14652351343028
 30
0.0
 11
265.98096090673562
 21
486.14652351343028
 31
0.0
  0
LINE
  5
2BEC
  8
AM_0
 10
239.48102090673541
 20
459.79441351343041
 30
0.0
 11
263.08567090673552
 21
458.97013351343048
 31
0.0
  0
LINE
  5
2BED
  8
AM_0
 10
265.9809909067356
 20
463.98594351343041
 30
0.0
 11
275.98096090673562
 21
463.98594351343041
 31
0.0
  0
ARC
  5
2BEE
  8
AM_0
 10
251.9809909067356
 20
456.07834351343058
 30
0.0
 40
3.0
 50
105.0000000000007
 51
180.00001000000091
  0
LINE
  5
2BEF
  8
AM_0
 10
251.20453090673561
 20
458.97611351343028
 30
0.0
 11
252.55466090673551
 21
459.33790351343038
 31
0.0
  0
ARC
  5
2BF0
  8
AM_0
 10
262.98099090673549
 20
455.97196351343058
 30
0.0
 40
3.0
 50
0.0
 51
87.999999999999503
  0
LINE
  5
2BF1
  8
AM_0
 10
275.98096090673562
 20
452.20426351343048
 30
0.0
 11
282.98099090673543
 21
452.20426351343048
 31
0.0
  0
LINE
  5
2BF2
  8
AM_0
 10
282.98099090673543
 20
485.0193535134303
 30
0.0
 11
275.98096090673562
 21
485.0193535134303
 31
0.0
  0
CIRCLE
  5
2BF3
  8
AM_0
 10
343.98099090673549
 20
448.29444351343062
 30
0.0
 40
6.0
  0
LINE
  5
2BF4
  8
AM_0
 10
325.9809909067356
 20
439.47452351343071
 30
0.0
 11
325.9809909067356
 21
454.94034351343049
 31
0.0
  0
LINE
  5
2BF5
  8
AM_0
 10
358.98099090673549
 20
438.1284835134303
 30
0.0
 11
358.98099090673549
 21
465.29444351343062
 31
0.0
  0
ARC
  5
2BF6
  8
AM_0
 10
330.9809909067356
 20
439.47452351343071
 30
0.0
 40
5.0
 50
180.00001000000091
 51
271.4999999999992
  0
ARC
  5
2BF7
  8
AM_0
 10
355.9809909067356
 20
438.1284835134303
 30
0.0
 40
3.0
 50
271.4999999999992
 51
0.0
  0
ARC
  5
2BF8
  8
AM_0
 10
347.88281090673559
 20
463.5668435134304
 30
0.0
 40
5.0
 50
95.00000199999856
 51
152.89619000000181
  0
ARC
  5
2BF9
  8
AM_0
 10
333.98099090673543
 20
454.94034351343049
 30
0.0
 40
8.0
 50
91.999998000000545
 51
180.00001000000091
  0
ARC
  5
2BFA
  8
AM_0
 10
338.9809909067356
 20
468.12290351343057
 30
0.0
 40
5.0
 50
272.0000000000004
 51
0.0
  0
LINE
  5
2BFB
  8
AM_0
 10
339.15549090673562
 20
463.12592351343039
 30
0.0
 11
333.70178090673551
 21
462.93549351343057
 31
0.0
  0
LINE
  5
2BFC
  8
AM_0
 10
353.24243090673548
 20
469.05485351343037
 30
0.0
 11
347.44702090673559
 21
468.54783351343048
 31
0.0
  0
ARC
  5
2BFD
  8
AM_0
 10
352.9809909067356
 20
472.04343351343061
 30
0.0
 40
3.0
 50
275.0
 51
0.0
  0
ARC
  5
2BFE
  8
AM_0
 10
356.98099090673549
 20
469.16742351343038
 30
0.0
 40
1.0
 50
180.00001000000091
 51
255.5224900000002
  0
ARC
  5
2BFF
  8
AM_0
 10
355.9809909067356
 20
465.29444351343062
 30
0.0
 40
3.0
 50
0.0
 51
75.522487999999072
  0
ARC
  5
2C00
  8
AM_0
 10
357.9809909067356
 20
495.26859351343029
 30
0.0
 40
1.0
 50
271.4999999999992
 51
0.0
  0
ARC
  5
2C01
  8
AM_0
 10
356.98099090673549
 20
493.24174351343032
 30
0.0
 40
1.0
 50
91.500001000001546
 51
180.00001000000091
  0
LINE
  5
2C02
  8
AM_0
 10
356.95481090673547
 20
494.24140351343033
 30
0.0
 11
358.00717090673561
 21
494.26896351343032
 31
0.0
  0
LINE
  5
2C03
  8
AM_0
 10
358.98099090673549
 20
508.29444351343039
 30
0.0
 11
361.9809909067356
 21
508.29444351343039
 31
0.0
  0
POLYLINE
  5
2C04
  8
AM_0
 66
     1
 10
0.0
 20
0.0
 30
0.0
  0
VERTEX
  5
2C05
  8
AM_0
 10
284.24453090673558
 20
603.22342351343025
 30
0.0
 42
-0.021277534
  0
VERTEX
  5
2C06
  8
AM_0
 10
295.07467090673549
 20
601.16690351343027
 30
0.0
 42
-0.020622971
  0
VERTEX
  5
2C07
  8
AM_0
 10
305.19943090673542
 20
598.34986351343048
 30
0.0
 42
-0.022709
  0
VERTEX
  5
2C08
  8
AM_0
 10
316.00635090673552
 20
594.30430351343045
 30
0.0
  0
SEQEND
  5
2C09
  8
AM_0
  0
POLYLINE
  5
2C0A
  8
AM_0
 66
     1
 10
0.0
 20
0.0
 30
0.0
  0
VERTEX
  5
2C0B
  8
AM_0
 10
282.98099090673543
 20
561.56952351343045
 30
0.0
 42
0.059991175
  0
VERTEX
  5
2C0C
  8
AM_0
 10
308.56980090673562
 20
577.50173351343051
 30
0.0
 42
0.30883786
  0
VERTEX
  5
2C0D
  8
AM_0
 10
317.98096090673562
 20
593.4424835134306
 30
0.0
 42
0.25905849
  0
VERTEX
  5
2C0E
  8
AM_0
 10
283.5313109067356
 20
613.23053351343026
 30
0.0
  0
SEQEND
  5
2C0F
  8
AM_0
  0
LINE
  5
2C10
  8
AM_0
 10
285.98099090673543
 20
613.29444351343045
 30
0.0
 11
356.05951090673562
 21
611.4593635134305
 31
0.0
  0
ARC
  5
2C11
  8
ｶｸﾚｾﾝ2
 10
263.9809909067356
 20
598.29444351343045
 30
0.0
 40
6.0
 50
289.47123000000062
 51
57.78807200000049
  0
ARC
  5
2C12
  8
AM_0
 10
270.98099090673549
 20
600.12330351343053
 30
0.0
 40
5.0
 50
91.999998000000545
 51
180.00001000000091
  0
ARC
  5
2C13
  8
AM_0
 10
263.9809909067356
 20
598.29444351343045
 30
0.0
 40
6.0
 50
57.78807200000049
 51
289.47123000000062
  0
LINE
  5
2C14
  8
AM_0
 10
248.9809909067356
 20
609.40308351343026
 30
0.0
 11
248.9809909067356
 21
590.51053351343046
 31
0.0
  0
LINE
  5
2C15
  8
AM_0
 10
239.4809909067356
 20
586.79444351343045
 30
0.0
 11
263.0857009067355
 21
587.61875351343065
 31
0.0
  0
LINE
  5
2C16
  8
AM_0
 10
239.4809909067356
 20
560.44236351343045
 30
0.0
 11
265.98096090673562
 21
560.44236351343045
 31
0.0
  0
LINE
  5
2C17
  8
AM_0
 10
239.4809909067356
 20
575.3344535134305
 30
0.0
 11
265.98096090673562
 21
575.3344535134305
 31
0.0
  0
LINE
  5
2C18
  8
AM_0
 10
282.98099090673543
 20
561.56952351343045
 30
0.0
 11
275.98096090673562
 21
561.56952351343045
 31
0.0
  0
LINE
  5
2C19
  8
AM_0
 10
265.9809909067356
 20
582.60294351343043
 30
0.0
 11
275.98096090673562
 21
582.60294351343043
 31
0.0
  0
ARC
  5
2C1A
  8
AM_0
 10
251.9809909067356
 20
590.51053351343046
 30
0.0
 40
3.0
 50
180.00001000000091
 51
254.99999000000159
  0
LINE
  5
2C1B
  8
AM_0
 10
251.20456090673559
 20
587.61277351343028
 30
0.0
 11
252.55469090673549
 21
587.25098351343036
 31
0.0
  0
ARC
  5
2C1C
  8
AM_0
 10
262.98099090673549
 20
590.61692351343049
 30
0.0
 40
3.0
 50
272.0000000000004
 51
0.0
  0
LINE
  5
2C1D
  8
AM_0
 10
275.98096090673562
 20
594.3846235134306
 30
0.0
 11
282.98099090673543
 21
594.3846235134306
 31
0.0
  0
LINE
  5
2C1E
  8
AM_0
 10
282.98099090673543
 20
603.40180351343065
 30
0.0
 11
267.38428090673563
 21
603.59659351343043
 31
0.0
  0
LINE
  5
2C1F
  8
AM_0
 10
251.9024709067354
 20
612.4020435134305
 30
0.0
 11
285.98099090673543
 21
613.29441351343053
 31
0.0
  0
ARC
  5
2C20
  8
AM_0
 10
251.9809909067356
 20
609.40308351343026
 30
0.0
 40
3.0
 50
91.500001000001546
 51
180.00001000000091
  0
ARC
  5
2C21
  8
AM_0
 10
280.9809909067356
 20
612.16178351343035
 30
0.0
 40
1.0
 50
0.0
 51
90.000003000000945
  0
ARC
  5
2C22
  8
AM_0
 10
280.9809909067356
 20
608.16178351343035
 30
0.0
 40
5.0
 50
0.0
 51
91.500001000001546
  0
LINE
  5
2C23
  8
AM_0
 10
282.98096090673562
 20
605.54539351343044
 30
0.0
 11
270.80646090673548
 21
605.12024351343052
 31
0.0
  0
LINE
  5
2C24
  8
AM_0
 10
281.98099090673543
 20
612.16178351343035
 30
0.0
 11
281.98099090673543
 21
608.8186435134304
 31
0.0
  0
ARC
  5
2C25
  8
AM_0
 10
282.98099090673543
 20
608.8186435134304
 30
0.0
 40
1.0
 50
180.00001000000091
 51
250.52876999999941
  0
ARC
  5
2C26
  8
AM_0
 10
280.9809909067356
 20
603.16178351343035
 30
0.0
 40
5.0
 50
28.471238999999571
 51
70.528778999998195
  0
LINE
  5
2C27
  8
AM_0
 10
282.98099090673543
 20
605.54539351343044
 30
0.0
 11
285.98099090673543
 21
605.54539351343044
 31
0.0
  0
LINE
  5
2C28
  8
AM_0
 10
285.98099090673543
 20
608.16178351343035
 30
0.0
 11
285.98099090673543
 21
605.54539351343044
 31
0.0
  0
CIRCLE
  5
2C29
  8
AM_0
 10
343.98099090673549
 20
598.29444351343045
 30
0.0
 40
6.0
  0
LINE
  5
2C2A
  8
AM_0
 10
325.9809909067356
 20
591.64853351343038
 30
0.0
 11
325.9809909067356
 21
607.1143535134305
 31
0.0
  0
LINE
  5
2C2B
  8
ﾁｭｳｼﾝｾﾝ1
 10
343.98099090673549
 20
609.29444351343045
 30
0.0
 11
343.98099090673549
 21
587.29444351343045
 31
0.0
  0
LINE
  5
2C2C
  8
AM_0
 10
358.98099090673549
 20
608.46039351343052
 30
0.0
 11
358.98099090673549
 21
581.29444351343045
 31
0.0
  0
ARC
  5
2C2D
  8
AM_0
 10
347.88281090673559
 20
583.0220435134305
 30
0.0
 40
5.0
 50
207.10380999999799
 51
265.00001000000032
  0
LINE
  5
2C2E
  8
ﾁｭｳｼﾝｾﾝ1
 10
332.9809909067356
 20
598.29444351343045
 30
0.0
 11
354.9809909067356
 21
598.29444351343045
 31
0.0
  0
ARC
  5
2C2F
  8
AM_0
 10
338.9809909067356
 20
578.4659835134305
 30
0.0
 40
5.0
 50
0.0
 51
87.999999999999503
  0
ARC
  5
2C30
  8
AM_0
 10
333.98099090673543
 20
591.64853351343038
 30
0.0
 40
8.0
 50
180.00001000000091
 51
267.99999999999932
  0
LINE
  5
2C31
  8
AM_0
 10
339.15546090673558
 20
583.46296351343028
 30
0.0
 11
333.70178090673551
 21
583.6533935134305
 31
0.0
  0
LINE
  5
2C32
  8
AM_0
 10
358.98099090673549
 20
538.29444351343045
 30
0.0
 11
361.9809909067356
 21
538.29444351343045
 31
0.0
  0
ARC
  5
2C33
  8
AM_0
 10
357.9809909067356
 20
551.32029351343056
 30
0.0
 40
1.0
 50
0.0
 51
88.499997000000647
  0
ARC
  5
2C34
  8
AM_0
 10
356.98099090673549
 20
553.34714351343052
 30
0.0
 40
1.0
 50
180.00001000000091
 51
268.50000000000063
  0
LINE
  5
2C35
  8
AM_0
 10
356.95484090673551
 20
552.34751351343039
 30
0.0
 11
358.00717090673561
 21
552.31995351343028
 31
0.0
  0
LINE
  5
2C36
  8
AM_0
 10
353.24246090673557
 20
577.53403351343047
 30
0.0
 11
347.44702090673559
 21
578.04108351343052
 31
0.0
  0
ARC
  5
2C37
  8
AM_0
 10
352.9809909067356
 20
574.54545351343052
 30
0.0
 40
3.0
 50
0.0
 51
85.000004000000885
  0
ARC
  5
2C38
  8
AM_0
 10
356.98099090673549
 20
577.42145351343027
 30
0.0
 40
1.0
 50
104.4775099999998
 51
180.00001000000091
  0
ARC
  5
2C39
  8
AM_0
 10
355.9809909067356
 20
581.29444351343045
 30
0.0
 40
3.0
 50
284.47750999999971
 51
0.0
  0
ARC
  5
2C3A
  8
AM_0
 10
330.9809909067356
 20
607.1143535134305
 30
0.0
 40
5.0
 50
88.499997000000647
 51
180.00001000000091
  0
ARC
  5
2C3B
  8
AM_0
 10
355.9809909067356
 20
608.46039351343052
 30
0.0
 40
3.0
 50
0.0
 51
88.499997000000647
  0
LINE
  5
2C3C
  8
AM_0
 10
403.98096090673562
 20
537.29447351343038
 30
0.0
 11
403.98096090673562
 21
509.2944735134306
 31
0.0
  0
LINE
  5
2C3D
  8
ﾁｭｳｼﾝｾﾝ1
 10
263.9809909067356
 20
609.29444351343045
 30
0.0
 11
263.9809909067356
 21
587.29444351343045
 31
0.0
  0
LINE
  5
2C3E
  8
ﾁｭｳｼﾝｾﾝ1
 10
252.9809909067356
 20
598.29444351343045
 30
0.0
 11
274.9809909067356
 21
598.29444351343045
 31
0.0
  0
LINE
  5
2C3F
  8
ﾁｭｳｼﾝｾﾝ1
 10
263.9809909067356
 20
459.29444351343051
 30
0.0
 11
263.9809909067356
 21
437.29444351343039
 31
0.0
  0
LINE
  5
2C40
  8
ﾁｭｳｼﾝｾﾝ1
 10
252.9809909067356
 20
448.29444351343062
 30
0.0
 11
274.9809909067356
 21
448.29444351343062
 31
0.0
  0
LINE
  5
2C41
  8
ﾁｭｳｼﾝｾﾝ1
 10
343.98099090673549
 20
459.29444351343051
 30
0.0
 11
343.98099090673549
 21
437.29444351343039
 31
0.0
  0
LINE
  5
2C42
  8
ﾁｭｳｼﾝｾﾝ1
 10
332.9809909067356
 20
448.29444351343062
 30
0.0
 11
354.9809909067356
 21
448.29444351343062
 31
0.0
  0
TEXT
  5
2E27
  8
AM_0
 10
474.50066127878631
 20
511.77405006498259
 30
0.0
 40
10.0
  1
VX04-060G~VX04-100G
  0
ENDSEC
  0
EOF
