  0
SECTION
  2
HEADER
  9
$ACADVER
  1
AC1009
  9
$INSBASE
 10
0.0
 20
0.0
 30
0.0
  9
$EXTMIN
 10
185.23148566232001
 20
153.1382003230253
 30
-0.0000000000000058
  9
$EXTMAX
 10
643.84968741208968
 20
520.12619143715835
 30
0.0000000000000104
  9
$LIMMIN
 10
0.0
 20
0.0
  9
$LIMMAX
 10
853.5
 20
555.00000000000011
  9
$ORTHOMODE
 70
     0
  9
$REGENMODE
 70
     1
  9
$FILLMODE
 70
     1
  9
$QTEXTMODE
 70
     0
  9
$MIRRTEXT
 70
     1
  9
$DRAGMODE
 70
     2
  9
$LTSCALE
 40
3.0
  9
$OSMODE
 70
   551
  9
$ATTMODE
 70
     1
  9
$TEXTSIZE
 40
2.5
  9
$TRACEWID
 40
1.0
  9
$TEXTSTYLE
  7
STANDARD
  9
$CLAYER
  8
AM_0
  9
$CELTYPE
  6
BYLAYER
  9
$CECOLOR
 62
   256
  9
$DIMSCALE
 40
1.0
  9
$DIMASZ
 40
0.1
  9
$DIMEXO
 40
0.05
  9
$DIMDLI
 40
0.5
  9
$DIMRND
 40
0.0
  9
$DIMDLE
 40
0.0
  9
$DIMEXE
 40
0.1
  9
$DIMTP
 40
0.1
  9
$DIMTM
 40
0.1
  9
$DIMTXT
 40
0.12
  9
$DIMCEN
 40
0.0
  9
$DIMTSZ
 40
0.0
  9
$DIMTOL
 70
     0
  9
$DIMLIM
 70
     0
  9
$DIMTIH
 70
     1
  9
$DIMTOH
 70
     1
  9
$DIMSE1
 70
     0
  9
$DIMSE2
 70
     0
  9
$DIMTAD
 70
     0
  9
$DIMZIN
 70
     8
  9
$DIMBLK
  1

  9
$DIMASO
 70
     1
  9
$DIMSHO
 70
     1
  9
$DIMPOST
  1

  9
$DIMAPOST
  1
mm
  9
$DIMALT
 70
     0
  9
$DIMALTD
 70
     2
  9
$DIMALTF
 40
25.399999999999999
  9
$DIMLFAC
 40
1.0
  9
$DIMTOFL
 70
     0
  9
$DIMTVP
 40
0.0
  9
$DIMTIX
 70
     0
  9
$DIMSOXD
 70
     0
  9
$DIMSAH
 70
     0
  9
$DIMBLK1
  1

  9
$DIMBLK2
  1

  9
$DIMSTYLE
  2
AM_ANSI
  9
$DIMCLRD
 70
   256
  9
$DIMCLRE
 70
   256
  9
$DIMCLRT
 70
     2
  9
$DIMTFAC
 40
0.71
  9
$DIMGAP
 40
0.06
  9
$LUNITS
 70
     2
  9
$LUPREC
 70
     2
  9
$SKETCHINC
 40
1.0
  9
$FILLETRAD
 40
15.0
  9
$AUNITS
 70
     0
  9
$AUPREC
 70
     0
  9
$MENU
  1
.
  9
$ELEVATION
 40
0.0
  9
$PELEVATION
 40
0.0
  9
$THICKNESS
 40
0.0
  9
$LIMCHECK
 70
     0
  9
$BLIPMODE
 70
     0
  9
$CHAMFERA
 40
6.0
  9
$CHAMFERB
 40
3.0
  9
$SKPOLY
 70
     0
  9
$TDCREATE
 40
2452065.6079038191
  9
$TDUPDATE
 40
2458541.436774503
  9
$TDINDWG
 40
0.0687732176
  9
$TDUSRTIMER
 40
0.0687726736
  9
$USRTIMER
 70
     1
  9
$ANGBASE
 50
0.0
  9
$ANGDIR
 70
     0
  9
$PDMODE
 70
     0
  9
$PDSIZE
 40
0.0
  9
$PLINEWID
 40
0.0
  9
$COORDS
 70
     1
  9
$SPLFRAME
 70
     0
  9
$SPLINETYPE
 70
     6
  9
$SPLINESEGS
 70
     8
  9
$ATTDIA
 70
     1
  9
$ATTREQ
 70
     1
  9
$HANDLING
 70
     1
  9
$HANDSEED
  5
3275
  9
$SURFTAB1
 70
     6
  9
$SURFTAB2
 70
     6
  9
$SURFTYPE
 70
     6
  9
$SURFU
 70
     6
  9
$SURFV
 70
     6
  9
$UCSNAME
  2

  9
$UCSORG
 10
0.0
 20
0.0
 30
0.0
  9
$UCSXDIR
 10
1.0
 20
0.0
 30
0.0
  9
$UCSYDIR
 10
0.0
 20
1.0
 30
0.0
  9
$PUCSNAME
  2

  9
$PUCSORG
 10
0.0
 20
0.0
 30
0.0
  9
$PUCSXDIR
 10
1.0
 20
0.0
 30
0.0
  9
$PUCSYDIR
 10
0.0
 20
1.0
 30
0.0
  9
$USERI1
 70
     0
  9
$USERI2
 70
     0
  9
$USERI3
 70
     0
  9
$USERI4
 70
     0
  9
$USERI5
 70
     0
  9
$USERR1
 40
0.0
  9
$USERR2
 40
0.0
  9
$USERR3
 40
0.0
  9
$USERR4
 40
0.0
  9
$USERR5
 40
0.0
  9
$WORLDVIEW
 70
     1
  9
$SHADEDGE
 70
     3
  9
$SHADEDIF
 70
    70
  9
$TILEMODE
 70
     1
  9
$MAXACTVP
 70
    64
  9
$PLIMCHECK
 70
     0
  9
$PEXTMIN
 10
1.0000000000000000E+020
 20
1.0000000000000000E+020
 30
1.0000000000000000E+020
  9
$PEXTMAX
 10
-1.0000000000000000E+020
 20
-1.0000000000000000E+020
 30
-1.0000000000000000E+020
  9
$PLIMMIN
 10
0.0
 20
0.0
  9
$PLIMMAX
 10
420.0
 20
297.0
  9
$UNITMODE
 70
     0
  9
$VISRETAIN
 70
     1
  9
$PLINEGEN
 70
     0
  9
$PSLTSCALE
 70
     1
  0
ENDSEC
  0
SECTION
  2
TABLES
  0
TABLE
  2
VPORT
 70
     1
  0
VPORT
  2
*ACTIVE
 70
     0
 10
0.0
 20
0.0
 11
1.0
 21
1.0
 12
414.54058653720477
 22
336.6321958800919
 13
0.0
 23
0.0
 14
7.5
 24
7.5
 15
30.0
 25
30.0
 16
0.0
 26
0.0
 36
1.0
 17
0.0
 27
0.0
 37
0.0
 40
369.5073594741844
 41
1.7571592210767459
 42
50.0
 43
0.0
 44
0.0
 50
0.0
 51
0.0
 71
     0
 72
   100
 73
     1
 74
     3
 75
     0
 76
     0
 77
     0
 78
     0
  0
ENDTAB
  0
TABLE
  2
LTYPE
 70
    25
  0
LTYPE
  2
CONTINUOUS
 70
     0
  3
Solid line
 72
    65
 73
     0
 40
0.0
  0
LTYPE
  2
AM_ISO02W050
 70
     0
  3
__ __ __ __ __ __ __ __ __ __ __ __ __ __ __
 72
    65
 73
     2
 40
7.5
 49
6.0
 49
-1.5
  0
LTYPE
  2
AM_ISO08W050
 70
     0
  3
____ . ____ . ____ . ____ . ____ . ____ . ____
 72
    65
 73
     4
 40
18.0
 49
12.0
 49
-1.5
 49
3.0
 49
-1.5
  0
LTYPE
  2
AM_ISO09W050
 70
     0
  3
_____ . . _____ . . _____ . . ____ .. ____
 72
    65
 73
     6
 40
22.5
 49
12.0
 49
-1.5
 49
3.0
 49
-1.5
 49
3.0
 49
-1.5
  0
LTYPE
  2
AMCONSTR
 70
     0
  3
_______________________
 72
    65
 73
     2
 40
9999.0
 49
9999.0
 49
0.0
  0
LTYPE
  2
AM_ISO08W050X2
 70
     0
  3
__ . __ . __ . __ . __ . __
 72
    65
 73
     4
 40
9.0
 49
6.0
 49
-0.75
 49
1.5
 49
-0.75
  0
LTYPE
  2
AM_ISO02W050X2
 70
     0
  3
 _ _ _ _ _ _ _ _ _ _ _ _
 72
    65
 73
     2
 40
3.75
 49
3.0
 49
-0.75
  0
LTYPE
  2
AMZIGZAG
 70
     0
  3
/\/-/\/-/\/-/\/-/\/-/\/
 72
    65
 73
     2
 40
11.000099999999991
 49
0.0001
 49
-11.0
  0
LTYPE
  2
ACISOWELD
 70
     0
  3
_ _ _ _ _
 72
    65
 73
     2
 40
2.0
 49
2.0
 49
-1.0
  0
LTYPE
  2
ACISOTGB
 70
     0
  3
__ . . __ . .
 72
    65
 73
     6
 40
9.0
 49
4.0
 49
-1.0
 49
1.0
 49
-1.0
 49
1.0
 49
-1.0
  0
LTYPE
  2
ACISOTGL
 70
     0
  3
_ _ _ _ _
 72
    65
 73
     2
 40
3.0
 49
2.0
 49
-1.0
  0
LTYPE
  2
CENTER
 70
     0
  3
__ . __
 72
    65
 73
     4
 40
7.0
 49
4.0
 49
-1.0
 49
1.0
 49
-1.0
  0
LTYPE
  2
PHANTOM2
 70
     0
  3
Phantom (.5x) ___ _ _ ___ _ _ ___ _ _ ___ _ _
 72
    65
 73
     6
 40
31.75
 49
15.875
 49
-3.174999999999998
 49
3.174999999999998
 49
-3.174999999999998
 49
3.174999999999998
 49
-3.174999999999998
  0
LTYPE
  2
ACANSTGBM
 70
     0
  3
__ . . __ . .
 72
    65
 73
     6
 40
9.0
 49
4.0
 49
-1.0
 49
1.0
 49
-1.0
 49
1.0
 49
-1.0
  0
LTYPE
  2
ACANSTGLM
 70
     0
  3
_ _ _ _ _
 72
    65
 73
     2
 40
3.0
 49
2.0
 49
-1.0
  0
LTYPE
  2
GEN7
 70
     0
  3
____ . ____ . ____ . ____ . ____ . ____ . ____
 72
    65
 73
     4
 40
14.25
 49
9.75
 49
-1.5
 49
1.5
 49
-1.5
  0
LTYPE
  2
ACJISTGB
 70
     0
  3
__ . . __ . .
 72
    65
 73
     6
 40
9.0
 49
4.0
 49
-1.0
 49
1.0
 49
-1.0
 49
1.0
 49
-1.0
  0
LTYPE
  2
ACJISTGL
 70
     0
  3
_ _ _ _ _
 72
    65
 73
     2
 40
3.0
 49
2.0
 49
-1.0
  0
LTYPE
  2
HIDDEN
 70
     0
  3
Hidden __ __ __ __ __ __ __ __ __ __ __ __ __ _
 72
    65
 73
     2
 40
0.375
 49
0.25
 49
-0.125
  0
LTYPE
  2
CENTER2
 70
     0
  3
Center (.5x) ___ _ ___ _ ___ _ ___ _ ___ _ ___
 72
    65
 73
     4
 40
1.125
 49
0.75
 49
-0.125
 49
0.125
 49
-0.125
  0
LTYPE
  2
HIDDEN2
 70
     0
  3
Hidden (.5x) _ _ _ _ _ _ _ _ _ _ _ _ _ _ _ _ _
 72
    65
 73
     2
 40
0.1875
 49
0.125
 49
-0.0625
  0
LTYPE
  2
AMZIGZAG2
 70
     0
  3
/\/-/\/-/\/-/\/-/\/-/\/
 72
    65
 73
     2
 40
0.4401
 49
0.0001
 49
-0.4400000000000003
  0
LTYPE
  2
ACANSTGB
 70
     0
  3
__ . . __ . .
 72
    65
 73
     6
 40
0.35433070866
 49
0.15748031496
 49
-0.03937007874
 49
0.03937007874
 49
-0.03937007874
 49
0.03937007874
 49
-0.03937007874
  0
LTYPE
  2
ACANSTGL
 70
     0
  3
_ _ _ _ _
 72
    65
 73
     2
 40
0.11811023622
 49
0.07874015748
 49
-0.03937007874
  0
ENDTAB
  0
TABLE
  2
LAYER
 70
     5
  0
LAYER
  2
0
 70
     0
 62
     7
  6
CONTINUOUS
  0
LAYER
  2
AM_0
 70
     0
 62
     7
  6
CONTINUOUS
  0
LAYER
  2
AM_5
 70
     0
 62
     2
  6
CONTINUOUS
  0
LAYER
  2
DEFPOINTS
 70
     0
 62
     7
  6
CONTINUOUS
  0
LAYER
  2
ﾁｭｳｼﾝｾﾝ
 70
     0
 62
     1
  6
GEN7
  0
ENDTAB
  0
TABLE
  2
STYLE
 70
     9
  0
STYLE
  2
STANDARD
 70
     0
 40
0.0
 41
0.8299999999999999
 50
0.0
 71
     0
 42
2.5
  3
txt.shx
  4
bigfont.shx
  0
STYLE
  2
ANNOTATIVE
 70
     0
 40
0.0
 41
1.0
 50
0.0
 71
     0
 42
0.2
  3
txt
  4

  0
STYLE
  2

 70
     1
 40
0.0
 41
1.0
 50
0.0
 71
     0
 42
2.5
  3
ltypeshp.shx
  4

  0
STYLE
  2
ACISOTS
 70
     0
 40
1.0
 41
1.0
 50
0.0
 71
     0
 42
2.5
  3
isocp.shx
  4
extfont.shx
  0
STYLE
  2
ACISOGDT
 70
     0
 40
0.0
 41
1.0
 50
0.0
 71
     0
 42
2.5
  3
amgdt.shx
  4

  0
STYLE
  2
ACANSTS
 70
     0
 40
1.0
 41
1.0
 50
0.0
 71
     0
 42
2.5
  3
romans.shx
  4
bigfont.shx
  0
STYLE
  2
ACANSGDT
 70
     0
 40
0.0
 41
1.0
 50
0.0
 71
     0
 42
2.5
  3
amgdt.shx
  4

  0
STYLE
  2
ACJISTS
 70
     0
 40
1.0
 41
1.0
 50
0.0
 71
     0
 42
2.5
  3
isocp.shx
  4
bigfont.shx
  0
STYLE
  2
ACJISGDT
 70
     0
 40
0.0
 41
1.0
 50
0.0
 71
     0
 42
2.5
  3
amgdt.shx
  4

  0
ENDTAB
  0
TABLE
  2
VIEW
 70
     6
  0
VIEW
  2
AM_VIEW1
 70
     0
 40
277.49999999999989
 10
249.64779005524841
 20
416.24999999999989
 41
499.2955801104971
 11
0.0
 21
0.0
 31
1.0
 12
0.0
 22
0.0
 32
0.0
 42
50.0
 43
0.0
 44
0.0
 50
0.0
 71
     0
  0
VIEW
  2
AM_VIEW2
 70
     0
 40
277.49999999999989
 10
603.85220994475117
 20
416.24999999999989
 41
499.2955801104971
 11
0.0
 21
0.0
 31
1.0
 12
0.0
 22
0.0
 32
0.0
 42
50.0
 43
0.0
 44
0.0
 50
0.0
 71
     0
  0
VIEW
  2
AM_VIEW3
 70
     0
 40
277.49999999999989
 10
249.64779005524841
 20
138.7499999999998
 41
499.2955801104971
 11
0.0
 21
0.0
 31
1.0
 12
0.0
 22
0.0
 32
0.0
 42
50.0
 43
0.0
 44
0.0
 50
0.0
 71
     0
  0
VIEW
  2
AM_VIEW4
 70
     0
 40
277.49999999999989
 10
603.85220994475117
 20
138.7499999999998
 41
499.2955801104971
 11
0.0
 21
0.0
 31
1.0
 12
0.0
 22
0.0
 32
0.0
 42
50.0
 43
0.0
 44
0.0
 50
0.0
 71
     0
  0
VIEW
  2
AM_VIEW5
 70
     0
 40
277.49999999999989
 10
426.75
 20
277.49999999999989
 41
499.2955801104971
 11
0.0
 21
0.0
 31
1.0
 12
0.0
 22
0.0
 32
0.0
 42
50.0
 43
0.0
 44
0.0
 50
0.0
 71
     0
  0
VIEW
  2
AM_VIEW6
 70
     0
 40
554.99445000000014
 10
426.75
 20
277.49999999999989
 41
998.5811743093924
 11
0.0
 21
0.0
 31
1.0
 12
0.0
 22
0.0
 32
0.0
 42
50.0
 43
0.0
 44
0.0
 50
0.0
 71
     0
  0
ENDTAB
  0
TABLE
  2
UCS
 70
     0
  0
ENDTAB
  0
TABLE
  2
APPID
 70
    95
  0
APPID
  2
ACAD
 70
     0
  0
APPID
  2
ACADANNOTATIVE
 70
     0
  0
APPID
  2
MCAD_NO_VIS
 70
     0
  0
APPID
  2
ACAD_TEMP_GRAPHIC
 70
     0
  0
APPID
  2
ACATTRIBSERVICES
 70
     0
  0
APPID
  2
GENIUS_GENREC_14
 70
     0
  0
APPID
  2
GENIUS_GENOBJ-N-REC_13
 70
     0
  0
APPID
  2
GENIUS_GENODEF_13
 70
     0
  0
APPID
  2
GENIUS_GENOLIS_13
 70
     0
  0
APPID
  2
GENIUS_GENOBJ-N-TIT_13
 70
     0
  0
APPID
  2
GENIUS_GENOENT_13
 70
     0
  0
APPID
  2
GENIUS_GENTITLE_13
 70
     0
  0
APPID
  2
GENIUS_GENOREF_13
 70
     0
  0
APPID
  2
GENIUS_GENSCREG_15
 70
     0
  0
APPID
  2
GENIUS_GENOBJ-N-SDF_13
 70
     0
  0
APPID
  2
GENIUS_GENFIL_13
 70
     0
  0
APPID
  2
GENIUS_GENOBJ-N-CHA_13
 70
     0
  0
APPID
  2
GENIUS_GENDTOL_13
 70
     0
  0
APPID
  2
GENIUS_GENOBJ-N-FIL_13
 70
     0
  0
APPID
  2
AD_DRAW
 70
     0
  0
APPID
  2
DESIGNERASSEMBLIES
 70
     0
  0
APPID
  2
ASURF_PCURVE_APPNAME
 70
     0
  0
APPID
  2
GENIUS_GE3SECT_13
 70
     0
  0
APPID
  2
GENIUS_GENCFG_13
 70
     0
  0
APPID
  2
GENIUS_GE3CFG0_13
 70
     0
  0
APPID
  2
GENIUS_GENCFG0_13
 70
     0
  0
APPID
  2
GENIUS_GENCFG1_13
 70
     0
  0
APPID
  2
GENIUS_GENCFG2_13
 70
     0
  0
APPID
  2
GENIUS_GENCFG3_13
 70
     0
  0
APPID
  2
GENIUS_GENCFG4_13
 70
     0
  0
APPID
  2
GENIUS_GEVCFG0_13
 70
     0
  0
APPID
  2
GENIUS_GENHINW_13
 70
     0
  0
APPID
  2
GENIUS_FIRSTVISTXT_14
 70
     0
  0
APPID
  2
GENIUS_GENOBJ-N-LEADER_13
 70
     0
  0
APPID
  2
GEV_VCCNULL_SWITCH_OFF
 70
     0
  0
APPID
  2
GENIUS_GEFCFG0_13
 70
     0
  0
APPID
  2
GENIUS_GENZVEED_13
 70
     0
  0
APPID
  2
GENIUS_GENSCREG_13
 70
     0
  0
APPID
  2
GENIUS_DUMCFG0_13
 70
     0
  0
APPID
  2
GEVID936201362
 70
     0
  0
APPID
  2
GEVDC
 70
     0
  0
APPID
  2
GEVCON
 70
     0
  0
APPID
  2
VCC
 70
     0
  0
APPID
  2
GEVPT
 70
     0
  0
APPID
  2
GEVIT
 70
     0
  0
APPID
  2
GENBH
 70
     0
  0
APPID
  2
GEVMK
 70
     0
  0
APPID
  2
GENIUS_GENBH_13
 70
     0
  0
APPID
  2
GENIUS_GENOBJ-NBEHI-BHF_13
 70
     0
  0
APPID
  2
GENIUS_GENOBJ-NBEHI-BHB_13
 70
     0
  0
APPID
  2
GENIUS_GENOBJ-F-DESC_13
 70
     0
  0
APPID
  2
GENIUS_GEFDESC_14
 70
     0
  0
APPID
  2
GENIUS_GENOBJ-F-PART_13
 70
     0
  0
APPID
  2
GENIUS_GEFSTDP_13
 70
     0
  0
APPID
  2
GENIUS_GEFPARTINS_13
 70
     0
  0
APPID
  2
GENIUS_GENTRA_14
 70
     0
  0
APPID
  2
GENIUS_GENINF13_13
 70
     0
  0
APPID
  2
GENIUS_GENOBJ-N-INFOPT_13
 70
     0
  0
APPID
  2
GENIUS_GENOBJ-N-RSSYM_13
 70
     0
  0
APPID
  2
GENIUS_GENSYMENT_13
 70
     0
  0
APPID
  2
GENIUS_GENSCSYM_13
 70
     0
  0
APPID
  2
GENIUS_GEFINFNAM_13
 70
     0
  0
APPID
  2
GENIUS_GENOBJ-N-CEN_13
 70
     0
  0
APPID
  2
GENIUS_GENOBJ-N-CRS_13
 70
     0
  0
APPID
  2
GENIUS_GENOBJ-N-CRC_13
 70
     0
  0
APPID
  2
GENIUS_GENCRC_14
 70
     0
  0
APPID
  2
GEVID942827039
 70
     0
  0
APPID
  2
GEVID942827040
 70
     0
  0
APPID
  2
GEVID942827041
 70
     0
  0
APPID
  2
GENIUS_GENOBJ-F-SCPASSM_13
 70
     0
  0
APPID
  2
GENIUS_GENDIMSH_14
 70
     0
  0
APPID
  2
GEVID942827042
 70
     0
  0
APPID
  2
GEVID946020473
 70
     0
  0
APPID
  2
GEVID946020474
 70
     0
  0
APPID
  2
GEVID946020475
 70
     0
  0
APPID
  2
GENIUS_GENOBJ-N-HTC_13
 70
     0
  0
APPID
  2
GENIUS_GENHATCH_13
 70
     0
  0
APPID
  2
GEVID948854295
 70
     0
  0
APPID
  2
GEVID939402019
 70
     0
  0
APPID
  2
GEVID952919491
 70
     0
  0
APPID
  2
GEVID952919492
 70
     0
  0
APPID
  2
GENIUS_GEFWELD_13
 70
     0
  0
APPID
  2
GENIUS_GENOBJ-F-WELS_13
 70
     0
  0
APPID
  2
GEVID952919493
 70
     0
  0
APPID
  2
GENIUS_GENOBJ-N-RSBK_13
 70
     0
  0
APPID
  2
GENIUS_GENOBJ-N-LIB_13
 70
     0
  0
APPID
  2
GENIUS_GENSCALE_13
 70
     0
  0
APPID
  2
GEVID986376691
 70
     0
  0
APPID
  2
DCO15
 70
     0
  0
APPID
  2
ACAD_DSTYLE_DIMBREAK
 70
     0
  0
APPID
  2
ACAD_DSTYLE_DIMJAG
 70
     0
  0
APPID
  2
ACAD_NAV_VCDISPLAY
 70
     0
  0
APPID
  2
ACAD_EXEMPT_FROM_CAD_STANDARDS
 70
     0
  0
APPID
  2
ACADANNOPO
 70
     0
  0
APPID
  2
ACAD_MLEADERVER
 70
     0
  0
ENDTAB
  0
TABLE
  2
DIMSTYLE
 70
    22
  0
DIMSTYLE
  2
STANDARD
 70
     0
  3

  4

  5

  6

  7

 40
1.0
 41
0.18
 42
0.0625
 43
0.38
 44
0.18
 45
0.0
 46
0.0
 47
0.0
 48
0.0
140
0.18
141
0.09
142
0.0
143
25.399999999999999
144
1.0
145
0.0
146
1.0
147
0.09
 71
     0
 72
     0
 73
     1
 74
     1
 75
     0
 76
     0
 77
     0
 78
     0
170
     0
171
     2
172
     0
173
     0
174
     0
175
     0
176
     0
177
     0
178
     0
  0
DIMSTYLE
  2
ANNOTATIVE
 70
     0
  3

  4

  5

  6

  7

 40
1.0
 41
0.18
 42
0.0625
 43
0.38
 44
0.18
 45
0.0
 46
0.0
 47
0.0
 48
0.0
140
0.18
141
0.09
142
0.0
143
25.399999999999999
144
1.0
145
0.0
146
1.0
147
0.09
 71
     0
 72
     0
 73
     1
 74
     1
 75
     0
 76
     0
 77
     0
 78
     0
170
     0
171
     2
172
     0
173
     0
174
     0
175
     0
176
     0
177
     0
178
     0
  0
DIMSTYLE
  2
AM_ISO
 70
     0
  3

  4
"
  5

  6

  7

 40
1.0
 41
2.5
 42
1.0
 43
8.0
 44
0.6
 45
0.0
 46
0.0
 47
0.1
 48
0.1
140
2.5
141
0.0
142
0.0
143
0.0393701
144
1.0
145
0.0
146
0.71
147
0.8
 71
     0
 72
     0
 73
     0
 74
     0
 75
     0
 76
     0
 77
     1
 78
     8
170
     0
171
     2
172
     1
173
     0
174
     0
175
     0
176
   256
177
   256
178
     4
  0
DIMSTYLE
  2
AM_ISO$3
 70
     0
  3

  4
"
  5

  6

  7

 40
1.0
 41
2.5
 42
1.0
 43
8.0
 44
0.6
 45
0.0
 46
0.0
 47
0.1
 48
0.1
140
2.5
141
0.0
142
0.0
143
0.0393701
144
1.0
145
0.0
146
0.71
147
0.8
 71
     0
 72
     0
 73
     0
 74
     1
 75
     0
 76
     0
 77
     1
 78
     8
170
     0
171
     2
172
     0
173
     0
174
     0
175
     0
176
   256
177
   256
178
     4
  0
DIMSTYLE
  2
AM_ISO$4
 70
     0
  3

  4
"
  5

  6

  7

 40
1.0
 41
2.5
 42
1.0
 43
8.0
 44
0.6
 45
0.0
 46
0.0
 47
0.1
 48
0.1
140
2.5
141
0.0
142
0.0
143
0.0393701
144
1.0
145
0.0
146
0.71
147
0.8
 71
     0
 72
     0
 73
     0
 74
     1
 75
     0
 76
     0
 77
     1
 78
     8
170
     0
171
     2
172
     0
173
     0
174
     0
175
     0
176
   256
177
   256
178
     4
  0
DIMSTYLE
  2
AM_ISO$6
 70
     0
  3

  4
"
  5

  6

  7

 40
1.0
 41
2.5
 42
1.0
 43
8.0
 44
0.6
 45
0.0
 46
0.0
 47
0.1
 48
0.1
140
2.5
141
0.0
142
0.0
143
0.0393701
144
1.0
145
0.0
146
0.71
147
0.8
 71
     0
 72
     0
 73
     0
 74
     0
 75
     0
 76
     0
 77
     0
 78
     8
170
     0
171
     2
172
     1
173
     0
174
     0
175
     0
176
   256
177
   256
178
     4
  0
DIMSTYLE
  2
AM_ISO$7
 70
     0
  3

  4
"
  5

  6

  7

 40
1.0
 41
2.5
 42
1.0
 43
8.0
 44
0.6
 45
0.0
 46
0.0
 47
0.1
 48
0.1
140
2.5
141
0.0
142
0.0
143
0.0393701
144
1.0
145
0.0
146
0.71
147
0.8
 71
     0
 72
     0
 73
     0
 74
     0
 75
     0
 76
     0
 77
     1
 78
     8
170
     0
171
     2
172
     1
173
     0
174
     0
175
     0
176
   256
177
   256
178
     4
  0
DIMSTYLE
  2
AM_ISO$SF
 70
     0
  3

  4
"
  5

  6

  7

 40
1.0
 41
2.5
 42
1.0
 43
10.0
 44
1.0
 45
0.0
 46
0.0
 47
0.1
 48
0.1
140
3.5
141
0.0
142
0.0
143
0.0393701
144
1.0
145
0.0
146
0.71
147
1.5
 71
     0
 72
     0
 73
     0
 74
     0
 75
     1
 76
     1
 77
     1
 78
     8
170
     0
171
     2
172
     1
173
     0
174
     0
175
     0
176
   256
177
   256
178
     2
  0
DIMSTYLE
  2
AM_ISO$SH
 70
     0
  3

  4
"
  5

  6

  7

 40
1.0
 41
2.5
 42
1.0
 43
10.0
 44
1.0
 45
0.0
 46
0.0
 47
0.1
 48
0.1
140
3.5
141
0.0
142
0.0
143
0.0393701
144
2.0
145
0.0
146
0.71
147
1.5
 71
     0
 72
     0
 73
     0
 74
     0
 75
     1
 76
     1
 77
     1
 78
     8
170
     0
171
     2
172
     1
173
     1
174
     0
175
     0
176
   256
177
   256
178
     2
  0
DIMSTYLE
  2
AM_JIS
 70
     0
  3

  4
"
  5

  6

  7

 40
1.0
 41
2.5
 42
1.0
 43
7.0
 44
1.0
 45
0.0
 46
0.0
 47
0.1
 48
0.1000000001
140
2.5
141
0.0
142
0.0
143
0.0393701
144
1.0
145
0.0
146
0.71
147
1.0
 71
     0
 72
     0
 73
     0
 74
     0
 75
     0
 76
     0
 77
     3
 78
     8
170
     0
171
     2
172
     1
173
     0
174
     0
175
     0
176
   256
177
   256
178
     4
  0
DIMSTYLE
  2
AM_JIS$3
 70
     0
  3

  4
"
  5

  6

  7

 40
1.0
 41
2.5
 42
1.0
 43
7.0
 44
1.0
 45
0.0
 46
0.0
 47
0.1
 48
0.1000000001
140
2.5
141
0.0
142
0.0
143
0.0393701
144
1.0
145
0.0
146
0.71
147
1.0
 71
     0
 72
     0
 73
     0
 74
     1
 75
     0
 76
     0
 77
     3
 78
     8
170
     0
171
     2
172
     0
173
     0
174
     0
175
     0
176
   256
177
   256
178
     4
  0
DIMSTYLE
  2
AM_JIS$4
 70
     0
  3

  4
"
  5

  6

  7

 40
1.0
 41
2.5
 42
1.0
 43
7.0
 44
1.0
 45
0.0
 46
0.0
 47
0.1
 48
0.1000000001
140
2.5
141
0.0
142
0.0
143
0.0393701
144
1.0
145
0.0
146
0.71
147
1.0
 71
     0
 72
     0
 73
     0
 74
     0
 75
     0
 76
     0
 77
     3
 78
     8
170
     0
171
     2
172
     0
173
     0
174
     0
175
     0
176
   256
177
   256
178
     4
  0
DIMSTYLE
  2
AM_JIS$6
 70
     0
  3

  4
"
  5

  6

  7

 40
1.0
 41
2.5
 42
1.0
 43
7.0
 44
1.0
 45
0.0
 46
0.0
 47
0.1
 48
0.1000000001
140
2.5
141
0.0
142
0.0
143
0.0393701
144
1.0
145
0.0
146
0.71
147
1.0
 71
     0
 72
     0
 73
     0
 74
     0
 75
     0
 76
     0
 77
     0
 78
     8
170
     0
171
     2
172
     1
173
     0
174
     0
175
     0
176
   256
177
   256
178
     4
  0
DIMSTYLE
  2
AM_JIS$7
 70
     0
  3

  4
"
  5

  6

  7

 40
1.0
 41
2.5
 42
1.0
 43
7.0
 44
1.0
 45
0.0
 46
0.0
 47
0.1
 48
0.1000000001
140
2.5
141
0.0
142
0.0
143
0.0393701
144
1.0
145
0.0
146
0.71
147
1.0
 71
     0
 72
     0
 73
     0
 74
     0
 75
     0
 76
     0
 77
     3
 78
     8
170
     0
171
     2
172
     1
173
     0
174
     0
175
     0
176
   256
177
   256
178
     4
  0
DIMSTYLE
  2
AM_JIS$SF
 70
     0
  3

  4
"
  5

  6

  7

 40
1.0
 41
2.5
 42
1.0
 43
10.0
 44
1.0
 45
0.0
 46
0.0
 47
0.1
 48
0.1
140
3.5
141
0.0
142
0.0
143
0.0393701
144
1.0
145
0.0
146
0.71
147
1.5
 71
     0
 72
     0
 73
     0
 74
     0
 75
     1
 76
     1
 77
     3
 78
     8
170
     0
171
     2
172
     1
173
     0
174
     0
175
     0
176
   256
177
   256
178
     4
  0
DIMSTYLE
  2
AM_JIS$SH
 70
     0
  3

  4
"
  5

  6

  7

 40
1.0
 41
2.5
 42
1.0
 43
10.0
 44
1.0
 45
0.0
 46
0.0
 47
0.1
 48
0.1
140
3.5
141
0.0
142
0.0
143
0.0393701
144
1.0
145
0.0
146
0.71
147
1.5
 71
     0
 72
     0
 73
     0
 74
     0
 75
     1
 76
     0
 77
     3
 78
     8
170
     0
171
     2
172
     1
173
     1
174
     0
175
     0
176
   256
177
   256
178
     4
  0
DIMSTYLE
  2
AM_ANSI
 70
     0
  3

  4
mm
  5

  6

  7

 40
1.0
 41
0.1
 42
0.05
 43
0.5
 44
0.1
 45
0.0
 46
0.0
 47
0.1
 48
0.1
140
0.12
141
0.0
142
0.0
143
25.399999999999999
144
1.0
145
0.0
146
0.71
147
0.06
 71
     0
 72
     0
 73
     1
 74
     1
 75
     0
 76
     0
 77
     0
 78
     7
170
     0
171
     2
172
     0
173
     0
174
     0
175
     0
176
   256
177
   256
178
     2
  0
DIMSTYLE
  2
AM_ANSI$3
 70
     0
  3

  4
mm
  5

  6

  7

 40
1.0
 41
0.1
 42
0.05
 43
0.5
 44
0.1
 45
0.0
 46
0.0
 47
0.1
 48
0.1
140
0.12
141
0.0
142
0.0
143
25.399999999999999
144
1.0
145
0.0
146
0.71
147
0.06
 71
     0
 72
     0
 73
     1
 74
     1
 75
     0
 76
     0
 77
     0
 78
     7
170
     0
171
     2
172
     0
173
     0
174
     0
175
     0
176
   256
177
   256
178
     2
  0
DIMSTYLE
  2
AM_ANSI$4
 70
     0
  3

  4
mm
  5

  6

  7

 40
1.0
 41
0.1
 42
0.05
 43
0.5
 44
0.1
 45
0.0
 46
0.0
 47
0.1
 48
0.1
140
0.12
141
0.0
142
0.0
143
25.399999999999999
144
1.0
145
0.0
146
0.71
147
0.06
 71
     0
 72
     0
 73
     1
 74
     1
 75
     0
 76
     0
 77
     0
 78
     7
170
     0
171
     2
172
     0
173
     0
174
     0
175
     0
176
   256
177
   256
178
     2
  0
DIMSTYLE
  2
AM_ANSI$7
 70
     0
  3

  4
mm
  5

  6

  7

 40
1.0
 41
0.1
 42
0.05
 43
0.5
 44
0.1
 45
0.0
 46
0.0
 47
0.1
 48
0.1
140
0.24
141
0.0
142
0.0
143
25.399999999999999
144
1.0
145
0.0
146
0.71
147
0.06
 71
     0
 72
     0
 73
     1
 74
     1
 75
     0
 76
     0
 77
     0
 78
     7
170
     0
171
     2
172
     0
173
     0
174
     0
175
     0
176
   256
177
   256
178
     2
  0
DIMSTYLE
  2
AM_ANSI$SF
 70
     0
  3

  4
mm
  5

  6

  7

 40
1.0
 41
0.1
 42
0.05
 43
0.5
 44
0.1
 45
0.0
 46
0.0
 47
0.1
 48
0.1
140
0.12
141
0.0
142
0.0
143
25.399999999999999
144
1.0
145
0.0
146
0.71
147
0.06
 71
     0
 72
     0
 73
     1
 74
     1
 75
     1
 76
     1
 77
     0
 78
     7
170
     0
171
     2
172
     0
173
     0
174
     0
175
     0
176
   256
177
   256
178
     2
  0
DIMSTYLE
  2
AM_ANSI$SH
 70
     0
  3

  4
mm
  5

  6

  7

 40
1.0
 41
0.1
 42
0.05
 43
0.5
 44
0.1
 45
0.0
 46
0.0
 47
0.1
 48
0.1
140
0.12
141
0.0
142
0.0
143
25.399999999999999
144
1.0
145
0.0
146
0.71
147
0.06
 71
     0
 72
     0
 73
     1
 74
     1
 75
     1
 76
     1
 77
     0
 78
     7
170
     0
171
     2
172
     0
173
     1
174
     0
175
     0
176
   256
177
   256
178
     2
  0
ENDTAB
  0
ENDSEC
  0
SECTION
  2
BLOCKS
  0
BLOCK
  8
0
  2
$MODEL_SPACE
 70
     0
 10
0.0
 20
0.0
 30
0.0
  3
$MODEL_SPACE
  1

  0
ENDBLK
  5
30F3
  8
0
  0
BLOCK
 67
     1
  8
0
  2
$PAPER_SPACE
 70
     0
 10
0.0
 20
0.0
 30
0.0
  3
$PAPER_SPACE
  1

  0
ENDBLK
  5
30EF
 67
     1
  8
0
  0
BLOCK
  8
0
  2
GENAXEH
 70
     0
 10
0.0
 20
0.0
 30
0.0
  3
GENAXEH
  1

  0
LINE
  5
2E79
  8
0
 10
-1.0
 20
0.0
 30
0.0
 11
1.0
 21
0.0
 31
0.0
  0
ENDBLK
  5
2E7A
  8
0
  0
BLOCK
  8
0
  2
_OPEN30
 70
     0
 10
0.0
 20
0.0
 30
0.0
  3
_OPEN30
  1

  0
LINE
  5
2E7D
  8
0
 62
     0
 10
-1.0
 20
0.26794919
 30
0.0
 11
0.0
 21
0.0
 31
0.0
  0
LINE
  5
2E7E
  8
0
 62
     0
 10
0.0
 20
0.0
 30
0.0
 11
-1.0
 21
-0.26794919
 31
0.0
  0
LINE
  5
2E7F
  8
0
 62
     0
 10
0.0
 20
0.0
 30
0.0
 11
-1.0
 21
0.0
 31
0.0
  0
ENDBLK
  5
2E80
  8
0
  0
BLOCK
  8
0
  2
_NONE
 70
     0
 10
0.0
 20
0.0
 30
0.0
  3
_NONE
  1

  0
ENDBLK
  5
2E83
  8
0
  0
BLOCK
  8
0
  2
_ACMFILLEDHALF
 70
     0
 10
0.0
 20
0.0
 30
0.0
  3
_ACMFILLEDHALF
  1

  0
TRACE
  5
31E7
  8
AM_0
 62
     0
 10
-0.8
 20
0.0
 30
0.0
 11
-1.0
 21
0.166666666
 31
0.0
 12
0.0
 22
0.0
 32
0.0
 13
0.0
 23
0.0
 33
0.0
  0
LINE
  5
31E8
  8
AM_0
 62
     0
 10
-1.0
 20
0.0
 30
0.0
 11
-0.8
 21
0.0
 31
0.0
  0
ENDBLK
  5
31E6
  8
0
  0
ENDSEC
  0
SECTION
  2
ENTITIES
  0
LINE
  5
2E84
  8
AM_0
 10
291.48245804937631
 20
281.21433868642072
 30
0.0
 11
291.48245804937631
 21
266.83268668642069
 31
0.0
  0
LINE
  5
2E85
  8
AM_0
 10
273.48245804937642
 20
279.33268568642069
 30
0.0
 11
273.48245804937608
 21
166.3326856864206
 31
0.0
  0
LINE
  5
2E86
  8
AM_0
 10
263.48245804937642
 20
278.07130704045551
 30
0.0
 11
263.48245804937733
 21
167.59406433238581
 31
0.0
  0
LINE
  5
2E87
  8
AM_0
 10
297.48245804937631
 20
282.83268568642052
 30
0.0
 11
297.48245804937631
 21
158.0187626864207
 31
0.0
  0
LINE
  5
2E88
  8
AM_0
 10
347.48246804937622
 20
299.33270068642048
 30
0.0
 11
347.48246804937622
 21
185.21737168642039
 31
0.0
  0
LINE
  5
2E89
  8
AM_0
 10
352.48241804937652
 20
314.83268068642047
 30
0.0
 11
352.48241804937652
 21
169.9288586864206
 31
0.0
  0
LINE
  5
2E8A
  8
AM_0
 10
356.48246804937639
 20
309.83270068642048
 30
0.0
 11
356.48246804937639
 21
239.83268368642041
 31
0.0
  0
LINE
  5
2E8B
  8
AM_0
 10
329.48246804937639
 20
304.06379068642048
 30
0.0
 11
329.48246804937639
 21
198.0973766864206
 31
0.0
  0
LINE
  5
2E8C
  8
AM_0
 10
285.48245804937631
 20
265.43952868642072
 30
0.0
 11
297.48245804937631
 21
265.43952868642072
 31
0.0
  0
LINE
  5
2E8D
  8
ﾁｭｳｼﾝｾﾝ
 10
278.09847911558012
 20
239.83268368642041
 30
0.0
 11
389.21594804937661
 21
239.83268368642041
 31
0.0
  0
LINE
  5
2E8E
  8
AM_0
 10
291.48245804937631
 20
170.0407976864204
 30
0.0
 11
297.48245804937631
 21
170.0407976864204
 31
0.0
  0
LINE
  5
2E8F
  8
AM_0
 10
286.9432180493763
 20
158.2947506864206
 30
0.0
 11
297.48245804937631
 21
158.0187626864207
 31
0.0
  0
LINE
  5
2E90
  8
ﾁｭｳｼﾝｾﾝ
 10
185.2657074640484
 20
222.8326856864206
 30
0.0
 11
295.4460280493762
 21
222.8326856864206
 31
0.0
  0
LINE
  5
2E91
  8
AM_0
 10
262.0179919553093
 20
174.29715178048781
 30
0.0
 11
241.41139023751069
 21
194.90375349828611
 31
0.0
  0
LINE
  5
2E92
  8
AM_0
 10
291.48245804937631
 20
172.0407986864206
 30
0.0
 11
291.48245804937631
 21
222.8326856864206
 31
0.0
  0
LINE
  5
2E93
  8
AM_0
 10
285.48245804937631
 20
170.46226168642059
 30
0.0
 11
285.48245804937631
 21
159.7942316864204
 31
0.0
  0
LINE
  5
2E94
  8
AM_0
 10
273.48239804937651
 20
166.83266668642059
 30
0.0
 11
284.02169804937643
 21
166.55669668642051
 31
0.0
  0
LINE
  5
2E95
  8
AM_0
 10
264.45347485609318
 20
166.59448443337439
 30
0.0
 11
273.48245804937642
 21
166.3326856864206
 31
0.0
  0
ARC
  5
2E96
  8
AM_0
 10
264.48245804937642
 20
167.59406433238581
 30
0.0
 40
1.0
 50
180.0
 51
268.33915276702578
1001
GENIUS_GENOBJ-N-FIL_13
1002
{
1000
OWNER
1000
GEN
1002
}
1001
GENIUS_GENODEF_13
1002
{
1000
HIER
1070
     0
1002
}
1002
{
1000
MANEDIT
1070
     0
1002
}
1002
{
1000
NOSEL
1070
     0
1002
}
1002
{
1000
BEHIND
1070
     0
1002
}
1002
{
1000
OTHER
1070
     0
1002
}
1002
{
1000
REACTOR
1002
}
  0
ARC
  5
2E97
  8
AM_0
 10
286.98245804937631
 20
159.7942316864204
 30
0.0
 40
1.5000000299999969
 50
179.99998999999991
 51
268.50000999999992
  0
ARC
  5
2E98
  8
AM_0
 10
283.98245804937631
 20
165.05721568642051
 30
0.0
 40
1.5000000299999969
 50
0.0
 51
88.499996999999965
  0
LINE
  5
2E99
  8
AM_0
 10
273.48245804937642
 20
176.83266868642059
 30
0.0
 11
291.48245804937631
 21
176.83266868642059
 31
0.0
  0
ARC
  5
2E9A
  8
AM_0
 10
258.48245804937642
 20
170.7616178745551
 30
0.0
 40
5.0
 50
0.0
 51
45.0
1001
GENIUS_GENODEF_13
1002
{
1000
HIER
1070
     0
1002
}
1002
{
1000
MANEDIT
1070
     0
1002
}
1002
{
1000
NOSEL
1070
     0
1002
}
1002
{
1000
BEHIND
1070
     0
1002
}
1002
{
1000
OTHER
1070
     0
1002
}
1002
{
1000
REACTOR
1002
}
1001
GENIUS_GENOBJ-N-FIL_13
1002
{
1000
OWNER
1000
GEN
1002
}
  0
ARC
  5
2E9B
  8
AM_0
 10
283.48244804937639
 20
170.46226168642059
 30
0.0
 40
2.00000007
 50
0.0
 51
90.000003000000007
  0
LINE
  5
2E9C
  8
AM_0
 10
285.48245804937631
 20
172.4622746864205
 30
0.0
 11
291.48245804937631
 21
172.4622746864205
 31
0.0
  0
ARC
  5
2E9D
  8
AM_0
 10
289.48244804937627
 20
172.0407986864206
 30
0.0
 40
2.00000007
 50
270.0
 51
0.0
  0
LINE
  5
2E9E
  8
AM_0
 10
219.98245804937639
 20
197.8326856864206
 30
0.0
 11
234.3403224256451
 21
197.8326856864206
 31
0.0
  0
LINE
  5
2E9F
  8
AM_0
 10
219.98245804937639
 20
247.8326856864206
 30
0.0
 11
234.3403224256451
 21
247.8326856864206
 31
0.0
  0
LINE
  5
2EA0
  8
AM_0
 10
215.98245804937639
 20
237.00425856167439
 30
0.0
 11
215.98245804937639
 21
208.66111281116659
 31
0.0
  0
LINE
  5
2EA1
  8
AM_0
 10
217.98245804937611
 20
199.8326856864206
 30
0.0
 11
217.98245804937639
 21
245.8326856864206
 31
0.0
  0
LINE
  5
2EA2
  8
AM_0
 10
188.98245804937639
 20
228.83268568642049
 30
0.0
 11
213.98245804937639
 21
228.83268568642049
 31
0.0
  0
LINE
  5
2EA3
  8
AM_0
 10
188.98245804937639
 20
230.3326856864206
 30
0.0
 11
206.98245804937639
 21
230.3326856864206
 31
0.0
  0
LINE
  5
2EA4
  8
AM_0
 10
188.98245804937639
 20
216.8326856864206
 30
0.0
 11
213.98245804937639
 21
216.8326856864206
 31
0.0
  0
LINE
  5
2EA5
  8
AM_0
 10
188.98245804937639
 20
230.3326856864206
 30
0.0
 11
188.98245804937639
 21
216.8326856864206
 31
0.0
  0
ARC
  5
2EA6
  8
AM_0
 10
219.98245804937639
 20
199.8326856864206
 30
0.0
 40
2.0
 50
180.0
 51
270.0
1001
GENIUS_GENODEF_13
1002
{
1000
HIER
1070
     0
1002
}
1002
{
1000
MANEDIT
1070
     0
1002
}
1002
{
1000
NOSEL
1070
     0
1002
}
1002
{
1000
BEHIND
1070
     0
1002
}
1002
{
1000
OTHER
1070
     0
1002
}
1002
{
1000
REACTOR
1002
}
1001
GENIUS_GENOBJ-N-FIL_13
1002
{
1000
OWNER
1000
GEN
1002
}
  0
LINE
  5
2EA7
  8
AM_0
 10
216.56824448700311
 20
207.2468992487936
 30
0.0
 11
217.3966716117495
 21
206.41847212404741
 31
0.0
  0
ARC
  5
2EA8
  8
AM_0
 10
215.98245804937639
 20
205.00425856167439
 30
0.0
 40
2.0
 50
0.0
 51
45.000000000000568
1001
GENIUS_GENODEF_13
1002
{
1000
HIER
1070
     0
1002
}
1002
{
1000
MANEDIT
1070
     0
1002
}
1002
{
1000
NOSEL
1070
     0
1002
}
1002
{
1000
BEHIND
1070
     0
1002
}
1002
{
1000
OTHER
1070
     0
1002
}
1002
{
1000
REACTOR
1002
}
1001
GENIUS_GENOBJ-N-FIL_13
1002
{
1000
OWNER
1000
GEN
1002
}
  0
ARC
  5
2EA9
  8
AM_0
 10
217.98245804937639
 20
208.66111281116659
 30
0.0
 40
2.0
 50
180.0
 51
225.0000000000006
1001
GENIUS_GENODEF_13
1002
{
1000
HIER
1070
     0
1002
}
1002
{
1000
MANEDIT
1070
     0
1002
}
1002
{
1000
NOSEL
1070
     0
1002
}
1002
{
1000
BEHIND
1070
     0
1002
}
1002
{
1000
OTHER
1070
     0
1002
}
1002
{
1000
REACTOR
1002
}
1001
GENIUS_GENOBJ-N-FIL_13
1002
{
1000
OWNER
1000
GEN
1002
}
  0
LINE
  5
2EAA
  8
AM_0
 10
206.98245804937639
 20
230.3326856864206
 30
0.0
 11
206.98245804937639
 21
228.83268568642049
 31
0.0
  0
LINE
  5
2EAB
  8
AM_0
 10
213.98245804937639
 20
230.3326856864206
 30
0.0
 11
213.98245804937639
 21
215.3326780570261
 31
0.0
  0
LINE
  5
2EAC
  8
AM_0
 10
213.98245804937639
 20
215.3326780570261
 30
0.0
 11
215.98245804937639
 21
215.3326780570261
 31
0.0
  0
LINE
  5
2EAD
  8
AM_0
 10
213.98245804937639
 20
230.3326856864206
 30
0.0
 11
215.98245804937639
 21
230.3326856864206
 31
0.0
  0
ARC
  5
2EAE
  8
AM_0
 10
217.98245804937639
 20
237.00425856167439
 30
0.0
 40
2.0
 50
134.9999999999994
 51
180.0
1001
GENIUS_GENODEF_13
1002
{
1000
HIER
1070
     0
1002
}
1002
{
1000
MANEDIT
1070
     0
1002
}
1002
{
1000
NOSEL
1070
     0
1002
}
1002
{
1000
BEHIND
1070
     0
1002
}
1002
{
1000
OTHER
1070
     0
1002
}
1002
{
1000
REACTOR
1002
}
1001
GENIUS_GENOBJ-N-FIL_13
1002
{
1000
OWNER
1000
GEN
1002
}
  0
LINE
  5
2EAF
  8
AM_0
 10
216.56824448700311
 20
238.4184721240475
 30
0.0
 11
217.3966716117495
 21
239.24689924879351
 31
0.0
  0
ARC
  5
2EB0
  8
AM_0
 10
215.98245804937639
 20
240.6611128111665
 30
0.0
 40
2.0
 50
314.9999999999992
 51
0.0
1001
GENIUS_GENODEF_13
1002
{
1000
HIER
1070
     0
1002
}
1002
{
1000
MANEDIT
1070
     0
1002
}
1002
{
1000
NOSEL
1070
     0
1002
}
1002
{
1000
BEHIND
1070
     0
1002
}
1002
{
1000
OTHER
1070
     0
1002
}
1002
{
1000
REACTOR
1002
}
1001
GENIUS_GENOBJ-N-FIL_13
1002
{
1000
OWNER
1000
GEN
1002
}
  0
ARC
  5
2EB1
  8
AM_0
 10
219.98245804937639
 20
245.8326856864206
 30
0.0
 40
2.0
 50
90.0
 51
180.0
1001
GENIUS_GENODEF_13
1002
{
1000
HIER
1070
     0
1002
}
1002
{
1000
MANEDIT
1070
     0
1002
}
1002
{
1000
NOSEL
1070
     0
1002
}
1002
{
1000
BEHIND
1070
     0
1002
}
1002
{
1000
OTHER
1070
     0
1002
}
1002
{
1000
REACTOR
1002
}
1001
GENIUS_GENOBJ-N-FIL_13
1002
{
1000
OWNER
1000
GEN
1002
}
  0
LINE
  5
2EB2
  8
AM_0
 10
238.48245804937639
 20
247.8326856864204
 30
0.0
 11
238.48245804937639
 21
197.83268568642049
 31
0.0
  0
LINE
  5
2EB3
  8
AM_0
 10
291.48245804937631
 20
262.7063126864204
 30
0.0
 11
291.48245804937631
 21
222.8326856864206
 31
0.0
  0
ARC
  5
2EB4
  8
AM_0
 10
234.3403224256451
 20
187.83268568642029
 30
0.0
 40
10.0
 50
45.0
 51
90.0
1001
GENIUS_GENOBJ-N-FIL_13
1002
{
1000
OWNER
1000
GEN
1002
}
1001
GENIUS_GENODEF_13
1002
{
1000
HIER
1070
     0
1002
}
1002
{
1000
MANEDIT
1070
     0
1002
}
1002
{
1000
NOSEL
1070
     0
1002
}
1002
{
1000
BEHIND
1070
     0
1002
}
1002
{
1000
OTHER
1070
     0
1002
}
1002
{
1000
REACTOR
1002
}
  0
LINE
  5
2EB5
  8
AM_0
 10
273.48245804937642
 20
190.89524368642071
 30
0.0
 11
291.48245804937631
 21
190.89524368642071
 31
0.0
  0
LINE
  5
2EB6
  8
AM_0
 10
262.0179919553093
 20
271.3682195923534
 30
0.0
 11
241.41139023751069
 21
250.7616178745549
 31
0.0
  0
ARC
  5
2EB7
  8
AM_0
 10
234.3403224256451
 20
257.8326856864204
 30
0.0
 40
10.0
 50
270.0
 51
315.0
1001
GENIUS_GENODEF_13
1002
{
1000
HIER
1070
     0
1002
}
1002
{
1000
MANEDIT
1070
     0
1002
}
1002
{
1000
NOSEL
1070
     0
1002
}
1002
{
1000
BEHIND
1070
     0
1002
}
1002
{
1000
OTHER
1070
     0
1002
}
1002
{
1000
REACTOR
1002
}
1001
GENIUS_GENOBJ-N-FIL_13
1002
{
1000
OWNER
1000
GEN
1002
}
  0
LINE
  5
2EB8
  8
AM_0
 10
285.48245804937631
 20
266.83268668642069
 30
0.0
 11
285.48245804937631
 21
248.6153996864206
 31
0.0
  0
LINE
  5
2EB9
  8
AM_0
 10
273.48245804937642
 20
254.7701246864205
 30
0.0
 11
285.48245804937631
 21
254.7701246864205
 31
0.0
  0
LINE
  5
2EBA
  8
AM_0
 10
285.48245804937631
 20
248.6153996864206
 30
0.0
 11
291.48245804937631
 21
248.6153996864206
 31
0.0
  0
LINE
  5
2EBB
  8
AM_0
 10
273.48245804937642
 20
268.83268468642041
 30
0.0
 11
291.48245804937631
 21
268.83268468642041
 31
0.0
  0
ARC
  5
2EBC
  8
AM_0
 10
258.48245804937642
 20
274.90375349828611
 30
0.0
 40
5.0
 50
315.0
 51
0.0
1001
GENIUS_GENODEF_13
1002
{
1000
HIER
1070
     0
1002
}
1002
{
1000
MANEDIT
1070
     0
1002
}
1002
{
1000
NOSEL
1070
     0
1002
}
1002
{
1000
BEHIND
1070
     0
1002
}
1002
{
1000
OTHER
1070
     0
1002
}
1002
{
1000
REACTOR
1002
}
1001
GENIUS_GENOBJ-N-FIL_13
1002
{
1000
OWNER
1000
GEN
1002
}
  0
LINE
  5
2EBD
  8
AM_0
 10
285.48245804937631
 20
266.83268668642069
 30
0.0
 11
291.48245804937631
 21
266.83268668642069
 31
0.0
  0
LINE
  5
2EBE
  8
AM_0
 10
356.48246804937639
 20
239.83268368642041
 30
0.0
 11
356.48246804937639
 21
174.33266668642059
 31
0.0
  0
LINE
  5
2EBF
  8
AM_0
 10
342.48245804937619
 20
172.2094526864206
 30
0.0
 11
342.48245804937619
 21
199.29767968642051
 31
0.0
  0
LINE
  5
2EC0
  8
AM_0
 10
297.48245804937631
 20
158.0187626864207
 30
0.0
 11
333.48248804937629
 21
156.76160668642061
 31
0.0
  0
LINE
  5
2EC1
  8
AM_0
 10
297.48245804937631
 20
170.05204468642069
 30
0.0
 11
333.48245804937631
 21
170.05204468642069
 31
0.0
  0
ARC
  5
2EC2
  8
AM_0
 10
334.93703804937638
 20
168.9407606864205
 30
0.0
 40
2.5454064299999981
 50
325.61556999999982
 51
34.384439
  0
LINE
  5
2EC3
  8
AM_0
 10
333.48245804937631
 20
173.03145868642059
 30
0.0
 11
333.48245804937631
 21
156.83266768642051
 31
0.0
  0
LINE
  5
2EC4
  8
AM_0
 10
337.03766804937618
 20
167.5032776864206
 30
0.0
 11
333.48245804937631
 21
167.5032776864206
 31
0.0
  0
LINE
  5
2EC5
  8
AM_0
 10
337.03766804937618
 20
158.87825968642071
 30
0.0
 11
333.48245804937631
 21
158.87825968642071
 31
0.0
  0
LINE
  5
2EC6
  8
AM_0
 10
337.03766804937618
 20
161.75326168642039
 30
0.0
 11
333.48245804937631
 21
161.75326168642039
 31
0.0
  0
ARC
  5
2EC7
  8
AM_0
 10
334.93703804937638
 20
160.31574568642051
 30
0.0
 40
2.5454064299999981
 50
325.61556999999982
 51
34.384439
  0
LINE
  5
2EC8
  8
AM_0
 10
337.48241804937618
 20
168.9407606864205
 30
0.0
 11
337.48241804937618
 21
160.31574568642051
 31
0.0
  0
ARC
  5
2EC9
  8
AM_0
 10
327.96794804937639
 20
164.62826068642059
 30
0.0
 40
9.5144921999999994
 50
342.41196000000002
 51
17.588032999999999
  0
ARC
  5
2ECA
  8
AM_0
 10
344.48246804937639
 20
172.2094526864206
 30
0.0
 40
2.00000007
 50
179.99998999999991
 51
268.00000999999992
  0
LINE
  5
2ECB
  8
AM_0
 10
334.45625804937612
 20
173.7558866864205
 30
0.0
 11
342.48245804937619
 21
173.96606068642041
 31
0.0
  0
LINE
  5
2ECC
  8
AM_0
 10
337.03766804937618
 20
170.37826168642039
 30
0.0
 11
333.48245804937631
 21
170.37826168642039
 31
0.0
  0
ARC
  5
2ECD
  8
AM_0
 10
334.48241804937629
 20
172.7562506864204
 30
0.0
 40
1.0000000199999981
 50
91.500000999999969
 51
180.00001
  0
LINE
  5
2ECE
  8
AM_0
 10
344.4126880493763
 20
170.2106576864206
 30
0.0
 11
352.48241804937652
 21
169.9288586864206
 31
0.0
  0
LINE
  5
2ECF
  8
AM_0
 10
352.48244804937639
 20
174.2279156864204
 30
0.0
 11
356.48246804937639
 21
174.33266668642059
 31
0.0
  0
ARC
  5
2ED0
  8
AM_0
 10
345.48245804937631
 20
185.21737168642039
 30
0.0
 40
2.00000007
 50
268.0
 51
0.0
  0
LINE
  5
2ED1
  8
AM_0
 10
359.4824380493763
 20
230.3326856864206
 30
0.0
 11
387.48245804937631
 21
230.3326856864206
 31
0.0
  0
LINE
  5
2ED2
  8
AM_0
 10
359.4824380493763
 20
249.33268468642061
 30
0.0
 11
387.48245804937631
 21
249.33268468642061
 31
0.0
  0
LINE
  5
2ED3
  8
AM_0
 10
359.4824380493763
 20
229.8326996864206
 30
0.0
 11
359.4824380493763
 21
239.83268368642041
 31
0.0
  0
LINE
  5
2ED4
  8
AM_0
 10
357.48245804937631
 20
258.85853368642063
 30
0.0
 11
357.48245804937631
 21
220.5882536864205
 31
0.0
  0
ARC
  5
2ED5
  8
AM_0
 10
344.48246804937639
 20
199.29767968642051
 30
0.0
 40
2.00000007
 50
90.000003000000007
 51
180.00001
  0
LINE
  5
2ED6
  8
AM_0
 10
334.48241804937629
 20
193.0973936864205
 30
0.0
 11
342.48245804937619
 21
193.0973936864205
 31
0.0
  0
ARC
  5
2ED7
  8
AM_0
 10
334.48241804937629
 20
198.0973766864206
 30
0.0
 40
5.0000001000000003
 50
179.99998999999991
 51
270.0
  0
LINE
  5
2ED8
  8
AM_0
 10
356.48246804937639
 20
218.75979268642061
 30
0.0
 11
356.89667804937648
 21
219.17400868642071
 31
0.0
  0
ARC
  5
2ED9
  8
AM_0
 10
355.48241804937652
 20
220.5882536864205
 30
0.0
 40
2.00000007
 50
315.0
 51
0.0
  0
LINE
  5
2EDA
  8
AM_0
 10
357.48245804937631
 20
229.8326996864206
 30
0.0
 11
359.4824380493763
 21
229.8326996864206
 31
0.0
  0
LINE
  5
2EDB
  8
AM_0
 10
297.48245804937631
 20
265.43952868642072
 30
0.0
 11
327.67847804937628
 21
265.43952868642072
 31
0.0
  0
LINE
  5
2EDC
  8
AM_0
 10
359.4824380493763
 20
249.8326856864206
 30
0.0
 11
359.4824380493763
 21
239.83268368642041
 31
0.0
  0
LINE
  5
2EDD
  8
AM_0
 10
357.48245804937631
 20
249.8326856864206
 30
0.0
 11
359.4824380493763
 21
249.8326856864206
 31
0.0
  0
LINE
  5
2EDE
  8
AM_0
 10
356.48246804937639
 20
260.7598406864206
 30
0.0
 11
356.89667804937648
 21
260.34559468642072
 31
0.0
  0
ARC
  5
2EDF
  8
AM_0
 10
355.48241804937652
 20
258.93137968642071
 30
0.0
 40
2.00000007
 50
0.0
 51
45.00000099999999
  0
LINE
  5
2EE0
  8
AM_0
 10
387.48245804937631
 20
230.3326856864206
 30
0.0
 11
387.48245804937631
 21
251.83268568642049
 31
0.0
  0
LINE
  5
2EE1
  8
AM_0
 10
365.4824380493763
 20
251.83268568642049
 30
0.0
 11
387.48245804937631
 21
251.83268568642049
 31
0.0
  0
LINE
  5
2EE2
  8
AM_0
 10
365.4824380493763
 20
249.33268468642061
 30
0.0
 11
365.4824380493763
 21
251.83268568642049
 31
0.0
  0
LINE
  5
2EE3
  8
AM_0
 10
292.94321804937618
 20
282.71384968642059
 30
0.0
 11
297.48245804937631
 21
282.83268568642052
 31
0.0
  0
LINE
  5
2EE4
  8
AM_0
 10
273.48245804937642
 20
278.8326866864204
 30
0.0
 11
290.02169804937643
 21
279.26579068642042
 31
0.0
  0
LINE
  5
2EE5
  8
AM_0
 10
264.45347485609318
 20
279.07088693946662
 30
0.0
 11
273.48245804937642
 21
279.3326856864204
 31
0.0
  0
ARC
  5
2EE6
  8
AM_0
 10
264.48245804937642
 20
278.07130704045551
 30
0.0
 40
1.0
 50
91.66084723297412
 51
180.0
1001
GENIUS_GENOBJ-N-FIL_13
1002
{
1000
OWNER
1000
GEN
1002
}
1001
GENIUS_GENODEF_13
1002
{
1000
HIER
1070
     0
1002
}
1002
{
1000
MANEDIT
1070
     0
1002
}
1002
{
1000
NOSEL
1070
     0
1002
}
1002
{
1000
BEHIND
1070
     0
1002
}
1002
{
1000
OTHER
1070
     0
1002
}
1002
{
1000
REACTOR
1002
}
  0
ARC
  5
2EE7
  8
AM_0
 10
292.98245804937631
 20
281.21433868642072
 30
0.0
 40
1.5000000299999969
 50
91.500000999999969
 51
180.00001
  0
ARC
  5
2EE8
  8
AM_0
 10
289.98245804937631
 20
280.76527168642048
 30
0.0
 40
1.5000000299999969
 50
271.49999999999972
 51
0.0
  0
ARC
  5
2EE9
  8
AM_0
 10
326.48246804937628
 20
286.59309268642062
 30
0.0
 40
3.0
 50
271.49999999999972
 51
0.0
  0
LINE
  5
2EEA
  8
AM_0
 10
297.48245804937631
 20
282.83268568642052
 30
0.0
 11
326.56097804937627
 21
283.59413068642061
 31
0.0
  0
LINE
  5
2EEB
  8
AM_0
 10
342.48245804937619
 20
312.55211068642052
 30
0.0
 11
342.48245804937619
 21
280.27305568642072
 31
0.0
  0
ARC
  5
2EEC
  8
AM_0
 10
344.48246804937639
 20
280.27305568642072
 30
0.0
 40
2.00000007
 50
179.99998999999991
 51
271.51463999999999
  0
ARC
  5
2EED
  8
AM_0
 10
344.48246804937639
 20
312.55211068642052
 30
0.0
 40
2.00000007
 50
91.999997999999948
 51
180.00001
  0
ARC
  5
2EEE
  8
AM_0
 10
339.48245804937631
 20
312.24329068642072
 30
0.0
 40
3.0
 50
272.0
 51
0.0
  0
ARC
  5
2EEF
  8
AM_0
 10
334.48241804937629
 20
304.06379068642048
 30
0.0
 40
5.0000001000000003
 50
91.999997999999948
 51
180.00001
  0
LINE
  5
2EF0
  8
AM_0
 10
334.30799804937618
 20
309.06077068642071
 30
0.0
 11
339.58715804937651
 21
309.24512068642048
 31
0.0
  0
ARC
  5
2EF1
  8
AM_0
 10
344.48246804937639
 20
299.33270068642048
 30
0.0
 40
3.0
 50
0.0
 51
90.000003000000007
  0
LINE
  5
2EF2
  8
AM_0
 10
352.48241804937652
 20
309.83270068642048
 30
0.0
 11
356.48246804937639
 21
309.83270068642048
 31
0.0
  0
LINE
  5
2EF3
  8
AM_0
 10
344.41265804937632
 20
314.55089068642047
 30
0.0
 11
352.48244804937639
 21
314.83268068642047
 31
0.0
  0
LINE
  5
2EF4
  8
AM_0
 10
558.93482102405005
 20
264.31202668642072
 30
0.0
 11
580.27691102405015
 21
285.6540986864207
 31
0.0
  0
ARC
  5
2EF5
  8
AM_0
 10
537.2839110240501
 20
239.83268368642041
 30
0.0
 40
44.000000999999983
 50
47.547316999999993
 51
84.505819000000017
  0
LINE
  5
2EF6
  8
AM_0
 10
515.63300102405037
 20
264.31202668642072
 30
0.0
 11
494.29093502405021
 21
285.65406568642072
 31
0.0
  0
LINE
  5
2EF7
  8
ﾁｭｳｼﾝｾﾝ
 10
537.2839110240501
 20
153.16091368642051
 30
0.0
 11
537.2839110240501
 21
319.2730729588863
 31
0.0
  0
LINE
  5
2EF8
  8
AM_0
 10
512.80457102405035
 20
261.4835966864207
 30
0.0
 11
491.46250502404979
 21
282.8256356864207
 31
0.0
  0
LINE
  5
2EF9
  8
AM_0
 10
561.76325402404996
 20
261.4835966864207
 30
0.0
 11
583.10534102405006
 21
282.82566868642061
 31
0.0
  0
LINE
  5
2EFA
  8
AM_0
 10
612.28391402405032
 20
259.8326546864206
 30
0.0
 11
608.59047902405007
 21
302.04884068642048
 31
0.0
  0
LINE
  5
2EFB
  8
AM_0
 10
462.28390502405023
 20
259.8326546864206
 30
0.0
 11
465.97735502405021
 21
302.04884068642048
 31
0.0
  0
ARC
  5
2EFC
  8
AM_0
 10
537.2839110240501
 20
239.83268368642041
 30
0.0
 40
66.000003000000007
 50
291.2799599999999
 51
248.72002999999989
  0
ARC
  5
2EFD
  8
AM_0
 10
537.2839110240501
 20
239.83268368642041
 30
0.0
 40
70.000001999999995
 50
290.65615000000008
 51
249.3438399999998
  0
LINE
  5
2EFE
  8
ﾁｭｳｼﾝｾﾝ
 10
572.46432169214222
 20
222.8326856864206
 30
0.0
 11
502.10350035595832
 21
222.8326856864206
 31
0.0
  0
ARC
  5
2EFF
  8
AM_0
 10
537.2839110240501
 20
239.83268368642041
 30
0.0
 40
20.000000700000001
 50
270.0
 51
90.000003000000007
  0
ARC
  5
2F00
  8
AM_0
 10
537.2839110240501
 20
239.83268368642041
 30
0.0
 40
20.000000700000001
 50
270.0
 51
90.000003000000007
  0
LINE
  5
2F01
  8
AM_0
 10
561.23699102404998
 20
178.3326686864205
 30
0.0
 11
513.33084902405005
 21
178.3326686864205
 31
0.0
  0
LINE
  5
2F02
  8
AM_0
 10
544.89713402405005
 20
190.60811968642071
 30
0.0
 11
516.37872902405024
 21
218.3158526864205
 31
0.0
  0
LINE
  5
2F03
  8
AM_0
 10
513.17484302405023
 20
157.6282616864205
 30
0.0
 11
561.39296702405011
 21
157.6282616864205
 31
0.0
  0
LINE
  5
2F04
  8
ﾁｭｳｼﾝｾﾝ
 10
460.84588502404978
 20
239.83268368642041
 30
0.0
 11
616.01434195058346
 21
239.83268368642041
 31
0.0
  0
LINE
  5
2F05
  8
AM_0
 10
501.96039302404978
 20
174.33266668642059
 30
0.0
 11
537.2839110240501
 21
174.33266668642059
 31
0.0
  0
LINE
  5
2F06
  8
AM_0
 10
507.58542602405032
 20
207.3057536864205
 30
0.0
 11
531.43720202405029
 21
183.4539896864205
 31
0.0
  0
ARC
  5
2F07
  8
AM_0
 10
537.2839110240501
 20
239.83268368642041
 30
0.0
 40
20.000000700000001
 50
90.000003000000007
 51
270.0
  0
ARC
  5
2F08
  8
AM_0
 10
537.2839110240501
 20
239.83268368642041
 30
0.0
 40
20.000000700000001
 50
90.000003000000007
 51
270.0
  0
ARC
  5
2F09
  8
AM_0
 10
537.2839110240501
 20
239.83268368642041
 30
0.0
 40
30.0
 50
17.592213999999991
 51
225.82602999999969
  0
ARC
  5
2F0A
  8
AM_0
 10
496.41223802405011
 20
191.88992068642071
 30
0.0
 40
3.0
 50
135.0
 51
229.55207999999999
  0
LINE
  5
2F0B
  8
AM_0
 10
462.28390502405023
 20
219.8326526864206
 30
0.0
 11
465.94720502404982
 21
177.96110068642051
 31
0.0
  0
LINE
  5
2F0C
  8
AM_0
 10
498.78498002405013
 20
168.83266768642059
 30
0.0
 11
475.90912502405018
 21
168.83266768642059
 31
0.0
  0
ARC
  5
2F0D
  8
AM_0
 10
475.90912502405018
 20
178.83266668642051
 30
0.0
 40
10.000000200000001
 50
184.99999
 51
270.0
  0
LINE
  5
2F0E
  8
ﾁｭｳｼﾝｾﾝ
 10
484.95364502405027
 20
187.50237568642041
 30
0.0
 11
469.8054450240499
 21
172.3541816864205
 31
0.0
  0
CIRCLE
  5
2F0F
  8
AM_0
 10
477.17983502405008
 20
179.7285866864205
 30
0.0
 40
5.0000001000000003
  0
ARC
  5
2F10
  8
ﾁｭｳｼﾝｾﾝ
 10
537.2839110240501
 20
239.83268368642041
 30
0.0
 40
85.000001999999981
 50
215.69552999999991
 51
234.1425799999999
  0
LINE
  5
2F11
  8
AM_0
 10
513.17484302405023
 20
170.40177568642051
 30
0.0
 11
508.17484202405001
 21
167.51502568642039
 31
0.0
  0
LINE
  5
2F12
  8
AM_0
 10
518.17484102405024
 20
167.5150106864206
 30
0.0
 11
513.17487302405004
 21
170.40176068642069
 31
0.0
  0
CIRCLE
  5
2F13
  8
AM_0
 10
513.17484302405023
 20
164.62827568642041
 30
0.0
 40
4.9999998000000003
  0
LINE
  5
2F14
  8
AM_0
 10
498.78498002405013
 20
168.83266768642059
 30
0.0
 11
501.96039302404978
 21
174.33266668642059
 31
0.0
  0
ARC
  5
2F15
  8
AM_0
 10
501.77860202405031
 20
168.38662168642051
 30
0.0
 40
5.0000001000000003
 50
341.74801999999988
 51
56.890858999999999
  0
ARC
  5
2F16
  8
AM_0
 10
513.17484302405023
 20
164.6282456864206
 30
0.0
 40
7.0000007999999987
 50
161.74801999999991
 51
270.0
  0
LINE
  5
2F17
  8
AM_0
 10
513.17484302405023
 20
158.85479368642061
 30
0.0
 11
518.17484102405024
 21
161.74154068642051
 31
0.0
  0
LINE
  5
2F18
  8
AM_0
 10
508.17487202405022
 20
161.7415106864205
 30
0.0
 11
513.17487302405004
 21
158.8547606864206
 31
0.0
  0
LINE
  5
2F19
  8
AM_0
 10
508.17487202405022
 20
167.51502568642039
 30
0.0
 11
508.17487202405022
 21
161.74149568642071
 31
0.0
  0
LINE
  5
2F1A
  8
AM_0
 10
518.17484102405024
 20
161.74149568642071
 30
0.0
 11
518.17484102405024
 21
167.51502568642039
 31
0.0
  0
ARC
  5
2F1B
  8
AM_0
 10
537.2839110240501
 20
222.8326706864205
 30
0.0
 40
60.000002999999992
 50
233.93341000000001
 51
236.89085
  0
LINE
  5
2F1C
  8
AM_0
 10
462.28390502405023
 20
239.83268368642041
 30
0.0
 11
462.28390502405023
 21
219.83267068642061
 31
0.0
  0
ARC
  5
2F1D
  8
AM_0
 10
537.2839110240501
 20
239.83268368642041
 30
0.0
 40
44.000000999999983
 50
185.49419
 51
222.45267999999999
  0
ARC
  5
2F1E
  8
AM_0
 10
489.34120502405023
 20
198.9609956864206
 30
0.0
 40
3.0
 50
220.44792000000001
 51
315.0
  0
LINE
  5
2F1F
  8
AM_0
 10
512.80457102405035
 20
218.18175868642041
 30
0.0
 11
491.46250502404979
 21
196.8396716864205
 31
0.0
  0
LINE
  5
2F20
  8
AM_0
 10
515.41214702405023
 20
215.13247468642041
 30
0.0
 11
494.29093502405021
 21
194.01124168642039
 31
0.0
  0
ARC
  5
2F21
  8
AM_0
 10
510.68323502405019
 20
220.3030826864204
 30
0.0
 40
3.0
 50
315.0
 51
36.285257000000001
  0
ARC
  5
2F22
  8
AM_0
 10
517.53348602405026
 20
213.01116568642061
 30
0.0
 40
3.0
 50
45.826031
 51
135.0
  0
LINE
  5
2F23
  8
AM_0
 10
492.30265502405018
 20
264.07139368642061
 30
0.0
 11
487.30264502405021
 21
266.95814368642061
 31
0.0
  0
LINE
  5
2F24
  8
AM_0
 10
474.4448250240502
 20
241.33268368642061
 30
0.0
 11
490.4998350240503
 21
241.33268368642061
 31
0.0
  0
LINE
  5
2F25
  8
AM_0
 10
474.4448250240502
 20
238.33268368642049
 30
0.0
 11
490.4998350240503
 21
238.33268368642049
 31
0.0
  0
LINE
  5
2F26
  8
AM_0
 10
487.30264502405021
 20
255.41114668642041
 30
0.0
 11
492.30265502405018
 21
258.29789668642042
 31
0.0
  0
CIRCLE
  5
2F27
  8
AM_0
 10
487.30264502405021
 20
261.18464368642071
 30
0.0
 40
4.9999998000000003
  0
LINE
  5
2F28
  8
AM_0
 10
482.30263502405018
 20
258.29789668642042
 30
0.0
 11
487.30264502405021
 21
255.41114668642041
 31
0.0
  0
LINE
  5
2F29
  8
AM_0
 10
462.28390502405023
 20
239.83268368642041
 30
0.0
 11
462.28390502405023
 21
259.8326546864206
 31
0.0
  0
ARC
  5
2F2A
  8
AM_0
 10
474.4448250240502
 20
244.3326866864206
 30
0.0
 40
3.0
 50
175.90395000000001
 51
270.0
  0
ARC
  5
2F2B
  8
AM_0
 10
474.4448250240502
 20
235.33268368642041
 30
0.0
 40
3.0
 50
90.000003000000007
 51
184.09603999999999
  0
LINE
  5
2F2C
  8
AM_0
 10
487.30267502405007
 20
266.95814368642061
 30
0.0
 11
482.30263502405018
 21
264.07139368642061
 31
0.0
  0
LINE
  5
2F2D
  8
AM_0
 10
482.30263502405018
 20
264.07139368642061
 30
0.0
 11
482.30263502405018
 21
258.29789668642042
 31
0.0
  0
ARC
  5
2F2E
  8
AM_0
 10
537.2839110240501
 20
239.83268368642041
 30
0.0
 40
44.000000999999983
 50
137.5473199999997
 51
174.50581
  0
ARC
  5
2F2F
  8
AM_0
 10
490.4998350240503
 20
244.3326866864206
 30
0.0
 40
3.0
 50
270.0
 51
354.50582000000009
  0
ARC
  5
2F30
  8
AM_0
 10
490.4998350240503
 20
235.33268368642041
 30
0.0
 40
3.0
 50
5.494178999999999
 51
90.000003000000007
  0
LINE
  5
2F31
  8
AM_0
 10
492.30265502405018
 20
258.29789668642042
 30
0.0
 11
492.30265502405018
 21
264.07139368642061
 31
0.0
  0
ARC
  5
2F32
  8
AM_0
 10
510.68323502405019
 20
259.36225768642061
 30
0.0
 40
3.0
 50
323.71474000000001
 51
45.00000099999999
  0
ARC
  5
2F33
  8
AM_0
 10
517.75431002405026
 20
266.4333326864205
 30
0.0
 40
3.0
 50
225.0
 51
306.28525999999982
  0
LINE
  5
2F34
  8
AM_0
 10
612.28391402405032
 20
219.83267068642061
 30
0.0
 11
608.62062902405023
 21
177.9611156864205
 31
0.0
  0
ARC
  5
2F35
  8
AM_0
 10
558.83391602405027
 20
204.95266468642049
 30
0.0
 40
20.000000700000001
 50
225.82602999999969
 51
17.592213999999991
  0
LINE
  5
2F36
  8
AM_0
 10
575.78284502405006
 20
168.83266768642059
 30
0.0
 11
598.65868502405033
 21
168.83266768642059
 31
0.0
  0
ARC
  5
2F37
  8
ﾁｭｳｼﾝｾﾝ
 10
537.2839110240501
 20
239.83268368642041
 30
0.0
 40
85.000001999999981
 50
305.69552999999968
 51
324.14258000000001
  0
LINE
  5
2F38
  8
AM_0
 10
572.60742902405013
 20
174.33266668642059
 30
0.0
 11
537.2839110240501
 21
174.33266668642059
 31
0.0
  0
ARC
  5
2F39
  8
AM_0
 10
529.31586302405015
 20
181.33268368642061
 30
0.0
 40
3.0
 50
270.0
 51
45.00000099999999
  0
LINE
  5
2F3A
  8
AM_0
 10
575.78284502405006
 20
168.8326526864206
 30
0.0
 11
572.6074140240504
 21
174.3326516864206
 31
0.0
  0
ARC
  5
2F3B
  8
AM_0
 10
572.7892230240501
 20
168.38662168642051
 30
0.0
 40
5.0000001000000003
 50
123.10912999999979
 51
198.25198
  0
LINE
  5
2F3C
  8
AM_0
 10
561.39296702405011
 20
170.40179068642041
 30
0.0
 11
556.39295102405026
 21
167.51504068642041
 31
0.0
  0
LINE
  5
2F3D
  8
AM_0
 10
566.39296802405033
 20
167.5150106864206
 30
0.0
 11
561.39298202405007
 21
170.40176068642069
 31
0.0
  0
CIRCLE
  5
2F3E
  8
AM_0
 10
561.39296702405011
 20
164.62827568642041
 30
0.0
 40
4.9999998000000003
  0
ARC
  5
2F3F
  8
AM_0
 10
561.39296702405011
 20
164.6282456864206
 30
0.0
 40
7.0000007999999987
 50
270.0
 51
18.251978000000001
  0
LINE
  5
2F40
  8
AM_0
 10
561.39296702405011
 20
158.8547786864205
 30
0.0
 11
566.39296802405033
 21
161.7415256864204
 31
0.0
  0
LINE
  5
2F41
  8
AM_0
 10
556.39298402405007
 20
161.74149568642071
 30
0.0
 11
561.39296702405011
 21
158.8547456864205
 31
0.0
  0
LINE
  5
2F42
  8
AM_0
 10
556.39295102405026
 20
167.51502568642039
 30
0.0
 11
556.39295102405026
 21
161.74149568642071
 31
0.0
  0
LINE
  5
2F43
  8
AM_0
 10
566.39296802405033
 20
161.74149568642071
 30
0.0
 11
566.39296802405033
 21
167.51502568642039
 31
0.0
  0
ARC
  5
2F44
  8
AM_0
 10
574.54635002405018
 20
189.0339326864204
 30
0.0
 40
3.0
 50
211.70912000000001
 51
306.26119999999992
  0
ARC
  5
2F45
  8
AM_0
 10
537.2839110240501
 20
222.8326706864205
 30
0.0
 40
60.000002999999992
 50
303.10913999999991
 51
306.06658999999991
  0
ARC
  5
2F46
  8
AM_0
 10
537.2839110240501
 20
222.8326706864205
 30
0.0
 40
60.000002999999992
 50
303.10913999999991
 51
304.41151000000002
  0
LINE
  5
2F47
  8
AM_0
 10
570.99482102405022
 20
189.07461268642041
 30
0.0
 11
571.99416302405007
 21
187.4571356864204
 31
0.0
  0
ARC
  5
2F48
  8
AM_0
 10
566.03907002405003
 20
183.77787268642041
 30
0.0
 40
3.0
 50
297.15705000000008
 51
31.70912199999999
  0
LINE
  5
2F49
  8
AM_0
 10
567.59191202405032
 20
186.9721796864205
 30
0.0
 11
568.59125702405015
 21
185.3547026864205
 31
0.0
  0
ARC
  5
2F4A
  8
AM_0
 10
598.65868502405033
 20
178.83266668642051
 30
0.0
 40
10.000000200000001
 50
270.0
 51
355.0
  0
LINE
  5
2F4B
  8
ﾁｭｳｼﾝｾﾝ
 10
589.61420702405007
 20
187.50237568642041
 30
0.0
 11
604.76238302405022
 21
172.35419668642061
 31
0.0
  0
CIRCLE
  5
2F4C
  8
AM_0
 10
597.38797802404986
 20
179.7285866864205
 30
0.0
 40
5.0000001000000003
  0
LINE
  5
2F4D
  8
AM_0
 10
592.26517502405022
 20
264.07139368642061
 30
0.0
 11
587.2651770240501
 21
266.95814368642061
 31
0.0
  0
LINE
  5
2F4E
  8
AM_0
 10
586.11905702405011
 20
234.3066086864205
 30
0.0
 11
595.1432580240504
 21
209.51279968642061
 31
0.0
  0
LINE
  5
2F4F
  8
AM_0
 10
600.12297902404998
 20
238.33268368642049
 30
0.0
 11
588.93811802405025
 21
238.33268368642049
 31
0.0
  0
LINE
  5
2F50
  8
AM_0
 10
587.2651770240501
 20
255.41114668642041
 30
0.0
 11
592.26517502405022
 21
258.29792668642062
 31
0.0
  0
LINE
  5
2F51
  8
AM_0
 10
600.12297902404998
 20
241.33268368642061
 30
0.0
 11
585.66240902405036
 21
241.33268368642061
 31
0.0
  0
CIRCLE
  5
2F52
  8
AM_0
 10
587.26516202405026
 20
261.18464368642071
 30
0.0
 40
4.9999998000000003
  0
ARC
  5
2F53
  8
AM_0
 10
537.2839110240501
 20
239.83268368642041
 30
0.0
 40
9.5000003999999993
 50
108.40848
 51
71.591511999999994
  0
LINE
  5
2F54
  8
AM_0
 10
577.89853802405014
 20
210.99747868642061
 30
0.0
 11
565.88086802405007
 21
248.89988368642071
 31
0.0
  0
ARC
  5
2F55
  8
AM_0
 10
556.81350002404986
 20
266.4333326864205
 30
0.0
 40
3.0
 50
233.7147499999999
 51
315.0
  0
LINE
  5
2F56
  8
AM_0
 10
534.28391102405021
 20
245.8326866864206
 30
0.0
 11
540.28391102405021
 21
245.8326866864206
 31
0.0
  0
LINE
  5
2F57
  8
AM_0
 10
540.28391102405021
 20
251.8326866864206
 30
0.0
 11
534.28391102405021
 21
251.8326866864206
 31
0.0
  0
CIRCLE
  5
2F58
  8
AM_0
 10
537.2839110240501
 20
239.83268368642041
 30
0.0
 40
2.4999998400000001
  0
CIRCLE
  5
2F59
  8
AM_5
 10
537.2839110240501
 20
239.83268368642041
 30
0.0
 40
3.0
  0
LINE
  5
2F5A
  8
AM_0
 10
534.28391102405021
 20
251.8326866864206
 30
0.0
 11
534.28391102405021
 21
245.8326866864206
 31
0.0
  0
LINE
  5
2F5B
  8
AM_0
 10
540.28391102405021
 20
245.8326866864206
 30
0.0
 11
540.28391102405021
 21
251.8326866864206
 31
0.0
  0
LINE
  5
2F5C
  8
AM_0
 10
582.26517602405011
 20
258.29789668642042
 30
0.0
 11
587.26516202405026
 21
255.41114668642041
 31
0.0
  0
ARC
  5
2F5D
  8
AM_0
 10
537.2839110240501
 20
239.83268368642041
 30
0.0
 40
44.000000999999983
 50
19.999998999999981
 51
42.452682000000003
  0
LINE
  5
2F5E
  8
AM_0
 10
578.63037902405006
 20
254.88154468642051
 30
0.0
 11
582.84331502405018
 21
243.3066086864205
 31
0.0
  0
ARC
  5
2F5F
  8
AM_0
 10
585.66240902405036
 20
244.3326866864206
 30
0.0
 40
3.0
 50
200.0
 51
270.0
  0
ARC
  5
2F60
  8
AM_0
 10
588.93811802405025
 20
235.33268368642041
 30
0.0
 40
3.0
 50
90.000003000000007
 51
200.0
  0
ARC
  5
2F61
  8
AM_0
 10
563.88457502405015
 20
259.36225768642061
 30
0.0
 40
3.0
 50
135.0
 51
216.28525999999991
  0
LINE
  5
2F62
  8
AM_0
 10
587.26516202405026
 20
266.95817368642042
 30
0.0
 11
582.26516102405026
 21
264.07142368642042
 31
0.0
  0
LINE
  5
2F63
  8
AM_0
 10
582.26516102405026
 20
264.07139368642061
 30
0.0
 11
582.26516102405026
 21
258.29789668642042
 31
0.0
  0
LINE
  5
2F64
  8
AM_0
 10
612.28391402405032
 20
239.83268368642041
 30
0.0
 11
612.28391402405032
 21
219.83267068642061
 31
0.0
  0
LINE
  5
2F65
  8
AM_0
 10
612.28391402405032
 20
239.83268368642041
 30
0.0
 11
612.28391402405032
 21
259.8326546864206
 31
0.0
  0
ARC
  5
2F66
  8
AM_0
 10
600.12297902404998
 20
244.3326866864206
 30
0.0
 40
3.0
 50
270.0
 51
4.096044
  0
ARC
  5
2F67
  8
AM_0
 10
600.12297902404998
 20
235.33268368642041
 30
0.0
 40
3.0
 50
355.90395999999993
 51
90.000003000000007
  0
LINE
  5
2F68
  8
AM_0
 10
592.26517502405022
 20
258.29789668642042
 30
0.0
 11
592.26517502405022
 21
264.07139368642061
 31
0.0
  0
LINE
  5
2F69
  8
AM_0
 10
537.2839110240501
 20
314.83268068642047
 30
0.0
 11
517.28391302405021
 21
314.83268068642047
 31
0.0
  0
LINE
  5
2F6A
  8
AM_0
 10
517.28391302405021
 20
314.83265068642061
 30
0.0
 11
475.06774502405028
 21
311.13923068642077
 31
0.0
  0
ARC
  5
2F6B
  8
AM_0
 10
489.34120502405023
 20
280.70432968642069
 30
0.0
 40
3.0
 50
45.00000099999999
 51
139.5520799999999
  0
CIRCLE
  5
2F6C
  8
AM_0
 10
477.17983502405008
 20
299.93675068642062
 30
0.0
 40
5.0000001000000003
  0
LINE
  5
2F6D
  8
ﾁｭｳｼﾝｾﾝ
 10
484.95361502405001
 20
292.16294068642082
 30
0.0
 11
469.8054450240499
 21
307.31114068642069
 31
0.0
  0
ARC
  5
2F6E
  8
ﾁｭｳｼﾝｾﾝ
 10
537.2839110240501
 20
239.83268368642041
 30
0.0
 40
85.000001999999981
 50
125.69552999999991
 51
144.14258000000001
  0
ARC
  5
2F6F
  8
AM_0
 10
475.9393050240497
 20
301.17728068642077
 30
0.0
 40
10.000000200000001
 50
95.000001999999995
 51
175.00001
  0
ARC
  5
2F70
  8
AM_0
 10
496.41223802405011
 20
287.77540468642047
 30
0.0
 40
3.0
 50
130.44793000000001
 51
225.0
  0
ARC
  5
2F71
  8
ﾁｭｳｼﾝｾﾝ
 10
537.2839110240501
 20
239.83268368642041
 30
0.0
 40
85.000001999999981
 50
35.695528000000017
 51
54.14258199999999
  0
LINE
  5
2F72
  8
AM_0
 10
557.2839120240501
 20
314.83268068642047
 30
0.0
 11
599.50008602405023
 21
311.13923068642077
 31
0.0
  0
LINE
  5
2F73
  8
AM_0
 10
537.2839110240501
 20
314.83268068642047
 30
0.0
 11
557.28389702405025
 21
314.83268068642047
 31
0.0
  0
LINE
  5
2F74
  8
AM_0
 10
535.78391102405021
 20
302.67173068642052
 30
0.0
 11
535.78391102405021
 21
286.61674468642047
 31
0.0
  0
LINE
  5
2F75
  8
AM_0
 10
538.78391102405021
 20
302.67173068642052
 30
0.0
 11
538.78391102405021
 21
286.61674468642047
 31
0.0
  0
ARC
  5
2F76
  8
AM_0
 10
541.78391402405032
 20
286.61674468642047
 30
0.0
 40
3.0
 50
179.99998999999991
 51
264.50582000000003
  0
ARC
  5
2F77
  8
AM_0
 10
537.2839110240501
 20
239.83268368642081
 30
0.0
 40
44.000000999999983
 50
95.494178999999249
 51
132.45267999999771
  0
ARC
  5
2F78
  8
AM_0
 10
532.78391102405021
 20
286.61674468642047
 30
0.0
 40
3.0
 50
275.49417999999991
 51
0.0
  0
ARC
  5
2F79
  8
AM_0
 10
541.78391402405032
 20
302.67173068642052
 30
0.0
 40
3.0
 50
85.903959
 51
180.00001
  0
ARC
  5
2F7A
  8
AM_0
 10
532.78391102405021
 20
302.67173068642052
 30
0.0
 40
3.0
 50
0.0
 51
94.096045999999987
  0
ARC
  5
2F7B
  8
AM_0
 10
578.15558702405008
 20
287.77540468642047
 30
0.0
 40
3.0
 50
315.0
 51
49.552073
  0
ARC
  5
2F7C
  8
AM_0
 10
585.22664702405007
 20
280.70432968642069
 30
0.0
 40
3.0
 50
40.447929000000002
 51
135.0
  0
CIRCLE
  5
2F7D
  8
AM_0
 10
597.38797802404986
 20
299.93675068642062
 30
0.0
 40
5.0000001000000003
  0
LINE
  5
2F7E
  8
ﾁｭｳｼﾝｾﾝ
 10
589.61420702405007
 20
292.16294068642082
 30
0.0
 11
604.76240102405006
 21
307.31114068642069
 31
0.0
  0
ARC
  5
2F7F
  8
AM_0
 10
598.6285200240502
 20
301.17728068642077
 30
0.0
 40
10.000000200000001
 50
4.9999998999999971
 51
84.999996999999979
  0
LINE
  5
2F80
  8
AM_0
 10
273.48245804937608
 20
254.7701246864205
 30
0.0
 11
263.48245804937619
 21
254.7701246864205
 31
0.0
  0
LINE
  5
2F81
  8
AM_0
 10
273.48245804937608
 20
268.83269068642062
 30
0.0
 11
263.48245804937619
 21
268.83269068642062
 31
0.0
  0
LINE
  5
2F82
  8
AM_0
 10
273.48245804937608
 20
176.83268368642041
 30
0.0
 11
263.48245804937619
 21
176.83268368642041
 31
0.0
  0
LINE
  5
2F83
  8
AM_0
 10
273.48245804937608
 20
190.89524668642039
 30
0.0
 11
263.48245804937619
 21
190.89524668642039
 31
0.0
  0
LINE
  5
2F84
  8
ﾁｭｳｼﾝｾﾝ
 10
185.2657074640484
 20
445.1239897774953
 30
0.0
 11
392.84625804937622
 21
445.1239897774953
 31
0.0
  0
LINE
  5
2F85
  8
AM_0
 10
357.48245804937631
 20
464.1498297774952
 30
0.0
 11
357.48245804937631
 21
425.87956977749519
 31
0.0
  0
LINE
  5
2F86
  8
AM_0
 10
347.4824880493764
 20
504.6240197774955
 30
0.0
 11
347.4824880493764
 21
385.62398977749552
 31
0.0
  0
LINE
  5
2F87
  8
AM_0
 10
352.48245804937631
 20
520.12398977749535
 30
0.0
 11
352.48245804937631
 21
370.12398977749552
 31
0.0
  0
LINE
  5
2F88
  8
AM_0
 10
356.48248804937629
 20
515.1240197774955
 30
0.0
 11
356.48248804937629
 21
375.12398977749552
 31
0.0
  0
LINE
  5
2F89
  8
AM_0
 10
329.48248804937612
 20
509.35512977749551
 30
0.0
 11
329.48248804937612
 21
380.91038977749531
 31
0.0
  0
LINE
  5
2F8A
  8
AM_0
 10
273.48245804937642
 20
388.62398977749558
 30
0.0
 11
273.48245804937642
 21
501.6240197774955
 31
0.0
  0
LINE
  5
2F8B
  8
AM_0
 10
291.48245804937631
 20
387.22944977749552
 30
0.0
 11
291.48245804937631
 21
503.0185797774954
 31
0.0
  0
LINE
  5
2F8C
  8
AM_0
 10
297.48245804937631
 20
385.12398977749552
 30
0.0
 11
297.48245804937631
 21
505.1240197774955
 31
0.0
  0
LINE
  5
2F8D
  8
AM_0
 10
334.30798804937638
 20
375.89589977749552
 30
0.0
 11
339.5871980493763
 21
375.71156977749553
 31
0.0
  0
ARC
  5
2F8E
  8
AM_0
 10
293.48245804937631
 20
387.22944977749552
 30
0.0
 40
2.0
 50
180.00001000000091
 51
268.5000000000004
  0
ARC
  5
2F8F
  8
AM_0
 10
289.48245804937631
 20
396.7040597774955
 30
0.0
 40
2.0
 50
0.0
 51
88.499997000000747
  0
ARC
  5
2F90
  8
AM_0
 10
280.48245804937642
 20
396.93971977749533
 30
0.0
 40
2.0
 50
0.0
 51
88.499997000000747
  0
LINE
  5
2F91
  8
AM_0
 10
273.4824880493764
 20
399.12370977749532
 30
0.0
 11
289.53482804937647
 21
398.70335977749551
 31
0.0
  0
LINE
  5
2F92
  8
AM_0
 10
273.4824880493764
 20
388.62401977749522
 30
0.0
 11
283.47681804937628
 21
388.36229977749531
 31
0.0
  0
ARC
  5
2F93
  8
AM_0
 10
284.48245804937631
 20
390.09105977749522
 30
0.0
 40
2.0
 50
180.00001000000091
 51
268.5000000000004
  0
LINE
  5
2F94
  8
AM_0
 10
284.43011804937618
 20
388.0917597774955
 30
0.0
 11
290.11111804937627
 21
387.94298977749531
 31
0.0
  0
ARC
  5
2F95
  8
AM_0
 10
290.07187804937632
 20
386.4434997774955
 30
0.0
 40
1.5
 50
12.976653000001519
 51
88.499997000000747
  0
LINE
  5
2F96
  8
AM_0
 10
282.48245804937631
 20
396.93971977749533
 30
0.0
 11
282.48245804937631
 21
390.09105977749522
 31
0.0
  0
LINE
  5
2F97
  8
AM_0
 10
273.48245804937642
 20
413.18403977749551
 30
0.0
 11
289.48245804937631
 21
413.18403977749551
 31
0.0
  0
ARC
  5
2F98
  8
AM_0
 10
289.48245804937631
 20
411.18403977749563
 30
0.0
 40
2.0
 50
0.0
 51
90.000003000000945
  0
LINE
  5
2F99
  8
AM_0
 10
329.48248804937612
 20
384.28602977749551
 30
0.0
 11
293.43014804937638
 21
385.23012977749551
 31
0.0
  0
LINE
  5
2F9A
  8
AM_0
 10
297.48245804937631
 20
389.5976797774955
 30
0.0
 11
329.48248804937612
 21
389.5976797774955
 31
0.0
  0
ARC
  5
2F9B
  8
AM_0
 10
334.48245804937631
 20
380.89287977749552
 30
0.0
 40
5.0
 50
179.9999899999988
 51
268.00000999999861
  0
LINE
  5
2F9C
  8
AM_0
 10
342.48245804937619
 20
372.40458977749552
 30
0.0
 11
342.48245804937619
 21
404.68361977749521
 31
0.0
  0
LINE
  5
2F9D
  8
AM_0
 10
344.41269804937622
 20
370.40578977749527
 30
0.0
 11
352.48245804937631
 21
370.12398977749552
 31
0.0
  0
ARC
  5
2F9E
  8
AM_0
 10
344.4824880493764
 20
372.40458977749552
 30
0.0
 40
2.0
 50
179.9999899999988
 51
268.00000999999861
  0
ARC
  5
2F9F
  8
AM_0
 10
339.48245804937631
 20
372.71339977749551
 30
0.0
 40
3.0
 50
0.0
 51
87.999999999999659
  0
LINE
  5
2FA0
  8
AM_0
 10
352.48245804937631
 20
375.12398977749552
 30
0.0
 11
356.48248804937629
 21
375.12398977749552
 31
0.0
  0
ARC
  5
2FA1
  8
AM_0
 10
344.4824880493764
 20
385.62398977749552
 30
0.0
 40
3.0
 50
270.0
 51
0.0
  0
ARC
  5
2FA2
  8
AM_0
 10
344.4824880493764
 20
404.68361977749521
 30
0.0
 40
2.0
 50
88.485353000001012
 51
180.00001000000091
  0
ARC
  5
2FA3
  8
AM_0
 10
355.48245804937631
 20
426.02528977749557
 30
0.0
 40
2.0
 50
315.0
 51
0.0
  0
LINE
  5
2FA4
  8
AM_0
 10
356.48248804937629
 20
424.19682977749528
 30
0.0
 11
356.89670804937617
 21
424.61104977749551
 31
0.0
  0
LINE
  5
2FA5
  8
AM_0
 10
334.30798804937638
 20
514.35209977749525
 30
0.0
 11
339.58716804937632
 21
514.53645977749545
 31
0.0
  0
LINE
  5
2FA6
  8
AM_0
 10
293.43011804937612
 20
505.01790977749562
 30
0.0
 11
329.48248804937612
 21
505.96196977749531
 31
0.0
  0
ARC
  5
2FA7
  8
AM_0
 10
293.48245804937631
 20
503.0185797774954
 30
0.0
 40
2.0
 50
91.500001000001546
 51
180.00001000000091
  0
LINE
  5
2FA8
  8
AM_0
 10
273.48245804937642
 20
477.06392977749528
 30
0.0
 11
289.48245804937631
 21
477.06392977749528
 31
0.0
  0
ARC
  5
2FA9
  8
AM_0
 10
289.48245804937631
 20
479.0639297774955
 30
0.0
 40
2.0
 50
270.0
 51
0.0
  0
ARC
  5
2FAA
  8
AM_0
 10
280.48245804937642
 20
493.3083097774952
 30
0.0
 40
2.0
 50
271.4999999999992
 51
0.0
  0
LINE
  5
2FAB
  8
AM_0
 10
273.48245804937642
 20
491.12431977749571
 30
0.0
 11
289.53482804937647
 21
491.54463977749521
 31
0.0
  0
LINE
  5
2FAC
  8
AM_0
 10
273.4824880493764
 20
501.6240197774955
 30
0.0
 11
283.47681804937628
 21
501.88569977749552
 31
0.0
  0
LINE
  5
2FAD
  8
AM_0
 10
282.48245804937631
 20
493.3083097774952
 30
0.0
 11
282.48245804937631
 21
500.1569397774955
 31
0.0
  0
ARC
  5
2FAE
  8
AM_0
 10
289.48245804937631
 20
493.54396977749519
 30
0.0
 40
2.0
 50
271.4999999999992
 51
0.0
  0
LINE
  5
2FAF
  8
AM_0
 10
284.43011804937618
 20
502.1562697774956
 30
0.0
 11
290.11114804937631
 21
502.30504977749553
 31
0.0
  0
ARC
  5
2FB0
  8
AM_0
 10
284.48245804937631
 20
500.1569397774955
 30
0.0
 40
2.0
 50
91.500001000001546
 51
180.00001000000091
  0
ARC
  5
2FB1
  8
AM_0
 10
290.07187804937632
 20
503.8045297774953
 30
0.0
 40
1.5
 50
271.4999999999992
 51
347.02334999999908
  0
LINE
  5
2FB2
  8
AM_0
 10
297.48245804937631
 20
500.65034977749542
 30
0.0
 11
329.48248804937612
 21
500.65034977749542
 31
0.0
  0
ARC
  5
2FB3
  8
AM_0
 10
334.48245804937631
 20
509.35512977749551
 30
0.0
 40
5.0
 50
91.999998000000545
 51
180.00001000000091
  0
ARC
  5
2FB4
  8
AM_0
 10
344.4824880493764
 20
504.6240197774955
 30
0.0
 40
3.0
 50
0.0
 51
90.000003000000945
  0
LINE
  5
2FB5
  8
AM_0
 10
342.48245804937619
 20
517.84340977749525
 30
0.0
 11
342.48245804937619
 21
485.56437977749562
 31
0.0
  0
LINE
  5
2FB6
  8
AM_0
 10
365.48245804937619
 20
448.12398977749552
 30
0.0
 11
387.48245804937631
 21
448.12398977749552
 31
0.0
  0
LINE
  5
2FB7
  8
AM_0
 10
365.48245804937619
 20
442.12398977749552
 30
0.0
 11
387.48245804937631
 21
442.12398977749552
 31
0.0
  0
LINE
  5
2FB8
  8
AM_0
 10
359.48245804937631
 20
454.6240197774955
 30
0.0
 11
387.48245804937631
 21
454.6240197774955
 31
0.0
  0
LINE
  5
2FB9
  8
AM_0
 10
359.48245804937631
 20
435.6240197774955
 30
0.0
 11
387.48245804937631
 21
435.6240197774955
 31
0.0
  0
ARC
  5
2FBA
  8
AM_0
 10
365.48245804937619
 20
445.1239897774953
 30
0.0
 40
3.0
 50
89.986013999999244
 51
270.01398999999992
  0
LINE
  5
2FBB
  8
AM_0
 10
359.48245804937631
 20
435.1240197774955
 30
0.0
 11
359.48245804937631
 21
455.1240197774955
 31
0.0
  0
LINE
  5
2FBC
  8
AM_0
 10
357.48245804937631
 20
435.1240197774955
 30
0.0
 11
359.48245804937631
 21
435.1240197774955
 31
0.0
  0
LINE
  5
2FBD
  8
AM_0
 10
357.48245804937631
 20
455.1240197774955
 30
0.0
 11
359.48245804937631
 21
455.1240197774955
 31
0.0
  0
LINE
  5
2FBE
  8
AM_0
 10
356.48248804937629
 20
466.05113977749528
 30
0.0
 11
356.89667804937631
 21
465.63695977749552
 31
0.0
  0
ARC
  5
2FBF
  8
AM_0
 10
355.48245804937631
 20
464.2227097774952
 30
0.0
 40
2.0
 50
0.0
 51
45.000000999999187
  0
LINE
  5
2FC0
  8
AM_0
 10
365.48245804937619
 20
442.12398977749552
 30
0.0
 11
365.48245804937619
 21
448.12398977749552
 31
0.0
  0
ARC
  5
2FC1
  8
AM_0
 10
344.4824880493764
 20
485.56437977749562
 30
0.0
 40
2.0
 50
179.9999899999988
 51
271.51463999999902
  0
LINE
  5
2FC2
  8
AM_0
 10
387.48245804937631
 20
435.6240197774955
 30
0.0
 11
387.48245804937631
 21
454.6240197774955
 31
0.0
  0
LINE
  5
2FC3
  8
AM_0
 10
344.41266804937618
 20
519.84221977749553
 30
0.0
 11
352.48245804937631
 21
520.12401977749539
 31
0.0
  0
ARC
  5
2FC4
  8
AM_0
 10
339.48245804937631
 20
517.53459977749515
 30
0.0
 40
3.0
 50
272.0000000000004
 51
0.0
  0
ARC
  5
2FC5
  8
AM_0
 10
344.4824880493764
 20
517.84340977749525
 30
0.0
 40
2.0
 50
91.999998000000545
 51
180.00001000000091
  0
LINE
  5
2FC6
  8
AM_0
 10
352.48245804937631
 20
515.1240197774955
 30
0.0
 11
356.48248804937629
 21
515.1240197774955
 31
0.0
  0
LINE
  5
2FC7
  8
AM_0
 10
262.01799195530913
 20
396.58845587156259
 30
0.0
 11
241.41139023751069
 21
417.19505758936089
 31
0.0
  0
LINE
  5
2FC8
  8
AM_0
 10
263.48245804937619
 20
500.36261113153029
 30
0.0
 11
263.48245804937733
 21
389.88536842346031
 31
0.0
  0
ARC
  5
2FC9
  8
AM_0
 10
258.48245804937631
 20
393.05292196563011
 30
0.0
 40
5.0
 50
0.0
 51
45.0
1001
GENIUS_GENODEF_13
1002
{
1000
HIER
1070
     0
1002
}
1002
{
1000
MANEDIT
1070
     0
1002
}
1002
{
1000
NOSEL
1070
     0
1002
}
1002
{
1000
BEHIND
1070
     0
1002
}
1002
{
1000
OTHER
1070
     0
1002
}
1002
{
1000
REACTOR
1002
}
1001
GENIUS_GENOBJ-N-FIL_13
1002
{
1000
OWNER
1000
GEN
1002
}
  0
ARC
  5
2FCA
  8
AM_0
 10
264.48245804937631
 20
389.88536842346031
 30
0.0
 40
1.0
 50
180.0
 51
268.33915276702578
1001
GENIUS_GENOBJ-N-FIL_13
1002
{
1000
OWNER
1000
GEN
1002
}
1001
GENIUS_GENODEF_13
1002
{
1000
HIER
1070
     0
1002
}
1002
{
1000
MANEDIT
1070
     0
1002
}
1002
{
1000
NOSEL
1070
     0
1002
}
1002
{
1000
BEHIND
1070
     0
1002
}
1002
{
1000
OTHER
1070
     0
1002
}
1002
{
1000
REACTOR
1002
}
  0
LINE
  5
2FCB
  8
AM_0
 10
264.45347485609318
 20
388.88578852444948
 30
0.0
 11
273.48245804937608
 21
388.62398977749541
 31
0.0
  0
LINE
  5
2FCC
  8
AM_0
 10
273.48245804937608
 20
413.1865507774952
 30
0.0
 11
263.48245804937642
 21
413.1865507774952
 31
0.0
  0
LINE
  5
2FCD
  8
AM_0
 10
273.48245804937642
 20
399.12398777749542
 30
0.0
 11
263.48245804937642
 21
399.12398777749542
 31
0.0
  0
LINE
  5
2FCE
  8
AM_0
 10
213.98245804937631
 20
437.62398214810082
 30
0.0
 11
215.98245804937631
 21
437.62398214810082
 31
0.0
  0
LINE
  5
2FCF
  8
AM_0
 10
213.98245804937631
 20
452.62398977749552
 30
0.0
 11
215.98245804937631
 21
452.62398977749552
 31
0.0
  0
LINE
  5
2FD0
  8
AM_0
 10
213.98245804937631
 20
452.62398977749552
 30
0.0
 11
213.98245804937631
 21
437.62398214810082
 31
0.0
  0
LINE
  5
2FD1
  8
AM_0
 10
188.98245804937631
 20
447.1239897774953
 30
0.0
 11
206.98245804937611
 21
447.1239897774953
 31
0.0
  0
LINE
  5
2FD2
  8
AM_0
 10
188.98245804937631
 20
443.1239897774953
 30
0.0
 11
206.98245804937611
 21
443.1239897774953
 31
0.0
  0
LINE
  5
2FD3
  8
AM_0
 10
188.98245804937631
 20
451.1239897774953
 30
0.0
 11
213.98245804937631
 21
451.1239897774953
 31
0.0
  0
LINE
  5
2FD4
  8
AM_0
 10
188.98245804937631
 20
439.1239897774953
 30
0.0
 11
213.98245804937631
 21
439.1239897774953
 31
0.0
  0
LINE
  5
2FD5
  8
AM_0
 10
188.98245804937631
 20
451.1239897774953
 30
0.0
 11
188.98245804937631
 21
439.1239897774953
 31
0.0
  0
ARC
  5
2FD6
  8
AM_0
 10
206.98245804937611
 20
445.1239897774953
 30
0.0
 40
1.9999999999998861
 50
270.0
 51
90.0
  0
LINE
  5
2FD7
  8
AM_0
 10
206.98245804937611
 20
447.1239897774953
 30
0.0
 11
206.98245804937611
 21
443.1239897774953
 31
0.0
  0
ARC
  5
2FD8
  8
AM_0
 10
217.98245804937631
 20
459.2955626527492
 30
0.0
 40
2.0
 50
135.0
 51
180.0
1001
GENIUS_GENODEF_13
1002
{
1000
HIER
1070
     0
1002
}
1002
{
1000
MANEDIT
1070
     0
1002
}
1002
{
1000
NOSEL
1070
     0
1002
}
1002
{
1000
BEHIND
1070
     0
1002
}
1002
{
1000
OTHER
1070
     0
1002
}
1002
{
1000
REACTOR
1002
}
1001
GENIUS_GENOBJ-N-FIL_13
1002
{
1000
OWNER
1000
GEN
1002
}
  0
LINE
  5
2FD9
  8
AM_0
 10
217.98245804937611
 20
422.1239897774953
 30
0.0
 11
217.98245804937639
 21
468.1239897774953
 31
0.0
  0
LINE
  5
2FDA
  8
AM_0
 10
238.48245804937611
 20
470.1239897774953
 30
0.0
 11
238.48245804937611
 21
420.1239897774953
 31
0.0
  0
LINE
  5
2FDB
  8
AM_0
 10
215.98245804937631
 20
459.2955626527492
 30
0.0
 11
215.98245804937631
 21
430.95241690224162
 31
0.0
  0
LINE
  5
2FDC
  8
AM_0
 10
219.98245804937631
 20
420.1239897774953
 30
0.0
 11
234.34032242564541
 21
420.1239897774953
 31
0.0
  0
ARC
  5
2FDD
  8
AM_0
 10
215.98245804937631
 20
427.29556265274891
 30
0.0
 40
2.0
 50
0.0
 51
45.0
1001
GENIUS_GENODEF_13
1002
{
1000
HIER
1070
     0
1002
}
1002
{
1000
MANEDIT
1070
     0
1002
}
1002
{
1000
NOSEL
1070
     0
1002
}
1002
{
1000
BEHIND
1070
     0
1002
}
1002
{
1000
OTHER
1070
     0
1002
}
1002
{
1000
REACTOR
1002
}
1001
GENIUS_GENOBJ-N-FIL_13
1002
{
1000
OWNER
1000
GEN
1002
}
  0
ARC
  5
2FDE
  8
AM_0
 10
219.98245804937631
 20
422.1239897774953
 30
0.0
 40
2.0
 50
180.0
 51
270.0
1001
GENIUS_GENODEF_13
1002
{
1000
HIER
1070
     0
1002
}
1002
{
1000
MANEDIT
1070
     0
1002
}
1002
{
1000
NOSEL
1070
     0
1002
}
1002
{
1000
BEHIND
1070
     0
1002
}
1002
{
1000
OTHER
1070
     0
1002
}
1002
{
1000
REACTOR
1002
}
1001
GENIUS_GENOBJ-N-FIL_13
1002
{
1000
OWNER
1000
GEN
1002
}
  0
LINE
  5
2FDF
  8
AM_0
 10
216.56824448700311
 20
429.53820333986818
 30
0.0
 11
217.39667161174941
 21
428.70977621512242
 31
0.0
  0
ARC
  5
2FE0
  8
AM_0
 10
217.98245804937631
 20
430.95241690224162
 30
0.0
 40
2.0
 50
180.0
 51
225.0
1001
GENIUS_GENODEF_13
1002
{
1000
HIER
1070
     0
1002
}
1002
{
1000
MANEDIT
1070
     0
1002
}
1002
{
1000
NOSEL
1070
     0
1002
}
1002
{
1000
BEHIND
1070
     0
1002
}
1002
{
1000
OTHER
1070
     0
1002
}
1002
{
1000
REACTOR
1002
}
1001
GENIUS_GENOBJ-N-FIL_13
1002
{
1000
OWNER
1000
GEN
1002
}
  0
ARC
  5
2FE1
  8
AM_0
 10
234.3403224256451
 20
410.1239897774953
 30
0.0
 40
10.0
 50
45.0
 51
90.0
1001
GENIUS_GENOBJ-N-FIL_13
1002
{
1000
OWNER
1000
GEN
1002
}
1001
GENIUS_GENODEF_13
1002
{
1000
HIER
1070
     0
1002
}
1002
{
1000
MANEDIT
1070
     0
1002
}
1002
{
1000
NOSEL
1070
     0
1002
}
1002
{
1000
BEHIND
1070
     0
1002
}
1002
{
1000
OTHER
1070
     0
1002
}
1002
{
1000
REACTOR
1002
}
  0
LINE
  5
2FE2
  8
AM_0
 10
262.01799195530913
 20
493.65952368342789
 30
0.0
 11
241.41139023751069
 21
473.05292196562959
 31
0.0
  0
LINE
  5
2FE3
  8
AM_0
 10
219.98245804937631
 20
470.1239897774953
 30
0.0
 11
234.34032242564541
 21
470.1239897774953
 31
0.0
  0
ARC
  5
2FE4
  8
AM_0
 10
219.98245804937631
 20
468.1239897774953
 30
0.0
 40
2.0
 50
90.0
 51
180.0
1001
GENIUS_GENODEF_13
1002
{
1000
HIER
1070
     0
1002
}
1002
{
1000
MANEDIT
1070
     0
1002
}
1002
{
1000
NOSEL
1070
     0
1002
}
1002
{
1000
BEHIND
1070
     0
1002
}
1002
{
1000
OTHER
1070
     0
1002
}
1002
{
1000
REACTOR
1002
}
1001
GENIUS_GENOBJ-N-FIL_13
1002
{
1000
OWNER
1000
GEN
1002
}
  0
LINE
  5
2FE5
  8
AM_0
 10
216.56824448700311
 20
460.7097762151223
 30
0.0
 11
217.39667161174941
 21
461.53820333986852
 31
0.0
  0
ARC
  5
2FE6
  8
AM_0
 10
215.98245804937631
 20
462.95241690224151
 30
0.0
 40
2.0
 50
315.0
 51
0.0
1001
GENIUS_GENODEF_13
1002
{
1000
HIER
1070
     0
1002
}
1002
{
1000
MANEDIT
1070
     0
1002
}
1002
{
1000
NOSEL
1070
     0
1002
}
1002
{
1000
BEHIND
1070
     0
1002
}
1002
{
1000
OTHER
1070
     0
1002
}
1002
{
1000
REACTOR
1002
}
1001
GENIUS_GENOBJ-N-FIL_13
1002
{
1000
OWNER
1000
GEN
1002
}
  0
ARC
  5
2FE7
  8
AM_0
 10
234.34032242564541
 20
480.1239897774953
 30
0.0
 40
10.0
 50
270.0
 51
315.0
1001
GENIUS_GENODEF_13
1002
{
1000
HIER
1070
     0
1002
}
1002
{
1000
MANEDIT
1070
     0
1002
}
1002
{
1000
NOSEL
1070
     0
1002
}
1002
{
1000
BEHIND
1070
     0
1002
}
1002
{
1000
OTHER
1070
     0
1002
}
1002
{
1000
REACTOR
1002
}
1001
GENIUS_GENOBJ-N-FIL_13
1002
{
1000
OWNER
1000
GEN
1002
}
  0
LINE
  5
2FE8
  8
AM_0
 10
273.48245804937608
 20
477.06142877749551
 30
0.0
 11
263.48245804937642
 21
477.06142877749551
 31
0.0
  0
ARC
  5
2FE9
  8
AM_0
 10
264.48245804937631
 20
500.36261113153029
 30
0.0
 40
1.0
 50
91.660847232974191
 51
180.0
1001
GENIUS_GENOBJ-N-FIL_13
1002
{
1000
OWNER
1000
GEN
1002
}
1001
GENIUS_GENODEF_13
1002
{
1000
HIER
1070
     0
1002
}
1002
{
1000
MANEDIT
1070
     0
1002
}
1002
{
1000
NOSEL
1070
     0
1002
}
1002
{
1000
BEHIND
1070
     0
1002
}
1002
{
1000
OTHER
1070
     0
1002
}
1002
{
1000
REACTOR
1002
}
  0
LINE
  5
2FEA
  8
AM_0
 10
273.48245804937608
 20
491.12399477749511
 30
0.0
 11
263.48245804937642
 21
491.12399477749511
 31
0.0
  0
ARC
  5
2FEB
  8
AM_0
 10
258.48245804937631
 20
497.19505758936077
 30
0.0
 40
5.0
 50
315.0
 51
0.0
1001
GENIUS_GENODEF_13
1002
{
1000
HIER
1070
     0
1002
}
1002
{
1000
MANEDIT
1070
     0
1002
}
1002
{
1000
NOSEL
1070
     0
1002
}
1002
{
1000
BEHIND
1070
     0
1002
}
1002
{
1000
OTHER
1070
     0
1002
}
1002
{
1000
REACTOR
1002
}
1001
GENIUS_GENOBJ-N-FIL_13
1002
{
1000
OWNER
1000
GEN
1002
}
  0
LINE
  5
2FEC
  8
AM_0
 10
264.45347485609318
 20
501.36219103054123
 30
0.0
 11
273.48245804937608
 21
501.6239897774953
 31
0.0
  0
TEXT
  5
3209
  8
AM_0
 10
447.12430552076069
 20
440.07043083479749
 30
0.0
 40
10.0
  1
VX01-003GF~VX01-050GF
  0
ENDSEC
  0
EOF
