  0
SECTION
  2
HEADER
  9
$ACADVER
  1
AC1009
  9
$INSBASE
 10
0.0
 20
0.0
 30
0.0
  9
$EXTMIN
 10
152.80327822710771
 20
145.17188312453021
 30
-0.0000000000112498
  9
$EXTMAX
 10
659.34750542329584
 20
562.0810271983438
 30
0.0000000000002956
  9
$LIMMIN
 10
0.0
 20
0.0
  9
$LIMMAX
 10
853.5
 20
555.00000000000011
  9
$ORTHOMODE
 70
     0
  9
$REGENMODE
 70
     1
  9
$FILLMODE
 70
     1
  9
$QTEXTMODE
 70
     0
  9
$MIRRTEXT
 70
     1
  9
$DRAGMODE
 70
     2
  9
$LTSCALE
 40
3.0
  9
$OSMODE
 70
   551
  9
$ATTMODE
 70
     1
  9
$TEXTSIZE
 40
2.5
  9
$TRACEWID
 40
1.0
  9
$TEXTSTYLE
  7
STANDARD
  9
$CLAYER
  8
AM_0
  9
$CELTYPE
  6
BYLAYER
  9
$CECOLOR
 62
   256
  9
$DIMSCALE
 40
1.0
  9
$DIMASZ
 40
2.5
  9
$DIMEXO
 40
1.0
  9
$DIMDLI
 40
8.0
  9
$DIMRND
 40
0.0
  9
$DIMDLE
 40
0.0
  9
$DIMEXE
 40
0.6
  9
$DIMTP
 40
0.1
  9
$DIMTM
 40
0.1
  9
$DIMTXT
 40
2.5
  9
$DIMCEN
 40
0.0
  9
$DIMTSZ
 40
0.0
  9
$DIMTOL
 70
     0
  9
$DIMLIM
 70
     0
  9
$DIMTIH
 70
     0
  9
$DIMTOH
 70
     0
  9
$DIMSE1
 70
     0
  9
$DIMSE2
 70
     0
  9
$DIMTAD
 70
     1
  9
$DIMZIN
 70
     8
  9
$DIMBLK
  1

  9
$DIMASO
 70
     1
  9
$DIMSHO
 70
     1
  9
$DIMPOST
  1

  9
$DIMAPOST
  1
"
  9
$DIMALT
 70
     0
  9
$DIMALTD
 70
     2
  9
$DIMALTF
 40
0.0393701
  9
$DIMLFAC
 40
1.0
  9
$DIMTOFL
 70
     1
  9
$DIMTVP
 40
0.0
  9
$DIMTIX
 70
     0
  9
$DIMSOXD
 70
     0
  9
$DIMSAH
 70
     0
  9
$DIMBLK1
  1

  9
$DIMBLK2
  1

  9
$DIMSTYLE
  2
AM_ISO
  9
$DIMCLRD
 70
   256
  9
$DIMCLRE
 70
   256
  9
$DIMCLRT
 70
     4
  9
$DIMTFAC
 40
0.71
  9
$DIMGAP
 40
0.8
  9
$LUNITS
 70
     2
  9
$LUPREC
 70
     2
  9
$SKETCHINC
 40
1.0
  9
$FILLETRAD
 40
15.0
  9
$AUNITS
 70
     0
  9
$AUPREC
 70
     0
  9
$MENU
  1
.
  9
$ELEVATION
 40
0.0
  9
$PELEVATION
 40
0.0
  9
$THICKNESS
 40
0.0
  9
$LIMCHECK
 70
     0
  9
$BLIPMODE
 70
     0
  9
$CHAMFERA
 40
6.0
  9
$CHAMFERB
 40
3.0
  9
$SKPOLY
 70
     0
  9
$TDCREATE
 40
2452065.618108171
  9
$TDUPDATE
 40
2458541.4371163659
  9
$TDINDWG
 40
0.0801335764
  9
$TDUSRTIMER
 40
0.0801335417
  9
$USRTIMER
 70
     1
  9
$ANGBASE
 50
0.0
  9
$ANGDIR
 70
     0
  9
$PDMODE
 70
     0
  9
$PDSIZE
 40
0.0
  9
$PLINEWID
 40
0.0
  9
$COORDS
 70
     1
  9
$SPLFRAME
 70
     0
  9
$SPLINETYPE
 70
     6
  9
$SPLINESEGS
 70
     8
  9
$ATTDIA
 70
     1
  9
$ATTREQ
 70
     1
  9
$HANDLING
 70
     1
  9
$HANDSEED
  5
2FA5
  9
$SURFTAB1
 70
     6
  9
$SURFTAB2
 70
     6
  9
$SURFTYPE
 70
     6
  9
$SURFU
 70
     6
  9
$SURFV
 70
     6
  9
$UCSNAME
  2

  9
$UCSORG
 10
0.0
 20
0.0
 30
0.0
  9
$UCSXDIR
 10
1.0
 20
0.0
 30
0.0
  9
$UCSYDIR
 10
0.0
 20
1.0
 30
0.0
  9
$PUCSNAME
  2

  9
$PUCSORG
 10
0.0
 20
0.0
 30
0.0
  9
$PUCSXDIR
 10
1.0
 20
0.0
 30
0.0
  9
$PUCSYDIR
 10
0.0
 20
1.0
 30
0.0
  9
$USERI1
 70
     0
  9
$USERI2
 70
     0
  9
$USERI3
 70
     0
  9
$USERI4
 70
     0
  9
$USERI5
 70
     0
  9
$USERR1
 40
0.0
  9
$USERR2
 40
0.0
  9
$USERR3
 40
0.0
  9
$USERR4
 40
0.0
  9
$USERR5
 40
0.0
  9
$WORLDVIEW
 70
     1
  9
$SHADEDGE
 70
     3
  9
$SHADEDIF
 70
    70
  9
$TILEMODE
 70
     1
  9
$MAXACTVP
 70
    64
  9
$PLIMCHECK
 70
     0
  9
$PEXTMIN
 10
1.0000000000000000E+020
 20
1.0000000000000000E+020
 30
1.0000000000000000E+020
  9
$PEXTMAX
 10
-1.0000000000000000E+020
 20
-1.0000000000000000E+020
 30
-1.0000000000000000E+020
  9
$PLIMMIN
 10
0.0
 20
0.0
  9
$PLIMMAX
 10
420.0
 20
297.0
  9
$UNITMODE
 70
     0
  9
$VISRETAIN
 70
     1
  9
$PLINEGEN
 70
     0
  9
$PSLTSCALE
 70
     1
  0
ENDSEC
  0
SECTION
  2
TABLES
  0
TABLE
  2
VPORT
 70
     1
  0
VPORT
  2
*ACTIVE
 70
     0
 10
0.0
 20
0.0
 11
1.0
 21
1.0
 12
406.07539182520168
 22
353.62645516143709
 13
0.0
 23
0.0
 14
7.5
 24
7.5
 15
30.0
 25
30.0
 16
0.0
 26
0.0
 36
1.0
 17
0.0
 27
0.0
 37
0.0
 40
419.7712205777529
 41
1.7571592210767459
 42
50.0
 43
0.0
 44
0.0
 50
0.0
 51
0.0
 71
     0
 72
   100
 73
     1
 74
     3
 75
     0
 76
     0
 77
     0
 78
     0
  0
ENDTAB
  0
TABLE
  2
LTYPE
 70
    26
  0
LTYPE
  2
CONTINUOUS
 70
     0
  3
Solid line
 72
    65
 73
     0
 40
0.0
  0
LTYPE
  2
AM_ISO02W050
 70
     0
  3
__ __ __ __ __ __ __ __ __ __ __ __ __ __ __
 72
    65
 73
     2
 40
7.5
 49
6.0
 49
-1.5
  0
LTYPE
  2
AM_ISO08W050
 70
     0
  3
____ . ____ . ____ . ____ . ____ . ____ . ____
 72
    65
 73
     4
 40
18.0
 49
12.0
 49
-1.5
 49
3.0
 49
-1.5
  0
LTYPE
  2
AM_ISO09W050
 70
     0
  3
_____ . . _____ . . _____ . . ____ .. ____
 72
    65
 73
     6
 40
22.5
 49
12.0
 49
-1.5
 49
3.0
 49
-1.5
 49
3.0
 49
-1.5
  0
LTYPE
  2
AMCONSTR
 70
     0
  3
_______________________
 72
    65
 73
     2
 40
9999.0
 49
9999.0
 49
0.0
  0
LTYPE
  2
AM_ISO08W050X2
 70
     0
  3
__ . __ . __ . __ . __ . __
 72
    65
 73
     4
 40
9.0
 49
6.0
 49
-0.75
 49
1.5
 49
-0.75
  0
LTYPE
  2
AM_ISO02W050X2
 70
     0
  3
 _ _ _ _ _ _ _ _ _ _ _ _
 72
    65
 73
     2
 40
3.75
 49
3.0
 49
-0.75
  0
LTYPE
  2
AMZIGZAG
 70
     0
  3
/\/-/\/-/\/-/\/-/\/-/\/
 72
    65
 73
     2
 40
11.000099999999991
 49
0.0001
 49
-11.0
  0
LTYPE
  2
ACISOWELD
 70
     0
  3
_ _ _ _ _
 72
    65
 73
     2
 40
2.0
 49
2.0
 49
-1.0
  0
LTYPE
  2
ACISOTGB
 70
     0
  3
__ . . __ . .
 72
    65
 73
     6
 40
9.0
 49
4.0
 49
-1.0
 49
1.0
 49
-1.0
 49
1.0
 49
-1.0
  0
LTYPE
  2
ACISOTGL
 70
     0
  3
_ _ _ _ _
 72
    65
 73
     2
 40
3.0
 49
2.0
 49
-1.0
  0
LTYPE
  2
CENTER
 70
     0
  3
__ . __
 72
    65
 73
     4
 40
7.0
 49
4.0
 49
-1.0
 49
1.0
 49
-1.0
  0
LTYPE
  2
PHANTOM2
 70
     0
  3
Phantom (.5x) ___ _ _ ___ _ _ ___ _ _ ___ _ _
 72
    65
 73
     6
 40
31.75
 49
15.875
 49
-3.174999999999998
 49
3.174999999999998
 49
-3.174999999999998
 49
3.174999999999998
 49
-3.174999999999998
  0
LTYPE
  2
ACANSTGBM
 70
     0
  3
__ . . __ . .
 72
    65
 73
     6
 40
9.0
 49
4.0
 49
-1.0
 49
1.0
 49
-1.0
 49
1.0
 49
-1.0
  0
LTYPE
  2
ACANSTGLM
 70
     0
  3
_ _ _ _ _
 72
    65
 73
     2
 40
3.0
 49
2.0
 49
-1.0
  0
LTYPE
  2
GEN7
 70
     0
  3
____ . ____ . ____ . ____ . ____ . ____ . ____
 72
    65
 73
     4
 40
14.25
 49
9.75
 49
-1.5
 49
1.5
 49
-1.5
  0
LTYPE
  2
GEN7A
 70
     0
  3
__ . __ . __
 72
    65
 73
     4
 40
7.375
 49
4.75
 49
-0.875
 49
0.875
 49
-0.875
  0
LTYPE
  2
ACJISTGB
 70
     0
  3
__ . . __ . .
 72
    65
 73
     6
 40
9.0
 49
4.0
 49
-1.0
 49
1.0
 49
-1.0
 49
1.0
 49
-1.0
  0
LTYPE
  2
ACJISTGL
 70
     0
  3
_ _ _ _ _
 72
    65
 73
     2
 40
3.0
 49
2.0
 49
-1.0
  0
LTYPE
  2
HIDDEN
 70
     0
  3
Hidden __ __ __ __ __ __ __ __ __ __ __ __ __ _
 72
    65
 73
     2
 40
0.375
 49
0.25
 49
-0.125
  0
LTYPE
  2
CENTER2
 70
     0
  3
Center (.5x) ___ _ ___ _ ___ _ ___ _ ___ _ ___
 72
    65
 73
     4
 40
1.125
 49
0.75
 49
-0.125
 49
0.125
 49
-0.125
  0
LTYPE
  2
HIDDEN2
 70
     0
  3
Hidden (.5x) _ _ _ _ _ _ _ _ _ _ _ _ _ _ _ _ _
 72
    65
 73
     2
 40
0.1875
 49
0.125
 49
-0.0625
  0
LTYPE
  2
AMZIGZAG2
 70
     0
  3
/\/-/\/-/\/-/\/-/\/-/\/
 72
    65
 73
     2
 40
0.4401
 49
0.0001
 49
-0.4400000000000002
  0
LTYPE
  2
ACANSTGB
 70
     0
  3
__ . . __ . .
 72
    65
 73
     6
 40
0.35433070866
 49
0.15748031496
 49
-0.03937007874
 49
0.03937007874
 49
-0.03937007874
 49
0.03937007874
 49
-0.03937007874
  0
LTYPE
  2
ACANSTGL
 70
     0
  3
_ _ _ _ _
 72
    65
 73
     2
 40
0.11811023622
 49
0.07874015748
 49
-0.03937007874
  0
ENDTAB
  0
TABLE
  2
LAYER
 70
     5
  0
LAYER
  2
0
 70
     0
 62
     7
  6
CONTINUOUS
  0
LAYER
  2
AM_0
 70
     0
 62
     7
  6
CONTINUOUS
  0
LAYER
  2
DEFPOINTS
 70
     0
 62
     7
  6
CONTINUOUS
  0
LAYER
  2
ﾁｭｳｼﾝｾﾝ
 70
     0
 62
     1
  6
GEN7
  0
LAYER
  2
ﾁｭｳｼﾝｾﾝ1
 70
     0
 62
     1
  6
GEN7A
  0
ENDTAB
  0
TABLE
  2
STYLE
 70
     9
  0
STYLE
  2
STANDARD
 70
     0
 40
0.0
 41
0.8299999999999999
 50
0.0
 71
     0
 42
2.5
  3
txt.shx
  4
bigfont.shx
  0
STYLE
  2
ANNOTATIVE
 70
     0
 40
0.0
 41
1.0
 50
0.0
 71
     0
 42
0.2
  3
txt
  4

  0
STYLE
  2

 70
     1
 40
0.0
 41
1.0
 50
0.0
 71
     0
 42
2.5
  3
ltypeshp.shx
  4

  0
STYLE
  2
ACISOTS
 70
     0
 40
1.0
 41
1.0
 50
0.0
 71
     0
 42
2.5
  3
isocp.shx
  4
extfont.shx
  0
STYLE
  2
ACISOGDT
 70
     0
 40
0.0
 41
1.0
 50
0.0
 71
     0
 42
2.5
  3
amgdt.shx
  4

  0
STYLE
  2
ACANSTS
 70
     0
 40
1.0
 41
1.0
 50
0.0
 71
     0
 42
2.5
  3
romans.shx
  4
bigfont.shx
  0
STYLE
  2
ACANSGDT
 70
     0
 40
0.0
 41
1.0
 50
0.0
 71
     0
 42
2.5
  3
amgdt.shx
  4

  0
STYLE
  2
ACJISTS
 70
     0
 40
1.0
 41
1.0
 50
0.0
 71
     0
 42
2.5
  3
isocp.shx
  4
bigfont.shx
  0
STYLE
  2
ACJISGDT
 70
     0
 40
0.0
 41
1.0
 50
0.0
 71
     0
 42
2.5
  3
amgdt.shx
  4

  0
ENDTAB
  0
TABLE
  2
VIEW
 70
     6
  0
VIEW
  2
AM_VIEW1
 70
     0
 40
277.49999999999989
 10
249.64779005524849
 20
416.24999999999989
 41
499.2955801104971
 11
0.0
 21
0.0
 31
1.0
 12
0.0
 22
0.0
 32
0.0
 42
50.0
 43
0.0
 44
0.0
 50
0.0
 71
     0
  0
VIEW
  2
AM_VIEW2
 70
     0
 40
277.49999999999989
 10
603.85220994475117
 20
416.24999999999989
 41
499.2955801104971
 11
0.0
 21
0.0
 31
1.0
 12
0.0
 22
0.0
 32
0.0
 42
50.0
 43
0.0
 44
0.0
 50
0.0
 71
     0
  0
VIEW
  2
AM_VIEW3
 70
     0
 40
277.49999999999989
 10
249.64779005524849
 20
138.7499999999998
 41
499.2955801104971
 11
0.0
 21
0.0
 31
1.0
 12
0.0
 22
0.0
 32
0.0
 42
50.0
 43
0.0
 44
0.0
 50
0.0
 71
     0
  0
VIEW
  2
AM_VIEW4
 70
     0
 40
277.49999999999989
 10
603.85220994475117
 20
138.7499999999998
 41
499.2955801104971
 11
0.0
 21
0.0
 31
1.0
 12
0.0
 22
0.0
 32
0.0
 42
50.0
 43
0.0
 44
0.0
 50
0.0
 71
     0
  0
VIEW
  2
AM_VIEW5
 70
     0
 40
277.5
 10
426.75
 20
277.49999999999989
 41
499.2955801104971
 11
0.0
 21
0.0
 31
1.0
 12
0.0
 22
0.0
 32
0.0
 42
50.0
 43
0.0
 44
0.0
 50
0.0
 71
     0
  0
VIEW
  2
AM_VIEW6
 70
     0
 40
554.99445000000014
 10
426.75
 20
277.49999999999989
 41
998.5811743093924
 11
0.0
 21
0.0
 31
1.0
 12
0.0
 22
0.0
 32
0.0
 42
50.0
 43
0.0
 44
0.0
 50
0.0
 71
     0
  0
ENDTAB
  0
TABLE
  2
UCS
 70
     0
  0
ENDTAB
  0
TABLE
  2
APPID
 70
    95
  0
APPID
  2
ACAD
 70
     0
  0
APPID
  2
ACADANNOTATIVE
 70
     0
  0
APPID
  2
MCAD_NO_VIS
 70
     0
  0
APPID
  2
ACAD_TEMP_GRAPHIC
 70
     0
  0
APPID
  2
ACATTRIBSERVICES
 70
     0
  0
APPID
  2
GENIUS_GENREC_14
 70
     0
  0
APPID
  2
GENIUS_GENOBJ-N-REC_13
 70
     0
  0
APPID
  2
GENIUS_GENODEF_13
 70
     0
  0
APPID
  2
GENIUS_GENOLIS_13
 70
     0
  0
APPID
  2
GENIUS_GENOBJ-N-TIT_13
 70
     0
  0
APPID
  2
GENIUS_GENOENT_13
 70
     0
  0
APPID
  2
GENIUS_GENTITLE_13
 70
     0
  0
APPID
  2
GENIUS_GENOREF_13
 70
     0
  0
APPID
  2
GENIUS_GENSCREG_15
 70
     0
  0
APPID
  2
GENIUS_GENOBJ-N-SDF_13
 70
     0
  0
APPID
  2
GENIUS_GENFIL_13
 70
     0
  0
APPID
  2
GENIUS_GENOBJ-N-CHA_13
 70
     0
  0
APPID
  2
GENIUS_GENDTOL_13
 70
     0
  0
APPID
  2
GENIUS_GENOBJ-N-FIL_13
 70
     0
  0
APPID
  2
AD_DRAW
 70
     0
  0
APPID
  2
DESIGNERASSEMBLIES
 70
     0
  0
APPID
  2
ASURF_PCURVE_APPNAME
 70
     0
  0
APPID
  2
GENIUS_GE3SECT_13
 70
     0
  0
APPID
  2
GENIUS_GENCFG_13
 70
     0
  0
APPID
  2
GENIUS_GE3CFG0_13
 70
     0
  0
APPID
  2
GENIUS_GENCFG0_13
 70
     0
  0
APPID
  2
GENIUS_GENCFG1_13
 70
     0
  0
APPID
  2
GENIUS_GENCFG2_13
 70
     0
  0
APPID
  2
GENIUS_GENCFG3_13
 70
     0
  0
APPID
  2
GENIUS_GENCFG4_13
 70
     0
  0
APPID
  2
GENIUS_GEVCFG0_13
 70
     0
  0
APPID
  2
GENIUS_GENHINW_13
 70
     0
  0
APPID
  2
GENIUS_FIRSTVISTXT_14
 70
     0
  0
APPID
  2
GENIUS_GENOBJ-N-LEADER_13
 70
     0
  0
APPID
  2
GEV_VCCNULL_SWITCH_OFF
 70
     0
  0
APPID
  2
GENIUS_GEFCFG0_13
 70
     0
  0
APPID
  2
GENIUS_GENZVEED_13
 70
     0
  0
APPID
  2
GENIUS_GENSCREG_13
 70
     0
  0
APPID
  2
GENIUS_DUMCFG0_13
 70
     0
  0
APPID
  2
GEVID936201362
 70
     0
  0
APPID
  2
GEVDC
 70
     0
  0
APPID
  2
GEVCON
 70
     0
  0
APPID
  2
VCC
 70
     0
  0
APPID
  2
GEVPT
 70
     0
  0
APPID
  2
GEVIT
 70
     0
  0
APPID
  2
GENBH
 70
     0
  0
APPID
  2
GEVMK
 70
     0
  0
APPID
  2
GENIUS_GENBH_13
 70
     0
  0
APPID
  2
GENIUS_GENOBJ-NBEHI-BHF_13
 70
     0
  0
APPID
  2
GENIUS_GENOBJ-NBEHI-BHB_13
 70
     0
  0
APPID
  2
GENIUS_GENOBJ-F-DESC_13
 70
     0
  0
APPID
  2
GENIUS_GEFDESC_14
 70
     0
  0
APPID
  2
GENIUS_GENOBJ-F-PART_13
 70
     0
  0
APPID
  2
GENIUS_GEFSTDP_13
 70
     0
  0
APPID
  2
GENIUS_GEFPARTINS_13
 70
     0
  0
APPID
  2
GENIUS_GENTRA_14
 70
     0
  0
APPID
  2
GENIUS_GENINF13_13
 70
     0
  0
APPID
  2
GENIUS_GENOBJ-N-INFOPT_13
 70
     0
  0
APPID
  2
GENIUS_GENOBJ-N-RSSYM_13
 70
     0
  0
APPID
  2
GENIUS_GENSYMENT_13
 70
     0
  0
APPID
  2
GENIUS_GENSCSYM_13
 70
     0
  0
APPID
  2
GENIUS_GEFINFNAM_13
 70
     0
  0
APPID
  2
GENIUS_GENOBJ-N-CEN_13
 70
     0
  0
APPID
  2
GENIUS_GENOBJ-N-CRS_13
 70
     0
  0
APPID
  2
GENIUS_GENOBJ-N-CRC_13
 70
     0
  0
APPID
  2
GENIUS_GENCRC_14
 70
     0
  0
APPID
  2
GEVID942827039
 70
     0
  0
APPID
  2
GEVID942827040
 70
     0
  0
APPID
  2
GEVID942827041
 70
     0
  0
APPID
  2
GENIUS_GENOBJ-F-SCPASSM_13
 70
     0
  0
APPID
  2
GENIUS_GENDIMSH_14
 70
     0
  0
APPID
  2
GEVID942827042
 70
     0
  0
APPID
  2
GEVID946020473
 70
     0
  0
APPID
  2
GEVID946020474
 70
     0
  0
APPID
  2
GEVID946020475
 70
     0
  0
APPID
  2
GENIUS_GENOBJ-N-HTC_13
 70
     0
  0
APPID
  2
GENIUS_GENHATCH_13
 70
     0
  0
APPID
  2
GEVID948854295
 70
     0
  0
APPID
  2
GEVID939402019
 70
     0
  0
APPID
  2
GEVID952919491
 70
     0
  0
APPID
  2
GEVID952919492
 70
     0
  0
APPID
  2
GENIUS_GEFWELD_13
 70
     0
  0
APPID
  2
GENIUS_GENOBJ-F-WELS_13
 70
     0
  0
APPID
  2
GEVID952919493
 70
     0
  0
APPID
  2
GENIUS_GENOBJ-N-RSBK_13
 70
     0
  0
APPID
  2
GENIUS_GENOBJ-N-LIB_13
 70
     0
  0
APPID
  2
GENIUS_GENSCALE_13
 70
     0
  0
APPID
  2
GEVID986376691
 70
     0
  0
APPID
  2
DCO15
 70
     0
  0
APPID
  2
ACAD_DSTYLE_DIMBREAK
 70
     0
  0
APPID
  2
ACAD_DSTYLE_DIMJAG
 70
     0
  0
APPID
  2
ACAD_NAV_VCDISPLAY
 70
     0
  0
APPID
  2
ACADANNOPO
 70
     0
  0
APPID
  2
ACAD_EXEMPT_FROM_CAD_STANDARDS
 70
     0
  0
APPID
  2
ACAD_MLEADERVER
 70
     0
  0
ENDTAB
  0
TABLE
  2
DIMSTYLE
 70
    22
  0
DIMSTYLE
  2
STANDARD
 70
     0
  3

  4

  5

  6

  7

 40
1.0
 41
0.18
 42
0.0625
 43
0.38
 44
0.18
 45
0.0
 46
0.0
 47
0.0
 48
0.0
140
0.18
141
0.09
142
0.0
143
25.399999999999999
144
1.0
145
0.0
146
1.0
147
0.09
 71
     0
 72
     0
 73
     1
 74
     1
 75
     0
 76
     0
 77
     0
 78
     0
170
     0
171
     2
172
     0
173
     0
174
     0
175
     0
176
     0
177
     0
178
     0
  0
DIMSTYLE
  2
ANNOTATIVE
 70
     0
  3

  4

  5

  6

  7

 40
1.0
 41
0.18
 42
0.0625
 43
0.38
 44
0.18
 45
0.0
 46
0.0
 47
0.0
 48
0.0
140
0.18
141
0.09
142
0.0
143
25.399999999999999
144
1.0
145
0.0
146
1.0
147
0.09
 71
     0
 72
     0
 73
     1
 74
     1
 75
     0
 76
     0
 77
     0
 78
     0
170
     0
171
     2
172
     0
173
     0
174
     0
175
     0
176
     0
177
     0
178
     0
  0
DIMSTYLE
  2
AM_ISO
 70
     0
  3

  4
"
  5

  6

  7

 40
1.0
 41
2.5
 42
1.0
 43
8.0
 44
0.6
 45
0.0
 46
0.0
 47
0.1
 48
0.1
140
2.5
141
0.0
142
0.0
143
0.0393701
144
1.0
145
0.0
146
0.71
147
0.8
 71
     0
 72
     0
 73
     0
 74
     0
 75
     0
 76
     0
 77
     1
 78
     8
170
     0
171
     2
172
     1
173
     0
174
     0
175
     0
176
   256
177
   256
178
     4
  0
DIMSTYLE
  2
AM_ISO$3
 70
     0
  3

  4
"
  5

  6

  7

 40
1.0
 41
2.5
 42
1.0
 43
8.0
 44
0.6
 45
0.0
 46
0.0
 47
0.1
 48
0.1
140
2.5
141
0.0
142
0.0
143
0.0393701
144
1.0
145
0.0
146
0.71
147
0.8
 71
     0
 72
     0
 73
     0
 74
     1
 75
     0
 76
     0
 77
     1
 78
     8
170
     0
171
     2
172
     0
173
     0
174
     0
175
     0
176
   256
177
   256
178
     4
  0
DIMSTYLE
  2
AM_ISO$4
 70
     0
  3

  4
"
  5

  6

  7

 40
1.0
 41
2.5
 42
1.0
 43
8.0
 44
0.6
 45
0.0
 46
0.0
 47
0.1
 48
0.1
140
2.5
141
0.0
142
0.0
143
0.0393701
144
1.0
145
0.0
146
0.71
147
0.8
 71
     0
 72
     0
 73
     0
 74
     1
 75
     0
 76
     0
 77
     1
 78
     8
170
     0
171
     2
172
     0
173
     0
174
     0
175
     0
176
   256
177
   256
178
     4
  0
DIMSTYLE
  2
AM_ISO$6
 70
     0
  3

  4
"
  5

  6

  7

 40
1.0
 41
2.5
 42
1.0
 43
8.0
 44
0.6
 45
0.0
 46
0.0
 47
0.1
 48
0.1
140
2.5
141
0.0
142
0.0
143
0.0393701
144
1.0
145
0.0
146
0.71
147
0.8
 71
     0
 72
     0
 73
     0
 74
     0
 75
     0
 76
     0
 77
     0
 78
     8
170
     0
171
     2
172
     1
173
     0
174
     0
175
     0
176
   256
177
   256
178
     4
  0
DIMSTYLE
  2
AM_ISO$7
 70
     0
  3

  4
"
  5

  6

  7

 40
1.0
 41
2.5
 42
1.0
 43
8.0
 44
0.6
 45
0.0
 46
0.0
 47
0.1
 48
0.1
140
2.5
141
0.0
142
0.0
143
0.0393701
144
1.0
145
0.0
146
0.71
147
0.8
 71
     0
 72
     0
 73
     0
 74
     0
 75
     0
 76
     0
 77
     1
 78
     8
170
     0
171
     2
172
     1
173
     0
174
     0
175
     0
176
   256
177
   256
178
     4
  0
DIMSTYLE
  2
AM_ISO$SF
 70
     0
  3

  4
"
  5

  6

  7

 40
1.0
 41
2.5
 42
1.0
 43
10.0
 44
1.0
 45
0.0
 46
0.0
 47
0.1
 48
0.1
140
3.5
141
0.0
142
0.0
143
0.0393701
144
1.0
145
0.0
146
0.71
147
1.5
 71
     0
 72
     0
 73
     0
 74
     0
 75
     1
 76
     1
 77
     1
 78
     8
170
     0
171
     2
172
     1
173
     0
174
     0
175
     0
176
   256
177
   256
178
     2
  0
DIMSTYLE
  2
AM_ISO$SH
 70
     0
  3

  4
"
  5

  6

  7

 40
1.0
 41
2.5
 42
1.0
 43
10.0
 44
1.0
 45
0.0
 46
0.0
 47
0.1
 48
0.1
140
3.5
141
0.0
142
0.0
143
0.0393701
144
2.0
145
0.0
146
0.71
147
1.5
 71
     0
 72
     0
 73
     0
 74
     0
 75
     1
 76
     1
 77
     1
 78
     8
170
     0
171
     2
172
     1
173
     1
174
     0
175
     0
176
   256
177
   256
178
     2
  0
DIMSTYLE
  2
AM_JIS
 70
     0
  3

  4
"
  5

  6

  7

 40
1.0
 41
2.5
 42
1.0
 43
7.0
 44
1.0
 45
0.0
 46
0.0
 47
0.1
 48
0.1000000001
140
2.5
141
0.0
142
0.0
143
0.0393701
144
1.0
145
0.0
146
0.71
147
1.0
 71
     0
 72
     0
 73
     0
 74
     0
 75
     0
 76
     0
 77
     3
 78
     8
170
     0
171
     2
172
     1
173
     0
174
     0
175
     0
176
   256
177
   256
178
     4
  0
DIMSTYLE
  2
AM_JIS$3
 70
     0
  3

  4
"
  5

  6

  7

 40
1.0
 41
2.5
 42
1.0
 43
7.0
 44
1.0
 45
0.0
 46
0.0
 47
0.1
 48
0.1000000001
140
2.5
141
0.0
142
0.0
143
0.0393701
144
1.0
145
0.0
146
0.71
147
1.0
 71
     0
 72
     0
 73
     0
 74
     1
 75
     0
 76
     0
 77
     3
 78
     8
170
     0
171
     2
172
     0
173
     0
174
     0
175
     0
176
   256
177
   256
178
     4
  0
DIMSTYLE
  2
AM_JIS$4
 70
     0
  3

  4
"
  5

  6

  7

 40
1.0
 41
2.5
 42
1.0
 43
7.0
 44
1.0
 45
0.0
 46
0.0
 47
0.1
 48
0.1000000001
140
2.5
141
0.0
142
0.0
143
0.0393701
144
1.0
145
0.0
146
0.71
147
1.0
 71
     0
 72
     0
 73
     0
 74
     0
 75
     0
 76
     0
 77
     3
 78
     8
170
     0
171
     2
172
     0
173
     0
174
     0
175
     0
176
   256
177
   256
178
     4
  0
DIMSTYLE
  2
AM_JIS$6
 70
     0
  3

  4
"
  5

  6

  7

 40
1.0
 41
2.5
 42
1.0
 43
7.0
 44
1.0
 45
0.0
 46
0.0
 47
0.1
 48
0.1000000001
140
2.5
141
0.0
142
0.0
143
0.0393701
144
1.0
145
0.0
146
0.71
147
1.0
 71
     0
 72
     0
 73
     0
 74
     0
 75
     0
 76
     0
 77
     0
 78
     8
170
     0
171
     2
172
     1
173
     0
174
     0
175
     0
176
   256
177
   256
178
     4
  0
DIMSTYLE
  2
AM_JIS$7
 70
     0
  3

  4
"
  5

  6

  7

 40
1.0
 41
2.5
 42
1.0
 43
7.0
 44
1.0
 45
0.0
 46
0.0
 47
0.1
 48
0.1000000001
140
2.5
141
0.0
142
0.0
143
0.0393701
144
1.0
145
0.0
146
0.71
147
1.0
 71
     0
 72
     0
 73
     0
 74
     0
 75
     0
 76
     0
 77
     3
 78
     8
170
     0
171
     2
172
     1
173
     0
174
     0
175
     0
176
   256
177
   256
178
     4
  0
DIMSTYLE
  2
AM_JIS$SF
 70
     0
  3

  4
"
  5

  6

  7

 40
1.0
 41
2.5
 42
1.0
 43
10.0
 44
1.0
 45
0.0
 46
0.0
 47
0.1
 48
0.1
140
3.5
141
0.0
142
0.0
143
0.0393701
144
1.0
145
0.0
146
0.71
147
1.5
 71
     0
 72
     0
 73
     0
 74
     0
 75
     1
 76
     1
 77
     3
 78
     8
170
     0
171
     2
172
     1
173
     0
174
     0
175
     0
176
   256
177
   256
178
     4
  0
DIMSTYLE
  2
AM_JIS$SH
 70
     0
  3

  4
"
  5

  6

  7

 40
1.0
 41
2.5
 42
1.0
 43
10.0
 44
1.0
 45
0.0
 46
0.0
 47
0.1
 48
0.1
140
3.5
141
0.0
142
0.0
143
0.0393701
144
1.0
145
0.0
146
0.71
147
1.5
 71
     0
 72
     0
 73
     0
 74
     0
 75
     1
 76
     0
 77
     3
 78
     8
170
     0
171
     2
172
     1
173
     1
174
     0
175
     0
176
   256
177
   256
178
     4
  0
DIMSTYLE
  2
AM_ANSI
 70
     0
  3

  4
mm
  5

  6

  7

 40
1.0
 41
0.1
 42
0.05
 43
0.5
 44
0.1
 45
0.0
 46
0.0
 47
0.1
 48
0.1
140
0.12
141
0.0
142
0.0
143
25.399999999999999
144
1.0
145
0.0
146
0.71
147
0.06
 71
     0
 72
     0
 73
     1
 74
     1
 75
     0
 76
     0
 77
     0
 78
     7
170
     0
171
     2
172
     0
173
     0
174
     0
175
     0
176
   256
177
   256
178
     2
  0
DIMSTYLE
  2
AM_ANSI$3
 70
     0
  3

  4
mm
  5

  6

  7

 40
1.0
 41
0.1
 42
0.05
 43
0.5
 44
0.1
 45
0.0
 46
0.0
 47
0.1
 48
0.1
140
0.12
141
0.0
142
0.0
143
25.399999999999999
144
1.0
145
0.0
146
0.71
147
0.06
 71
     0
 72
     0
 73
     1
 74
     1
 75
     0
 76
     0
 77
     0
 78
     7
170
     0
171
     2
172
     0
173
     0
174
     0
175
     0
176
   256
177
   256
178
     2
  0
DIMSTYLE
  2
AM_ANSI$4
 70
     0
  3

  4
mm
  5

  6

  7

 40
1.0
 41
0.1
 42
0.05
 43
0.5
 44
0.1
 45
0.0
 46
0.0
 47
0.1
 48
0.1
140
0.12
141
0.0
142
0.0
143
25.399999999999999
144
1.0
145
0.0
146
0.71
147
0.06
 71
     0
 72
     0
 73
     1
 74
     1
 75
     0
 76
     0
 77
     0
 78
     7
170
     0
171
     2
172
     0
173
     0
174
     0
175
     0
176
   256
177
   256
178
     2
  0
DIMSTYLE
  2
AM_ANSI$7
 70
     0
  3

  4
mm
  5

  6

  7

 40
1.0
 41
0.1
 42
0.05
 43
0.5
 44
0.1
 45
0.0
 46
0.0
 47
0.1
 48
0.1
140
0.24
141
0.0
142
0.0
143
25.399999999999999
144
1.0
145
0.0
146
0.71
147
0.06
 71
     0
 72
     0
 73
     1
 74
     1
 75
     0
 76
     0
 77
     0
 78
     7
170
     0
171
     2
172
     0
173
     0
174
     0
175
     0
176
   256
177
   256
178
     2
  0
DIMSTYLE
  2
AM_ANSI$SF
 70
     0
  3

  4
mm
  5

  6

  7

 40
1.0
 41
0.1
 42
0.05
 43
0.5
 44
0.1
 45
0.0
 46
0.0
 47
0.1
 48
0.1
140
0.12
141
0.0
142
0.0
143
25.399999999999999
144
1.0
145
0.0
146
0.71
147
0.06
 71
     0
 72
     0
 73
     1
 74
     1
 75
     1
 76
     1
 77
     0
 78
     7
170
     0
171
     2
172
     0
173
     0
174
     0
175
     0
176
   256
177
   256
178
     2
  0
DIMSTYLE
  2
AM_ANSI$SH
 70
     0
  3

  4
mm
  5

  6

  7

 40
1.0
 41
0.1
 42
0.05
 43
0.5
 44
0.1
 45
0.0
 46
0.0
 47
0.1
 48
0.1
140
0.12
141
0.0
142
0.0
143
25.399999999999999
144
1.0
145
0.0
146
0.71
147
0.06
 71
     0
 72
     0
 73
     1
 74
     1
 75
     1
 76
     1
 77
     0
 78
     7
170
     0
171
     2
172
     0
173
     1
174
     0
175
     0
176
   256
177
   256
178
     2
  0
ENDTAB
  0
ENDSEC
  0
SECTION
  2
BLOCKS
  0
BLOCK
  8
0
  2
$MODEL_SPACE
 70
     0
 10
0.0
 20
0.0
 30
0.0
  3
$MODEL_SPACE
  1

  0
ENDBLK
  5
2E1C
  8
0
  0
BLOCK
 67
     1
  8
0
  2
$PAPER_SPACE
 70
     0
 10
0.0
 20
0.0
 30
0.0
  3
$PAPER_SPACE
  1

  0
ENDBLK
  5
2E18
 67
     1
  8
0
  0
BLOCK
  8
0
  2
GENAXEH
 70
     0
 10
0.0
 20
0.0
 30
0.0
  3
GENAXEH
  1

  0
LINE
  5
2BC8
  8
0
 10
-1.0
 20
0.0
 30
0.0
 11
1.0
 21
0.0
 31
0.0
  0
ENDBLK
  5
2BC9
  8
0
  0
BLOCK
  8
0
  2
_OPEN30
 70
     0
 10
0.0
 20
0.0
 30
0.0
  3
_OPEN30
  1

  0
LINE
  5
2BCC
  8
0
 62
     0
 10
-1.0
 20
0.26794919
 30
0.0
 11
0.0
 21
0.0
 31
0.0
  0
LINE
  5
2BCD
  8
0
 62
     0
 10
0.0
 20
0.0
 30
0.0
 11
-1.0
 21
-0.26794919
 31
0.0
  0
LINE
  5
2BCE
  8
0
 62
     0
 10
0.0
 20
0.0
 30
0.0
 11
-1.0
 21
0.0
 31
0.0
  0
ENDBLK
  5
2BCF
  8
0
  0
BLOCK
  8
0
  2
_NONE
 70
     0
 10
0.0
 20
0.0
 30
0.0
  3
_NONE
  1

  0
ENDBLK
  5
2BD2
  8
0
  0
BLOCK
  8
0
  2
_ACMFILLEDHALF
 70
     0
 10
0.0
 20
0.0
 30
0.0
  3
_ACMFILLEDHALF
  1

  0
TRACE
  5
2F11
  8
AM_0
 62
     0
 10
-0.8
 20
0.0
 30
0.0
 11
-1.0
 21
0.166666666
 31
0.0
 12
0.0
 22
0.0
 32
0.0
 13
0.0
 23
0.0
 33
0.0
  0
LINE
  5
2F12
  8
AM_0
 62
     0
 10
-1.0
 20
0.0
 30
0.0
 11
-0.8
 21
0.0
 31
0.0
  0
ENDBLK
  5
2F10
  8
0
  0
ENDSEC
  0
SECTION
  2
ENTITIES
  0
LINE
  5
2BD3
  8
AM_0
 10
343.72136928113258
 20
279.28802168771512
 30
0.0
 11
347.00909928113282
 21
275.36980868771519
 31
0.0
  0
ARC
  5
2BD4
  8
AM_0
 10
273.00917928113302
 20
276.7245426877152
 30
0.0
 40
2.00000007
 50
90.000003000000007
 51
180.00001
  0
ARC
  5
2BD5
  8
AM_0
 10
230.00915928113301
 20
279.12848049958069
 30
0.0
 40
5.0
 50
315.0
 51
0.0
1001
GENIUS_GENODEF_13
1002
{
1000
HIER
1070
     0
1002
}
1002
{
1000
MANEDIT
1070
     0
1002
}
1002
{
1000
NOSEL
1070
     0
1002
}
1002
{
1000
BEHIND
1070
     0
1002
}
1002
{
1000
OTHER
1070
     0
1002
}
1002
{
1000
REACTOR
1002
}
1001
GENIUS_GENOBJ-N-FIL_13
1002
{
1000
OWNER
1000
GEN
1002
}
  0
LINE
  5
2BD6
  8
AM_0
 10
245.00915928113301
 20
170.5574126877153
 30
0.0
 11
245.00915928113301
 21
283.55741268771533
 31
0.0
  0
LINE
  5
2BD7
  8
AM_0
 10
235.00915928113301
 20
282.29603404174998
 30
0.0
 11
235.00915928113389
 21
171.81879133368051
 31
0.0
  0
LINE
  5
2BD8
  8
AM_0
 10
343.00910928113291
 20
164.55739568771531
 30
0.0
 11
343.00910928113291
 21
332.05741568771521
 31
0.0
  0
LINE
  5
2BD9
  8
AM_0
 10
315.00914928113269
 20
311.13136568771529
 30
0.0
 11
315.00914928113269
 21
265.90224668771532
 31
0.0
  0
LINE
  5
2BDA
  8
AM_0
 10
283.00910928113291
 20
298.05739868771519
 30
0.0
 11
283.00910928113291
 21
153.55740968771531
 31
0.0
  0
LINE
  5
2BDB
  8
AM_0
 10
337.00910928113291
 20
182.77607168771519
 30
0.0
 11
337.00910928113291
 21
313.8387456877154
 31
0.0
  0
LINE
  5
2BDC
  8
ﾁｭｳｼﾝｾﾝ
 10
152.85314020922101
 20
227.0574126877153
 30
0.0
 11
289.98305928113308
 21
227.0574126877153
 31
0.0
  0
LINE
  5
2BDD
  8
ﾁｭｳｼﾝｾﾝ
 10
393.7216192811332
 20
247.05739868771519
 30
0.0
 11
260.68688928113278
 21
247.05739868771519
 31
0.0
  0
LINE
  5
2BDE
  8
AM_0
 10
283.00910928113291
 20
275.85442568771521
 30
0.0
 11
313.32740928113282
 21
275.85442568771521
 31
0.0
  0
LINE
  5
2BDF
  8
AM_0
 10
283.00910928113291
 20
153.55740968771531
 30
0.0
 11
319.00910928113291
 21
152.05740968771531
 31
0.0
  0
LINE
  5
2BE0
  8
AM_0
 10
283.00910928113291
 20
164.18732468771509
 30
0.0
 11
319.00910928113291
 21
164.18732468771509
 31
0.0
  0
LINE
  5
2BE1
  8
AM_0
 10
233.5446931870658
 20
178.52187878178259
 30
0.0
 11
212.93809146926759
 21
199.1284804995808
 31
0.0
  0
LINE
  5
2BE2
  8
AM_0
 10
276.0091792811329
 20
268.5517236877152
 30
0.0
 11
276.0091792811329
 21
158.05740968771531
 31
0.0
  0
LINE
  5
2BE3
  8
AM_0
 10
245.00915928113301
 20
181.0573956877152
 30
0.0
 11
276.0091792811329
 21
181.0573956877152
 31
0.0
  0
LINE
  5
2BE4
  8
AM_0
 10
245.00915928113301
 20
171.05739668771531
 30
0.0
 11
268.08764928113283
 21
170.45307068771541
 31
0.0
  0
LINE
  5
2BE5
  8
AM_0
 10
235.9801760878498
 20
170.8192114346694
 30
0.0
 11
245.00915928113301
 21
170.5574126877153
 31
0.0
  0
ARC
  5
2BE6
  8
AM_0
 10
230.00915928113301
 20
174.98634487584991
 30
0.0
 40
5.0
 50
0.0
 51
45.0
1001
GENIUS_GENODEF_13
1002
{
1000
HIER
1070
     0
1002
}
1002
{
1000
MANEDIT
1070
     0
1002
}
1002
{
1000
NOSEL
1070
     0
1002
}
1002
{
1000
BEHIND
1070
     0
1002
}
1002
{
1000
OTHER
1070
     0
1002
}
1002
{
1000
REACTOR
1002
}
1001
GENIUS_GENOBJ-N-FIL_13
1002
{
1000
OWNER
1000
GEN
1002
}
  0
ARC
  5
2BE7
  8
AM_0
 10
236.0091592811329
 20
171.81879133368051
 30
0.0
 40
1.0
 50
180.0
 51
268.33915276702578
1001
GENIUS_GENOBJ-N-FIL_13
1002
{
1000
OWNER
1000
GEN
1002
}
1001
GENIUS_GENODEF_13
1002
{
1000
HIER
1070
     0
1002
}
1002
{
1000
MANEDIT
1070
     0
1002
}
1002
{
1000
NOSEL
1070
     0
1002
}
1002
{
1000
BEHIND
1070
     0
1002
}
1002
{
1000
OTHER
1070
     0
1002
}
1002
{
1000
REACTOR
1002
}
  0
LINE
  5
2BE8
  8
AM_0
 10
271.00910928113291
 20
175.84166768771539
 30
0.0
 11
271.00910928113291
 21
164.0574126877153
 31
0.0
  0
ARC
  5
2BE9
  8
AM_0
 10
268.00910928113291
 20
167.45410868771521
 30
0.0
 40
3.0
 50
0.0
 51
88.499996999999965
  0
ARC
  5
2BEA
  8
AM_0
 10
278.00915928113301
 20
158.05740968771531
 30
0.0
 40
2.00000007
 50
179.99998999999991
 51
270.0
  0
ARC
  5
2BEB
  8
AM_0
 10
273.00917928113302
 20
162.1873386877154
 30
0.0
 40
2.00000007
 50
90.000003000000007
 51
110.76622999999979
  0
LINE
  5
2BEC
  8
AM_0
 10
271.00910928113291
 20
164.18732468771509
 30
0.0
 11
276.0091792811329
 21
164.18732468771509
 31
0.0
  0
LINE
  5
2BED
  8
AM_0
 10
278.00915928113301
 20
156.05739668771531
 30
0.0
 11
283.00910928113291
 21
156.05739668771531
 31
0.0
  0
ARC
  5
2BEE
  8
AM_0
 10
269.00915928113301
 20
175.84166768771539
 30
0.0
 40
2.00000007
 50
0.0
 51
90.000003000000007
  0
LINE
  5
2BEF
  8
AM_0
 10
271.00910928113291
 20
177.84165368771531
 30
0.0
 11
276.0091792811329
 21
177.84165368771531
 31
0.0
  0
LINE
  5
2BF0
  8
AM_0
 10
233.5446931870658
 20
275.59294659364809
 30
0.0
 11
212.93809146926759
 21
254.9863448758498
 31
0.0
  0
LINE
  5
2BF1
  8
AM_0
 10
178.50915928113301
 20
234.55741268771521
 30
0.0
 11
178.50915928113301
 21
233.05741268771541
 31
0.0
  0
LINE
  5
2BF2
  8
AM_0
 10
185.50915928113301
 20
234.55741268771521
 30
0.0
 11
185.50915928113301
 21
219.55740505832071
 31
0.0
  0
LINE
  5
2BF3
  8
AM_0
 10
160.50915928113301
 20
234.55741268771521
 30
0.0
 11
160.50915928113301
 21
221.0574126877153
 31
0.0
  0
LINE
  5
2BF4
  8
AM_0
 10
187.50915928113301
 20
241.22898556296909
 30
0.0
 11
187.50915928113301
 21
212.8858398124616
 31
0.0
  0
LINE
  5
2BF5
  8
AM_0
 10
189.50915928113301
 20
204.0574126877153
 30
0.0
 11
189.50915928113301
 21
250.0574126877153
 31
0.0
  0
LINE
  5
2BF6
  8
AM_0
 10
210.00915928113301
 20
252.0574126877151
 30
0.0
 11
210.00915928113301
 21
202.0574126877151
 31
0.0
  0
LINE
  5
2BF7
  8
AM_0
 10
191.50915928113301
 20
202.0574126877153
 30
0.0
 11
205.867023657402
 21
202.0574126877153
 31
0.0
  0
ARC
  5
2BF8
  8
AM_0
 10
189.50915928113301
 20
212.8858398124616
 30
0.0
 40
2.0
 50
180.0
 51
225.0000000000006
1001
GENIUS_GENODEF_13
1002
{
1000
HIER
1070
     0
1002
}
1002
{
1000
MANEDIT
1070
     0
1002
}
1002
{
1000
NOSEL
1070
     0
1002
}
1002
{
1000
BEHIND
1070
     0
1002
}
1002
{
1000
OTHER
1070
     0
1002
}
1002
{
1000
REACTOR
1002
}
1001
GENIUS_GENOBJ-N-FIL_13
1002
{
1000
OWNER
1000
GEN
1002
}
  0
LINE
  5
2BF9
  8
AM_0
 10
188.0949457187601
 20
211.47162625008841
 30
0.0
 11
188.9233728435064
 21
210.64319912534211
 31
0.0
  0
ARC
  5
2BFA
  8
AM_0
 10
187.50915928113301
 20
209.228985562969
 30
0.0
 40
2.0
 50
0.0
 51
45.000000000000568
1001
GENIUS_GENODEF_13
1002
{
1000
HIER
1070
     0
1002
}
1002
{
1000
MANEDIT
1070
     0
1002
}
1002
{
1000
NOSEL
1070
     0
1002
}
1002
{
1000
BEHIND
1070
     0
1002
}
1002
{
1000
OTHER
1070
     0
1002
}
1002
{
1000
REACTOR
1002
}
1001
GENIUS_GENOBJ-N-FIL_13
1002
{
1000
OWNER
1000
GEN
1002
}
  0
ARC
  5
2BFB
  8
AM_0
 10
191.50915928113301
 20
204.05741268771541
 30
0.0
 40
2.0
 50
180.0
 51
270.0
1001
GENIUS_GENODEF_13
1002
{
1000
HIER
1070
     0
1002
}
1002
{
1000
MANEDIT
1070
     0
1002
}
1002
{
1000
NOSEL
1070
     0
1002
}
1002
{
1000
BEHIND
1070
     0
1002
}
1002
{
1000
OTHER
1070
     0
1002
}
1002
{
1000
REACTOR
1002
}
1001
GENIUS_GENOBJ-N-FIL_13
1002
{
1000
OWNER
1000
GEN
1002
}
  0
LINE
  5
2BFC
  8
AM_0
 10
160.50915928113301
 20
233.05741268771541
 30
0.0
 11
185.50915928113301
 21
233.05741268771541
 31
0.0
  0
LINE
  5
2BFD
  8
AM_0
 10
160.50915928113301
 20
221.0574126877153
 30
0.0
 11
185.50915928113301
 21
221.0574126877153
 31
0.0
  0
LINE
  5
2BFE
  8
AM_0
 10
185.50915928113301
 20
219.55740505832071
 30
0.0
 11
187.50915928113301
 21
219.55740505832071
 31
0.0
  0
ARC
  5
2BFF
  8
AM_0
 10
205.867023657402
 20
192.05741268771521
 30
0.0
 40
10.0
 50
45.0
 51
90.0
1001
GENIUS_GENOBJ-N-FIL_13
1002
{
1000
OWNER
1000
GEN
1002
}
1001
GENIUS_GENODEF_13
1002
{
1000
HIER
1070
     0
1002
}
1002
{
1000
MANEDIT
1070
     0
1002
}
1002
{
1000
NOSEL
1070
     0
1002
}
1002
{
1000
BEHIND
1070
     0
1002
}
1002
{
1000
OTHER
1070
     0
1002
}
1002
{
1000
REACTOR
1002
}
  0
LINE
  5
2C00
  8
AM_0
 10
191.50915928113301
 20
252.0574126877153
 30
0.0
 11
205.867023657402
 21
252.0574126877153
 31
0.0
  0
LINE
  5
2C01
  8
AM_0
 10
160.50915928113301
 20
234.55741268771521
 30
0.0
 11
178.50915928113301
 21
234.55741268771521
 31
0.0
  0
LINE
  5
2C02
  8
AM_0
 10
185.50915928113301
 20
234.55741268771521
 30
0.0
 11
187.50915928113301
 21
234.55741268771521
 31
0.0
  0
ARC
  5
2C03
  8
AM_0
 10
189.50915928113301
 20
241.22898556296909
 30
0.0
 40
2.0
 50
134.9999999999994
 51
180.0
1001
GENIUS_GENODEF_13
1002
{
1000
HIER
1070
     0
1002
}
1002
{
1000
MANEDIT
1070
     0
1002
}
1002
{
1000
NOSEL
1070
     0
1002
}
1002
{
1000
BEHIND
1070
     0
1002
}
1002
{
1000
OTHER
1070
     0
1002
}
1002
{
1000
REACTOR
1002
}
1001
GENIUS_GENOBJ-N-FIL_13
1002
{
1000
OWNER
1000
GEN
1002
}
  0
LINE
  5
2C04
  8
AM_0
 10
188.0949457187601
 20
242.64319912534211
 30
0.0
 11
188.9233728435064
 21
243.47162625008841
 31
0.0
  0
ARC
  5
2C05
  8
AM_0
 10
187.50915928113301
 20
244.8858398124614
 30
0.0
 40
2.0
 50
314.99999999999932
 51
0.0
1001
GENIUS_GENODEF_13
1002
{
1000
HIER
1070
     0
1002
}
1002
{
1000
MANEDIT
1070
     0
1002
}
1002
{
1000
NOSEL
1070
     0
1002
}
1002
{
1000
BEHIND
1070
     0
1002
}
1002
{
1000
OTHER
1070
     0
1002
}
1002
{
1000
REACTOR
1002
}
1001
GENIUS_GENOBJ-N-FIL_13
1002
{
1000
OWNER
1000
GEN
1002
}
  0
ARC
  5
2C06
  8
AM_0
 10
191.50915928113301
 20
250.0574126877153
 30
0.0
 40
2.0
 50
90.0
 51
180.0
1001
GENIUS_GENODEF_13
1002
{
1000
HIER
1070
     0
1002
}
1002
{
1000
MANEDIT
1070
     0
1002
}
1002
{
1000
NOSEL
1070
     0
1002
}
1002
{
1000
BEHIND
1070
     0
1002
}
1002
{
1000
OTHER
1070
     0
1002
}
1002
{
1000
REACTOR
1002
}
1001
GENIUS_GENOBJ-N-FIL_13
1002
{
1000
OWNER
1000
GEN
1002
}
  0
ARC
  5
2C07
  8
AM_0
 10
205.867023657402
 20
262.05741268771533
 30
0.0
 40
10.0
 50
270.0
 51
315.0
1001
GENIUS_GENODEF_13
1002
{
1000
HIER
1070
     0
1002
}
1002
{
1000
MANEDIT
1070
     0
1002
}
1002
{
1000
NOSEL
1070
     0
1002
}
1002
{
1000
BEHIND
1070
     0
1002
}
1002
{
1000
OTHER
1070
     0
1002
}
1002
{
1000
REACTOR
1002
}
1001
GENIUS_GENOBJ-N-FIL_13
1002
{
1000
OWNER
1000
GEN
1002
}
  0
LINE
  5
2C08
  8
AM_0
 10
245.00915928113301
 20
195.12039968771541
 30
0.0
 11
276.0091792811329
 21
195.12039968771541
 31
0.0
  0
LINE
  5
2C09
  8
AM_0
 10
245.00915928113301
 20
273.05739968771519
 30
0.0
 11
271.00910928113291
 21
273.05739968771519
 31
0.0
  0
LINE
  5
2C0A
  8
AM_0
 10
245.00915928113301
 20
258.9944106877154
 30
0.0
 11
271.00910928113291
 21
258.9944106877154
 31
0.0
  0
ARC
  5
2C0B
  8
AM_0
 10
269.00915928113301
 20
257.08544468771521
 30
0.0
 40
2.00000007
 50
270.0
 51
0.0
  0
LINE
  5
2C0C
  8
AM_0
 10
271.00910928113291
 20
255.08545868771509
 30
0.0
 11
276.0091792811329
 21
255.08545868771509
 31
0.0
  0
LINE
  5
2C0D
  8
AM_0
 10
271.00910928113291
 20
276.7245426877152
 30
0.0
 11
271.00910928113291
 21
257.08544468771521
 31
0.0
  0
ARC
  5
2C0E
  8
AM_0
 10
274.00910928113291
 20
268.5517236877152
 30
0.0
 40
2.00000007
 50
0.0
 51
90.000003000000007
  0
ARC
  5
2C0F
  8
AM_0
 10
273.00917928113302
 20
272.55175268771541
 30
0.0
 40
2.00000007
 50
179.99998999999991
 51
270.0
  0
LINE
  5
2C10
  8
AM_0
 10
273.00917928113302
 20
270.55175468771517
 30
0.0
 11
274.00910928113291
 21
270.55175468771517
 31
0.0
  0
LINE
  5
2C11
  8
AM_0
 10
333.00914928113281
 20
166.8379746877153
 30
0.0
 11
333.00914928113281
 21
199.9030686877154
 31
0.0
  0
LINE
  5
2C12
  8
AM_0
 10
347.0091292811328
 20
247.05739868771519
 30
0.0
 11
347.0091292811328
 21
177.0574116877153
 31
0.0
  0
LINE
  5
2C13
  8
AM_0
 10
319.98296928113308
 20
168.4675356877153
 30
0.0
 11
333.00914928113281
 21
168.8086326877152
 31
0.0
  0
LINE
  5
2C14
  8
AM_0
 10
319.00910928113291
 20
167.4678726877153
 30
0.0
 11
319.00910928113291
 21
152.05740968771531
 31
0.0
  0
ARC
  5
2C15
  8
AM_0
 10
320.00912928113291
 20
167.4678726877153
 30
0.0
 40
1.0000000199999981
 50
91.500000999999969
 51
180.00001
  0
LINE
  5
2C16
  8
AM_0
 10
334.93934928113288
 20
164.83919468771509
 30
0.0
 11
343.00913928113312
 21
164.55739568771531
 31
0.0
  0
ARC
  5
2C17
  8
AM_0
 10
335.00912928113291
 20
166.8379746877153
 30
0.0
 40
2.00000007
 50
179.99998999999991
 51
268.00000999999992
  0
LINE
  5
2C18
  8
AM_0
 10
343.00910928113291
 20
177.0574116877153
 30
0.0
 11
347.0091292811328
 21
177.0574116877153
 31
0.0
  0
ARC
  5
2C19
  8
AM_0
 10
334.00910928113279
 20
182.77607168771519
 30
0.0
 40
3.0
 50
270.0
 51
0.0
  0
LINE
  5
2C1A
  8
AM_0
 10
350.00909928113271
 20
259.05739868771519
 30
0.0
 11
390.00914928113269
 21
259.05739868771519
 31
0.0
  0
LINE
  5
2C1B
  8
AM_0
 10
350.00909928113271
 20
235.05739868771519
 30
0.0
 11
390.00914928113269
 21
235.05739868771519
 31
0.0
  0
LINE
  5
2C1C
  8
AM_0
 10
358.00910928113291
 20
262.05739868771519
 30
0.0
 11
390.00914928113269
 21
262.05739868771519
 31
0.0
  0
LINE
  5
2C1D
  8
AM_0
 10
348.00914928113281
 20
221.1080886877152
 30
0.0
 11
348.00914928113281
 21
273.0861456877152
 31
0.0
  0
ARC
  5
2C1E
  8
AM_0
 10
336.00914928113281
 20
199.9030686877154
 30
0.0
 40
3.0
 50
90.000003000000007
 51
180.00001
  0
ARC
  5
2C1F
  8
AM_0
 10
345.00914928113281
 20
221.1080886877152
 30
0.0
 40
3.0
 50
311.81031000000002
 51
0.0
  0
LINE
  5
2C20
  8
AM_0
 10
320.00912928113291
 20
260.90226368771522
 30
0.0
 11
334.23989928113292
 21
260.90226368771522
 31
0.0
  0
ARC
  5
2C21
  8
AM_0
 10
320.00912928113291
 20
265.90224668771532
 30
0.0
 40
5.0000001000000003
 50
179.99998999999991
 51
270.0
  0
LINE
  5
2C22
  8
AM_0
 10
350.00909928113271
 20
259.5573996877153
 30
0.0
 11
350.00909928113271
 21
234.55741268771521
 31
0.0
  0
LINE
  5
2C23
  8
AM_0
 10
347.0091292811328
 20
247.05739868771519
 30
0.0
 11
347.0091292811328
 21
258.86036168771528
 31
0.0
  0
LINE
  5
2C24
  8
AM_0
 10
348.00914928113281
 20
234.55741268771521
 30
0.0
 11
350.00909928113271
 21
234.55741268771521
 31
0.0
  0
LINE
  5
2C25
  8
AM_0
 10
343.00910928113291
 20
258.86036168771528
 30
0.0
 11
347.0091292811328
 21
258.86036168771528
 31
0.0
  0
LINE
  5
2C26
  8
AM_0
 10
348.00914928113281
 20
259.5573996877153
 30
0.0
 11
350.00909928113271
 21
259.5573996877153
 31
0.0
  0
LINE
  5
2C27
  8
AM_0
 10
358.00910928113291
 20
262.05739868771519
 30
0.0
 11
358.00910928113291
 21
259.05739868771519
 31
0.0
  0
LINE
  5
2C28
  8
AM_0
 10
347.00909928113282
 20
275.36980868771519
 30
0.0
 11
347.30723928113281
 21
275.01452168771522
 31
0.0
  0
ARC
  5
2C29
  8
AM_0
 10
345.00914928113281
 20
273.0861456877152
 30
0.0
 40
3.0
 50
0.0
 51
39.999999000000003
  0
LINE
  5
2C2A
  8
AM_0
 10
390.00914928113269
 20
262.05739868771519
 30
0.0
 11
390.00914928113269
 21
235.05739868771519
 31
0.0
  0
LINE
  5
2C2B
  8
AM_0
 10
283.00916928113281
 20
298.05739868771519
 30
0.0
 11
312.08765928113269
 21
298.81884368771512
 31
0.0
  0
LINE
  5
2C2C
  8
AM_0
 10
245.00915928113301
 20
283.05739868771519
 30
0.0
 11
271.14002928113302
 21
283.74166568771528
 31
0.0
  0
LINE
  5
2C2D
  8
AM_0
 10
235.9801760878498
 20
283.2956139407612
 30
0.0
 11
245.00915928113301
 21
283.55741268771533
 31
0.0
  0
ARC
  5
2C2E
  8
AM_0
 10
236.0091592811329
 20
282.29603404174998
 30
0.0
 40
1.0
 50
91.66084723297412
 51
180.0
1001
GENIUS_GENOBJ-N-FIL_13
1002
{
1000
OWNER
1000
GEN
1002
}
1001
GENIUS_GENODEF_13
1002
{
1000
HIER
1070
     0
1002
}
1002
{
1000
MANEDIT
1070
     0
1002
}
1002
{
1000
NOSEL
1070
     0
1002
}
1002
{
1000
BEHIND
1070
     0
1002
}
1002
{
1000
OTHER
1070
     0
1002
}
1002
{
1000
REACTOR
1002
}
  0
ARC
  5
2C2F
  8
AM_0
 10
278.00915928113301
 20
296.0574006877153
 30
0.0
 40
2.00000007
 50
90.000003000000007
 51
180.00001
  0
ARC
  5
2C30
  8
AM_0
 10
271.00910928113291
 20
288.73995668771528
 30
0.0
 40
5.0000001000000003
 50
271.49999999999972
 51
0.0
  0
LINE
  5
2C31
  8
AM_0
 10
276.0091792811329
 20
296.0574006877153
 30
0.0
 11
276.0091792811329
 21
280.72457468771529
 31
0.0
  0
ARC
  5
2C32
  8
AM_0
 10
274.00910928113291
 20
280.72457468771529
 30
0.0
 40
2.00000007
 50
270.0
 51
0.0
  0
LINE
  5
2C33
  8
AM_0
 10
273.00917928113302
 20
278.7245436877152
 30
0.0
 11
274.00910928113291
 21
278.7245436877152
 31
0.0
  0
LINE
  5
2C34
  8
AM_0
 10
278.00915928113301
 20
298.05739868771519
 30
0.0
 11
283.00910928113291
 21
298.05739868771519
 31
0.0
  0
LINE
  5
2C35
  8
AM_0
 10
333.00914928113281
 20
289.00905968771542
 30
0.0
 11
333.00914928113281
 21
329.7767856877154
 31
0.0
  0
LINE
  5
2C36
  8
AM_0
 10
320.33462928113278
 20
316.1283156877152
 30
0.0
 11
330.11384928113262
 21
316.46980568771522
 31
0.0
  0
LINE
  5
2C37
  8
AM_0
 10
317.00912928113291
 20
289.71456668771538
 30
0.0
 11
330.4652092811333
 21
289.71456668771538
 31
0.0
  0
LINE
  5
2C38
  8
AM_0
 10
316.45730928113312
 20
286.78606868771521
 30
0.0
 11
333.49457928113293
 21
286.78606868771521
 31
0.0
  0
LINE
  5
2C39
  8
AM_0
 10
315.00914928113269
 20
293.2910736877152
 30
0.0
 11
331.33826928113263
 21
301.36089668771518
 31
0.0
  0
ARC
  5
2C3A
  8
AM_0
 10
312.00917928113307
 20
301.81783568771522
 30
0.0
 40
3.0
 50
271.49999999999972
 51
0.0
  0
ARC
  5
2C3B
  8
AM_0
 10
317.00912928113291
 20
291.71456468771532
 30
0.0
 40
2.00000007
 50
179.99998999999991
 51
270.0
  0
ARC
  5
2C3C
  8
AM_0
 10
320.00912928113291
 20
311.13136568771529
 30
0.0
 40
5.0000001000000003
 50
91.999997999999948
 51
180.00001
  0
LINE
  5
2C3D
  8
AM_0
 10
347.0091292811328
 20
285.68203268771521
 30
0.0
 11
347.0091292811328
 21
317.05738568771528
 31
0.0
  0
LINE
  5
2C3E
  8
AM_0
 10
343.00910928113291
 20
285.68203268771521
 30
0.0
 11
347.0091292811328
 21
285.68203268771521
 31
0.0
  0
ARC
  5
2C3F
  8
AM_0
 10
341.42324928113283
 20
277.3596756877152
 30
0.0
 40
3.0
 50
39.999999000000003
 51
58.08679699999999
  0
ARC
  5
2C40
  8
AM_0
 10
330.4652092811333
 20
286.71456668771521
 30
0.0
 40
3.0
 50
22.48353599999999
 51
90.000003000000007
  0
ARC
  5
2C41
  8
AM_0
 10
336.00914928113281
 20
289.00905968771542
 30
0.0
 40
3.0
 50
179.99998999999991
 51
270.0
  0
LINE
  5
2C42
  8
AM_0
 10
343.00910928113291
 20
317.05738568771528
 30
0.0
 11
347.0091292811328
 21
317.05738568771528
 31
0.0
  0
ARC
  5
2C43
  8
AM_0
 10
330.00914928113281
 20
304.0503816877154
 30
0.0
 40
3.0
 50
296.29843
 51
0.0
  0
ARC
  5
2C44
  8
AM_0
 10
334.00910928113279
 20
313.8387456877154
 30
0.0
 40
3.0
 50
0.0
 51
90.000003000000007
  0
ARC
  5
2C45
  8
AM_0
 10
330.00914928113281
 20
319.46800568771511
 30
0.0
 40
3.0
 50
272.0
 51
0.0
  0
ARC
  5
2C46
  8
AM_0
 10
335.00912928113291
 20
329.7767856877154
 30
0.0
 40
2.00000007
 50
91.999997999999948
 51
180.00001
  0
LINE
  5
2C47
  8
AM_0
 10
334.9393192811329
 20
331.77559568771528
 30
0.0
 11
343.00910928113291
 21
332.05741568771521
 31
0.0
  0
LINE
  5
2C48
  8
ﾁｭｳｼﾝｾﾝ
 10
570.69676916151673
 20
336.55570896292681
 30
0.0
 11
570.69676916151673
 21
145.19411468771531
 31
0.0
  0
LINE
  5
2C49
  8
AM_0
 10
655.69677116151649
 20
277.05739868771519
 30
0.0
 11
653.42911616151673
 21
320.32681568771528
 31
0.0
  0
LINE
  5
2C4A
  8
AM_0
 10
613.30666316151689
 20
293.20281668771543
 30
0.0
 11
594.08602016151667
 21
273.98217368771532
 31
0.0
  0
LINE
  5
2C4B
  8
AM_0
 10
616.84218416151668
 20
289.6672926877153
 30
0.0
 11
597.62155916151676
 21
270.44664968771519
 31
0.0
  0
LINE
  5
2C4C
  8
AM_0
 10
524.55138116151659
 20
289.66726268771521
 30
0.0
 11
543.77200916151685
 21
270.44664968771519
 31
0.0
  0
LINE
  5
2C4D
  8
AM_0
 10
528.0869021615166
 20
293.20281668771543
 30
0.0
 11
547.30754516151671
 21
273.98217368771532
 31
0.0
  0
LINE
  5
2C4E
  8
AM_0
 10
485.69679716151671
 20
277.05739868771519
 30
0.0
 11
487.96443716151663
 21
320.32681568771528
 31
0.0
  0
ARC
  5
2C4F
  8
AM_0
 10
629.00823116151685
 20
271.80138668771519
 30
0.0
 40
11.000000399999999
 50
311.14393999999999
 51
94.843180000000004
  0
ARC
  5
2C50
  8
AM_0
 10
512.38533416151665
 20
271.80138668771519
 30
0.0
 40
11.000000399999999
 50
85.156818000000015
 51
228.85606000000001
  0
ARC
  5
2C51
  8
AM_0
 10
570.69676916151673
 20
247.05739868771519
 30
0.0
 40
52.000007999999987
 50
137.75567000000001
 51
174.78408999999991
  0
ARC
  5
2C52
  8
AM_0
 10
570.69676916151673
 20
247.05739868771519
 30
0.0
 40
52.000007999999987
 50
5.215907699999998
 51
42.244334000000009
  0
ARC
  5
2C53
  8
AM_0
 10
570.69676916151673
 20
247.05739868771519
 30
0.0
 40
66.000003000000007
 50
168.12284
 51
0.000010017913
  0
ARC
  5
2C54
  8
AM_0
 10
570.69676916151673
 20
247.05739868771519
 30
0.0
 40
70.000001999999995
 50
164.5475099999999
 51
0.000010017913
  0
ARC
  5
2C55
  8
AM_0
 10
570.69676916151673
 20
247.05739868771519
 30
0.0
 40
33.0
 50
0.0
 51
180.00001
  0
LINE
  5
2C56
  8
ﾁｭｳｼﾝｾﾝ
 10
479.35869716151672
 20
247.05739868771519
 30
0.0
 11
659.31035816151666
 21
247.05739868771519
 31
0.0
  0
ARC
  5
2C57
  8
AM_0
 10
570.69676916151673
 20
227.0574126877153
 30
0.0
 40
71.000000999999983
 50
234.77578999999989
 51
238.49327
  0
LINE
  5
2C58
  8
AM_0
 10
529.745563161517
 20
169.05742568771541
 30
0.0
 11
611.64798716151688
 21
169.05742568771541
 31
0.0
  0
LINE
  5
2C59
  8
AM_0
 10
532.69676516151685
 20
222.05741168771519
 30
0.0
 11
511.66289216151682
 21
222.05741168771519
 31
0.0
  0
LINE
  5
2C5A
  8
AM_0
 10
485.69676716151668
 20
217.05739868771519
 30
0.0
 11
487.95153716151628
 21
174.03405068771531
 31
0.0
  0
ARC
  5
2C5B
  8
AM_0
 10
497.9378231615168
 20
174.55741268771521
 30
0.0
 40
10.000000200000001
 50
183.00001
 51
270.0
  0
LINE
  5
2C5C
  8
ﾁｭｳｼﾝｾﾝ1
 10
490.99740716151678
 20
167.3580396877154
 30
0.0
 11
509.69267516151677
 21
186.0532926877153
 31
0.0
  0
ARC
  5
2C5D
  8
ﾁｭｳｼﾝｾﾝ1
 10
570.69676916151673
 20
247.05739868771519
 30
0.0
 40
100.0000109999999
 50
217.7573799999999
 51
232.63991999999999
  0
CIRCLE
  5
2C5E
  8
AM_0
 10
499.98610316151672
 20
176.3467326877153
 30
0.0
 40
6.0000002999999991
  0
LINE
  5
2C5F
  8
AM_0
 10
497.9378231615168
 20
164.55739568771531
 30
0.0
 11
527.1474791615168
 21
164.55739568771531
 31
0.0
  0
LINE
  5
2C60
  8
AM_0
 10
527.1474791615168
 20
164.55741068771511
 30
0.0
 11
529.745563161517
 21
169.05741068771519
 31
0.0
  0
LINE
  5
2C61
  8
AM_0
 10
518.69676716151673
 20
242.0574126877153
 30
0.0
 11
518.69676716151673
 21
225.0574116877153
 31
0.0
  0
LINE
  5
2C62
  8
AM_0
 10
485.69679716151671
 20
217.05739868771519
 30
0.0
 11
485.69679716151671
 21
247.05739868771519
 31
0.0
  0
ARC
  5
2C63
  8
AM_0
 10
511.66289216151682
 20
225.0574116877153
 30
0.0
 40
3.0
 50
200.43878000000001
 51
270.0
  0
ARC
  5
2C64
  8
AM_0
 10
515.69676716151673
 20
225.0574116877153
 30
0.0
 40
3.0
 50
270.0
 51
0.0
  0
LINE
  5
2C65
  8
AM_0
 10
485.69679716151671
 20
277.05739868771519
 30
0.0
 11
485.69679716151671
 21
247.05739868771519
 31
0.0
  0
LINE
  5
2C66
  8
AM_0
 10
507.89549516151681
 20
249.05741468771521
 30
0.0
 11
515.92451816151674
 21
249.05741468771521
 31
0.0
  0
LINE
  5
2C67
  8
AM_0
 10
507.89549516151681
 20
245.0574126877153
 30
0.0
 11
515.69676716151673
 21
245.0574126877153
 31
0.0
  0
ARC
  5
2C68
  8
AM_0
 10
507.89549516151681
 20
242.0574126877153
 30
0.0
 40
3.0
 50
90.000003000000007
 51
184.55206999999999
  0
ARC
  5
2C69
  8
AM_0
 10
507.89549516151681
 20
252.05741468771521
 30
0.0
 40
3.0
 50
175.44793000000001
 51
270.0
  0
ARC
  5
2C6A
  8
AM_0
 10
515.69676716151673
 20
242.0574126877153
 30
0.0
 40
3.0
 50
0.0
 51
90.000003000000007
  0
ARC
  5
2C6B
  8
AM_0
 10
515.92451816151674
 20
252.05741468771521
 30
0.0
 40
3.0
 50
270.0
 51
354.78408999999999
  0
CIRCLE
  5
2C6C
  8
AM_0
 10
512.38533416151665
 20
271.80138668771519
 30
0.0
 40
4.9796462999999971
  0
LINE
  5
2C6D
  8
AM_0
 10
515.26033316151666
 20
266.82174368771518
 30
0.0
 11
509.51033516151682
 21
266.82174368771518
 31
0.0
  0
LINE
  5
2C6E
  8
AM_0
 10
515.26033316151666
 20
276.78103268771548
 30
0.0
 11
509.51033516151682
 21
276.78103268771548
 31
0.0
  0
ARC
  5
2C6F
  8
AM_0
 10
503.41151816151631
 20
256.89075668771528
 30
0.0
 40
2.00000007
 50
351.68540999999982
 51
79.999998000000005
  0
LINE
  5
2C70
  8
AM_0
 10
503.75883716151679
 20
258.86036168771528
 30
0.0
 11
503.75883716151679
 21
258.86036168771528
 31
0.0
  0
ARC
  5
2C71
  8
AM_0
 10
503.41151816151631
 20
256.89075668771528
 30
0.0
 40
2.00000007
 50
79.999998000000005
 51
171.68540999999991
  0
ARC
  5
2C72
  8
AM_0
 10
503.17399916151652
 20
261.2585856877152
 30
0.0
 40
3.0
 50
348.12284
 51
48.856062999999999
  0
LINE
  5
2C73
  8
AM_0
 10
509.51033516151682
 20
266.82177368771528
 30
0.0
 11
506.63533316151671
 21
271.80138668771519
 31
0.0
  0
LINE
  5
2C74
  8
AM_0
 10
506.63533316151671
 20
271.80138668771519
 30
0.0
 11
509.51033516151682
 21
276.78106268771529
 31
0.0
  0
LINE
  5
2C75
  8
AM_0
 10
518.13533516151665
 20
271.8014166877154
 30
0.0
 11
515.26033316151666
 21
266.82174368771518
 31
0.0
  0
LINE
  5
2C76
  8
AM_0
 10
518.13530516151684
 20
271.8014166877154
 30
0.0
 11
515.26033316151666
 21
276.78103268771548
 31
0.0
  0
LINE
  5
2C77
  8
AM_0
 10
655.69678616151702
 20
217.05739868771519
 30
0.0
 11
653.44202516151665
 21
174.03405068771531
 31
0.0
  0
LINE
  5
2C78
  8
AM_0
 10
601.69905716151663
 20
164.1319356877153
 30
0.0
 11
595.9490711615166
 21
164.1319356877153
 31
0.0
  0
LINE
  5
2C79
  8
AM_0
 10
601.69905716151663
 20
154.17264668771529
 30
0.0
 11
595.9490711615166
 21
154.17264668771529
 31
0.0
  0
CIRCLE
  5
2C7A
  8
AM_0
 10
598.82405816151675
 20
159.1522896877153
 30
0.0
 40
4.9796462999999971
  0
LINE
  5
2C7B
  8
AM_0
 10
542.56949216151668
 20
152.15229068771541
 30
0.0
 11
598.82405816151675
 21
152.15229068771541
 31
0.0
  0
LINE
  5
2C7C
  8
AM_0
 10
548.31949316151645
 20
159.1522896877153
 30
0.0
 11
545.4444941615169
 21
164.1319356877153
 31
0.0
  0
LINE
  5
2C7D
  8
AM_0
 10
548.31947816151671
 20
159.1522896877153
 30
0.0
 11
545.44447916151682
 21
154.17264668771529
 31
0.0
  0
CIRCLE
  5
2C7E
  8
AM_0
 10
542.56949216151668
 20
159.1522896877153
 30
0.0
 40
4.9796462999999971
  0
LINE
  5
2C7F
  8
AM_0
 10
539.69447816151671
 20
154.17264668771529
 30
0.0
 11
536.81947916151671
 21
159.15227468771519
 31
0.0
  0
ARC
  5
2C80
  8
AM_0
 10
542.56949216151668
 20
159.1522896877153
 30
0.0
 40
7.0000007999999987
 50
164.91944000000001
 51
270.0
  0
LINE
  5
2C81
  8
AM_0
 10
545.44447916151682
 20
154.17264668771529
 30
0.0
 11
539.69450816151664
 21
154.17264668771529
 31
0.0
  0
LINE
  5
2C82
  8
AM_0
 10
536.81947916151671
 20
159.1522896877153
 30
0.0
 11
539.69447816151671
 21
164.1319356877153
 31
0.0
  0
ARC
  5
2C83
  8
AM_0
 10
530.97926816151664
 20
162.26142068771509
 30
0.0
 40
5.0000001000000003
 50
344.98363999999992
 51
56.872543000000007
  0
LINE
  5
2C84
  8
AM_0
 10
545.44447916151682
 20
164.1319356877153
 30
0.0
 11
539.69450816151664
 21
164.1319356877153
 31
0.0
  0
LINE
  5
2C85
  8
AM_0
 10
595.94905616151675
 20
154.17264668771529
 30
0.0
 11
593.07405716151663
 21
159.15227468771519
 31
0.0
  0
LINE
  5
2C86
  8
AM_0
 10
593.07405716151663
 20
159.1522896877153
 30
0.0
 11
595.94905616151675
 21
164.1319356877153
 31
0.0
  0
LINE
  5
2C87
  8
AM_0
 10
614.246056161517
 20
164.55739568771531
 30
0.0
 11
643.45572716151662
 21
164.55739568771531
 31
0.0
  0
LINE
  5
2C88
  8
AM_0
 10
614.24607116151685
 20
164.55739568771531
 30
0.0
 11
611.64798716151688
 21
169.05741068771519
 31
0.0
  0
ARC
  5
2C89
  8
AM_0
 10
598.82405816151675
 20
159.1522896877153
 30
0.0
 40
7.0000007999999987
 50
270.00002000000001
 51
15.080558999999999
  0
LINE
  5
2C8A
  8
AM_0
 10
604.57405616151675
 20
159.1522896877153
 30
0.0
 11
601.69905716151663
 21
154.17264668771529
 31
0.0
  0
ARC
  5
2C8B
  8
AM_0
 10
610.41428216151678
 20
162.26142068771509
 30
0.0
 40
5.0000001000000003
 50
121.50672999999991
 51
195.01634999999999
  0
LINE
  5
2C8C
  8
AM_0
 10
604.57405616151675
 20
159.1522896877153
 30
0.0
 11
601.69907216151626
 21
164.1319356877153
 31
0.0
  0
ARC
  5
2C8D
  8
AM_0
 10
570.69676916151673
 20
227.0574126877153
 30
0.0
 40
71.000000999999983
 50
301.50671999999992
 51
305.22421000000008
  0
ARC
  5
2C8E
  8
AM_0
 10
643.45572716151662
 20
174.55741268771521
 30
0.0
 40
10.000000200000001
 50
270.0
 51
357.0
  0
CIRCLE
  5
2C8F
  8
AM_0
 10
641.40744716151664
 20
176.3467326877153
 30
0.0
 40
6.0000002999999991
  0
LINE
  5
2C90
  8
ﾁｭｳｼﾝｾﾝ
 10
618.48133188755685
 20
227.0574126877153
 30
0.0
 11
522.91220643547649
 21
227.0574126877153
 31
0.0
  0
ARC
  5
2C91
  8
AM_0
 10
599.74288016151672
 20
268.32531368771521
 30
0.0
 40
3.0
 50
135.0
 51
216.21206000000009
  0
ARC
  5
2C92
  8
AM_0
 10
570.69676916151673
 20
247.0574286877154
 30
0.0
 40
26.500002599999998
 50
270.0
 51
90.000003000000007
  0
LINE
  5
2C93
  8
AM_0
 10
537.69676616151685
 20
247.05739868771519
 30
0.0
 11
537.69676616151685
 21
227.0574126877153
 31
0.0
  0
ARC
  5
2C94
  8
AM_0
 10
570.69676916151673
 20
247.0574286877154
 30
0.0
 40
26.500002599999998
 50
90.000003000000007
 51
270.0
  0
ARC
  5
2C95
  8
AM_0
 10
532.69676516151685
 20
227.0574126877153
 30
0.0
 40
5.0000001000000003
 50
270.0
 51
0.0
  0
ARC
  5
2C96
  8
AM_0
 10
570.69676916151673
 20
247.05739868771519
 30
0.0
 40
12.00000029999998
 50
109.47122
 51
70.528789000000003
  0
ARC
  5
2C97
  8
AM_0
 10
541.65067016151659
 20
268.32531368771521
 30
0.0
 40
3.0
 50
323.78793999999999
 51
45.00000099999999
  0
ARC
  5
2C98
  8
AM_0
 10
549.42885416151682
 20
276.10351268771518
 30
0.0
 40
3.0
 50
225.0
 51
306.21206000000001
  0
LINE
  5
2C99
  8
AM_0
 10
574.69675316151665
 20
262.05739868771519
 30
0.0
 11
574.69675316151665
 21
255.0573996877153
 31
0.0
  0
LINE
  5
2C9A
  8
AM_0
 10
566.69675216151688
 20
262.05739868771519
 30
0.0
 11
566.69675216151688
 21
255.0573996877153
 31
0.0
  0
CIRCLE
  5
2C9B
  8
AM_0
 62
     2
 10
570.69676916151673
 20
247.05739868771519
 30
0.0
 40
4.000000199999997
  0
CIRCLE
  5
2C9C
  8
AM_0
 10
570.69676916151673
 20
247.05739868771519
 30
0.0
 40
3.0
  0
LINE
  5
2C9D
  8
AM_0
 10
566.69675216151688
 20
255.0573996877153
 30
0.0
 11
574.69675316151665
 21
255.0573996877153
 31
0.0
  0
LINE
  5
2C9E
  8
AM_0
 10
566.69675216151688
 20
262.05739868771519
 30
0.0
 11
574.69675316151665
 21
262.05739868771519
 31
0.0
  0
ARC
  5
2C9F
  8
AM_0
 10
591.9646961615166
 20
276.10351268771518
 30
0.0
 40
3.0
 50
233.78793999999999
 51
315.0
  0
LINE
  5
2CA0
  8
AM_0
 10
655.69677116151649
 20
217.05739868771519
 30
0.0
 11
655.69677116151649
 21
247.05739868771519
 31
0.0
  0
LINE
  5
2CA1
  8
AM_0
 10
622.69678316151692
 20
242.0574126877153
 30
0.0
 11
622.69678316151692
 21
225.0574116877153
 31
0.0
  0
LINE
  5
2CA2
  8
AM_0
 10
603.69676916151673
 20
247.05739868771519
 30
0.0
 11
603.69676916151673
 21
227.0574126877153
 31
0.0
  0
ARC
  5
2CA3
  8
AM_0
 10
629.73067316151662
 20
225.0574116877153
 30
0.0
 40
3.0
 50
270.0
 51
339.56121999999982
  0
LINE
  5
2CA4
  8
AM_0
 10
608.69678516151669
 20
222.05741168771519
 30
0.0
 11
629.73067316151662
 21
222.05741168771519
 31
0.0
  0
ARC
  5
2CA5
  8
AM_0
 10
608.69678516151669
 20
227.0574126877153
 30
0.0
 40
5.0000001000000003
 50
179.99998999999991
 51
270.0
  0
ARC
  5
2CA6
  8
AM_0
 10
625.69678316151692
 20
225.0574116877153
 30
0.0
 40
3.0
 50
179.99998999999991
 51
270.0
  0
CIRCLE
  5
2CA7
  8
AM_0
 10
629.00827616151696
 20
271.80132668771512
 30
0.0
 40
4.9796462999999971
  0
LINE
  5
2CA8
  8
AM_0
 10
631.88327816151673
 20
266.82168068771517
 30
0.0
 11
626.13327716151673
 21
266.82168068771517
 31
0.0
  0
LINE
  5
2CA9
  8
AM_0
 10
631.88327816151673
 20
276.78100268771522
 30
0.0
 11
626.13327716151673
 21
276.78100268771522
 31
0.0
  0
LINE
  5
2CAA
  8
AM_0
 10
633.49805516151685
 20
249.05741468771521
 30
0.0
 11
625.46903216151702
 21
249.05741468771521
 31
0.0
  0
LINE
  5
2CAB
  8
AM_0
 10
633.49805516151685
 20
245.0574126877153
 30
0.0
 11
625.69678316151692
 21
245.0574126877153
 31
0.0
  0
ARC
  5
2CAC
  8
AM_0
 10
625.69678316151692
 20
242.0574126877153
 30
0.0
 40
3.0
 50
90.000003000000007
 51
180.00001
  0
ARC
  5
2CAD
  8
AM_0
 10
625.46903216151702
 20
252.05741468771521
 30
0.0
 40
3.0
 50
185.21591000000001
 51
270.0
  0
LINE
  5
2CAE
  8
AM_0
 10
626.13326216151665
 20
266.82171068771521
 30
0.0
 11
623.25826316151677
 21
271.80132668771512
 31
0.0
  0
LINE
  5
2CAF
  8
AM_0
 10
623.25827816151673
 20
271.80132668771512
 30
0.0
 11
626.13327716151673
 21
276.78096968771513
 31
0.0
  0
ARC
  5
2CB0
  8
AM_0
 10
570.69676916151673
 20
247.05739868771519
 30
0.0
 40
70.000001999999995
 50
0.0
 51
15.452487
  0
ARC
  5
2CB1
  8
AM_0
 10
570.69676916151673
 20
247.05739868771519
 30
0.0
 40
66.000003000000007
 50
0.0
 51
11.877162
  0
LINE
  5
2CB2
  8
AM_0
 10
655.69677116151649
 20
277.05739868771519
 30
0.0
 11
655.69677116151649
 21
247.05739868771519
 31
0.0
  0
ARC
  5
2CB3
  8
AM_0
 10
633.49805516151685
 20
242.0574126877153
 30
0.0
 40
3.0
 50
355.44792999999999
 51
90.000003000000007
  0
ARC
  5
2CB4
  8
AM_0
 10
633.49805516151685
 20
252.05741468771521
 30
0.0
 40
3.0
 50
270.0
 51
4.5520714
  0
ARC
  5
2CB5
  8
AM_0
 10
637.9820321615166
 20
256.89075668771528
 30
0.0
 40
2.00000007
 50
8.3145874000000024
 51
100.0
  0
LINE
  5
2CB6
  8
AM_0
 10
637.63474316151644
 20
258.86036168771528
 30
0.0
 11
637.63474316151644
 21
258.86036168771528
 31
0.0
  0
ARC
  5
2CB7
  8
AM_0
 10
637.9820321615166
 20
256.89075668771528
 30
0.0
 40
2.00000007
 50
100.0
 51
188.3145899999999
  0
ARC
  5
2CB8
  8
AM_0
 10
638.2195661615167
 20
261.2585856877152
 30
0.0
 40
3.0
 50
131.1439399999999
 51
191.87716
  0
LINE
  5
2CB9
  8
AM_0
 10
634.75826216151688
 20
271.80132668771512
 30
0.0
 11
631.88327816151673
 21
266.82168068771517
 31
0.0
  0
LINE
  5
2CBA
  8
AM_0
 10
634.75826216151688
 20
271.80135668771533
 30
0.0
 11
631.88327816151673
 21
276.78100268771522
 31
0.0
  0
ARC
  5
2CBB
  8
AM_0
 10
570.69676916151673
 20
247.05739868771519
 30
0.0
 40
66.000003000000007
 50
34.109953999999988
 51
145.89004
  0
ARC
  5
2CBC
  8
AM_0
 10
570.69676916151673
 20
247.05739868771519
 30
0.0
 40
70.000001999999995
 50
30.534626999999979
 51
149.46537000000001
  0
LINE
  5
2CBD
  8
AM_0
 10
540.69678116151658
 20
332.05741568771521
 30
0.0
 11
497.42735516151669
 21
329.7897456877152
 31
0.0
  0
CIRCLE
  5
2CBE
  8
AM_0
 10
499.98610316151672
 20
317.76808568771509
 30
0.0
 40
6.0000002999999991
  0
ARC
  5
2CBF
  8
AM_0
 10
497.95073216151678
 20
319.80346568771517
 30
0.0
 40
10.000000200000001
 50
92.999999000000017
 51
176.99999
  0
ARC
  5
2CC0
  8
AM_0
 10
513.56734016151688
 20
285.7514316877153
 30
0.0
 40
3.0
 50
265.15681999999998
 51
325.89004999999992
  0
ARC
  5
2CC1
  8
AM_0
 10
516.16570016151707
 20
287.68203368771509
 30
0.0
 40
2.00000007
 50
143.31458000000001
 51
235.00001
  0
ARC
  5
2CC2
  8
AM_0
 10
516.16570016151707
 20
287.68203368771509
 30
0.0
 40
2.00000007
 50
235.0
 51
323.31459000000001
  0
LINE
  5
2CC3
  8
AM_0
 10
515.01854216151685
 20
286.0437276877152
 30
0.0
 11
515.01854216151685
 21
286.0437276877152
 31
0.0
  0
ARC
  5
2CC4
  8
AM_0
 10
522.43004216151655
 20
287.5459566877152
 30
0.0
 40
3.0
 50
45.00000099999999
 51
140.00838999999999
  0
ARC
  5
2CC5
  8
AM_0
 10
530.20821116151672
 20
295.3241226877152
 30
0.0
 40
3.0
 50
129.99161000000001
 51
225.0
  0
ARC
  5
2CC6
  8
AM_0
 10
570.69676916151673
 20
247.05739868771519
 30
0.0
 40
52.000007999999987
 50
47.755664999999993
 51
84.784093999999982
  0
LINE
  5
2CC7
  8
AM_0
 10
600.69676916151673
 20
332.05741568771521
 30
0.0
 11
570.69676916151673
 21
332.05741568771521
 31
0.0
  0
ARC
  5
2CC8
  8
AM_0
 10
570.69676916151673
 20
247.05739868771519
 30
0.0
 40
52.000007999999987
 50
95.215910999999934
 51
132.24432999999991
  0
ARC
  5
2CC9
  8
AM_0
 10
575.69678216151635
 20
301.82967668771522
 30
0.0
 40
3.0
 50
179.99998999999991
 51
264.78408999999982
  0
ARC
  5
2CCA
  8
AM_0
 10
565.6967681615165
 20
301.82967668771522
 30
0.0
 40
3.0
 50
275.21591000000001
 51
0.0
  0
ARC
  5
2CCB
  8
AM_0
 10
575.69678216151635
 20
309.85867568771528
 30
0.0
 40
3.0
 50
85.447927000000007
 51
180.00001
  0
ARC
  5
2CCC
  8
AM_0
 10
565.6967681615165
 20
309.85867568771528
 30
0.0
 40
3.0
 50
0.0
 51
94.552070999999984
  0
LINE
  5
2CCD
  8
AM_0
 10
568.69676816151662
 20
309.85867568771528
 30
0.0
 11
568.69676816151662
 21
301.82967668771522
 31
0.0
  0
LINE
  5
2CCE
  8
AM_0
 10
572.69678216151635
 20
309.85867568771528
 30
0.0
 11
572.69678216151635
 21
301.82967668771522
 31
0.0
  0
LINE
  5
2CCF
  8
AM_0
 10
540.69676616151685
 20
332.05741568771521
 30
0.0
 11
570.69676916151673
 21
332.05741568771521
 31
0.0
  0
CIRCLE
  5
2CD0
  8
AM_0
 10
641.40744716151664
 20
317.76808568771509
 30
0.0
 40
6.0000002999999991
  0
LINE
  5
2CD1
  8
ﾁｭｳｼﾝｾﾝ1
 10
650.51389316151665
 20
326.87452568771511
 30
0.0
 11
631.66051316151675
 21
308.0211456877152
 31
0.0
  0
ARC
  5
2CD2
  8
ﾁｭｳｼﾝｾﾝ1
 10
570.69676916151673
 20
247.05739868771519
 30
0.0
 40
100.0000109999999
 50
37.75737500000001
 51
52.639915999999999
  0
ARC
  5
2CD3
  8
AM_0
 10
643.44283316151666
 20
319.80346568771517
 30
0.0
 40
10.000000200000001
 50
3.0000000999999981
 51
86.999998999999988
  0
ARC
  5
2CD4
  8
AM_0
 10
611.18533916151648
 20
295.3241226877152
 30
0.0
 40
3.0
 50
315.0
 51
50.008387999999997
  0
ARC
  5
2CD5
  8
AM_0
 10
625.22786816151654
 20
287.68203368771509
 30
0.0
 40
2.00000007
 50
305.0
 51
36.685414000000002
  0
ARC
  5
2CD6
  8
AM_0
 10
625.22786816151654
 20
287.68203368771509
 30
0.0
 40
2.00000007
 50
216.68541999999991
 51
305.0
  0
LINE
  5
2CD7
  8
AM_0
 10
626.37502316151665
 20
286.0437276877152
 30
0.0
 11
626.37502316151665
 21
286.0437276877152
 31
0.0
  0
ARC
  5
2CD8
  8
AM_0
 10
627.82622516151685
 20
285.7514316877153
 30
0.0
 40
3.0
 50
214.10995999999989
 51
274.8431799999999
  0
ARC
  5
2CD9
  8
AM_0
 10
618.96350816151664
 20
287.5459566877152
 30
0.0
 40
3.0
 50
39.991610999999999
 51
135.0
  0
LINE
  5
2CDA
  8
AM_0
 10
600.69678416151669
 20
332.05741568771521
 30
0.0
 11
643.96619516151668
 21
329.78977568771541
 31
0.0
  0
LINE
  5
2CDB
  8
AM_0
 10
245.00915928113301
 20
258.9948516877152
 30
0.0
 11
235.00915928113301
 21
258.9948516877152
 31
0.0
  0
LINE
  5
2CDC
  8
AM_0
 10
245.00915928113301
 20
273.0574176877152
 30
0.0
 11
235.00915928113301
 21
273.0574176877152
 31
0.0
  0
LINE
  5
2CDD
  8
AM_0
 10
245.00915928113301
 20
181.0574106877153
 30
0.0
 11
235.00915928113301
 21
181.0574106877153
 31
0.0
  0
LINE
  5
2CDE
  8
AM_0
 10
245.00915928113301
 20
195.1199736877152
 30
0.0
 11
235.00915928113301
 21
195.1199736877152
 31
0.0
  0
LINE
  5
2CDF
  8
AM_0
 10
185.5091792811329
 20
484.55013259632022
 30
0.0
 11
185.5091792811329
 21
469.55012496692592
 31
0.0
  0
LINE
  5
2CE0
  8
AM_0
 10
160.5091792811329
 20
483.05013259632028
 30
0.0
 11
160.5091792811329
 21
471.05013259632022
 31
0.0
  0
LINE
  5
2CE1
  8
AM_0
 10
235.00917928113279
 20
532.28875395035516
 30
0.0
 11
235.00917928113381
 21
421.81151124228552
 31
0.0
  0
LINE
  5
2CE2
  8
AM_0
 10
189.5091792811325
 20
454.05013259632022
 30
0.0
 11
189.5091792811329
 21
500.05013259632051
 31
0.0
  0
LINE
  5
2CE3
  8
AM_0
 10
210.00917928113279
 20
502.05013259632
 30
0.0
 11
210.00917928113279
 21
452.05013259632011
 31
0.0
  0
LINE
  5
2CE4
  8
AM_0
 10
187.5091792811329
 20
491.22170547157418
 30
0.0
 11
187.5091792811329
 21
462.87855972106661
 31
0.0
  0
LINE
  5
2CE5
  8
AM_0
 10
191.5091792811329
 20
452.05013259632022
 30
0.0
 11
205.86704365740181
 21
452.05013259632022
 31
0.0
  0
LINE
  5
2CE6
  8
AM_0
 10
160.50917928113279
 20
479.05013259632022
 30
0.0
 11
178.50917928113279
 21
479.05013259632022
 31
0.0
  0
LINE
  5
2CE7
  8
AM_0
 10
160.50917928113279
 20
475.05013259632022
 30
0.0
 11
178.50917928113279
 21
475.05013259632022
 31
0.0
  0
LINE
  5
2CE8
  8
AM_0
 10
160.5091792811329
 20
471.05013259632022
 30
0.0
 11
185.5091792811329
 21
471.05013259632022
 31
0.0
  0
LINE
  5
2CE9
  8
AM_0
 10
188.09496571875951
 20
461.46434615869339
 30
0.0
 11
188.92339284350601
 21
460.63591903394718
 31
0.0
  0
ARC
  5
2CEA
  8
AM_0
 10
191.5091792811329
 20
454.05013259632022
 30
0.0
 40
2.0
 50
180.0
 51
270.0
1001
GENIUS_GENODEF_13
1002
{
1000
HIER
1070
     0
1002
}
1002
{
1000
MANEDIT
1070
     0
1002
}
1002
{
1000
NOSEL
1070
     0
1002
}
1002
{
1000
BEHIND
1070
     0
1002
}
1002
{
1000
OTHER
1070
     0
1002
}
1002
{
1000
REACTOR
1002
}
1001
GENIUS_GENOBJ-N-FIL_13
1002
{
1000
OWNER
1000
GEN
1002
}
  0
ARC
  5
2CEB
  8
AM_0
 10
187.5091792811329
 20
459.22170547157413
 30
0.0
 40
2.0
 50
0.0
 51
45.0
1001
GENIUS_GENODEF_13
1002
{
1000
HIER
1070
     0
1002
}
1002
{
1000
MANEDIT
1070
     0
1002
}
1002
{
1000
NOSEL
1070
     0
1002
}
1002
{
1000
BEHIND
1070
     0
1002
}
1002
{
1000
OTHER
1070
     0
1002
}
1002
{
1000
REACTOR
1002
}
1001
GENIUS_GENOBJ-N-FIL_13
1002
{
1000
OWNER
1000
GEN
1002
}
  0
ARC
  5
2CEC
  8
AM_0
 10
178.5091792811329
 20
477.05013259632051
 30
0.0
 40
1.9999999999998861
 50
270.0
 51
90.0
  0
LINE
  5
2CED
  8
AM_0
 10
178.5091792811329
 20
479.05013259632022
 30
0.0
 11
178.50917928113279
 21
475.05013259632022
 31
0.0
  0
LINE
  5
2CEE
  8
AM_0
 10
185.5091792811329
 20
469.55012496692592
 30
0.0
 11
187.5091792811329
 21
469.55012496692592
 31
0.0
  0
ARC
  5
2CEF
  8
AM_0
 10
189.5091792811329
 20
462.87855972106661
 30
0.0
 40
2.0
 50
180.0
 51
225.0
1001
GENIUS_GENODEF_13
1002
{
1000
HIER
1070
     0
1002
}
1002
{
1000
MANEDIT
1070
     0
1002
}
1002
{
1000
NOSEL
1070
     0
1002
}
1002
{
1000
BEHIND
1070
     0
1002
}
1002
{
1000
OTHER
1070
     0
1002
}
1002
{
1000
REACTOR
1002
}
1001
GENIUS_GENOBJ-N-FIL_13
1002
{
1000
OWNER
1000
GEN
1002
}
  0
LINE
  5
2CF0
  8
AM_0
 10
233.54471318706561
 20
428.51459869038757
 30
0.0
 11
212.93811146926731
 21
449.12120040818598
 31
0.0
  0
LINE
  5
2CF1
  8
AM_0
 10
235.98019608784961
 20
420.81193134327441
 30
0.0
 11
245.0091792811329
 21
420.55013259632028
 31
0.0
  0
ARC
  5
2CF2
  8
AM_0
 10
230.0091792811329
 20
424.97906478445469
 30
0.0
 40
5.0
 50
0.0
 51
45.0
1001
GENIUS_GENODEF_13
1002
{
1000
HIER
1070
     0
1002
}
1002
{
1000
MANEDIT
1070
     0
1002
}
1002
{
1000
NOSEL
1070
     0
1002
}
1002
{
1000
BEHIND
1070
     0
1002
}
1002
{
1000
OTHER
1070
     0
1002
}
1002
{
1000
REACTOR
1002
}
1001
GENIUS_GENOBJ-N-FIL_13
1002
{
1000
OWNER
1000
GEN
1002
}
  0
ARC
  5
2CF3
  8
AM_0
 10
236.0091792811329
 20
421.81151124228552
 30
0.0
 40
1.0
 50
180.0
 51
268.33915276702578
1001
GENIUS_GENOBJ-N-FIL_13
1002
{
1000
OWNER
1000
GEN
1002
}
1001
GENIUS_GENODEF_13
1002
{
1000
HIER
1070
     0
1002
}
1002
{
1000
MANEDIT
1070
     0
1002
}
1002
{
1000
NOSEL
1070
     0
1002
}
1002
{
1000
BEHIND
1070
     0
1002
}
1002
{
1000
OTHER
1070
     0
1002
}
1002
{
1000
REACTOR
1002
}
  0
LINE
  5
2CF4
  8
AM_0
 10
245.0091792811329
 20
431.05013059632017
 30
0.0
 11
235.0091792811329
 21
431.05013059632017
 31
0.0
  0
ARC
  5
2CF5
  8
AM_0
 10
205.86704365740181
 20
442.05013259632011
 30
0.0
 40
10.0
 50
45.0
 51
90.0
1001
GENIUS_GENOBJ-N-FIL_13
1002
{
1000
OWNER
1000
GEN
1002
}
1001
GENIUS_GENODEF_13
1002
{
1000
HIER
1070
     0
1002
}
1002
{
1000
MANEDIT
1070
     0
1002
}
1002
{
1000
NOSEL
1070
     0
1002
}
1002
{
1000
BEHIND
1070
     0
1002
}
1002
{
1000
OTHER
1070
     0
1002
}
1002
{
1000
REACTOR
1002
}
  0
LINE
  5
2CF6
  8
AM_0
 10
245.0091792811329
 20
445.1126935963203
 30
0.0
 11
235.00917928113279
 21
445.1126935963203
 31
0.0
  0
LINE
  5
2CF7
  8
AM_0
 10
191.5091792811329
 20
502.05013259632051
 30
0.0
 11
205.86704365740181
 21
502.05013259632051
 31
0.0
  0
LINE
  5
2CF8
  8
AM_0
 10
160.5091792811329
 20
483.05013259632028
 30
0.0
 11
185.5091792811329
 21
483.05013259632028
 31
0.0
  0
ARC
  5
2CF9
  8
AM_0
 10
187.5091792811329
 20
494.87855972106638
 30
0.0
 40
2.0
 50
315.0
 51
0.0
1001
GENIUS_GENODEF_13
1002
{
1000
HIER
1070
     0
1002
}
1002
{
1000
MANEDIT
1070
     0
1002
}
1002
{
1000
NOSEL
1070
     0
1002
}
1002
{
1000
BEHIND
1070
     0
1002
}
1002
{
1000
OTHER
1070
     0
1002
}
1002
{
1000
REACTOR
1002
}
1001
GENIUS_GENOBJ-N-FIL_13
1002
{
1000
OWNER
1000
GEN
1002
}
  0
ARC
  5
2CFA
  8
AM_0
 10
189.5091792811329
 20
491.22170547157418
 30
0.0
 40
2.0
 50
135.0
 51
180.0
1001
GENIUS_GENODEF_13
1002
{
1000
HIER
1070
     0
1002
}
1002
{
1000
MANEDIT
1070
     0
1002
}
1002
{
1000
NOSEL
1070
     0
1002
}
1002
{
1000
BEHIND
1070
     0
1002
}
1002
{
1000
OTHER
1070
     0
1002
}
1002
{
1000
REACTOR
1002
}
1001
GENIUS_GENOBJ-N-FIL_13
1002
{
1000
OWNER
1000
GEN
1002
}
  0
LINE
  5
2CFB
  8
AM_0
 10
188.09496571875951
 20
492.63591903394718
 30
0.0
 11
188.92339284350601
 21
493.46434615869339
 31
0.0
  0
LINE
  5
2CFC
  8
AM_0
 10
185.5091792811329
 20
484.55013259632022
 30
0.0
 11
187.5091792811329
 21
484.55013259632022
 31
0.0
  0
ARC
  5
2CFD
  8
AM_0
 10
191.5091792811329
 20
500.05013259632051
 30
0.0
 40
2.0
 50
90.0
 51
180.0
1001
GENIUS_GENODEF_13
1002
{
1000
HIER
1070
     0
1002
}
1002
{
1000
MANEDIT
1070
     0
1002
}
1002
{
1000
NOSEL
1070
     0
1002
}
1002
{
1000
BEHIND
1070
     0
1002
}
1002
{
1000
OTHER
1070
     0
1002
}
1002
{
1000
REACTOR
1002
}
1001
GENIUS_GENOBJ-N-FIL_13
1002
{
1000
OWNER
1000
GEN
1002
}
  0
ARC
  5
2CFE
  8
AM_0
 10
230.0091792811329
 20
529.12120040818604
 30
0.0
 40
5.0
 50
315.0
 51
0.0
1001
GENIUS_GENODEF_13
1002
{
1000
HIER
1070
     0
1002
}
1002
{
1000
MANEDIT
1070
     0
1002
}
1002
{
1000
NOSEL
1070
     0
1002
}
1002
{
1000
BEHIND
1070
     0
1002
}
1002
{
1000
OTHER
1070
     0
1002
}
1002
{
1000
REACTOR
1002
}
1001
GENIUS_GENOBJ-N-FIL_13
1002
{
1000
OWNER
1000
GEN
1002
}
  0
LINE
  5
2CFF
  8
AM_0
 10
233.54471318706561
 20
525.58566650225305
 30
0.0
 11
212.93811146926731
 21
504.97906478445498
 31
0.0
  0
ARC
  5
2D00
  8
AM_0
 10
205.86704365740181
 20
512.05013259632028
 30
0.0
 40
10.0
 50
270.0
 51
315.0
1001
GENIUS_GENODEF_13
1002
{
1000
HIER
1070
     0
1002
}
1002
{
1000
MANEDIT
1070
     0
1002
}
1002
{
1000
NOSEL
1070
     0
1002
}
1002
{
1000
BEHIND
1070
     0
1002
}
1002
{
1000
OTHER
1070
     0
1002
}
1002
{
1000
REACTOR
1002
}
1001
GENIUS_GENOBJ-N-FIL_13
1002
{
1000
OWNER
1000
GEN
1002
}
  0
LINE
  5
2D01
  8
AM_0
 10
245.0091792811329
 20
508.98757159632049
 30
0.0
 11
235.00917928113279
 21
508.98757159632049
 31
0.0
  0
LINE
  5
2D02
  8
AM_0
 10
245.0091792811329
 20
523.05013759632027
 30
0.0
 11
235.00917928113279
 21
523.05013759632027
 31
0.0
  0
LINE
  5
2D03
  8
AM_0
 10
235.98019608784961
 20
533.28833384936638
 30
0.0
 11
245.0091792811329
 21
533.55013259632051
 31
0.0
  0
ARC
  5
2D04
  8
AM_0
 10
236.0091792811329
 20
532.28875395035516
 30
0.0
 40
1.0
 50
91.66084723297412
 51
180.0
1001
GENIUS_GENOBJ-N-FIL_13
1002
{
1000
OWNER
1000
GEN
1002
}
1001
GENIUS_GENODEF_13
1002
{
1000
HIER
1070
     0
1002
}
1002
{
1000
MANEDIT
1070
     0
1002
}
1002
{
1000
NOSEL
1070
     0
1002
}
1002
{
1000
BEHIND
1070
     0
1002
}
1002
{
1000
OTHER
1070
     0
1002
}
1002
{
1000
REACTOR
1002
}
  0
LINE
  5
2D06
  8
ﾁｭｳｼﾝｾﾝ
 10
152.85314020922101
 20
477.05013259632051
 30
0.0
 11
396.22883928113282
 21
477.05013259632051
 31
0.0
  0
LINE
  5
2D07
  8
AM_0
 10
347.00917928113267
 20
547.05013259632051
 30
0.0
 11
347.00917928113267
 21
407.05013259632051
 31
0.0
  0
LINE
  5
2D08
  8
AM_0
 10
337.00914928113281
 20
410.26878259632042
 30
0.0
 11
337.00914928113281
 21
543.83147259632051
 31
0.0
  0
LINE
  5
2D09
  8
AM_0
 10
343.00914928113281
 20
392.05013259632051
 30
0.0
 11
343.00914928113281
 21
562.05013259632028
 31
0.0
  0
LINE
  5
2D0A
  8
AM_0
 10
315.00914928113269
 20
547.43910259632025
 30
0.0
 11
315.00914928113269
 21
406.66115259632022
 31
0.0
  0
LINE
  5
2D0B
  8
AM_0
 10
245.0091792811329
 20
420.55013259632028
 30
0.0
 11
245.0091792811329
 21
533.55013259632051
 31
0.0
  0
LINE
  5
2D0C
  8
AM_0
 10
276.0091792811329
 20
408.18175259632022
 30
0.0
 11
276.0091792811329
 21
545.91850259632008
 31
0.0
  0
LINE
  5
2D0D
  8
AM_0
 10
348.00914928113281
 20
451.51579259632052
 30
0.0
 11
348.00914928113281
 21
502.58443259632048
 31
0.0
  0
LINE
  5
2D0E
  8
AM_0
 10
283.00914928113281
 20
548.05013259632051
 30
0.0
 11
283.00914928113281
 21
406.05013259632051
 31
0.0
  0
LINE
  5
2D0F
  8
AM_0
 10
350.00911928113283
 20
489.55010259632053
 30
0.0
 11
350.00911928113283
 21
464.55016259632049
 31
0.0
  0
LINE
  5
2D10
  8
AM_0
 10
390.00914928113269
 20
489.05013259632051
 30
0.0
 11
390.00914928113269
 21
465.05013259632051
 31
0.0
  0
LINE
  5
2D11
  8
AM_0
 10
330.55198928113282
 20
414.8880225963203
 30
0.0
 11
317.46632928113269
 21
422.61708259632047
 31
0.0
  0
LINE
  5
2D12
  8
AM_0
 10
330.55198928113282
 20
418.3722725963205
 30
0.0
 11
317.46632928113269
 21
426.1013325963205
 31
0.0
  0
LINE
  5
2D13
  8
AM_0
 10
316.00914928113281
 20
429.35201259632049
 30
0.0
 11
331.00914928113281
 21
429.35201259632049
 31
0.0
  0
LINE
  5
2D14
  8
AM_0
 10
317.93065928113282
 20
403.66216259632051
 30
0.0
 11
330.08769928113281
 21
403.34383259632051
 31
0.0
  0
ARC
  5
2D15
  8
AM_0
 10
274.0091792811329
 20
409.83885259632018
 30
0.0
 40
2.0
 50
0.0
 51
90.000003000000945
  0
LINE
  5
2D16
  8
AM_0
 10
245.0091792811329
 20
445.11019259632047
 30
0.0
 11
276.0091792811329
 21
445.11019259632047
 31
0.0
  0
LINE
  5
2D17
  8
AM_0
 10
245.0091792811329
 20
431.0498225963205
 30
0.0
 11
276.0091792811329
 21
431.0498225963205
 31
0.0
  0
LINE
  5
2D18
  8
AM_0
 10
271.00914928113269
 20
420.3693125963203
 30
0.0
 11
245.00920928113291
 21
421.05013259632051
 31
0.0
  0
LINE
  5
2D19
  8
AM_0
 10
271.00914928113269
 20
413.83885259632018
 30
0.0
 11
271.00914928113269
 21
429.04982259632033
 31
0.0
  0
ARC
  5
2D1A
  8
AM_0
 10
273.00914928113281
 20
413.83885259632018
 30
0.0
 40
2.0
 50
180.00001000000091
 51
270.0
  0
LINE
  5
2D1B
  8
AM_0
 10
273.00914928113281
 20
411.83885259632029
 30
0.0
 11
274.0091792811329
 21
411.83885259632029
 31
0.0
  0
ARC
  5
2D1C
  8
AM_0
 10
269.00914928113269
 20
429.04982259632033
 30
0.0
 40
2.0
 50
0.0
 51
90.000003000000945
  0
LINE
  5
2D1D
  8
AM_0
 10
314.03273928113282
 20
405.23775259632032
 30
0.0
 11
277.95680928113291
 21
406.18242259632052
 31
0.0
  0
ARC
  5
2D1E
  8
AM_0
 10
278.0091792811329
 20
408.18175259632022
 30
0.0
 40
2.0
 50
180.00001000000091
 51
268.5000000000004
  0
ARC
  5
2D1F
  8
AM_0
 10
318.00914928113281
 20
406.66115259632022
 30
0.0
 40
3.0
 50
179.9999899999988
 51
268.50000999999872
  0
ARC
  5
2D20
  8
AM_0
 10
313.95421928113268
 20
402.23876259632033
 30
0.0
 40
3.0
 50
47.481952000001627
 51
88.499997000000747
  0
ARC
  5
2D21
  8
AM_0
 10
320.00914928113281
 20
426.92220259632029
 30
0.0
 40
5.0
 50
179.9999899999988
 51
239.431710000001
  0
ARC
  5
2D22
  8
AM_0
 10
320.00914928113281
 20
430.40645259632032
 30
0.0
 40
5.0
 50
179.9999899999988
 51
239.431710000001
  0
ARC
  5
2D23
  8
AM_0
 10
316.00914928113281
 20
430.35201259632032
 30
0.0
 40
1.0
 50
179.9999899999988
 51
270.0
  0
LINE
  5
2D24
  8
AM_0
 10
333.00914928113281
 20
435.09847259632022
 30
0.0
 11
333.00914928113281
 21
394.33074259632048
 31
0.0
  0
LINE
  5
2D25
  8
AM_0
 10
334.93931928113278
 20
392.33193259632048
 30
0.0
 11
343.00914928113281
 21
392.05013259632051
 31
0.0
  0
ARC
  5
2D26
  8
AM_0
 10
335.00917928113279
 20
394.33074259632048
 30
0.0
 40
2.0
 50
179.9999899999988
 51
268.00000999999861
  0
LINE
  5
2D27
  8
AM_0
 10
350.00911928113283
 20
465.05013259632051
 30
0.0
 11
390.00914928113269
 21
465.05013259632051
 31
0.0
  0
ARC
  5
2D28
  8
AM_0
 10
336.00914928113281
 20
435.09847259632022
 30
0.0
 40
3.0
 50
90.000003000000945
 51
180.00001000000091
  0
ARC
  5
2D29
  8
AM_0
 10
328.00914928113281
 20
414.06716259632049
 30
0.0
 40
5.0
 50
0.0
 51
59.431709000000481
  0
ARC
  5
2D2A
  8
AM_0
 10
334.00914928113281
 20
410.26878259632042
 30
0.0
 40
3.0
 50
270.0
 51
0.0
  0
ARC
  5
2D2B
  8
AM_0
 10
330.00914928113281
 20
400.34487259632027
 30
0.0
 40
3.0
 50
0.0
 51
88.499997000000747
  0
ARC
  5
2D2C
  8
AM_0
 10
328.00914928113281
 20
410.58290259632031
 30
0.0
 40
5.0
 50
0.0
 51
59.431709000000481
  0
LINE
  5
2D2D
  8
AM_0
 10
343.00914928113281
 20
407.05013259632051
 30
0.0
 11
347.00917928113267
 21
407.05013259632051
 31
0.0
  0
ARC
  5
2D2E
  8
AM_0
 10
331.00914928113281
 20
427.35201259632021
 30
0.0
 40
2.0
 50
0.0
 51
90.000003000000945
  0
ARC
  5
2D2F
  8
AM_0
 10
347.00914928113281
 20
451.51579259632052
 30
0.0
 40
1.0
 50
272.0000000000004
 51
0.0
  0
LINE
  5
2D30
  8
AM_0
 10
347.00917928113267
 20
450.51521259632051
 30
0.0
 11
347.04402928113279
 21
450.5164425963203
 31
0.0
  0
LINE
  5
2D31
  8
AM_0
 10
348.00914928113281
 20
464.55016259632049
 30
0.0
 11
350.00911928113283
 21
464.55016259632049
 31
0.0
  0
LINE
  5
2D32
  8
AM_0
 10
330.55198928113282
 20
539.21221259632046
 30
0.0
 11
317.46632928113269
 21
531.48317259632029
 31
0.0
  0
LINE
  5
2D33
  8
AM_0
 10
316.00914928113281
 20
524.74825259632053
 30
0.0
 11
331.00914928113281
 21
524.74825259632053
 31
0.0
  0
LINE
  5
2D34
  8
AM_0
 10
330.55198928113282
 20
535.72798259632009
 30
0.0
 11
317.46632928113269
 21
527.99895259632046
 31
0.0
  0
LINE
  5
2D35
  8
AM_0
 10
317.93062928113278
 20
550.43807259632035
 30
0.0
 11
330.08766928113278
 21
550.75639259632055
 31
0.0
  0
ARC
  5
2D36
  8
AM_0
 10
278.0091792811329
 20
545.91850259632008
 30
0.0
 40
2.0
 50
91.500001000001546
 51
180.00001000000091
  0
ARC
  5
2D37
  8
AM_0
 10
274.0091792811329
 20
544.26143259632045
 30
0.0
 40
2.0
 50
270.0
 51
0.0
  0
LINE
  5
2D38
  8
AM_0
 10
245.0091792811329
 20
508.99007259632049
 30
0.0
 11
276.0091792811329
 21
508.99007259632049
 31
0.0
  0
LINE
  5
2D39
  8
AM_0
 10
245.0091792811329
 20
523.05043259632021
 30
0.0
 11
276.0091792811329
 21
523.05043259632021
 31
0.0
  0
LINE
  5
2D3A
  8
AM_0
 10
271.0091792811329
 20
533.7309725963205
 30
0.0
 11
245.00920928113291
 21
533.05013259632028
 31
0.0
  0
LINE
  5
2D3B
  8
AM_0
 10
271.00914928113269
 20
540.26143259632045
 30
0.0
 11
271.00914928113269
 21
525.05043259632032
 31
0.0
  0
ARC
  5
2D3C
  8
AM_0
 10
269.00914928113269
 20
525.05043259632032
 30
0.0
 40
2.0
 50
270.0
 51
0.0
  0
ARC
  5
2D3D
  8
AM_0
 10
273.00914928113281
 20
540.26143259632045
 30
0.0
 40
2.0
 50
90.000003000000945
 51
180.00001000000091
  0
LINE
  5
2D3E
  8
AM_0
 10
273.00914928113281
 20
542.26143259632045
 30
0.0
 11
274.0091792811329
 21
542.26143259632045
 31
0.0
  0
ARC
  5
2D3F
  8
AM_0
 10
320.00914928113281
 20
527.1780625963205
 30
0.0
 40
5.0
 50
120.5682899999989
 51
180.00001000000091
  0
ARC
  5
2D40
  8
AM_0
 10
320.00914928113281
 20
523.69380259632055
 30
0.0
 40
5.0
 50
120.5682899999989
 51
180.00001000000091
  0
ARC
  5
2D41
  8
AM_0
 10
316.00914928113281
 20
523.74825259632053
 30
0.0
 40
1.0
 50
90.000003000000945
 51
180.00001000000091
  0
LINE
  5
2D42
  8
AM_0
 10
314.03276928113269
 20
548.86253259632019
 30
0.0
 11
277.95683928113289
 21
547.9178325963203
 31
0.0
  0
ARC
  5
2D43
  8
AM_0
 10
318.00914928113281
 20
547.43910259632025
 30
0.0
 40
3.0
 50
91.500001000001546
 51
180.00001000000091
  0
ARC
  5
2D44
  8
AM_0
 10
313.95421928113268
 20
551.86147259632025
 30
0.0
 40
3.0
 50
271.49999999999932
 51
312.51811999999887
  0
ARC
  5
2D45
  8
AM_0
 10
334.00914928113281
 20
543.83147259632051
 30
0.0
 40
3.0
 50
0.0
 51
90.000003000000945
  0
LINE
  5
2D46
  8
AM_0
 10
333.00914928113281
 20
519.00179259632046
 30
0.0
 11
333.00914928113281
 21
559.76952259632048
 31
0.0
  0
LINE
  5
2D47
  8
AM_0
 10
358.00914928113281
 20
481.0501025963203
 30
0.0
 11
390.00914928113269
 21
481.0501025963203
 31
0.0
  0
LINE
  5
2D48
  8
AM_0
 10
358.00914928113281
 20
473.05013259632051
 30
0.0
 11
390.00914928113269
 21
473.05013259632051
 31
0.0
  0
LINE
  5
2D49
  8
AM_0
 10
350.00911928113283
 20
489.05013259632051
 30
0.0
 11
390.00914928113269
 21
489.05013259632051
 31
0.0
  0
ARC
  5
2D4A
  8
AM_0
 10
347.00914928113281
 20
502.58443259632048
 30
0.0
 40
1.0
 50
0.0
 51
87.999999999999659
  0
LINE
  5
2D4B
  8
AM_0
 10
347.00917928113267
 20
503.58504259632048
 30
0.0
 11
347.04405928113277
 21
503.58382259632009
 31
0.0
  0
ARC
  5
2D4C
  8
AM_0
 10
358.00914928113281
 20
477.05010259632053
 30
0.0
 40
3.9999962
 50
90.000003000000945
 51
270.0
  0
LINE
  5
2D4D
  8
AM_0
 10
358.00914928113281
 20
481.0501025963203
 30
0.0
 11
358.00914928113281
 21
473.05013259632051
 31
0.0
  0
LINE
  5
2D4E
  8
AM_0
 10
348.00914928113281
 20
489.55010259632053
 30
0.0
 11
350.00911928113283
 21
489.55010259632053
 31
0.0
  0
ARC
  5
2D4F
  8
AM_0
 10
336.00914928113281
 20
519.00179259632046
 30
0.0
 40
3.0
 50
179.9999899999988
 51
270.0
  0
ARC
  5
2D50
  8
AM_0
 10
331.00914928113281
 20
526.74825259632053
 30
0.0
 40
2.0
 50
270.0
 51
0.0
  0
ARC
  5
2D51
  8
AM_0
 10
328.00914928113281
 20
540.03310259632053
 30
0.0
 40
5.0
 50
300.56828999999891
 51
0.0
  0
ARC
  5
2D52
  8
AM_0
 10
328.00914928113281
 20
543.51735259632051
 30
0.0
 40
5.0
 50
300.56828999999891
 51
0.0
  0
LINE
  5
2D53
  8
AM_0
 10
343.00914928113281
 20
547.05013259632051
 30
0.0
 11
347.00917928113267
 21
547.05013259632051
 31
0.0
  0
LINE
  5
2D54
  8
AM_0
 10
334.93934928113282
 20
561.76833259632031
 30
0.0
 11
343.00911928113283
 21
562.05013259632028
 31
0.0
  0
ARC
  5
2D55
  8
AM_0
 10
330.00914928113281
 20
553.75539259632035
 30
0.0
 40
3.0
 50
271.49999999999932
 51
0.0
  0
ARC
  5
2D56
  8
AM_0
 10
335.00917928113279
 20
559.76952259632048
 30
0.0
 40
2.0
 50
91.999998000000545
 51
180.00001000000091
  0
LINE
  5
2D57
  8
ﾁｭｳｼﾝｾﾝ1
 10
650.51389616151664
 20
167.24030468771531
 30
0.0
 11
631.66051616151685
 21
186.09368468771521
 31
0.0
  0
ARC
  5
2D58
  8
ﾁｭｳｼﾝｾﾝ1
 10
570.69676916151661
 20
247.0574286877154
 30
0.0
 40
100.0000109999999
 50
307.75737500000002
 51
322.63991600000008
  0
ARC
  5
2D59
  8
ﾁｭｳｼﾝｾﾝ1
 10
570.69676916151661
 20
247.0574286877154
 30
0.0
 40
100.0000109999999
 50
127.7573799999998
 51
142.6399199999999
  0
LINE
  5
2D5A
  8
ﾁｭｳｼﾝｾﾝ1
 10
490.99741016151683
 20
326.7567906877153
 30
0.0
 11
509.6926631615168
 21
308.06152268771518
 31
0.0
  0
TEXT
  5
2F38
  8
AM_0
 10
461.2718673202516
 20
471.34736043973322
 30
0.0
 40
10.0
  1
VX01-060GF~VX01-200GF
  0
ENDSEC
  0
EOF
