  0
SECTION
  2
HEADER
  9
$ACADVER
  1
AC1009
  9
$INSBASE
 10
0.0
 20
0.0
 30
0.0
  9
$EXTMIN
 10
118.8122656142948
 20
129.76705703890411
 30
-0.0000000000112498
  9
$EXTMAX
 10
734.36215394812405
 20
591.9882195871561
 30
0.0000000000002956
  9
$LIMMIN
 10
0.0
 20
0.0
  9
$LIMMAX
 10
853.5
 20
555.00000000000011
  9
$ORTHOMODE
 70
     0
  9
$REGENMODE
 70
     1
  9
$FILLMODE
 70
     1
  9
$QTEXTMODE
 70
     0
  9
$MIRRTEXT
 70
     1
  9
$DRAGMODE
 70
     2
  9
$LTSCALE
 40
3.0
  9
$OSMODE
 70
   551
  9
$ATTMODE
 70
     1
  9
$TEXTSIZE
 40
2.5
  9
$TRACEWID
 40
1.0
  9
$TEXTSTYLE
  7
STANDARD
  9
$CLAYER
  8
AM_0
  9
$CELTYPE
  6
BYLAYER
  9
$CECOLOR
 62
   256
  9
$DIMSCALE
 40
1.0
  9
$DIMASZ
 40
2.5
  9
$DIMEXO
 40
1.0
  9
$DIMDLI
 40
8.0
  9
$DIMRND
 40
0.0
  9
$DIMDLE
 40
0.0
  9
$DIMEXE
 40
0.6
  9
$DIMTP
 40
0.1
  9
$DIMTM
 40
0.1
  9
$DIMTXT
 40
2.5
  9
$DIMCEN
 40
0.0
  9
$DIMTSZ
 40
0.0
  9
$DIMTOL
 70
     0
  9
$DIMLIM
 70
     0
  9
$DIMTIH
 70
     0
  9
$DIMTOH
 70
     0
  9
$DIMSE1
 70
     0
  9
$DIMSE2
 70
     0
  9
$DIMTAD
 70
     1
  9
$DIMZIN
 70
     8
  9
$DIMBLK
  1

  9
$DIMASO
 70
     1
  9
$DIMSHO
 70
     1
  9
$DIMPOST
  1

  9
$DIMAPOST
  1
"
  9
$DIMALT
 70
     0
  9
$DIMALTD
 70
     2
  9
$DIMALTF
 40
0.0393701
  9
$DIMLFAC
 40
1.0
  9
$DIMTOFL
 70
     1
  9
$DIMTVP
 40
0.0
  9
$DIMTIX
 70
     0
  9
$DIMSOXD
 70
     0
  9
$DIMSAH
 70
     0
  9
$DIMBLK1
  1

  9
$DIMBLK2
  1

  9
$DIMSTYLE
  2
AM_ISO
  9
$DIMCLRD
 70
   256
  9
$DIMCLRE
 70
   256
  9
$DIMCLRT
 70
     4
  9
$DIMTFAC
 40
0.71
  9
$DIMGAP
 40
0.8
  9
$LUNITS
 70
     2
  9
$LUPREC
 70
     2
  9
$SKETCHINC
 40
1.0
  9
$FILLETRAD
 40
15.0
  9
$AUNITS
 70
     0
  9
$AUPREC
 70
     0
  9
$MENU
  1
.
  9
$ELEVATION
 40
0.0
  9
$PELEVATION
 40
0.0
  9
$THICKNESS
 40
0.0
  9
$LIMCHECK
 70
     0
  9
$BLIPMODE
 70
     0
  9
$CHAMFERA
 40
6.0
  9
$CHAMFERB
 40
3.0
  9
$SKPOLY
 70
     0
  9
$TDCREATE
 40
2452065.6277114009
  9
$TDUPDATE
 40
2458541.4374723379
  9
$TDINDWG
 40
0.0958976852
  9
$TDUSRTIMER
 40
0.0958976736
  9
$USRTIMER
 70
     1
  9
$ANGBASE
 50
0.0
  9
$ANGDIR
 70
     0
  9
$PDMODE
 70
     0
  9
$PDSIZE
 40
0.0
  9
$PLINEWID
 40
0.0
  9
$COORDS
 70
     1
  9
$SPLFRAME
 70
     0
  9
$SPLINETYPE
 70
     6
  9
$SPLINESEGS
 70
     8
  9
$ATTDIA
 70
     1
  9
$ATTREQ
 70
     1
  9
$HANDLING
 70
     1
  9
$HANDSEED
  5
2F71
  9
$SURFTAB1
 70
     6
  9
$SURFTAB2
 70
     6
  9
$SURFTYPE
 70
     6
  9
$SURFU
 70
     6
  9
$SURFV
 70
     6
  9
$UCSNAME
  2

  9
$UCSORG
 10
0.0
 20
0.0
 30
0.0
  9
$UCSXDIR
 10
1.0
 20
0.0
 30
0.0
  9
$UCSYDIR
 10
0.0
 20
1.0
 30
0.0
  9
$PUCSNAME
  2

  9
$PUCSORG
 10
0.0
 20
0.0
 30
0.0
  9
$PUCSXDIR
 10
1.0
 20
0.0
 30
0.0
  9
$PUCSYDIR
 10
0.0
 20
1.0
 30
0.0
  9
$USERI1
 70
     0
  9
$USERI2
 70
     0
  9
$USERI3
 70
     0
  9
$USERI4
 70
     0
  9
$USERI5
 70
     0
  9
$USERR1
 40
0.0
  9
$USERR2
 40
0.0
  9
$USERR3
 40
0.0
  9
$USERR4
 40
0.0
  9
$USERR5
 40
0.0
  9
$WORLDVIEW
 70
     1
  9
$SHADEDGE
 70
     3
  9
$SHADEDIF
 70
    70
  9
$TILEMODE
 70
     1
  9
$MAXACTVP
 70
    64
  9
$PLIMCHECK
 70
     0
  9
$PEXTMIN
 10
1.0000000000000000E+020
 20
1.0000000000000000E+020
 30
1.0000000000000000E+020
  9
$PEXTMAX
 10
-1.0000000000000000E+020
 20
-1.0000000000000000E+020
 30
-1.0000000000000000E+020
  9
$PLIMMIN
 10
0.0
 20
0.0
  9
$PLIMMAX
 10
420.0
 20
297.0
  9
$UNITMODE
 70
     0
  9
$VISRETAIN
 70
     1
  9
$PLINEGEN
 70
     0
  9
$PSLTSCALE
 70
     1
  0
ENDSEC
  0
SECTION
  2
TABLES
  0
TABLE
  2
VPORT
 70
     1
  0
VPORT
  2
*ACTIVE
 70
     0
 10
0.0
 20
0.0
 11
1.0
 21
1.0
 12
426.58720978120948
 22
360.8776383130301
 13
0.0
 23
0.0
 14
7.5
 24
7.5
 15
30.0
 25
30.0
 16
0.0
 26
0.0
 36
1.0
 17
0.0
 27
0.0
 37
0.0
 40
465.39430554057412
 41
1.7571592210767459
 42
50.0
 43
0.0
 44
0.0
 50
0.0
 51
0.0
 71
     0
 72
   100
 73
     1
 74
     3
 75
     0
 76
     0
 77
     0
 78
     0
  0
ENDTAB
  0
TABLE
  2
LTYPE
 70
    26
  0
LTYPE
  2
CONTINUOUS
 70
     0
  3
Solid line
 72
    65
 73
     0
 40
0.0
  0
LTYPE
  2
AM_ISO02W050
 70
     0
  3
__ __ __ __ __ __ __ __ __ __ __ __ __ __ __
 72
    65
 73
     2
 40
7.5
 49
6.0
 49
-1.5
  0
LTYPE
  2
AM_ISO08W050
 70
     0
  3
____ . ____ . ____ . ____ . ____ . ____ . ____
 72
    65
 73
     4
 40
18.0
 49
12.0
 49
-1.5
 49
3.0
 49
-1.5
  0
LTYPE
  2
AM_ISO09W050
 70
     0
  3
_____ . . _____ . . _____ . . ____ .. ____
 72
    65
 73
     6
 40
22.5
 49
12.0
 49
-1.5
 49
3.0
 49
-1.5
 49
3.0
 49
-1.5
  0
LTYPE
  2
AMCONSTR
 70
     0
  3
_______________________
 72
    65
 73
     2
 40
9999.0
 49
9999.0
 49
0.0
  0
LTYPE
  2
AM_ISO08W050X2
 70
     0
  3
__ . __ . __ . __ . __ . __
 72
    65
 73
     4
 40
9.0
 49
6.0
 49
-0.75
 49
1.5
 49
-0.75
  0
LTYPE
  2
AM_ISO02W050X2
 70
     0
  3
 _ _ _ _ _ _ _ _ _ _ _ _
 72
    65
 73
     2
 40
3.75
 49
3.0
 49
-0.75
  0
LTYPE
  2
AMZIGZAG
 70
     0
  3
/\/-/\/-/\/-/\/-/\/-/\/
 72
    65
 73
     2
 40
11.000099999999991
 49
0.0001
 49
-11.0
  0
LTYPE
  2
ACISOWELD
 70
     0
  3
_ _ _ _ _
 72
    65
 73
     2
 40
2.0
 49
2.0
 49
-1.0
  0
LTYPE
  2
ACISOTGB
 70
     0
  3
__ . . __ . .
 72
    65
 73
     6
 40
9.0
 49
4.0
 49
-1.0
 49
1.0
 49
-1.0
 49
1.0
 49
-1.0
  0
LTYPE
  2
ACISOTGL
 70
     0
  3
_ _ _ _ _
 72
    65
 73
     2
 40
3.0
 49
2.0
 49
-1.0
  0
LTYPE
  2
CENTER
 70
     0
  3
__ . __
 72
    65
 73
     4
 40
7.0
 49
4.0
 49
-1.0
 49
1.0
 49
-1.0
  0
LTYPE
  2
PHANTOM2
 70
     0
  3
Phantom (.5x) ___ _ _ ___ _ _ ___ _ _ ___ _ _
 72
    65
 73
     6
 40
31.75
 49
15.875
 49
-3.174999999999998
 49
3.174999999999998
 49
-3.174999999999998
 49
3.174999999999998
 49
-3.174999999999998
  0
LTYPE
  2
ACANSTGBM
 70
     0
  3
__ . . __ . .
 72
    65
 73
     6
 40
9.0
 49
4.0
 49
-1.0
 49
1.0
 49
-1.0
 49
1.0
 49
-1.0
  0
LTYPE
  2
ACANSTGLM
 70
     0
  3
_ _ _ _ _
 72
    65
 73
     2
 40
3.0
 49
2.0
 49
-1.0
  0
LTYPE
  2
GEN7
 70
     0
  3
____ . ____ . ____ . ____ . ____ . ____ . ____
 72
    65
 73
     4
 40
14.25
 49
9.75
 49
-1.5
 49
1.5
 49
-1.5
  0
LTYPE
  2
GEN7A
 70
     0
  3
__ . __ . __
 72
    65
 73
     4
 40
7.375
 49
4.75
 49
-0.875
 49
0.875
 49
-0.875
  0
LTYPE
  2
ACJISTGB
 70
     0
  3
__ . . __ . .
 72
    65
 73
     6
 40
9.0
 49
4.0
 49
-1.0
 49
1.0
 49
-1.0
 49
1.0
 49
-1.0
  0
LTYPE
  2
ACJISTGL
 70
     0
  3
_ _ _ _ _
 72
    65
 73
     2
 40
3.0
 49
2.0
 49
-1.0
  0
LTYPE
  2
HIDDEN
 70
     0
  3
Hidden __ __ __ __ __ __ __ __ __ __ __ __ __ _
 72
    65
 73
     2
 40
0.375
 49
0.25
 49
-0.125
  0
LTYPE
  2
CENTER2
 70
     0
  3
Center (.5x) ___ _ ___ _ ___ _ ___ _ ___ _ ___
 72
    65
 73
     4
 40
1.125
 49
0.75
 49
-0.125
 49
0.125
 49
-0.125
  0
LTYPE
  2
HIDDEN2
 70
     0
  3
Hidden (.5x) _ _ _ _ _ _ _ _ _ _ _ _ _ _ _ _ _
 72
    65
 73
     2
 40
0.1875
 49
0.125
 49
-0.0625
  0
LTYPE
  2
AMZIGZAG2
 70
     0
  3
/\/-/\/-/\/-/\/-/\/-/\/
 72
    65
 73
     2
 40
0.4401
 49
0.0001
 49
-0.4400000000000002
  0
LTYPE
  2
ACANSTGB
 70
     0
  3
__ . . __ . .
 72
    65
 73
     6
 40
0.35433070866
 49
0.15748031496
 49
-0.03937007874
 49
0.03937007874
 49
-0.03937007874
 49
0.03937007874
 49
-0.03937007874
  0
LTYPE
  2
ACANSTGL
 70
     0
  3
_ _ _ _ _
 72
    65
 73
     2
 40
0.11811023622
 49
0.07874015748
 49
-0.03937007874
  0
ENDTAB
  0
TABLE
  2
LAYER
 70
     5
  0
LAYER
  2
0
 70
     0
 62
     7
  6
CONTINUOUS
  0
LAYER
  2
AM_0
 70
     0
 62
     7
  6
CONTINUOUS
  0
LAYER
  2
DEFPOINTS
 70
     0
 62
     7
  6
CONTINUOUS
  0
LAYER
  2
ﾁｭｳｼﾝｾﾝ
 70
     0
 62
     1
  6
GEN7
  0
LAYER
  2
ﾁｭｳｼﾝｾﾝ1
 70
     0
 62
     1
  6
GEN7A
  0
ENDTAB
  0
TABLE
  2
STYLE
 70
     9
  0
STYLE
  2
STANDARD
 70
     0
 40
0.0
 41
0.8299999999999999
 50
0.0
 71
     0
 42
2.5
  3
txt.shx
  4
bigfont.shx
  0
STYLE
  2
ANNOTATIVE
 70
     0
 40
0.0
 41
1.0
 50
0.0
 71
     0
 42
0.2
  3
txt
  4

  0
STYLE
  2

 70
     1
 40
0.0
 41
1.0
 50
0.0
 71
     0
 42
2.5
  3
ltypeshp.shx
  4

  0
STYLE
  2
ACISOTS
 70
     0
 40
1.0
 41
1.0
 50
0.0
 71
     0
 42
2.5
  3
isocp.shx
  4
extfont.shx
  0
STYLE
  2
ACISOGDT
 70
     0
 40
0.0
 41
1.0
 50
0.0
 71
     0
 42
2.5
  3
amgdt.shx
  4

  0
STYLE
  2
ACANSTS
 70
     0
 40
1.0
 41
1.0
 50
0.0
 71
     0
 42
2.5
  3
romans.shx
  4
bigfont.shx
  0
STYLE
  2
ACANSGDT
 70
     0
 40
0.0
 41
1.0
 50
0.0
 71
     0
 42
2.5
  3
amgdt.shx
  4

  0
STYLE
  2
ACJISTS
 70
     0
 40
1.0
 41
1.0
 50
0.0
 71
     0
 42
2.5
  3
isocp.shx
  4
bigfont.shx
  0
STYLE
  2
ACJISGDT
 70
     0
 40
0.0
 41
1.0
 50
0.0
 71
     0
 42
2.5
  3
amgdt.shx
  4

  0
ENDTAB
  0
TABLE
  2
VIEW
 70
     6
  0
VIEW
  2
AM_VIEW1
 70
     0
 40
277.49999999999989
 10
249.64779005524849
 20
416.24999999999989
 41
499.2955801104971
 11
0.0
 21
0.0
 31
1.0
 12
0.0
 22
0.0
 32
0.0
 42
50.0
 43
0.0
 44
0.0
 50
0.0
 71
     0
  0
VIEW
  2
AM_VIEW2
 70
     0
 40
277.49999999999989
 10
603.85220994475117
 20
416.24999999999989
 41
499.2955801104971
 11
0.0
 21
0.0
 31
1.0
 12
0.0
 22
0.0
 32
0.0
 42
50.0
 43
0.0
 44
0.0
 50
0.0
 71
     0
  0
VIEW
  2
AM_VIEW3
 70
     0
 40
277.49999999999989
 10
249.64779005524849
 20
138.7499999999998
 41
499.2955801104971
 11
0.0
 21
0.0
 31
1.0
 12
0.0
 22
0.0
 32
0.0
 42
50.0
 43
0.0
 44
0.0
 50
0.0
 71
     0
  0
VIEW
  2
AM_VIEW4
 70
     0
 40
277.49999999999989
 10
603.85220994475117
 20
138.7499999999998
 41
499.2955801104971
 11
0.0
 21
0.0
 31
1.0
 12
0.0
 22
0.0
 32
0.0
 42
50.0
 43
0.0
 44
0.0
 50
0.0
 71
     0
  0
VIEW
  2
AM_VIEW5
 70
     0
 40
277.5
 10
426.75
 20
277.49999999999989
 41
499.2955801104971
 11
0.0
 21
0.0
 31
1.0
 12
0.0
 22
0.0
 32
0.0
 42
50.0
 43
0.0
 44
0.0
 50
0.0
 71
     0
  0
VIEW
  2
AM_VIEW6
 70
     0
 40
554.99445000000014
 10
426.75
 20
277.49999999999989
 41
998.5811743093924
 11
0.0
 21
0.0
 31
1.0
 12
0.0
 22
0.0
 32
0.0
 42
50.0
 43
0.0
 44
0.0
 50
0.0
 71
     0
  0
ENDTAB
  0
TABLE
  2
UCS
 70
     0
  0
ENDTAB
  0
TABLE
  2
APPID
 70
    95
  0
APPID
  2
ACAD
 70
     0
  0
APPID
  2
ACADANNOTATIVE
 70
     0
  0
APPID
  2
MCAD_NO_VIS
 70
     0
  0
APPID
  2
ACAD_TEMP_GRAPHIC
 70
     0
  0
APPID
  2
ACATTRIBSERVICES
 70
     0
  0
APPID
  2
GENIUS_GENREC_14
 70
     0
  0
APPID
  2
GENIUS_GENOBJ-N-REC_13
 70
     0
  0
APPID
  2
GENIUS_GENODEF_13
 70
     0
  0
APPID
  2
GENIUS_GENOLIS_13
 70
     0
  0
APPID
  2
GENIUS_GENOBJ-N-TIT_13
 70
     0
  0
APPID
  2
GENIUS_GENOENT_13
 70
     0
  0
APPID
  2
GENIUS_GENTITLE_13
 70
     0
  0
APPID
  2
GENIUS_GENOREF_13
 70
     0
  0
APPID
  2
GENIUS_GENSCREG_15
 70
     0
  0
APPID
  2
GENIUS_GENOBJ-N-SDF_13
 70
     0
  0
APPID
  2
GENIUS_GENFIL_13
 70
     0
  0
APPID
  2
GENIUS_GENOBJ-N-CHA_13
 70
     0
  0
APPID
  2
GENIUS_GENDTOL_13
 70
     0
  0
APPID
  2
GENIUS_GENOBJ-N-FIL_13
 70
     0
  0
APPID
  2
AD_DRAW
 70
     0
  0
APPID
  2
DESIGNERASSEMBLIES
 70
     0
  0
APPID
  2
ASURF_PCURVE_APPNAME
 70
     0
  0
APPID
  2
GENIUS_GE3SECT_13
 70
     0
  0
APPID
  2
GENIUS_GENCFG_13
 70
     0
  0
APPID
  2
GENIUS_GE3CFG0_13
 70
     0
  0
APPID
  2
GENIUS_GENCFG0_13
 70
     0
  0
APPID
  2
GENIUS_GENCFG1_13
 70
     0
  0
APPID
  2
GENIUS_GENCFG2_13
 70
     0
  0
APPID
  2
GENIUS_GENCFG3_13
 70
     0
  0
APPID
  2
GENIUS_GENCFG4_13
 70
     0
  0
APPID
  2
GENIUS_GEVCFG0_13
 70
     0
  0
APPID
  2
GENIUS_GENHINW_13
 70
     0
  0
APPID
  2
GENIUS_FIRSTVISTXT_14
 70
     0
  0
APPID
  2
GENIUS_GENOBJ-N-LEADER_13
 70
     0
  0
APPID
  2
GEV_VCCNULL_SWITCH_OFF
 70
     0
  0
APPID
  2
GENIUS_GEFCFG0_13
 70
     0
  0
APPID
  2
GENIUS_GENZVEED_13
 70
     0
  0
APPID
  2
GENIUS_GENSCREG_13
 70
     0
  0
APPID
  2
GENIUS_DUMCFG0_13
 70
     0
  0
APPID
  2
GEVID936201362
 70
     0
  0
APPID
  2
GEVDC
 70
     0
  0
APPID
  2
GEVCON
 70
     0
  0
APPID
  2
VCC
 70
     0
  0
APPID
  2
GEVPT
 70
     0
  0
APPID
  2
GEVIT
 70
     0
  0
APPID
  2
GENBH
 70
     0
  0
APPID
  2
GEVMK
 70
     0
  0
APPID
  2
GENIUS_GENBH_13
 70
     0
  0
APPID
  2
GENIUS_GENOBJ-NBEHI-BHF_13
 70
     0
  0
APPID
  2
GENIUS_GENOBJ-NBEHI-BHB_13
 70
     0
  0
APPID
  2
GENIUS_GENOBJ-F-DESC_13
 70
     0
  0
APPID
  2
GENIUS_GEFDESC_14
 70
     0
  0
APPID
  2
GENIUS_GENOBJ-F-PART_13
 70
     0
  0
APPID
  2
GENIUS_GEFSTDP_13
 70
     0
  0
APPID
  2
GENIUS_GEFPARTINS_13
 70
     0
  0
APPID
  2
GENIUS_GENTRA_14
 70
     0
  0
APPID
  2
GENIUS_GENINF13_13
 70
     0
  0
APPID
  2
GENIUS_GENOBJ-N-INFOPT_13
 70
     0
  0
APPID
  2
GENIUS_GENOBJ-N-RSSYM_13
 70
     0
  0
APPID
  2
GENIUS_GENSYMENT_13
 70
     0
  0
APPID
  2
GENIUS_GENSCSYM_13
 70
     0
  0
APPID
  2
GENIUS_GEFINFNAM_13
 70
     0
  0
APPID
  2
GENIUS_GENOBJ-N-CEN_13
 70
     0
  0
APPID
  2
GENIUS_GENOBJ-N-CRS_13
 70
     0
  0
APPID
  2
GENIUS_GENOBJ-N-CRC_13
 70
     0
  0
APPID
  2
GENIUS_GENCRC_14
 70
     0
  0
APPID
  2
GEVID942827039
 70
     0
  0
APPID
  2
GEVID942827040
 70
     0
  0
APPID
  2
GEVID942827041
 70
     0
  0
APPID
  2
GENIUS_GENOBJ-F-SCPASSM_13
 70
     0
  0
APPID
  2
GENIUS_GENDIMSH_14
 70
     0
  0
APPID
  2
GEVID942827042
 70
     0
  0
APPID
  2
GEVID946020473
 70
     0
  0
APPID
  2
GEVID946020474
 70
     0
  0
APPID
  2
GEVID946020475
 70
     0
  0
APPID
  2
GENIUS_GENOBJ-N-HTC_13
 70
     0
  0
APPID
  2
GENIUS_GENHATCH_13
 70
     0
  0
APPID
  2
GEVID948854295
 70
     0
  0
APPID
  2
GEVID939402019
 70
     0
  0
APPID
  2
GEVID952919491
 70
     0
  0
APPID
  2
GEVID952919492
 70
     0
  0
APPID
  2
GENIUS_GEFWELD_13
 70
     0
  0
APPID
  2
GENIUS_GENOBJ-F-WELS_13
 70
     0
  0
APPID
  2
GEVID952919493
 70
     0
  0
APPID
  2
GENIUS_GENOBJ-N-RSBK_13
 70
     0
  0
APPID
  2
GENIUS_GENOBJ-N-LIB_13
 70
     0
  0
APPID
  2
GENIUS_GENSCALE_13
 70
     0
  0
APPID
  2
GEVID986376691
 70
     0
  0
APPID
  2
DCO15
 70
     0
  0
APPID
  2
ACAD_DSTYLE_DIMBREAK
 70
     0
  0
APPID
  2
ACAD_DSTYLE_DIMJAG
 70
     0
  0
APPID
  2
ACAD_NAV_VCDISPLAY
 70
     0
  0
APPID
  2
ACADANNOPO
 70
     0
  0
APPID
  2
ACAD_EXEMPT_FROM_CAD_STANDARDS
 70
     0
  0
APPID
  2
ACAD_MLEADERVER
 70
     0
  0
ENDTAB
  0
TABLE
  2
DIMSTYLE
 70
    22
  0
DIMSTYLE
  2
STANDARD
 70
     0
  3

  4

  5

  6

  7

 40
1.0
 41
0.18
 42
0.0625
 43
0.38
 44
0.18
 45
0.0
 46
0.0
 47
0.0
 48
0.0
140
0.18
141
0.09
142
0.0
143
25.399999999999999
144
1.0
145
0.0
146
1.0
147
0.09
 71
     0
 72
     0
 73
     1
 74
     1
 75
     0
 76
     0
 77
     0
 78
     0
170
     0
171
     2
172
     0
173
     0
174
     0
175
     0
176
     0
177
     0
178
     0
  0
DIMSTYLE
  2
ANNOTATIVE
 70
     0
  3

  4

  5

  6

  7

 40
1.0
 41
0.18
 42
0.0625
 43
0.38
 44
0.18
 45
0.0
 46
0.0
 47
0.0
 48
0.0
140
0.18
141
0.09
142
0.0
143
25.399999999999999
144
1.0
145
0.0
146
1.0
147
0.09
 71
     0
 72
     0
 73
     1
 74
     1
 75
     0
 76
     0
 77
     0
 78
     0
170
     0
171
     2
172
     0
173
     0
174
     0
175
     0
176
     0
177
     0
178
     0
  0
DIMSTYLE
  2
AM_ISO
 70
     0
  3

  4
"
  5

  6

  7

 40
1.0
 41
2.5
 42
1.0
 43
8.0
 44
0.6
 45
0.0
 46
0.0
 47
0.1
 48
0.1
140
2.5
141
0.0
142
0.0
143
0.0393701
144
1.0
145
0.0
146
0.71
147
0.8
 71
     0
 72
     0
 73
     0
 74
     0
 75
     0
 76
     0
 77
     1
 78
     8
170
     0
171
     2
172
     1
173
     0
174
     0
175
     0
176
   256
177
   256
178
     4
  0
DIMSTYLE
  2
AM_ISO$3
 70
     0
  3

  4
"
  5

  6

  7

 40
1.0
 41
2.5
 42
1.0
 43
8.0
 44
0.6
 45
0.0
 46
0.0
 47
0.1
 48
0.1
140
2.5
141
0.0
142
0.0
143
0.0393701
144
1.0
145
0.0
146
0.71
147
0.8
 71
     0
 72
     0
 73
     0
 74
     1
 75
     0
 76
     0
 77
     1
 78
     8
170
     0
171
     2
172
     0
173
     0
174
     0
175
     0
176
   256
177
   256
178
     4
  0
DIMSTYLE
  2
AM_ISO$4
 70
     0
  3

  4
"
  5

  6

  7

 40
1.0
 41
2.5
 42
1.0
 43
8.0
 44
0.6
 45
0.0
 46
0.0
 47
0.1
 48
0.1
140
2.5
141
0.0
142
0.0
143
0.0393701
144
1.0
145
0.0
146
0.71
147
0.8
 71
     0
 72
     0
 73
     0
 74
     1
 75
     0
 76
     0
 77
     1
 78
     8
170
     0
171
     2
172
     0
173
     0
174
     0
175
     0
176
   256
177
   256
178
     4
  0
DIMSTYLE
  2
AM_ISO$6
 70
     0
  3

  4
"
  5

  6

  7

 40
1.0
 41
2.5
 42
1.0
 43
8.0
 44
0.6
 45
0.0
 46
0.0
 47
0.1
 48
0.1
140
2.5
141
0.0
142
0.0
143
0.0393701
144
1.0
145
0.0
146
0.71
147
0.8
 71
     0
 72
     0
 73
     0
 74
     0
 75
     0
 76
     0
 77
     0
 78
     8
170
     0
171
     2
172
     1
173
     0
174
     0
175
     0
176
   256
177
   256
178
     4
  0
DIMSTYLE
  2
AM_ISO$7
 70
     0
  3

  4
"
  5

  6

  7

 40
1.0
 41
2.5
 42
1.0
 43
8.0
 44
0.6
 45
0.0
 46
0.0
 47
0.1
 48
0.1
140
2.5
141
0.0
142
0.0
143
0.0393701
144
1.0
145
0.0
146
0.71
147
0.8
 71
     0
 72
     0
 73
     0
 74
     0
 75
     0
 76
     0
 77
     1
 78
     8
170
     0
171
     2
172
     1
173
     0
174
     0
175
     0
176
   256
177
   256
178
     4
  0
DIMSTYLE
  2
AM_ISO$SF
 70
     0
  3

  4
"
  5

  6

  7

 40
1.0
 41
2.5
 42
1.0
 43
10.0
 44
1.0
 45
0.0
 46
0.0
 47
0.1
 48
0.1
140
3.5
141
0.0
142
0.0
143
0.0393701
144
1.0
145
0.0
146
0.71
147
1.5
 71
     0
 72
     0
 73
     0
 74
     0
 75
     1
 76
     1
 77
     1
 78
     8
170
     0
171
     2
172
     1
173
     0
174
     0
175
     0
176
   256
177
   256
178
     2
  0
DIMSTYLE
  2
AM_ISO$SH
 70
     0
  3

  4
"
  5

  6

  7

 40
1.0
 41
2.5
 42
1.0
 43
10.0
 44
1.0
 45
0.0
 46
0.0
 47
0.1
 48
0.1
140
3.5
141
0.0
142
0.0
143
0.0393701
144
2.0
145
0.0
146
0.71
147
1.5
 71
     0
 72
     0
 73
     0
 74
     0
 75
     1
 76
     1
 77
     1
 78
     8
170
     0
171
     2
172
     1
173
     1
174
     0
175
     0
176
   256
177
   256
178
     2
  0
DIMSTYLE
  2
AM_JIS
 70
     0
  3

  4
"
  5

  6

  7

 40
1.0
 41
2.5
 42
1.0
 43
7.0
 44
1.0
 45
0.0
 46
0.0
 47
0.1
 48
0.1000000001
140
2.5
141
0.0
142
0.0
143
0.0393701
144
1.0
145
0.0
146
0.71
147
1.0
 71
     0
 72
     0
 73
     0
 74
     0
 75
     0
 76
     0
 77
     3
 78
     8
170
     0
171
     2
172
     1
173
     0
174
     0
175
     0
176
   256
177
   256
178
     4
  0
DIMSTYLE
  2
AM_JIS$3
 70
     0
  3

  4
"
  5

  6

  7

 40
1.0
 41
2.5
 42
1.0
 43
7.0
 44
1.0
 45
0.0
 46
0.0
 47
0.1
 48
0.1000000001
140
2.5
141
0.0
142
0.0
143
0.0393701
144
1.0
145
0.0
146
0.71
147
1.0
 71
     0
 72
     0
 73
     0
 74
     1
 75
     0
 76
     0
 77
     3
 78
     8
170
     0
171
     2
172
     0
173
     0
174
     0
175
     0
176
   256
177
   256
178
     4
  0
DIMSTYLE
  2
AM_JIS$4
 70
     0
  3

  4
"
  5

  6

  7

 40
1.0
 41
2.5
 42
1.0
 43
7.0
 44
1.0
 45
0.0
 46
0.0
 47
0.1
 48
0.1000000001
140
2.5
141
0.0
142
0.0
143
0.0393701
144
1.0
145
0.0
146
0.71
147
1.0
 71
     0
 72
     0
 73
     0
 74
     0
 75
     0
 76
     0
 77
     3
 78
     8
170
     0
171
     2
172
     0
173
     0
174
     0
175
     0
176
   256
177
   256
178
     4
  0
DIMSTYLE
  2
AM_JIS$6
 70
     0
  3

  4
"
  5

  6

  7

 40
1.0
 41
2.5
 42
1.0
 43
7.0
 44
1.0
 45
0.0
 46
0.0
 47
0.1
 48
0.1000000001
140
2.5
141
0.0
142
0.0
143
0.0393701
144
1.0
145
0.0
146
0.71
147
1.0
 71
     0
 72
     0
 73
     0
 74
     0
 75
     0
 76
     0
 77
     0
 78
     8
170
     0
171
     2
172
     1
173
     0
174
     0
175
     0
176
   256
177
   256
178
     4
  0
DIMSTYLE
  2
AM_JIS$7
 70
     0
  3

  4
"
  5

  6

  7

 40
1.0
 41
2.5
 42
1.0
 43
7.0
 44
1.0
 45
0.0
 46
0.0
 47
0.1
 48
0.1000000001
140
2.5
141
0.0
142
0.0
143
0.0393701
144
1.0
145
0.0
146
0.71
147
1.0
 71
     0
 72
     0
 73
     0
 74
     0
 75
     0
 76
     0
 77
     3
 78
     8
170
     0
171
     2
172
     1
173
     0
174
     0
175
     0
176
   256
177
   256
178
     4
  0
DIMSTYLE
  2
AM_JIS$SF
 70
     0
  3

  4
"
  5

  6

  7

 40
1.0
 41
2.5
 42
1.0
 43
10.0
 44
1.0
 45
0.0
 46
0.0
 47
0.1
 48
0.1
140
3.5
141
0.0
142
0.0
143
0.0393701
144
1.0
145
0.0
146
0.71
147
1.5
 71
     0
 72
     0
 73
     0
 74
     0
 75
     1
 76
     1
 77
     3
 78
     8
170
     0
171
     2
172
     1
173
     0
174
     0
175
     0
176
   256
177
   256
178
     4
  0
DIMSTYLE
  2
AM_JIS$SH
 70
     0
  3

  4
"
  5

  6

  7

 40
1.0
 41
2.5
 42
1.0
 43
10.0
 44
1.0
 45
0.0
 46
0.0
 47
0.1
 48
0.1
140
3.5
141
0.0
142
0.0
143
0.0393701
144
1.0
145
0.0
146
0.71
147
1.5
 71
     0
 72
     0
 73
     0
 74
     0
 75
     1
 76
     0
 77
     3
 78
     8
170
     0
171
     2
172
     1
173
     1
174
     0
175
     0
176
   256
177
   256
178
     4
  0
DIMSTYLE
  2
AM_ANSI
 70
     0
  3

  4
mm
  5

  6

  7

 40
1.0
 41
0.1
 42
0.05
 43
0.5
 44
0.1
 45
0.0
 46
0.0
 47
0.1
 48
0.1
140
0.12
141
0.0
142
0.0
143
25.399999999999999
144
1.0
145
0.0
146
0.71
147
0.06
 71
     0
 72
     0
 73
     1
 74
     1
 75
     0
 76
     0
 77
     0
 78
     7
170
     0
171
     2
172
     0
173
     0
174
     0
175
     0
176
   256
177
   256
178
     2
  0
DIMSTYLE
  2
AM_ANSI$3
 70
     0
  3

  4
mm
  5

  6

  7

 40
1.0
 41
0.1
 42
0.05
 43
0.5
 44
0.1
 45
0.0
 46
0.0
 47
0.1
 48
0.1
140
0.12
141
0.0
142
0.0
143
25.399999999999999
144
1.0
145
0.0
146
0.71
147
0.06
 71
     0
 72
     0
 73
     1
 74
     1
 75
     0
 76
     0
 77
     0
 78
     7
170
     0
171
     2
172
     0
173
     0
174
     0
175
     0
176
   256
177
   256
178
     2
  0
DIMSTYLE
  2
AM_ANSI$4
 70
     0
  3

  4
mm
  5

  6

  7

 40
1.0
 41
0.1
 42
0.05
 43
0.5
 44
0.1
 45
0.0
 46
0.0
 47
0.1
 48
0.1
140
0.12
141
0.0
142
0.0
143
25.399999999999999
144
1.0
145
0.0
146
0.71
147
0.06
 71
     0
 72
     0
 73
     1
 74
     1
 75
     0
 76
     0
 77
     0
 78
     7
170
     0
171
     2
172
     0
173
     0
174
     0
175
     0
176
   256
177
   256
178
     2
  0
DIMSTYLE
  2
AM_ANSI$7
 70
     0
  3

  4
mm
  5

  6

  7

 40
1.0
 41
0.1
 42
0.05
 43
0.5
 44
0.1
 45
0.0
 46
0.0
 47
0.1
 48
0.1
140
0.24
141
0.0
142
0.0
143
25.399999999999999
144
1.0
145
0.0
146
0.71
147
0.06
 71
     0
 72
     0
 73
     1
 74
     1
 75
     0
 76
     0
 77
     0
 78
     7
170
     0
171
     2
172
     0
173
     0
174
     0
175
     0
176
   256
177
   256
178
     2
  0
DIMSTYLE
  2
AM_ANSI$SF
 70
     0
  3

  4
mm
  5

  6

  7

 40
1.0
 41
0.1
 42
0.05
 43
0.5
 44
0.1
 45
0.0
 46
0.0
 47
0.1
 48
0.1
140
0.12
141
0.0
142
0.0
143
25.399999999999999
144
1.0
145
0.0
146
0.71
147
0.06
 71
     0
 72
     0
 73
     1
 74
     1
 75
     1
 76
     1
 77
     0
 78
     7
170
     0
171
     2
172
     0
173
     0
174
     0
175
     0
176
   256
177
   256
178
     2
  0
DIMSTYLE
  2
AM_ANSI$SH
 70
     0
  3

  4
mm
  5

  6

  7

 40
1.0
 41
0.1
 42
0.05
 43
0.5
 44
0.1
 45
0.0
 46
0.0
 47
0.1
 48
0.1
140
0.12
141
0.0
142
0.0
143
25.399999999999999
144
1.0
145
0.0
146
0.71
147
0.06
 71
     0
 72
     0
 73
     1
 74
     1
 75
     1
 76
     1
 77
     0
 78
     7
170
     0
171
     2
172
     0
173
     1
174
     0
175
     0
176
   256
177
   256
178
     2
  0
ENDTAB
  0
ENDSEC
  0
SECTION
  2
BLOCKS
  0
BLOCK
  8
0
  2
$MODEL_SPACE
 70
     0
 10
0.0
 20
0.0
 30
0.0
  3
$MODEL_SPACE
  1

  0
ENDBLK
  5
2DE4
  8
0
  0
BLOCK
 67
     1
  8
0
  2
$PAPER_SPACE
 70
     0
 10
0.0
 20
0.0
 30
0.0
  3
$PAPER_SPACE
  1

  0
ENDBLK
  5
2DE0
 67
     1
  8
0
  0
BLOCK
  8
0
  2
GENAXEH
 70
     0
 10
0.0
 20
0.0
 30
0.0
  3
GENAXEH
  1

  0
LINE
  5
2BA4
  8
0
 10
-1.0
 20
0.0
 30
0.0
 11
1.0
 21
0.0
 31
0.0
  0
ENDBLK
  5
2BA5
  8
0
  0
BLOCK
  8
0
  2
_OPEN30
 70
     0
 10
0.0
 20
0.0
 30
0.0
  3
_OPEN30
  1

  0
LINE
  5
2BA8
  8
0
 62
     0
 10
-1.0
 20
0.26794919
 30
0.0
 11
0.0
 21
0.0
 31
0.0
  0
LINE
  5
2BA9
  8
0
 62
     0
 10
0.0
 20
0.0
 30
0.0
 11
-1.0
 21
-0.26794919
 31
0.0
  0
LINE
  5
2BAA
  8
0
 62
     0
 10
0.0
 20
0.0
 30
0.0
 11
-1.0
 21
0.0
 31
0.0
  0
ENDBLK
  5
2BAB
  8
0
  0
BLOCK
  8
0
  2
_NONE
 70
     0
 10
0.0
 20
0.0
 30
0.0
  3
_NONE
  1

  0
ENDBLK
  5
2BAE
  8
0
  0
BLOCK
  8
0
  2
*U5
 70
     1
 10
0.0
 20
0.0
 30
0.0
  3
*U5
  1

  0
TEXT
  5
2BB1
  8
AM_0
 62
     4
 10
488.94593048593163
 20
224.2901258758736
 30
0.0
 40
7.5
  1
\U+2205
 50
90.0
 41
0.8299999999999999
  0
TEXT
  5
2BB2
  8
AM_0
 62
     4
 10
488.94593048593163
 20
230.51512587587371
 30
0.0
 40
7.5
  1
170
 50
90.0
 41
0.8299999999999999
  0
TEXT
  5
2BB3
  8
AM_0
 62
     4
 10
488.94593048593163
 20
246.07762587587359
 30
0.0
 40
6.0
  1
h7
 50
90.0
 41
0.8299999999999999
  0
ENDBLK
  5
2BB4
  8
0
  0
BLOCK
  8
0
  2
*U6
 70
     1
 10
0.0
 20
0.0
 30
0.0
  3
*U6
  1

  0
TEXT
  5
2BB7
  8
AM_0
 62
     4
 10
621.36762660493775
 20
370.89321162730431
 30
0.0
 40
7.5
  1
o
 41
0.8299999999999999
  0
TEXT
  5
2BB8
  8
AM_0
 62
     4
 10
628.7783408906522
 20
370.89321162730431
 30
0.0
 40
7.5
  1
 185
 41
0.8299999999999999
  0
ENDBLK
  5
2BB9
  8
0
  0
BLOCK
  8
0
  2
_ACMFILLEDHALF
 70
     0
 10
0.0
 20
0.0
 30
0.0
  3
_ACMFILLEDHALF
  1

  0
TRACE
  5
2EDD
  8
AM_0
 62
     0
 10
-0.8
 20
0.0
 30
0.0
 11
-1.0
 21
0.166666666
 31
0.0
 12
0.0
 22
0.0
 32
0.0
 13
0.0
 23
0.0
 33
0.0
  0
LINE
  5
2EDE
  8
AM_0
 62
     0
 10
-1.0
 20
0.0
 30
0.0
 11
-0.8
 21
0.0
 31
0.0
  0
ENDBLK
  5
2EDC
  8
0
  0
ENDSEC
  0
SECTION
  2
ENTITIES
  0
LINE
  5
2BBA
  8
AM_0
 10
400.99792897171392
 20
253.33388887587361
 30
0.0
 11
442.99792897171392
 21
253.33388887587361
 31
0.0
  0
LINE
  5
2BBB
  8
AM_0
 10
400.99792897171392
 20
225.3338868758735
 30
0.0
 11
442.99792897171392
 21
225.3338868758735
 31
0.0
  0
LINE
  5
2BBC
  8
AM_0
 10
410.99788897171391
 20
256.33387387587339
 30
0.0
 11
442.99792897171392
 21
256.33387387587339
 31
0.0
  0
LINE
  5
2BBD
  8
ﾁｭｳｼﾝｾﾝ
 10
256.09492897171413
 20
239.33387287587351
 30
0.0
 11
447.94567897171419
 21
239.33387287587351
 31
0.0
  0
LINE
  5
2BBE
  8
AM_0
 10
314.99788897171402
 20
294.95805187587359
 30
0.0
 11
314.99788897171402
 21
272.46796987587362
 31
0.0
  0
LINE
  5
2BBF
  8
AM_0
 10
273.4979589717139
 20
270.6338628758736
 30
0.0
 11
273.4979589717139
 21
277.73740987587342
 31
0.0
  0
ARC
  5
2BC0
  8
AM_0
 10
271.49788897171391
 20
277.50340087587352
 30
0.0
 40
2.00000007
 50
272.0
 51
0.0
  0
LINE
  5
2BC1
  8
AM_0
 10
217.9979589717139
 20
285.13389187587347
 30
0.0
 11
217.9979589717139
 21
275.07087487587359
 31
0.0
  0
LINE
  5
2BC2
  8
AM_0
 10
198.53342287764681
 20
289.66940978180628
 30
0.0
 11
177.92682115984871
 21
269.06280806400792
 31
0.0
  0
LINE
  5
2BC3
  8
AM_0
 10
209.99788897171399
 20
184.63387587587351
 30
0.0
 11
209.99788897171399
 21
297.63387587587351
 31
0.0
  0
LINE
  5
2BC4
  8
AM_0
 10
199.99788897171391
 20
296.37249722990828
 30
0.0
 11
199.9978889717149
 21
185.89525452183869
 31
0.0
  0
LINE
  5
2BC5
  8
AM_0
 10
400.99792897171392
 20
324.3338808758736
 30
0.0
 11
400.99792897171392
 21
154.3338708758734
 31
0.0
  0
LINE
  5
2BC6
  8
AM_0
 10
321.99787897171421
 20
297.13389487587341
 30
0.0
 11
321.99787897171421
 21
135.13387387587349
 31
0.0
  0
LINE
  5
2BC7
  8
AM_0
 10
278.4978789717141
 20
152.63387287587341
 30
0.0
 11
278.4978789717141
 21
279.63389287587358
 31
0.0
  0
LINE
  5
2BC8
  8
AM_0
 10
304.9979589717139
 20
286.95625087587359
 30
0.0
 11
304.9979589717139
 21
137.65891387587351
 31
0.0
  0
LINE
  5
2BC9
  8
AM_0
 10
232.9979589717139
 20
294.39930487587372
 30
0.0
 11
232.9979589717139
 21
258.28220887587361
 31
0.0
  0
LINE
  5
2BCA
  8
AM_0
 10
396.99787897171427
 20
239.33387287587351
 30
0.0
 11
396.99787897171427
 21
331.83388087587372
 31
0.0
  0
LINE
  5
2BCB
  8
AM_0
 10
390.99787897171427
 20
168.8338548758735
 30
0.0
 11
390.99787897171427
 21
309.50617087587358
 31
0.0
  0
LINE
  5
2BCC
  8
AM_0
 10
386.99788897171402
 20
215.4235338758736
 30
0.0
 11
386.99788897171402
 21
290.45911987587368
 31
0.0
  0
ARC
  5
2BCD
  8
AM_0
 10
361.16569897171411
 20
262.38389287587358
 30
0.0
 40
24.832211399999991
 50
349.38167999999979
 51
47.544066000000022
  0
LINE
  5
2BCE
  8
AM_0
 10
156.49788897171391
 20
216.13387587587351
 30
0.0
 11
170.8557533479829
 21
216.13387587587351
 31
0.0
  0
LINE
  5
2BCF
  8
AM_0
 10
156.49788897171391
 20
266.13387587587351
 30
0.0
 11
170.8557533479829
 21
266.13387587587351
 31
0.0
  0
LINE
  5
2BD0
  8
ﾁｭｳｼﾝｾﾝ
 10
268.61836897171401
 20
241.13387587587351
 30
0.0
 11
118.87687158549539
 21
241.13387587587351
 31
0.0
  0
LINE
  5
2BD1
  8
AM_0
 10
150.49788897171391
 20
248.63387587587351
 30
0.0
 11
150.49788897171391
 21
233.63386824647901
 31
0.0
  0
LINE
  5
2BD2
  8
AM_0
 10
152.49788897171391
 20
255.3054487511273
 30
0.0
 11
152.49788897171391
 21
226.9623030006197
 31
0.0
  0
LINE
  5
2BD3
  8
AM_0
 10
154.49788897171391
 20
218.13387587587351
 30
0.0
 11
154.49788897171391
 21
264.13387587587351
 31
0.0
  0
ARC
  5
2BD4
  8
AM_0
 10
156.49788897171391
 20
218.13387587587351
 30
0.0
 40
2.0
 50
180.0
 51
270.0
1001
GENIUS_GENODEF_13
1002
{
1000
HIER
1070
     0
1002
}
1002
{
1000
MANEDIT
1070
     0
1002
}
1002
{
1000
NOSEL
1070
     0
1002
}
1002
{
1000
BEHIND
1070
     0
1002
}
1002
{
1000
OTHER
1070
     0
1002
}
1002
{
1000
REACTOR
1002
}
1001
GENIUS_GENOBJ-N-FIL_13
1002
{
1000
OWNER
1000
GEN
1002
}
  0
LINE
  5
2BD5
  8
AM_0
 10
150.49788897171391
 20
233.63386824647901
 30
0.0
 11
152.49788897171391
 21
233.63386824647901
 31
0.0
  0
ARC
  5
2BD6
  8
AM_0
 10
154.49788897171391
 20
226.9623030006197
 30
0.0
 40
2.0
 50
180.0
 51
225.0000000000006
1001
GENIUS_GENODEF_13
1002
{
1000
HIER
1070
     0
1002
}
1002
{
1000
MANEDIT
1070
     0
1002
}
1002
{
1000
NOSEL
1070
     0
1002
}
1002
{
1000
BEHIND
1070
     0
1002
}
1002
{
1000
OTHER
1070
     0
1002
}
1002
{
1000
REACTOR
1002
}
1001
GENIUS_GENOBJ-N-FIL_13
1002
{
1000
OWNER
1000
GEN
1002
}
  0
ARC
  5
2BD7
  8
AM_0
 10
152.49788897171391
 20
223.3054487511273
 30
0.0
 40
2.0
 50
0.0
 51
45.000000000000568
1001
GENIUS_GENODEF_13
1002
{
1000
HIER
1070
     0
1002
}
1002
{
1000
MANEDIT
1070
     0
1002
}
1002
{
1000
NOSEL
1070
     0
1002
}
1002
{
1000
BEHIND
1070
     0
1002
}
1002
{
1000
OTHER
1070
     0
1002
}
1002
{
1000
REACTOR
1002
}
1001
GENIUS_GENOBJ-N-FIL_13
1002
{
1000
OWNER
1000
GEN
1002
}
  0
LINE
  5
2BD8
  8
AM_0
 10
153.08367540934111
 20
225.54808943824639
 30
0.0
 11
153.9121025340873
 21
224.71966231350041
 31
0.0
  0
LINE
  5
2BD9
  8
AM_0
 10
125.497888971714
 20
248.63387587587351
 30
0.0
 11
143.49788897171391
 21
248.63387587587351
 31
0.0
  0
LINE
  5
2BDA
  8
AM_0
 10
125.497888971714
 20
247.13387587587351
 30
0.0
 11
150.49788897171391
 21
247.13387587587351
 31
0.0
  0
LINE
  5
2BDB
  8
AM_0
 10
125.497888971714
 20
235.13387587587351
 30
0.0
 11
150.49788897171391
 21
235.13387587587351
 31
0.0
  0
LINE
  5
2BDC
  8
AM_0
 10
125.497888971714
 20
248.63387587587351
 30
0.0
 11
125.497888971714
 21
235.13387587587351
 31
0.0
  0
ARC
  5
2BDD
  8
AM_0
 10
154.49788897171391
 20
255.3054487511273
 30
0.0
 40
2.0
 50
134.9999999999994
 51
180.0
1001
GENIUS_GENODEF_13
1002
{
1000
HIER
1070
     0
1002
}
1002
{
1000
MANEDIT
1070
     0
1002
}
1002
{
1000
NOSEL
1070
     0
1002
}
1002
{
1000
BEHIND
1070
     0
1002
}
1002
{
1000
OTHER
1070
     0
1002
}
1002
{
1000
REACTOR
1002
}
1001
GENIUS_GENOBJ-N-FIL_13
1002
{
1000
OWNER
1000
GEN
1002
}
  0
LINE
  5
2BDE
  8
AM_0
 10
150.49788897171391
 20
248.63387587587351
 30
0.0
 11
152.49788897171391
 21
248.63387587587351
 31
0.0
  0
LINE
  5
2BDF
  8
AM_0
 10
143.49788897171391
 20
248.63387587587351
 30
0.0
 11
143.49788897171391
 21
247.13387587587351
 31
0.0
  0
ARC
  5
2BE0
  8
AM_0
 10
156.49788897171391
 20
264.13387587587351
 30
0.0
 40
2.0
 50
90.0
 51
180.0
1001
GENIUS_GENODEF_13
1002
{
1000
HIER
1070
     0
1002
}
1002
{
1000
MANEDIT
1070
     0
1002
}
1002
{
1000
NOSEL
1070
     0
1002
}
1002
{
1000
BEHIND
1070
     0
1002
}
1002
{
1000
OTHER
1070
     0
1002
}
1002
{
1000
REACTOR
1002
}
1001
GENIUS_GENOBJ-N-FIL_13
1002
{
1000
OWNER
1000
GEN
1002
}
  0
ARC
  5
2BE1
  8
AM_0
 10
152.49788897171391
 20
258.9623030006195
 30
0.0
 40
2.0
 50
314.99999999999932
 51
0.0
1001
GENIUS_GENODEF_13
1002
{
1000
HIER
1070
     0
1002
}
1002
{
1000
MANEDIT
1070
     0
1002
}
1002
{
1000
NOSEL
1070
     0
1002
}
1002
{
1000
BEHIND
1070
     0
1002
}
1002
{
1000
OTHER
1070
     0
1002
}
1002
{
1000
REACTOR
1002
}
1001
GENIUS_GENOBJ-N-FIL_13
1002
{
1000
OWNER
1000
GEN
1002
}
  0
LINE
  5
2BE2
  8
AM_0
 10
153.08367540934111
 20
256.71966231350041
 30
0.0
 11
153.9121025340873
 21
257.54808943824651
 31
0.0
  0
LINE
  5
2BE3
  8
AM_0
 10
278.4978789717141
 20
152.63388787587351
 30
0.0
 11
300.7246989717143
 21
151.8577038758736
 31
0.0
  0
LINE
  5
2BE4
  8
AM_0
 10
278.4978789717141
 20
178.98594187587361
 30
0.0
 11
304.9979589717139
 21
178.98594187587361
 31
0.0
  0
LINE
  5
2BE5
  8
AM_0
 10
278.4978789717141
 20
164.63387287587349
 30
0.0
 11
304.9979589717139
 21
164.63387287587349
 31
0.0
  0
LINE
  5
2BE6
  8
AM_0
 10
278.4978789717141
 20
267.63389287587358
 30
0.0
 11
304.9979589717139
 21
267.63389287587358
 31
0.0
  0
LINE
  5
2BE7
  8
AM_0
 10
278.4978789717141
 20
253.28184187587351
 30
0.0
 11
304.9979589717139
 21
253.28184187587351
 31
0.0
  0
LINE
  5
2BE8
  8
AM_0
 10
246.3284589717141
 20
186.0075318758735
 30
0.0
 11
246.3284589717141
 21
250.64963887587351
 31
0.0
  0
ARC
  5
2BE9
  8
AM_0
 10
194.99788897171391
 20
189.0628080640079
 30
0.0
 40
5.0
 50
0.0
 51
45.0
1001
GENIUS_GENODEF_13
1002
{
1000
HIER
1070
     0
1002
}
1002
{
1000
MANEDIT
1070
     0
1002
}
1002
{
1000
NOSEL
1070
     0
1002
}
1002
{
1000
BEHIND
1070
     0
1002
}
1002
{
1000
OTHER
1070
     0
1002
}
1002
{
1000
REACTOR
1002
}
1001
GENIUS_GENOBJ-N-FIL_13
1002
{
1000
OWNER
1000
GEN
1002
}
  0
LINE
  5
2BEA
  8
AM_0
 10
273.4979589717139
 20
154.7398458758735
 30
0.0
 11
273.4979589717139
 21
250.28223787587359
 31
0.0
  0
LINE
  5
2BEB
  8
AM_0
 10
209.99788897171399
 20
185.1338748758736
 30
0.0
 11
237.1025589717141
 21
184.18735687587341
 31
0.0
  0
LINE
  5
2BEC
  8
AM_0
 10
200.96890577843061
 20
184.89567462282741
 30
0.0
 11
209.99788897171399
 21
184.63387587587351
 31
0.0
  0
ARC
  5
2BED
  8
AM_0
 10
200.99788897171391
 20
185.89525452183869
 30
0.0
 40
1.0
 50
180.0
 51
268.33915276702578
1001
GENIUS_GENOBJ-N-FIL_13
1002
{
1000
OWNER
1000
GEN
1002
}
1001
GENIUS_GENODEF_13
1002
{
1000
HIER
1070
     0
1002
}
1002
{
1000
MANEDIT
1070
     0
1002
}
1002
{
1000
NOSEL
1070
     0
1002
}
1002
{
1000
BEHIND
1070
     0
1002
}
1002
{
1000
OTHER
1070
     0
1002
}
1002
{
1000
REACTOR
1002
}
  0
LINE
  5
2BEE
  8
AM_0
 10
242.89315897171409
 20
157.7644428758735
 30
0.0
 11
271.56769897171409
 21
156.7631148758735
 31
0.0
  0
LINE
  5
2BEF
  8
AM_0
 10
247.1640789717141
 20
183.02958187587359
 30
0.0
 11
272.61922897171411
 21
157.57441087587341
 31
0.0
  0
LINE
  5
2BF0
  8
AM_0
 10
239.99788897171391
 20
160.7626128758734
 30
0.0
 11
239.99788897171391
 21
181.1891718758736
 31
0.0
  0
ARC
  5
2BF1
  8
AM_0
 10
242.99788897171399
 20
160.7626128758734
 30
0.0
 40
3.0
 50
179.99998999999991
 51
268.00000999999992
  0
LINE
  5
2BF2
  8
AM_0
 10
237.1025589717141
 20
184.18735687587341
 30
0.0
 11
245.1474189717141
 21
183.90642787587359
 31
0.0
  0
ARC
  5
2BF3
  8
AM_0
 10
236.99788897171399
 20
181.1891718758736
 30
0.0
 40
3.0
 50
0.0
 51
88.0
  0
ARC
  5
2BF4
  8
AM_0
 10
245.0427489717141
 20
180.90824287587361
 30
0.0
 40
3.0
 50
45.00000099999999
 51
88.0
  0
LINE
  5
2BF5
  8
AM_0
 10
273.4979589717139
 20
164.6338578758735
 30
0.0
 11
278.4978789717141
 21
164.6338578758735
 31
0.0
  0
LINE
  5
2BF6
  8
AM_0
 10
275.4281289717141
 20
152.74105087587361
 30
0.0
 11
278.4978789717141
 21
152.63385787587359
 31
0.0
  0
ARC
  5
2BF7
  8
AM_0
 10
275.4978789717141
 20
154.7398458758735
 30
0.0
 40
2.00000007
 50
179.99998999999991
 51
268.00000999999992
  0
ARC
  5
2BF8
  8
AM_0
 10
271.49788897171391
 20
154.76433787587359
 30
0.0
 40
2.00000007
 50
0.0
 51
88.0
  0
ARC
  5
2BF9
  8
AM_0
 10
270.4979589717139
 20
155.45305687587339
 30
0.0
 40
3.0
 50
0.0
 51
45.00000099999999
  0
LINE
  5
2BFA
  8
AM_0
 10
273.4979589717139
 20
178.98549787587351
 30
0.0
 11
278.4978789717141
 21
178.98549787587351
 31
0.0
  0
LINE
  5
2BFB
  8
AM_0
 10
174.99788897171391
 20
266.1338758758734
 30
0.0
 11
174.99788897171391
 21
216.1338758758734
 31
0.0
  0
LINE
  5
2BFC
  8
AM_0
 10
198.53342287764681
 20
192.5983419699408
 30
0.0
 11
177.92682115984871
 21
213.2049436877391
 31
0.0
  0
ARC
  5
2BFD
  8
AM_0
 10
170.8557533479829
 20
206.13387587587351
 30
0.0
 40
10.0
 50
45.0
 51
90.0
1001
GENIUS_GENOBJ-N-FIL_13
1002
{
1000
OWNER
1000
GEN
1002
}
1001
GENIUS_GENODEF_13
1002
{
1000
HIER
1070
     0
1002
}
1002
{
1000
MANEDIT
1070
     0
1002
}
1002
{
1000
NOSEL
1070
     0
1002
}
1002
{
1000
BEHIND
1070
     0
1002
}
1002
{
1000
OTHER
1070
     0
1002
}
1002
{
1000
REACTOR
1002
}
  0
LINE
  5
2BFE
  8
AM_0
 10
209.99788897171399
 20
209.19686287587351
 30
0.0
 11
215.99788897171399
 21
209.19686287587351
 31
0.0
  0
LINE
  5
2BFF
  8
AM_0
 10
209.99788897171399
 20
195.13389187587359
 30
0.0
 11
215.99788897171399
 21
195.13389187587359
 31
0.0
  0
LINE
  5
2C00
  8
AM_0
 10
217.9979589717139
 20
207.19687987587361
 30
0.0
 11
217.9979589717139
 21
197.1338748758736
 31
0.0
  0
ARC
  5
2C01
  8
AM_0
 10
215.99788897171399
 20
197.1338748758736
 30
0.0
 40
2.00000007
 50
270.0
 51
0.0
  0
ARC
  5
2C02
  8
AM_0
 10
215.99788897171399
 20
207.19687987587361
 30
0.0
 40
2.00000007
 50
0.0
 51
90.000003000000007
  0
ARC
  5
2C03
  8
AM_0
 10
170.8557533479829
 20
276.13387587587351
 30
0.0
 40
10.0
 50
270.0
 51
315.0
1001
GENIUS_GENODEF_13
1002
{
1000
HIER
1070
     0
1002
}
1002
{
1000
MANEDIT
1070
     0
1002
}
1002
{
1000
NOSEL
1070
     0
1002
}
1002
{
1000
BEHIND
1070
     0
1002
}
1002
{
1000
OTHER
1070
     0
1002
}
1002
{
1000
REACTOR
1002
}
1001
GENIUS_GENOBJ-N-FIL_13
1002
{
1000
OWNER
1000
GEN
1002
}
  0
LINE
  5
2C04
  8
AM_0
 10
209.99788897171399
 20
273.07087387587347
 30
0.0
 11
215.99788897171399
 21
273.07087387587347
 31
0.0
  0
ARC
  5
2C05
  8
AM_0
 10
215.99788897171399
 20
275.07087487587359
 30
0.0
 40
2.00000007
 50
270.0
 51
0.0
  0
LINE
  5
2C06
  8
AM_0
 10
236.1026289717141
 20
274.26615487587361
 30
0.0
 11
271.56769897171409
 21
275.50462087587351
 31
0.0
  0
LINE
  5
2C07
  8
AM_0
 10
237.99787897171399
 20
253.28223787587351
 30
0.0
 11
278.4978789717141
 21
253.28223787587351
 31
0.0
  0
LINE
  5
2C08
  8
AM_0
 10
232.9979589717139
 20
267.6338628758736
 30
0.0
 11
278.4978789717141
 21
267.6338628758736
 31
0.0
  0
ARC
  5
2C09
  8
AM_0
 10
237.99787897171399
 20
258.28220887587361
 30
0.0
 40
5.0000001000000003
 50
179.99998999999991
 51
270.0
  0
ARC
  5
2C0A
  8
AM_0
 10
235.99795897171401
 20
277.26432487587363
 30
0.0
 40
3.0
 50
179.99998999999991
 51
271.99998999999991
  0
ARC
  5
2C0B
  8
AM_0
 10
270.4979589717139
 20
250.28223787587359
 30
0.0
 40
3.0
 50
0.0
 51
90.000003000000007
  0
ARC
  5
2C0C
  8
AM_0
 10
270.4979589717139
 20
270.6338628758736
 30
0.0
 40
3.0
 50
270.0
 51
0.0
  0
LINE
  5
2C0D
  8
AM_0
 10
314.99788897171402
 20
247.28310787587361
 30
0.0
 11
314.99788897171402
 21
156.5898978758735
 31
0.0
  0
LINE
  5
2C0E
  8
AM_0
 10
396.99787897171427
 20
146.8338558758735
 30
0.0
 11
396.99787897171427
 21
239.33387287587351
 31
0.0
  0
LINE
  5
2C0F
  8
AM_0
 10
321.99787897171421
 20
150.02365987587359
 30
0.0
 11
386.99788897171402
 21
150.02365987587359
 31
0.0
  0
LINE
  5
2C10
  8
AM_0
 10
321.9979089717142
 20
135.13387387587349
 30
0.0
 11
364.75183897171422
 21
133.64087587587341
 31
0.0
  0
LINE
  5
2C11
  8
AM_0
 10
346.99792897171392
 20
162.8660988758734
 30
0.0
 11
386.99788897171402
 21
162.8660988758734
 31
0.0
  0
LINE
  5
2C12
  8
AM_0
 10
346.99792897171392
 20
177.5293968758736
 30
0.0
 11
386.99788897171402
 21
177.5293968758736
 31
0.0
  0
LINE
  5
2C13
  8
AM_0
 10
321.9979089717142
 20
135.13387387587349
 30
0.0
 11
306.9280689717142
 21
135.66011887587351
 31
0.0
  0
ARC
  5
2C14
  8
AM_0
 10
306.99787897171421
 20
137.65891387587351
 30
0.0
 40
2.00000007
 50
179.99998999999991
 51
268.00000999999992
  0
LINE
  5
2C15
  8
AM_0
 10
306.99787897171421
 20
154.58989687587351
 30
0.0
 11
312.99787897171421
 21
154.58989687587351
 31
0.0
  0
LINE
  5
2C16
  8
AM_0
 10
301.14094897171418
 20
151.81395787587351
 30
0.0
 11
302.518878971714
 21
151.5710088758735
 31
0.0
  0
ARC
  5
2C17
  8
AM_0
 10
300.6200889717141
 20
148.8595218758735
 30
0.0
 40
3.0
 50
79.999998000000005
 51
88.0
  0
ARC
  5
2C18
  8
AM_0
 10
306.99787897171421
 20
152.5898988758735
 30
0.0
 40
2.00000007
 50
90.000003000000007
 51
180.00001
  0
ARC
  5
2C19
  8
AM_0
 10
301.99795897171379
 20
148.61658487587351
 30
0.0
 40
3.0
 50
0.0
 51
79.999998000000005
  0
ARC
  5
2C1A
  8
AM_0
 10
312.99787897171421
 20
156.5898978758735
 30
0.0
 40
2.00000007
 50
270.0
 51
0.0
  0
LINE
  5
2C1B
  8
AM_0
 10
346.99792897171392
 20
164.0490798758735
 30
0.0
 11
346.99792897171392
 21
176.36908987587361
 31
0.0
  0
ARC
  5
2C1C
  8
AM_0
 10
346.99957897171402
 20
170.19776287587359
 30
0.0
 40
7.331659199999998
 50
90.000003000000007
 51
270.0
  0
ARC
  5
2C1D
  8
AM_0
 10
389.99788897171402
 20
149.5912398758735
 30
0.0
 40
3.0
 50
179.99998999999991
 51
271.99998999999991
  0
LINE
  5
2C1E
  8
AM_0
 10
386.99791897171411
 20
146.48465887587341
 30
0.0
 11
396.99787897171427
 21
146.8338708758734
 31
0.0
  0
LINE
  5
2C1F
  8
AM_0
 10
364.75183897171422
 20
133.6408608758735
 30
0.0
 11
386.99788897171402
 21
146.4846438758735
 31
0.0
  0
LINE
  5
2C20
  8
AM_0
 10
386.99788897171402
 20
149.5912398758735
 30
0.0
 11
386.99788897171402
 21
184.9632348758735
 31
0.0
  0
ARC
  5
2C21
  8
AM_0
 10
387.99787897171427
 20
168.8338548758735
 30
0.0
 40
3.0
 50
270.0
 51
0.0
  0
ARC
  5
2C22
  8
AM_0
 10
389.99788897171402
 20
184.9632348758735
 30
0.0
 40
3.0
 50
90.000003000000007
 51
180.00001
  0
LINE
  5
2C23
  8
AM_0
 10
396.99787897171427
 20
154.3338708758734
 30
0.0
 11
400.99792897171392
 21
154.3338708758734
 31
0.0
  0
LINE
  5
2C24
  8
AM_0
 10
321.99787897171421
 20
262.38389287587358
 30
0.0
 11
383.94319897171408
 21
262.38389287587358
 31
0.0
  0
LINE
  5
2C25
  8
AM_0
 10
306.99787897171421
 20
249.28309387587331
 30
0.0
 11
312.99787897171421
 21
249.28309387587331
 31
0.0
  0
LINE
  5
2C26
  8
AM_0
 10
305.91334897171419
 20
242.8059648758736
 30
0.0
 11
312.99787897171421
 21
242.8059648758736
 31
0.0
  0
ARC
  5
2C27
  8
AM_0
 10
306.99787897171421
 20
251.28310687587361
 30
0.0
 40
2.00000007
 50
179.99998999999991
 51
270.0
  0
ARC
  5
2C28
  8
AM_0
 10
312.99787897171421
 20
240.80598187587361
 30
0.0
 40
2.00000007
 50
0.0
 51
90.000003000000007
  0
ARC
  5
2C29
  8
AM_0
 10
312.99787897171421
 20
247.28310787587361
 30
0.0
 40
2.00000007
 50
0.0
 51
90.000003000000007
  0
LINE
  5
2C2A
  8
AM_0
 10
306.99787897171421
 20
270.4679688758734
 30
0.0
 11
312.99787897171421
 21
270.4679688758734
 31
0.0
  0
ARC
  5
2C2B
  8
AM_0
 10
306.99787897171421
 20
268.46796787587351
 30
0.0
 40
2.00000007
 50
90.000003000000007
 51
180.00001
  0
ARC
  5
2C2C
  8
AM_0
 10
312.99787897171421
 20
272.46796987587362
 30
0.0
 40
2.00000007
 50
270.0
 51
0.0
  0
ARC
  5
2C2D
  8
AM_0
 10
405.64321897171402
 20
230.10164887587351
 30
0.0
 40
24.832211399999991
 50
169.38167999999999
 51
218.79320999999999
  0
LINE
  5
2C2E
  8
AM_0
 10
388.626948971714
 20
213.42353287587369
 30
0.0
 11
390.99787897171427
 21
213.42353287587369
 31
0.0
  0
ARC
  5
2C2F
  8
AM_0
 10
388.626948971714
 20
216.4235328758736
 30
0.0
 40
3.0
 50
218.79321999999999
 51
270.0
  0
LINE
  5
2C30
  8
AM_0
 10
385.5726789717138
 20
257.80814887587343
 30
0.0
 11
381.23620897171372
 21
234.67737787587359
 31
0.0
  0
LINE
  5
2C31
  8
AM_0
 10
410.99788897171391
 20
256.33387387587339
 30
0.0
 11
410.99788897171391
 21
253.33388887587361
 31
0.0
  0
LINE
  5
2C32
  8
AM_0
 10
278.4978789717141
 20
279.63389287587358
 30
0.0
 11
300.58498897171421
 21
280.40519287587352
 31
0.0
  0
LINE
  5
2C33
  8
AM_0
 10
209.99788897171399
 20
297.13389487587341
 30
0.0
 11
231.06769897171409
 21
296.39811487587372
 31
0.0
  0
LINE
  5
2C34
  8
AM_0
 10
209.99788897171399
 20
287.13386287587372
 30
0.0
 11
215.99788897171399
 21
287.13386287587372
 31
0.0
  0
LINE
  5
2C35
  8
AM_0
 10
200.96890577843061
 20
297.37207712891939
 30
0.0
 11
209.99788897171399
 21
297.63387587587351
 31
0.0
  0
ARC
  5
2C36
  8
AM_0
 10
200.99788897171391
 20
296.37249722990828
 30
0.0
 40
1.0
 50
91.66084723297412
 51
180.0
1001
GENIUS_GENOBJ-N-FIL_13
1002
{
1000
OWNER
1000
GEN
1002
}
1001
GENIUS_GENODEF_13
1002
{
1000
HIER
1070
     0
1002
}
1002
{
1000
MANEDIT
1070
     0
1002
}
1002
{
1000
NOSEL
1070
     0
1002
}
1002
{
1000
BEHIND
1070
     0
1002
}
1002
{
1000
OTHER
1070
     0
1002
}
1002
{
1000
REACTOR
1002
}
  0
ARC
  5
2C37
  8
AM_0
 10
194.99788897171391
 20
293.20494368773882
 30
0.0
 40
5.0
 50
315.0
 51
0.0
1001
GENIUS_GENODEF_13
1002
{
1000
HIER
1070
     0
1002
}
1002
{
1000
MANEDIT
1070
     0
1002
}
1002
{
1000
NOSEL
1070
     0
1002
}
1002
{
1000
BEHIND
1070
     0
1002
}
1002
{
1000
OTHER
1070
     0
1002
}
1002
{
1000
REACTOR
1002
}
1001
GENIUS_GENOBJ-N-FIL_13
1002
{
1000
OWNER
1000
GEN
1002
}
  0
ARC
  5
2C38
  8
AM_0
 10
215.99788897171399
 20
285.13389187587347
 30
0.0
 40
2.00000007
 50
0.0
 51
90.000003000000007
  0
ARC
  5
2C39
  8
AM_0
 10
230.99788897171399
 20
294.39930487587372
 30
0.0
 40
2.00000007
 50
0.0
 51
88.0
  0
LINE
  5
2C3A
  8
AM_0
 10
275.56771897171382
 20
279.7361868758735
 30
0.0
 11
278.4978789717141
 21
279.6338628758736
 31
0.0
  0
ARC
  5
2C3B
  8
AM_0
 10
275.4978789717141
 20
277.73740987587342
 30
0.0
 40
2.00000007
 50
88.0
 51
180.00001
  0
LINE
  5
2C3C
  8
AM_0
 10
359.4108489717143
 20
299.24677087587361
 30
0.0
 11
386.99791897171411
 21
326.8338408758737
 31
0.0
  0
LINE
  5
2C3D
  8
AM_0
 10
358.57522897171418
 20
298.41117487587371
 30
0.0
 11
377.9280189717141
 21
280.70499787587357
 31
0.0
  0
LINE
  5
2C3E
  8
AM_0
 10
321.9979089717142
 20
297.13389487587341
 30
0.0
 11
357.3941889717143
 21
298.3699458758735
 31
0.0
  0
LINE
  5
2C3F
  8
AM_0
 10
309.82339897171408
 20
291.95319787587363
 30
0.0
 11
310.46851897171427
 21
291.97572187587372
 31
0.0
  0
ARC
  5
2C40
  8
AM_0
 10
309.99787897171421
 20
286.95625087587359
 30
0.0
 40
5.0000001000000003
 50
91.999997999999948
 51
180.00001
  0
LINE
  5
2C41
  8
AM_0
 10
301.2787689717141
 20
280.47810187587362
 30
0.0
 11
302.51881897171393
 21
280.69675987587362
 31
0.0
  0
ARC
  5
2C42
  8
AM_0
 10
300.41053897171412
 20
285.40214287587372
 30
0.0
 40
5.0000001000000003
 50
272.0
 51
280.0
  0
ARC
  5
2C43
  8
AM_0
 10
301.99795897171379
 20
283.65119587587338
 30
0.0
 40
3.0
 50
280.0
 51
0.0
  0
LINE
  5
2C44
  8
AM_0
 10
321.9979089717142
 20
297.13389487587341
 30
0.0
 11
316.92811897171413
 21
296.95686187587359
 31
0.0
  0
ARC
  5
2C45
  8
AM_0
 10
310.29409897171399
 20
296.97266887587341
 30
0.0
 40
5.0000001000000003
 50
272.0
 51
343.27366000000001
  0
ARC
  5
2C46
  8
AM_0
 10
316.99795897171379
 20
294.95805187587359
 30
0.0
 40
2.00000007
 50
91.999997999999948
 51
163.27365
  0
ARC
  5
2C47
  8
AM_0
 10
357.28948897171409
 20
301.36813087587348
 30
0.0
 40
3.0
 50
272.0
 51
315.0
  0
LINE
  5
2C48
  8
AM_0
 10
386.99788897171402
 20
290.45911987587368
 30
0.0
 11
386.99788897171402
 21
329.55328087587361
 31
0.0
  0
ARC
  5
2C49
  8
AM_0
 10
389.99788897171402
 20
290.45911987587368
 30
0.0
 40
3.0
 50
179.99998999999991
 51
270.0
  0
LINE
  5
2C4A
  8
AM_0
 10
377.9280189717141
 20
280.70499787587357
 30
0.0
 11
377.9280189717141
 21
280.70499787587357
 31
0.0
  0
ARC
  5
2C4B
  8
AM_0
 10
387.99787897171427
 20
309.50617087587358
 30
0.0
 40
3.0
 50
0.0
 51
91.999997999999948
  0
LINE
  5
2C4C
  8
AM_0
 10
388.92811897171401
 20
331.5520908758736
 30
0.0
 11
396.9978489717144
 21
331.83388087587372
 31
0.0
  0
ARC
  5
2C4D
  8
AM_0
 10
388.99792897171392
 20
329.55328087587361
 30
0.0
 40
2.00000007
 50
91.999997999999948
 51
180.00001
  0
LINE
  5
2C4E
  8
AM_0
 10
396.99787897171427
 20
324.3338808758736
 30
0.0
 11
400.99792897171392
 21
324.3338808758736
 31
0.0
  0
LINE
  5
2C4F
  8
AM_0
 10
726.99939931922302
 20
269.33387287587362
 30
0.0
 11
724.59388231922333
 21
315.23392087587359
 31
0.0
  0
LINE
  5
2C50
  8
AM_0
 10
661.7719743192232
 20
270.84907087587362
 30
0.0
 11
686.65976131922343
 21
295.73686087587362
 31
0.0
  0
LINE
  5
2C51
  8
AM_0
 10
607.22683831922359
 20
270.84907087587362
 30
0.0
 11
582.33908131922362
 21
295.73682787587347
 31
0.0
  0
ARC
  5
2C52
  8
AM_0
 10
634.49940631922368
 20
239.33387287587351
 30
0.0
 40
39.000011999999998
 50
53.213208000000002
 51
126.78679
  0
LINE
  5
2C53
  8
AM_0
 10
541.99942531922352
 20
269.33387287587362
 30
0.0
 11
544.40493631922345
 21
315.23392087587359
 31
0.0
  0
LINE
  5
2C54
  8
AM_0
 10
666.01461931922336
 20
266.60642587587358
 30
0.0
 11
690.90240631922347
 21
291.49421287587359
 31
0.0
  0
LINE
  5
2C55
  8
AM_0
 10
602.98419031922356
 20
266.60645587587351
 30
0.0
 11
578.09643331922325
 21
291.49421287587359
 31
0.0
  0
CIRCLE
  5
2C56
  8
AM_0
 10
634.49940631922368
 20
239.33387287587351
 30
0.0
 40
85.000001999999981
  0
ARC
  5
2C57
  8
AM_0
 10
634.49940631922368
 20
216.1338918758735
 30
0.0
 40
81.000003000000007
 50
24.588774999999998
 51
54.525830000000013
  0
CIRCLE
  5
2C58
  8
AM_0
 10
634.49940631922368
 20
239.33387287587351
 30
0.0
 40
80.000000999999983
  0
ARC
  5
2C59
  8
AM_0
 10
634.49940631922368
 20
216.1338918758735
 30
0.0
 40
81.000003000000007
 50
125.47417
 51
155.4112299999999
  0
LINE
  5
2C5A
  8
ﾁｭｳｼﾝｾﾝ
 10
634.49940631922368
 20
129.79914187587349
 30
0.0
 11
634.49940631922368
 21
337.69929026234678
 31
0.0
  0
LINE
  5
2C5B
  8
AM_0
 10
664.49940631922357
 20
146.8338708758734
 30
0.0
 11
710.39947831922314
 21
149.2393878758734
 31
0.0
  0
LINE
  5
2C5C
  8
AM_0
 10
709.3643523192236
 20
211.13389087587331
 30
0.0
 11
678.49940731922345
 21
211.13389087587331
 31
0.0
  0
LINE
  5
2C5D
  8
ﾁｭｳｼﾝｾﾝ
 10
533.2357053192236
 20
239.33387287587351
 30
0.0
 11
734.32433649046573
 21
239.33387287587351
 31
0.0
  0
LINE
  5
2C5E
  8
AM_0
 10
604.49940331922335
 20
146.8338708758734
 30
0.0
 11
558.59933431922343
 21
149.2393878758734
 31
0.0
  0
CIRCLE
  5
2C5F
  8
AM_0
 10
558.48544231922335
 20
163.3198938758735
 30
0.0
 40
6.0000002999999991
  0
ARC
  5
2C60
  8
AM_0
 10
634.49940631922368
 20
216.1338918758735
 30
0.0
 40
76.000001999999981
 50
167.2398
 51
181.39354
  0
LINE
  5
2C61
  8
AM_0
 10
559.63446031922331
 20
211.13389087587331
 30
0.0
 11
590.49939031922338
 21
211.13389087587331
 31
0.0
  0
ARC
  5
2C62
  8
AM_0
 10
634.49940631922368
 20
239.33387287587351
 30
0.0
 40
74.400002999999998
 50
171.8834499999999
 51
184.9454199999999
  0
LINE
  5
2C63
  8
AM_0
 10
541.99939531922359
 20
209.33385787587341
 30
0.0
 11
544.40490631922353
 21
163.4337858758735
 31
0.0
  0
ARC
  5
2C64
  8
AM_0
 10
559.38436831922343
 20
164.21881987587341
 30
0.0
 40
15.00000029999998
 50
183.00001
 51
267.0
  0
ARC
  5
2C65
  8
AM_0
 10
559.38436831922343
 20
164.21881987587341
 30
0.0
 40
15.00000029999998
 50
183.00001
 51
267.0
  0
LINE
  5
2C66
  8
AM_0
 10
442.99792897171392
 20
256.33387387587339
 30
0.0
 11
442.99792897171392
 21
225.3338868758735
 31
0.0
  0
LINE
  5
2C67
  8
AM_0
 10
541.99942531922352
 20
239.33387287587351
 30
0.0
 11
541.99942531922352
 21
209.33387287587371
 31
0.0
  0
LINE
  5
2C68
  8
AM_0
 10
541.99942531922352
 20
239.33387287587351
 30
0.0
 11
541.99942531922352
 21
269.33387287587362
 31
0.0
  0
ARC
  5
2C69
  8
AM_0
 10
634.49940631922368
 20
216.1338918758735
 30
0.0
 40
81.000003000000007
 50
248.63379999999989
 51
270.0
  0
LINE
  5
2C6A
  8
AM_0
 10
634.49940631922368
 20
146.8338708758734
 30
0.0
 11
604.49940331922335
 21
146.8338708758734
 31
0.0
  0
ARC
  5
2C6B
  8
AM_0
 10
592.74940531922346
 20
143.82074887587351
 30
0.0
 40
8.0000000999999976
 50
156.73873999999981
 51
323.26127000000002
  0
ARC
  5
2C6C
  8
AM_0
 10
603.16723531922344
 20
136.04456287587351
 30
0.0
 40
5.0000001000000003
 50
68.633797999999999
 51
143.26125999999991
  0
LINE
  5
2C6D
  8
AM_0
 10
634.49940631922368
 20
146.8338708758734
 30
0.0
 11
664.49940631922357
 21
146.8338708758734
 31
0.0
  0
ARC
  5
2C6E
  8
AM_0
 10
634.49940631922368
 20
216.1338918758735
 30
0.0
 40
81.000003000000007
 50
270.0
 51
291.36619999999999
  0
ARC
  5
2C6F
  8
AM_0
 10
676.2493923192236
 20
143.82074887587351
 30
0.0
 40
8.0000000999999976
 50
216.73873999999989
 51
23.26125799999998
  0
ARC
  5
2C70
  8
AM_0
 10
665.83157431922325
 20
136.04456287587351
 30
0.0
 40
5.0000001000000003
 50
36.738737
 51
111.36621
  0
ARC
  5
2C71
  8
AM_0
 10
634.49940631922368
 20
239.33387287587351
 30
0.0
 40
14.000001299999999
 50
106.6015399999999
 51
73.398452000000006
  0
CIRCLE
  5
2C72
  8
AM_0
 10
634.49940631922368
 20
239.33390287587341
 30
0.0
 40
29.000001000000001
  0
LINE
  5
2C73
  8
AM_0
 10
595.49940331922335
 20
239.33387287587351
 30
0.0
 11
595.49940331922335
 21
216.1338918758735
 31
0.0
  0
ARC
  5
2C74
  8
AM_0
 10
590.49939031922338
 20
216.1338918758735
 30
0.0
 40
5.0000001000000003
 50
270.0
 51
0.0
  0
ARC
  5
2C75
  8
AM_0
 10
634.49940631922368
 20
239.33387287587351
 30
0.0
 40
39.000011999999998
 50
143.21321
 51
180.00001
  0
ARC
  5
2C76
  8
AM_0
 10
609.34817431922318
 20
272.9704098758736
 30
0.0
 40
3.0
 50
225.0
 51
306.78678999999988
  0
ARC
  5
2C77
  8
AM_0
 10
600.86288431922355
 20
264.48511987587352
 30
0.0
 40
3.0
 50
323.21321
 51
45.00000099999999
  0
LINE
  5
2C78
  8
AM_0
 10
673.49942131922353
 20
239.33387287587351
 30
0.0
 11
673.49942131922353
 21
216.1338918758735
 31
0.0
  0
ARC
  5
2C79
  8
AM_0
 10
678.49940731922345
 20
216.1338918758735
 30
0.0
 40
5.0000001000000003
 50
179.99998999999991
 51
270.0
  0
ARC
  5
2C7A
  8
AM_0
 10
659.65065031922359
 20
272.9704098758736
 30
0.0
 40
3.0
 50
233.21321
 51
315.0
  0
LINE
  5
2C7B
  8
AM_0
 10
638.49939031922349
 20
249.3338898758735
 30
0.0
 11
638.49939031922349
 21
256.33387387587339
 31
0.0
  0
LINE
  5
2C7C
  8
AM_0
 10
630.49938931922361
 20
249.3338898758735
 30
0.0
 11
630.49938931922361
 21
256.33387387587339
 31
0.0
  0
CIRCLE
  5
2C7D
  8
AM_0
 10
634.49940631922368
 20
239.33387287587351
 30
0.0
 40
3.0
  0
CIRCLE
  5
2C7E
  8
AM_0
 62
     2
 10
634.49940631922368
 20
239.33387287587351
 30
0.0
 40
4.000000199999997
  0
LINE
  5
2C7F
  8
AM_0
 10
630.49938931922361
 20
249.3338898758735
 30
0.0
 11
638.49939031922349
 21
249.3338898758735
 31
0.0
  0
LINE
  5
2C80
  8
AM_0
 10
630.49938931922361
 20
256.33387387587339
 30
0.0
 11
638.49939031922349
 21
256.33387387587339
 31
0.0
  0
ARC
  5
2C81
  8
AM_0
 10
634.49940631922368
 20
239.33387287587351
 30
0.0
 40
39.000011999999998
 50
0.0
 51
36.786791000000001
  0
ARC
  5
2C82
  8
AM_0
 10
668.13592831922358
 20
264.48511987587352
 30
0.0
 40
3.0
 50
135.0
 51
216.78679
  0
LINE
  5
2C83
  8
AM_0
 10
726.99941731922331
 20
209.33387287587371
 30
0.0
 11
724.59389131922353
 21
163.4337858758735
 31
0.0
  0
ARC
  5
2C84
  8
AM_0
 10
709.61444431922314
 20
164.21881987587341
 30
0.0
 40
15.00000029999998
 50
273.0
 51
357.0
  0
ARC
  5
2C85
  8
AM_0
 10
709.61444431922314
 20
164.21881987587341
 30
0.0
 40
15.00000029999998
 50
273.0
 51
357.0
  0
CIRCLE
  5
2C86
  8
AM_0
 10
710.51338531922363
 20
163.3198938758735
 30
0.0
 40
6.0000002999999991
  0
ARC
  5
2C87
  8
AM_0
 10
634.49940631922368
 20
239.33387287587351
 30
0.0
 40
74.400002999999998
 50
355.05457999999999
 51
8.1165493999999985
  0
LINE
  5
2C88
  8
AM_0
 10
726.99939931922302
 20
239.33387287587351
 30
0.0
 11
726.99939931922302
 21
209.33387287587371
 31
0.0
  0
ARC
  5
2C89
  8
AM_0
 10
634.49940631922368
 20
216.1338918758735
 30
0.0
 40
76.000001999999981
 50
358.60644999999982
 51
12.760202
  0
LINE
  5
2C8A
  8
AM_0
 10
726.99939931922302
 20
239.33387287587351
 30
0.0
 11
726.99939931922302
 21
269.33387287587362
 31
0.0
  0
ARC
  5
2C8B
  8
AM_0
 10
693.02371531922336
 20
289.37290687587358
 30
0.0
 40
3.0
 50
40.530864999999999
 51
135.0
  0
LINE
  5
2C8C
  8
AM_0
 10
664.49942131922353
 20
331.83388087587372
 30
0.0
 11
710.39949331922355
 21
329.42833087587348
 31
0.0
  0
LINE
  5
2C8D
  8
AM_0
 10
604.49938831922361
 20
331.83388087587372
 30
0.0
 11
558.59933431922343
 21
329.42836087587358
 31
0.0
  0
CIRCLE
  5
2C8E
  8
AM_0
 10
558.48544231922335
 20
315.34786087587361
 30
0.0
 40
6.0000002999999991
  0
ARC
  5
2C8F
  8
AM_0
 10
559.38436831922343
 20
314.44891087587371
 30
0.0
 40
15.00000029999998
 50
92.999999000000017
 51
176.99999
  0
ARC
  5
2C90
  8
AM_0
 10
559.38436831922343
 20
314.44891087587371
 30
0.0
 40
15.00000029999998
 50
92.999999000000017
 51
176.99999
  0
LINE
  5
2C91
  8
AM_0
 10
634.49940631922368
 20
331.83388087587372
 30
0.0
 11
604.49940331922335
 21
331.83388087587372
 31
0.0
  0
ARC
  5
2C92
  8
AM_0
 10
634.49940631922368
 20
216.1338918758735
 30
0.0
 40
81.000003000000007
 50
93.754195000000038
 51
121.13906
  0
ARC
  5
2C93
  8
AM_0
 10
584.4603873192234
 20
297.85819687587372
 30
0.0
 40
3.0
 50
130.5308599999999
 51
225.0
  0
ARC
  5
2C94
  8
AM_0
 10
575.97509731922355
 20
289.37290687587358
 30
0.0
 40
3.0
 50
45.00000099999999
 51
139.4691399999999
  0
ARC
  5
2C95
  8
AM_0
 10
634.49940631922368
 20
216.1338918758735
 30
0.0
 40
81.000003000000007
 50
58.860945000000001
 51
86.245803000000024
  0
ARC
  5
2C96
  8
AM_0
 10
639.99940531922346
 20
299.9536308758735
 30
0.0
 40
3.0
 50
180.00001
 51
266.24579999999992
  0
ARC
  5
2C97
  8
AM_0
 10
628.99941931922353
 20
299.9536308758735
 30
0.0
 40
3.0
 50
273.75420000000003
 51
0.0
  0
LINE
  5
2C98
  8
AM_0
 10
636.99940531922346
 20
299.9536308758735
 30
0.0
 11
636.99940531922346
 21
310.52173087587357
 31
0.0
  0
LINE
  5
2C99
  8
AM_0
 10
631.99941931922353
 20
299.9536308758735
 30
0.0
 11
631.99941931922353
 21
310.52173087587357
 31
0.0
  0
ARC
  5
2C9A
  8
AM_0
 10
628.99941931922353
 20
310.52173087587357
 30
0.0
 40
3.0
 50
0.0
 51
94.417918999999983
  0
ARC
  5
2C9B
  8
AM_0
 10
639.99940531922346
 20
310.52173087587357
 30
0.0
 40
3.0
 50
85.582086000000032
 51
180.00001
  0
ARC
  5
2C9C
  8
AM_0
 10
684.53844031922358
 20
297.85819687587372
 30
0.0
 40
3.0
 50
315.0
 51
49.469136999999989
  0
LINE
  5
2C9D
  8
AM_0
 10
634.49940631922368
 20
331.83388087587372
 30
0.0
 11
664.49940631922357
 21
331.83388087587372
 31
0.0
  0
ARC
  5
2C9E
  8
AM_0
 10
709.61444431922314
 20
314.44891087587371
 30
0.0
 40
15.00000029999998
 50
3.0000000999999981
 51
86.999998999999988
  0
ARC
  5
2C9F
  8
AM_0
 10
709.61444431922314
 20
314.44891087587371
 30
0.0
 40
15.00000029999998
 50
3.0000000999999981
 51
86.999998999999988
  0
LINE
  5
2CA0
  8
ﾁｭｳｼﾝｾﾝ1
 10
700.61388717048033
 20
305.44836872713051
 30
0.0
 11
720.41287746796695
 21
325.24735902461708
 31
0.0
  0
CIRCLE
  5
2CA1
  8
AM_0
 10
710.51338531922363
 20
315.34786087587361
 30
0.0
 40
6.0000002999999991
  0
ARC
  5
2CA2
  8
ﾁｭｳｼﾝｾﾝ1
 10
634.4990381713784
 20
239.333496452639
 30
0.0
 40
107.5005328869651
 50
37.532984244303741
 51
52.467028777011393
  0
LINE
  5
2CA3
  8
AM_0
 10
209.99788897171391
 20
273.07131487587333
 30
0.0
 11
199.99788897171391
 21
273.07131487587333
 31
0.0
  0
LINE
  5
2CA4
  8
AM_0
 10
209.99788897171391
 20
287.1338808758735
 30
0.0
 11
199.99788897171391
 21
287.1338808758735
 31
0.0
  0
LINE
  5
2CA5
  8
AM_0
 10
209.99788897171399
 20
195.13387387587341
 30
0.0
 11
199.99788897171391
 21
195.13387387587341
 31
0.0
  0
LINE
  5
2CA6
  8
AM_0
 10
209.99788897171391
 20
209.1964368758733
 30
0.0
 11
199.99788897171391
 21
209.1964368758733
 31
0.0
  0
LINE
  5
2CA7
  8
AM_0
 10
150.4979289717138
 20
506.96143280250311
 30
0.0
 11
150.4979289717138
 21
491.96142517310852
 31
0.0
  0
LINE
  5
2CA8
  8
AM_0
 10
125.4979289717137
 20
505.46143280250311
 30
0.0
 11
125.4979289717137
 21
493.461432802503
 31
0.0
  0
LINE
  5
2CA9
  8
AM_0
 10
199.9979289717138
 20
554.70005415653804
 30
0.0
 11
199.9979289717148
 21
444.22281144846841
 31
0.0
  0
LINE
  5
2CAA
  8
AM_0
 10
154.49792897171361
 20
476.46143280250311
 30
0.0
 11
154.4979289717138
 21
522.46143280250305
 31
0.0
  0
LINE
  5
2CAB
  8
AM_0
 10
174.9979289717138
 20
524.46143280250305
 30
0.0
 11
174.9979289717138
 21
474.46143280250283
 31
0.0
  0
LINE
  5
2CAC
  8
AM_0
 10
152.4979289717138
 20
513.63300567775696
 30
0.0
 11
152.4979289717138
 21
485.2898599272491
 31
0.0
  0
LINE
  5
2CAD
  8
AM_0
 10
156.4979289717138
 20
474.46143280250311
 30
0.0
 11
170.85579334798291
 21
474.46143280250311
 31
0.0
  0
LINE
  5
2CAE
  8
AM_0
 10
125.4979289717137
 20
501.46143280250311
 30
0.0
 11
143.4979289717138
 21
501.46143280250311
 31
0.0
  0
LINE
  5
2CAF
  8
AM_0
 10
125.4979289717137
 20
497.46143280250311
 30
0.0
 11
143.4979289717138
 21
497.46143280250311
 31
0.0
  0
LINE
  5
2CB0
  8
AM_0
 10
125.4979289717137
 20
493.461432802503
 30
0.0
 11
150.4979289717138
 21
493.461432802503
 31
0.0
  0
LINE
  5
2CB1
  8
AM_0
 10
153.08371540934081
 20
483.87564636487622
 30
0.0
 11
153.91214253408691
 21
483.04721924013
 31
0.0
  0
ARC
  5
2CB2
  8
AM_0
 10
156.4979289717138
 20
476.46143280250311
 30
0.0
 40
2.0
 50
180.0
 51
270.0
1001
GENIUS_GENODEF_13
1002
{
1000
HIER
1070
     0
1002
}
1002
{
1000
MANEDIT
1070
     0
1002
}
1002
{
1000
NOSEL
1070
     0
1002
}
1002
{
1000
BEHIND
1070
     0
1002
}
1002
{
1000
OTHER
1070
     0
1002
}
1002
{
1000
REACTOR
1002
}
1001
GENIUS_GENOBJ-N-FIL_13
1002
{
1000
OWNER
1000
GEN
1002
}
  0
ARC
  5
2CB3
  8
AM_0
 10
152.4979289717138
 20
481.6330056777569
 30
0.0
 40
2.0
 50
0.0
 51
45.0
1001
GENIUS_GENODEF_13
1002
{
1000
HIER
1070
     0
1002
}
1002
{
1000
MANEDIT
1070
     0
1002
}
1002
{
1000
NOSEL
1070
     0
1002
}
1002
{
1000
BEHIND
1070
     0
1002
}
1002
{
1000
OTHER
1070
     0
1002
}
1002
{
1000
REACTOR
1002
}
1001
GENIUS_GENOBJ-N-FIL_13
1002
{
1000
OWNER
1000
GEN
1002
}
  0
ARC
  5
2CB4
  8
AM_0
 10
143.4979289717138
 20
499.46143280250311
 30
0.0
 40
1.9999999999998861
 50
270.0
 51
90.0
  0
LINE
  5
2CB5
  8
AM_0
 10
143.4979289717138
 20
501.46143280250311
 30
0.0
 11
143.4979289717138
 21
497.46143280250311
 31
0.0
  0
LINE
  5
2CB6
  8
AM_0
 10
150.4979289717138
 20
491.96142517310852
 30
0.0
 11
152.4979289717138
 21
491.96142517310852
 31
0.0
  0
ARC
  5
2CB7
  8
AM_0
 10
154.4979289717138
 20
485.2898599272491
 30
0.0
 40
2.0
 50
180.0
 51
225.0
1001
GENIUS_GENODEF_13
1002
{
1000
HIER
1070
     0
1002
}
1002
{
1000
MANEDIT
1070
     0
1002
}
1002
{
1000
NOSEL
1070
     0
1002
}
1002
{
1000
BEHIND
1070
     0
1002
}
1002
{
1000
OTHER
1070
     0
1002
}
1002
{
1000
REACTOR
1002
}
1001
GENIUS_GENOBJ-N-FIL_13
1002
{
1000
OWNER
1000
GEN
1002
}
  0
LINE
  5
2CB8
  8
AM_0
 10
198.53346287764651
 20
450.92589889657029
 30
0.0
 11
177.9268611598483
 21
471.53250061436847
 31
0.0
  0
LINE
  5
2CB9
  8
AM_0
 10
200.96894577843051
 20
443.2232315494569
 30
0.0
 11
209.9979289717138
 21
442.96143280250311
 31
0.0
  0
ARC
  5
2CBA
  8
AM_0
 10
194.9979289717138
 20
447.39036499063741
 30
0.0
 40
5.0
 50
0.0
 51
45.0
1001
GENIUS_GENODEF_13
1002
{
1000
HIER
1070
     0
1002
}
1002
{
1000
MANEDIT
1070
     0
1002
}
1002
{
1000
NOSEL
1070
     0
1002
}
1002
{
1000
BEHIND
1070
     0
1002
}
1002
{
1000
OTHER
1070
     0
1002
}
1002
{
1000
REACTOR
1002
}
1001
GENIUS_GENOBJ-N-FIL_13
1002
{
1000
OWNER
1000
GEN
1002
}
  0
ARC
  5
2CBB
  8
AM_0
 10
200.9979289717138
 20
444.22281144846841
 30
0.0
 40
1.0
 50
180.0
 51
268.33915276702578
1001
GENIUS_GENOBJ-N-FIL_13
1002
{
1000
OWNER
1000
GEN
1002
}
1001
GENIUS_GENODEF_13
1002
{
1000
HIER
1070
     0
1002
}
1002
{
1000
MANEDIT
1070
     0
1002
}
1002
{
1000
NOSEL
1070
     0
1002
}
1002
{
1000
BEHIND
1070
     0
1002
}
1002
{
1000
OTHER
1070
     0
1002
}
1002
{
1000
REACTOR
1002
}
  0
LINE
  5
2CBC
  8
AM_0
 10
209.9979289717138
 20
453.46143080250312
 30
0.0
 11
199.9979289717138
 21
453.46143080250312
 31
0.0
  0
ARC
  5
2CBD
  8
AM_0
 10
170.85579334798271
 20
464.461432802503
 30
0.0
 40
10.0
 50
45.0
 51
90.0
1001
GENIUS_GENOBJ-N-FIL_13
1002
{
1000
OWNER
1000
GEN
1002
}
1001
GENIUS_GENODEF_13
1002
{
1000
HIER
1070
     0
1002
}
1002
{
1000
MANEDIT
1070
     0
1002
}
1002
{
1000
NOSEL
1070
     0
1002
}
1002
{
1000
BEHIND
1070
     0
1002
}
1002
{
1000
OTHER
1070
     0
1002
}
1002
{
1000
REACTOR
1002
}
  0
LINE
  5
2CBE
  8
AM_0
 10
209.9979289717138
 20
467.52399380250313
 30
0.0
 11
199.9979289717138
 21
467.52399380250313
 31
0.0
  0
LINE
  5
2CBF
  8
AM_0
 10
156.4979289717138
 20
524.46143280250305
 30
0.0
 11
170.85579334798291
 21
524.46143280250305
 31
0.0
  0
LINE
  5
2CC0
  8
AM_0
 10
125.4979289717137
 20
505.46143280250311
 30
0.0
 11
150.4979289717138
 21
505.46143280250311
 31
0.0
  0
ARC
  5
2CC1
  8
AM_0
 10
152.4979289717138
 20
517.28985992724915
 30
0.0
 40
2.0
 50
315.0
 51
0.0
1001
GENIUS_GENODEF_13
1002
{
1000
HIER
1070
     0
1002
}
1002
{
1000
MANEDIT
1070
     0
1002
}
1002
{
1000
NOSEL
1070
     0
1002
}
1002
{
1000
BEHIND
1070
     0
1002
}
1002
{
1000
OTHER
1070
     0
1002
}
1002
{
1000
REACTOR
1002
}
1001
GENIUS_GENOBJ-N-FIL_13
1002
{
1000
OWNER
1000
GEN
1002
}
  0
ARC
  5
2CC2
  8
AM_0
 10
154.4979289717138
 20
513.63300567775696
 30
0.0
 40
2.0
 50
135.0
 51
180.0
1001
GENIUS_GENODEF_13
1002
{
1000
HIER
1070
     0
1002
}
1002
{
1000
MANEDIT
1070
     0
1002
}
1002
{
1000
NOSEL
1070
     0
1002
}
1002
{
1000
BEHIND
1070
     0
1002
}
1002
{
1000
OTHER
1070
     0
1002
}
1002
{
1000
REACTOR
1002
}
1001
GENIUS_GENOBJ-N-FIL_13
1002
{
1000
OWNER
1000
GEN
1002
}
  0
LINE
  5
2CC3
  8
AM_0
 10
153.08371540934081
 20
515.04721924012995
 30
0.0
 11
153.91214253408691
 21
515.87564636487605
 31
0.0
  0
LINE
  5
2CC4
  8
AM_0
 10
150.4979289717138
 20
506.96143280250311
 30
0.0
 11
152.4979289717138
 21
506.96143280250311
 31
0.0
  0
ARC
  5
2CC5
  8
AM_0
 10
156.4979289717138
 20
522.46143280250305
 30
0.0
 40
2.0
 50
90.0
 51
180.0
1001
GENIUS_GENODEF_13
1002
{
1000
HIER
1070
     0
1002
}
1002
{
1000
MANEDIT
1070
     0
1002
}
1002
{
1000
NOSEL
1070
     0
1002
}
1002
{
1000
BEHIND
1070
     0
1002
}
1002
{
1000
OTHER
1070
     0
1002
}
1002
{
1000
REACTOR
1002
}
1001
GENIUS_GENOBJ-N-FIL_13
1002
{
1000
OWNER
1000
GEN
1002
}
  0
ARC
  5
2CC6
  8
AM_0
 10
194.9979289717138
 20
551.5325006143687
 30
0.0
 40
5.0
 50
315.0
 51
0.0
1001
GENIUS_GENODEF_13
1002
{
1000
HIER
1070
     0
1002
}
1002
{
1000
MANEDIT
1070
     0
1002
}
1002
{
1000
NOSEL
1070
     0
1002
}
1002
{
1000
BEHIND
1070
     0
1002
}
1002
{
1000
OTHER
1070
     0
1002
}
1002
{
1000
REACTOR
1002
}
1001
GENIUS_GENOBJ-N-FIL_13
1002
{
1000
OWNER
1000
GEN
1002
}
  0
LINE
  5
2CC7
  8
AM_0
 10
198.53346287764651
 20
547.99696670843593
 30
0.0
 11
177.9268611598483
 21
527.39036499063764
 31
0.0
  0
ARC
  5
2CC8
  8
AM_0
 10
170.85579334798291
 20
534.46143280250317
 30
0.0
 40
10.0
 50
270.0
 51
315.0
1001
GENIUS_GENODEF_13
1002
{
1000
HIER
1070
     0
1002
}
1002
{
1000
MANEDIT
1070
     0
1002
}
1002
{
1000
NOSEL
1070
     0
1002
}
1002
{
1000
BEHIND
1070
     0
1002
}
1002
{
1000
OTHER
1070
     0
1002
}
1002
{
1000
REACTOR
1002
}
1001
GENIUS_GENOBJ-N-FIL_13
1002
{
1000
OWNER
1000
GEN
1002
}
  0
LINE
  5
2CC9
  8
AM_0
 10
209.9979289717138
 20
531.39887180250321
 30
0.0
 11
199.9979289717138
 21
531.39887180250321
 31
0.0
  0
LINE
  5
2CCA
  8
AM_0
 10
209.9979289717138
 20
545.46143780250316
 30
0.0
 11
199.9979289717138
 21
545.46143780250316
 31
0.0
  0
LINE
  5
2CCB
  8
AM_0
 10
200.96894577843051
 20
555.69963405554915
 30
0.0
 11
209.9979289717138
 21
555.96143280250305
 31
0.0
  0
ARC
  5
2CCC
  8
AM_0
 10
200.9979289717138
 20
554.70005415653804
 30
0.0
 40
1.0
 50
91.66084723297412
 51
180.0
1001
GENIUS_GENOBJ-N-FIL_13
1002
{
1000
OWNER
1000
GEN
1002
}
1001
GENIUS_GENODEF_13
1002
{
1000
HIER
1070
     0
1002
}
1002
{
1000
MANEDIT
1070
     0
1002
}
1002
{
1000
NOSEL
1070
     0
1002
}
1002
{
1000
BEHIND
1070
     0
1002
}
1002
{
1000
OTHER
1070
     0
1002
}
1002
{
1000
REACTOR
1002
}
  0
LINE
  5
2CCE
  8
AM_0
 10
410.99792897171392
 20
503.46143280250311
 30
0.0
 11
442.99792897171392
 21
503.46143280250311
 31
0.0
  0
LINE
  5
2CCF
  8
AM_0
 10
410.99792897171392
 20
495.46143280250311
 30
0.0
 11
442.99792897171392
 21
495.46143280250311
 31
0.0
  0
LINE
  5
2CD0
  8
AM_0
 10
400.99795897171367
 20
485.461432802503
 30
0.0
 11
442.99792897171392
 21
485.461432802503
 31
0.0
  0
LINE
  5
2CD1
  8
AM_0
 10
400.99795897171367
 20
513.46143280250317
 30
0.0
 11
442.99792897171392
 21
513.46143280250317
 31
0.0
  0
LINE
  5
2CD2
  8
ﾁｭｳｼﾝｾﾝ
 10
118.87687158549539
 20
499.46143280250328
 30
0.0
 11
447.70495897171372
 21
499.46143280250311
 31
0.0
  0
POLYLINE
  5
2CD3
  8
AM_0
 66
     1
 10
0.0
 20
0.0
 30
0.0
  0
VERTEX
  5
2CD4
  8
AM_0
 10
383.9110189717137
 20
583.87442280250309
 30
0.0
 42
0.081985852
  0
VERTEX
  5
2CD5
  8
AM_0
 10
361.79512897171372
 20
528.96274280250304
 30
0.0
 42
0.10914194
  0
VERTEX
  5
2CD6
  8
AM_0
 10
361.79521897171372
 20
469.95973280250308
 30
0.0
 42
0.081985219
  0
VERTEX
  5
2CD7
  8
AM_0
 10
383.9110189717137
 20
415.04843280250287
 30
0.0
  0
SEQEND
  5
2CD8
  8
AM_0
  0
ARC
  5
2CD9
  8
AM_0
 10
410.99792897171392
 20
499.46143280250311
 30
0.0
 40
3.9999962
 50
90.000003000000945
 51
270.0
  0
LINE
  5
2CDA
  8
AM_0
 10
386.99795897171367
 20
409.24204280250319
 30
0.0
 11
386.99795897171367
 21
589.68082280250314
 31
0.0
  0
LINE
  5
2CDB
  8
AM_0
 10
396.99795897171367
 20
406.96143280250288
 30
0.0
 11
396.99795897171367
 21
591.96143280250328
 31
0.0
  0
LINE
  5
2CDC
  8
AM_0
 10
390.99795897171367
 20
428.96143280250311
 30
0.0
 11
390.99795897171367
 21
569.633732802503
 31
0.0
  0
LINE
  5
2CDD
  8
AM_0
 10
400.9979889717136
 20
584.46143280250317
 30
0.0
 11
400.9979889717136
 21
414.461432802503
 31
0.0
  0
LINE
  5
2CDE
  8
AM_0
 10
229.9979289717138
 20
446.90515280250321
 30
0.0
 11
229.9979289717138
 21
552.01773280250313
 31
0.0
  0
LINE
  5
2CDF
  8
AM_0
 10
209.9979289717138
 20
442.96143280250311
 30
0.0
 11
209.9979289717138
 21
555.96143280250305
 31
0.0
  0
LINE
  5
2CE0
  8
AM_0
 10
269.49789897171382
 20
438.96143280250311
 30
0.0
 11
269.49789897171382
 21
559.96143280250305
 31
0.0
  0
LINE
  5
2CE1
  8
AM_0
 10
278.49795897171367
 20
435.96143280250288
 30
0.0
 11
278.49795897171367
 21
562.96143280250328
 31
0.0
  0
LINE
  5
2CE2
  8
AM_0
 10
314.99792897171392
 20
428.37128280250317
 30
0.0
 11
314.99792897171392
 21
570.55158280250305
 31
0.0
  0
LINE
  5
2CE3
  8
AM_0
 10
304.99795897171367
 20
422.63257280250309
 30
0.0
 11
304.99795897171367
 21
576.29029280250313
 31
0.0
  0
LINE
  5
2CE4
  8
AM_0
 10
321.99795897171367
 20
417.21048280250312
 30
0.0
 11
321.99795897171367
 21
581.71237280250307
 31
0.0
  0
LINE
  5
2CE5
  8
AM_0
 10
410.99792897171392
 20
503.46143280250311
 30
0.0
 11
410.99792897171392
 21
495.46143280250311
 31
0.0
  0
LINE
  5
2CE6
  8
AM_0
 10
321.99795897171367
 20
417.21048280250312
 30
0.0
 11
309.82345897171382
 21
417.63562280250312
 31
0.0
  0
LINE
  5
2CE7
  8
AM_0
 10
304.99795897171367
 20
440.15293280250319
 30
0.0
 11
314.99792897171392
 21
440.15293280250319
 31
0.0
  0
ARC
  5
2CE8
  8
AM_0
 10
309.99795897171367
 20
422.63257280250309
 30
0.0
 40
5.0
 50
180.00001000000091
 51
267.9999999999996
  0
LINE
  5
2CE9
  8
AM_0
 10
232.9979289717138
 20
496.46143280250323
 30
0.0
 11
266.49789897171382
 21
496.46143280250323
 31
0.0
  0
LINE
  5
2CEA
  8
AM_0
 10
209.9979289717138
 20
443.461432802503
 30
0.0
 11
266.62146897171391
 21
441.48407280250308
 31
0.0
  0
LINE
  5
2CEB
  8
AM_0
 10
209.9979289717138
 20
453.4611228025031
 30
0.0
 11
229.9979289717138
 21
453.4611228025031
 31
0.0
  0
ARC
  5
2CEC
  8
AM_0
 10
225.9979289717138
 20
446.90515280250321
 30
0.0
 40
4.0
 50
267.9999999999996
 51
0.0000006832462478
  0
ARC
  5
2CED
  8
AM_0
 10
232.9979289717138
 20
493.461432802503
 30
0.0
 40
3.0
 50
90.000003000000945
 51
180.00001000000091
  0
LINE
  5
2CEE
  8
AM_0
 10
209.9979289717138
 20
467.52149280250319
 30
0.0
 11
229.9979289717138
 21
467.52149280250319
 31
0.0
  0
LINE
  5
2CEF
  8
AM_0
 10
278.49795897171367
 20
447.4214528025031
 30
0.0
 11
304.99792897171392
 21
447.4214528025031
 31
0.0
  0
LINE
  5
2CF0
  8
AM_0
 10
278.49798897171382
 20
435.96140280250307
 30
0.0
 11
302.10263897171382
 21
435.13712280250309
 31
0.0
  0
ARC
  5
2CF1
  8
AM_0
 10
272.49789897171388
 20
438.96143280250311
 30
0.0
 40
3.0
 50
180.00001000000091
 51
270.0
  0
LINE
  5
2CF2
  8
AM_0
 10
278.49798897171382
 20
435.96143280250288
 30
0.0
 11
272.49789897171388
 21
435.96143280250288
 31
0.0
  0
LINE
  5
2CF3
  8
AM_0
 10
278.49795897171367
 20
447.4214528025031
 30
0.0
 11
269.49789897171382
 21
447.4214528025031
 31
0.0
  0
ARC
  5
2CF4
  8
AM_0
 10
266.51678897171382
 20
438.48590280250312
 30
0.0
 40
3.0
 50
4.545488300001014
 51
87.999999999999659
  0
ARC
  5
2CF5
  8
AM_0
 10
301.99795897171367
 20
432.13895280250313
 30
0.0
 40
3.0
 50
0.0
 51
87.999999999999659
  0
LINE
  5
2CF6
  8
AM_0
 10
278.49795897171367
 20
462.31348280250307
 30
0.0
 11
304.99792897171392
 21
462.31348280250307
 31
0.0
  0
LINE
  5
2CF7
  8
AM_0
 10
278.49795897171367
 20
462.31348280250307
 30
0.0
 11
269.49789897171382
 21
462.31348280250307
 31
0.0
  0
ARC
  5
2CF8
  8
AM_0
 10
266.49789897171382
 20
493.461432802503
 30
0.0
 40
3.0
 50
0.0
 51
90.000003000000945
  0
LINE
  5
2CF9
  8
AM_0
 10
381.94268897171372
 20
415.11716280250289
 30
0.0
 11
321.99795897171367
 21
417.21048280250312
 31
0.0
  0
LINE
  5
2CFA
  8
AM_0
 10
388.92816897171372
 20
407.24323280250309
 30
0.0
 11
396.99792897171392
 21
406.96143280250288
 31
0.0
  0
ARC
  5
2CFB
  8
AM_0
 10
388.99798897171371
 20
409.24204280250319
 30
0.0
 40
2.0
 50
179.9999899999988
 51
268.00000999999861
  0
ARC
  5
2CFC
  8
AM_0
 10
381.76815897171372
 20
410.12021280250309
 30
0.0
 40
5.0
 50
45.000000999999187
 51
87.999999999999659
  0
LINE
  5
2CFD
  8
AM_0
 10
385.30368897171371
 20
413.655732802503
 30
0.0
 11
386.99798897171371
 21
411.96146280250309
 31
0.0
  0
LINE
  5
2CFE
  8
AM_0
 10
396.99795897171367
 20
414.461432802503
 30
0.0
 11
400.9979889717136
 21
414.461432802503
 31
0.0
  0
ARC
  5
2CFF
  8
AM_0
 10
387.99795897171367
 20
429.28913280250322
 30
0.0
 40
3.0
 50
267.9999999999996
 51
0.0
  0
ARC
  5
2D00
  8
AM_0
 10
389.99795897171367
 20
448.33618280250317
 30
0.0
 40
3.0
 50
90.000003000000945
 51
180.00001000000091
  0
LINE
  5
2D01
  8
AM_0
 10
321.99795897171367
 20
581.71237280250307
 30
0.0
 11
309.82342897171372
 21
581.28723280250324
 31
0.0
  0
LINE
  5
2D02
  8
AM_0
 10
304.99795897171367
 20
558.76993280250315
 30
0.0
 11
314.99792897171392
 21
558.76993280250315
 31
0.0
  0
LINE
  5
2D03
  8
AM_0
 10
232.9979289717138
 20
502.46143280250288
 30
0.0
 11
266.49789897171382
 21
502.46143280250288
 31
0.0
  0
LINE
  5
2D04
  8
AM_0
 10
266.62146897171391
 20
557.43875280250313
 30
0.0
 11
209.9979289717138
 21
555.46143280250305
 31
0.0
  0
ARC
  5
2D05
  8
AM_0
 10
232.9979289717138
 20
505.46143280250311
 30
0.0
 40
3.0
 50
180.00001000000091
 51
270.0
  0
LINE
  5
2D06
  8
AM_0
 10
209.9979289717138
 20
531.40137280250315
 30
0.0
 11
229.9979289717138
 21
531.40137280250315
 31
0.0
  0
ARC
  5
2D07
  8
AM_0
 10
225.9979289717138
 20
552.01773280250313
 30
0.0
 40
4.0
 50
0.0
 51
91.999998000000545
  0
LINE
  5
2D08
  8
AM_0
 10
209.9979289717138
 20
545.46173280250298
 30
0.0
 11
229.9979289717138
 21
545.46173280250298
 31
0.0
  0
LINE
  5
2D09
  8
AM_0
 10
278.49795897171367
 20
536.60938280250298
 30
0.0
 11
304.99792897171392
 21
536.60938280250298
 31
0.0
  0
ARC
  5
2D0A
  8
AM_0
 10
266.49789897171382
 20
505.46143280250311
 30
0.0
 40
3.0
 50
270.0
 51
0.0
  0
LINE
  5
2D0B
  8
AM_0
 10
278.49795897171367
 20
536.60938280250298
 30
0.0
 11
269.49789897171382
 21
536.60938280250298
 31
0.0
  0
LINE
  5
2D0C
  8
AM_0
 10
278.49795897171367
 20
562.96143280250328
 30
0.0
 11
302.10266897171402
 21
563.78574280250325
 31
0.0
  0
LINE
  5
2D0D
  8
AM_0
 10
278.49795897171367
 20
551.50141280250318
 30
0.0
 11
304.99792897171392
 21
551.50141280250318
 31
0.0
  0
LINE
  5
2D0E
  8
AM_0
 10
278.49795897171367
 20
551.50141280250318
 30
0.0
 11
269.49789897171382
 21
551.50141280250318
 31
0.0
  0
ARC
  5
2D0F
  8
AM_0
 10
272.49789897171388
 20
559.96143280250305
 30
0.0
 40
3.0
 50
90.000003000000945
 51
180.00001000000091
  0
ARC
  5
2D10
  8
AM_0
 10
266.51678897171382
 20
560.43695280250301
 30
0.0
 40
3.0
 50
272.0000000000004
 51
355.45443000000142
  0
LINE
  5
2D11
  8
AM_0
 10
278.49795897171367
 20
562.96143280250328
 30
0.0
 11
272.49789897171388
 21
562.96143280250328
 31
0.0
  0
ARC
  5
2D12
  8
AM_0
 10
301.99795897171367
 20
566.78388280250329
 30
0.0
 40
3.0
 50
272.0000000000004
 51
0.0
  0
ARC
  5
2D13
  8
AM_0
 10
309.99795897171367
 20
576.29029280250313
 30
0.0
 40
5.0
 50
91.999998000000545
 51
180.00001000000091
  0
ARC
  5
2D14
  8
AM_0
 10
389.99795897171367
 20
550.58667280250324
 30
0.0
 40
3.0
 50
179.9999899999988
 51
270.0
  0
ARC
  5
2D15
  8
AM_0
 10
387.99795897171367
 20
569.633732802503
 30
0.0
 40
3.0
 50
0.0
 51
91.999998000000545
  0
LINE
  5
2D16
  8
AM_0
 10
381.94265897171391
 20
583.80570280250333
 30
0.0
 11
321.99795897171367
 21
581.71237280250307
 31
0.0
  0
LINE
  5
2D17
  8
AM_0
 10
388.92819897171393
 20
591.67963280250285
 30
0.0
 11
396.99795897171367
 21
591.96143280250328
 31
0.0
  0
LINE
  5
2D18
  8
AM_0
 10
385.30371897171392
 20
585.26709280250293
 30
0.0
 11
386.99798897171371
 21
586.96140280250324
 31
0.0
  0
ARC
  5
2D19
  8
AM_0
 10
381.76815897171372
 20
588.80265280250285
 30
0.0
 40
5.0
 50
272.0000000000004
 51
315.0
  0
ARC
  5
2D1A
  8
AM_0
 10
388.99798897171371
 20
589.68082280250314
 30
0.0
 40
2.0
 50
91.999998000000545
 51
180.00001000000091
  0
LINE
  5
2D1B
  8
AM_0
 10
396.99795897171367
 20
584.46143280250317
 30
0.0
 11
400.9979889717136
 21
584.46143280250317
 31
0.0
  0
LINE
  5
2D1C
  8
AM_0
 10
442.99792897171392
 20
513.46143280250317
 30
0.0
 11
442.99792897171392
 21
485.461432802503
 31
0.0
  0
ARC
  5
2D1D
  8
ﾁｭｳｼﾝｾﾝ1
 10
634.49902989598911
 20
239.33424102371899
 30
0.0
 40
107.5005328869651
 50
307.53298424430369
 51
322.46702877701119
  0
LINE
  5
2D1E
  8
ﾁｭｳｼﾝｾﾝ1
 10
700.61390217048063
 20
173.21939202461701
 30
0.0
 11
720.41289246796725
 21
153.42040172713041
 31
0.0
  0
ARC
  5
2D1F
  8
ﾁｭｳｼﾝｾﾝ1
 10
634.4997744670693
 20
239.333496452639
 30
0.0
 40
107.5005328869651
 50
127.53297122298819
 51
142.467015755696
  0
LINE
  5
2D20
  8
ﾁｭｳｼﾝｾﾝ1
 10
568.38492546796749
 20
305.4483687271308
 30
0.0
 11
548.58593517048075
 21
325.24735902461742
 31
0.0
  0
LINE
  5
2D21
  8
ﾁｭｳｼﾝｾﾝ1
 10
568.38491046796651
 20
173.21939202461741
 30
0.0
 11
548.58592017047999
 21
153.42040172713081
 31
0.0
  0
ARC
  5
2D22
  8
ﾁｭｳｼﾝｾﾝ1
 10
634.49978274245836
 20
239.33424102371899
 30
0.0
 40
107.5005328869651
 50
217.53297122298841
 51
232.467015755696
  0
TEXT
  5
2F04
  8
AM_0
 10
519.83046218143397
 20
489.12239626393529
 30
0.0
 40
10.0
  1
VX01-240GF~VX01-600GF
  0
ENDSEC
  0
EOF
