  0
SECTION
  2
HEADER
  9
$ACADVER
  1
AC1009
  9
$INSBASE
 10
0.0
 20
0.0
 30
0.0
  9
$EXTMIN
 10
107.2214605470904
 20
118.590937619329
 30
-0.0000000000112498
  9
$EXTMAX
 10
867.91687975057494
 20
674.5824758688882
 30
0.0000000000002956
  9
$LIMMIN
 10
0.0
 20
0.0
  9
$LIMMAX
 10
853.5
 20
555.00000000000011
  9
$ORTHOMODE
 70
     0
  9
$REGENMODE
 70
     1
  9
$FILLMODE
 70
     1
  9
$QTEXTMODE
 70
     0
  9
$MIRRTEXT
 70
     1
  9
$DRAGMODE
 70
     2
  9
$LTSCALE
 40
3.0
  9
$OSMODE
 70
   551
  9
$ATTMODE
 70
     1
  9
$TEXTSIZE
 40
2.5
  9
$TRACEWID
 40
1.0
  9
$TEXTSTYLE
  7
STANDARD
  9
$CLAYER
  8
AM_0
  9
$CELTYPE
  6
BYLAYER
  9
$CECOLOR
 62
   256
  9
$DIMSCALE
 40
1.0
  9
$DIMASZ
 40
2.5
  9
$DIMEXO
 40
1.0
  9
$DIMDLI
 40
8.0
  9
$DIMRND
 40
0.0
  9
$DIMDLE
 40
0.0
  9
$DIMEXE
 40
0.6
  9
$DIMTP
 40
0.1
  9
$DIMTM
 40
0.1
  9
$DIMTXT
 40
2.5
  9
$DIMCEN
 40
0.0
  9
$DIMTSZ
 40
0.0
  9
$DIMTOL
 70
     0
  9
$DIMLIM
 70
     0
  9
$DIMTIH
 70
     0
  9
$DIMTOH
 70
     0
  9
$DIMSE1
 70
     0
  9
$DIMSE2
 70
     0
  9
$DIMTAD
 70
     1
  9
$DIMZIN
 70
     8
  9
$DIMBLK
  1

  9
$DIMASO
 70
     1
  9
$DIMSHO
 70
     1
  9
$DIMPOST
  1

  9
$DIMAPOST
  1
"
  9
$DIMALT
 70
     0
  9
$DIMALTD
 70
     2
  9
$DIMALTF
 40
0.0393701
  9
$DIMLFAC
 40
1.0
  9
$DIMTOFL
 70
     1
  9
$DIMTVP
 40
0.0
  9
$DIMTIX
 70
     0
  9
$DIMSOXD
 70
     0
  9
$DIMSAH
 70
     0
  9
$DIMBLK1
  1

  9
$DIMBLK2
  1

  9
$DIMSTYLE
  2
AM_ISO
  9
$DIMCLRD
 70
   256
  9
$DIMCLRE
 70
   256
  9
$DIMCLRT
 70
     4
  9
$DIMTFAC
 40
0.71
  9
$DIMGAP
 40
0.8
  9
$LUNITS
 70
     2
  9
$LUPREC
 70
     2
  9
$SKETCHINC
 40
1.0
  9
$FILLETRAD
 40
15.0
  9
$AUNITS
 70
     0
  9
$AUPREC
 70
     0
  9
$MENU
  1
.
  9
$ELEVATION
 40
0.0
  9
$PELEVATION
 40
0.0
  9
$THICKNESS
 40
0.0
  9
$LIMCHECK
 70
     0
  9
$BLIPMODE
 70
     0
  9
$CHAMFERA
 40
6.0
  9
$CHAMFERB
 40
3.0
  9
$SKPOLY
 70
     0
  9
$TDCREATE
 40
2452065.6720352201
  9
$TDUPDATE
 40
2458541.4378990862
  9
$TDINDWG
 40
0.1134811111
  9
$TDUSRTIMER
 40
0.1134809144
  9
$USRTIMER
 70
     1
  9
$ANGBASE
 50
0.0
  9
$ANGDIR
 70
     0
  9
$PDMODE
 70
     0
  9
$PDSIZE
 40
0.0
  9
$PLINEWID
 40
0.0
  9
$COORDS
 70
     1
  9
$SPLFRAME
 70
     0
  9
$SPLINETYPE
 70
     6
  9
$SPLINESEGS
 70
     8
  9
$ATTDIA
 70
     1
  9
$ATTREQ
 70
     1
  9
$HANDLING
 70
     1
  9
$HANDSEED
  5
2FF7
  9
$SURFTAB1
 70
     6
  9
$SURFTAB2
 70
     6
  9
$SURFTYPE
 70
     6
  9
$SURFU
 70
     6
  9
$SURFV
 70
     6
  9
$UCSNAME
  2

  9
$UCSORG
 10
0.0
 20
0.0
 30
0.0
  9
$UCSXDIR
 10
1.0
 20
0.0
 30
0.0
  9
$UCSYDIR
 10
0.0
 20
1.0
 30
0.0
  9
$PUCSNAME
  2

  9
$PUCSORG
 10
0.0
 20
0.0
 30
0.0
  9
$PUCSXDIR
 10
1.0
 20
0.0
 30
0.0
  9
$PUCSYDIR
 10
0.0
 20
1.0
 30
0.0
  9
$USERI1
 70
     0
  9
$USERI2
 70
     0
  9
$USERI3
 70
     0
  9
$USERI4
 70
     0
  9
$USERI5
 70
     0
  9
$USERR1
 40
0.0
  9
$USERR2
 40
0.0
  9
$USERR3
 40
0.0
  9
$USERR4
 40
0.0
  9
$USERR5
 40
0.0
  9
$WORLDVIEW
 70
     1
  9
$SHADEDGE
 70
     3
  9
$SHADEDIF
 70
    70
  9
$TILEMODE
 70
     1
  9
$MAXACTVP
 70
    64
  9
$PLIMCHECK
 70
     0
  9
$PEXTMIN
 10
1.0000000000000000E+020
 20
1.0000000000000000E+020
 30
1.0000000000000000E+020
  9
$PEXTMAX
 10
-1.0000000000000000E+020
 20
-1.0000000000000000E+020
 30
-1.0000000000000000E+020
  9
$PLIMMIN
 10
0.0
 20
0.0
  9
$PLIMMAX
 10
420.0
 20
297.0
  9
$UNITMODE
 70
     0
  9
$VISRETAIN
 70
     1
  9
$PLINEGEN
 70
     0
  9
$PSLTSCALE
 70
     1
  0
ENDSEC
  0
SECTION
  2
TABLES
  0
TABLE
  2
VPORT
 70
     1
  0
VPORT
  2
*ACTIVE
 70
     0
 10
0.0
 20
0.0
 11
1.0
 21
1.0
 12
487.5691701488326
 22
396.5867067441086
 13
0.0
 23
0.0
 14
7.5
 24
7.5
 15
30.0
 25
30.0
 16
0.0
 26
0.0
 36
1.0
 17
0.0
 27
0.0
 37
0.0
 40
559.80841379818321
 41
1.7571592210767459
 42
50.0
 43
0.0
 44
0.0
 50
0.0
 51
0.0
 71
     0
 72
   100
 73
     1
 74
     3
 75
     0
 76
     0
 77
     0
 78
     0
  0
ENDTAB
  0
TABLE
  2
LTYPE
 70
    26
  0
LTYPE
  2
CONTINUOUS
 70
     0
  3
Solid line
 72
    65
 73
     0
 40
0.0
  0
LTYPE
  2
AM_ISO02W050
 70
     0
  3
__ __ __ __ __ __ __ __ __ __ __ __ __ __ __
 72
    65
 73
     2
 40
7.5
 49
6.0
 49
-1.5
  0
LTYPE
  2
AM_ISO08W050
 70
     0
  3
____ . ____ . ____ . ____ . ____ . ____ . ____
 72
    65
 73
     4
 40
18.0
 49
12.0
 49
-1.5
 49
3.0
 49
-1.5
  0
LTYPE
  2
AM_ISO09W050
 70
     0
  3
_____ . . _____ . . _____ . . ____ .. ____
 72
    65
 73
     6
 40
22.5
 49
12.0
 49
-1.5
 49
3.0
 49
-1.5
 49
3.0
 49
-1.5
  0
LTYPE
  2
AMCONSTR
 70
     0
  3
_______________________
 72
    65
 73
     2
 40
9999.0
 49
9999.0
 49
0.0
  0
LTYPE
  2
AM_ISO08W050X2
 70
     0
  3
__ . __ . __ . __ . __ . __
 72
    65
 73
     4
 40
9.0
 49
6.0
 49
-0.75
 49
1.5
 49
-0.75
  0
LTYPE
  2
AM_ISO02W050X2
 70
     0
  3
 _ _ _ _ _ _ _ _ _ _ _ _
 72
    65
 73
     2
 40
3.75
 49
3.0
 49
-0.75
  0
LTYPE
  2
AMZIGZAG
 70
     0
  3
/\/-/\/-/\/-/\/-/\/-/\/
 72
    65
 73
     2
 40
11.000099999999991
 49
0.0001
 49
-11.0
  0
LTYPE
  2
ACISOWELD
 70
     0
  3
_ _ _ _ _
 72
    65
 73
     2
 40
2.0
 49
2.0
 49
-1.0
  0
LTYPE
  2
ACISOTGB
 70
     0
  3
__ . . __ . .
 72
    65
 73
     6
 40
9.0
 49
4.0
 49
-1.0
 49
1.0
 49
-1.0
 49
1.0
 49
-1.0
  0
LTYPE
  2
ACISOTGL
 70
     0
  3
_ _ _ _ _
 72
    65
 73
     2
 40
3.0
 49
2.0
 49
-1.0
  0
LTYPE
  2
CENTER
 70
     0
  3
__ . __
 72
    65
 73
     4
 40
7.0
 49
4.0
 49
-1.0
 49
1.0
 49
-1.0
  0
LTYPE
  2
PHANTOM2
 70
     0
  3
Phantom (.5x) ___ _ _ ___ _ _ ___ _ _ ___ _ _
 72
    65
 73
     6
 40
31.75
 49
15.875
 49
-3.174999999999998
 49
3.174999999999998
 49
-3.174999999999998
 49
3.174999999999998
 49
-3.174999999999998
  0
LTYPE
  2
ACANSTGBM
 70
     0
  3
__ . . __ . .
 72
    65
 73
     6
 40
9.0
 49
4.0
 49
-1.0
 49
1.0
 49
-1.0
 49
1.0
 49
-1.0
  0
LTYPE
  2
ACANSTGLM
 70
     0
  3
_ _ _ _ _
 72
    65
 73
     2
 40
3.0
 49
2.0
 49
-1.0
  0
LTYPE
  2
GEN7
 70
     0
  3
____ . ____ . ____ . ____ . ____ . ____ . ____
 72
    65
 73
     4
 40
14.25
 49
9.75
 49
-1.5
 49
1.5
 49
-1.5
  0
LTYPE
  2
GEN7A
 70
     0
  3
__ . __ . __
 72
    65
 73
     4
 40
7.375
 49
4.75
 49
-0.875
 49
0.875
 49
-0.875
  0
LTYPE
  2
ACJISTGB
 70
     0
  3
__ . . __ . .
 72
    65
 73
     6
 40
9.0
 49
4.0
 49
-1.0
 49
1.0
 49
-1.0
 49
1.0
 49
-1.0
  0
LTYPE
  2
ACJISTGL
 70
     0
  3
_ _ _ _ _
 72
    65
 73
     2
 40
3.0
 49
2.0
 49
-1.0
  0
LTYPE
  2
HIDDEN
 70
     0
  3
Hidden __ __ __ __ __ __ __ __ __ __ __ __ __ _
 72
    65
 73
     2
 40
0.375
 49
0.25
 49
-0.125
  0
LTYPE
  2
CENTER2
 70
     0
  3
Center (.5x) ___ _ ___ _ ___ _ ___ _ ___ _ ___
 72
    65
 73
     4
 40
1.125
 49
0.75
 49
-0.125
 49
0.125
 49
-0.125
  0
LTYPE
  2
HIDDEN2
 70
     0
  3
Hidden (.5x) _ _ _ _ _ _ _ _ _ _ _ _ _ _ _ _ _
 72
    65
 73
     2
 40
0.1875
 49
0.125
 49
-0.0625
  0
LTYPE
  2
AMZIGZAG2
 70
     0
  3
/\/-/\/-/\/-/\/-/\/-/\/
 72
    65
 73
     2
 40
0.4401
 49
0.0001
 49
-0.4400000000000002
  0
LTYPE
  2
ACANSTGB
 70
     0
  3
__ . . __ . .
 72
    65
 73
     6
 40
0.35433070866
 49
0.15748031496
 49
-0.03937007874
 49
0.03937007874
 49
-0.03937007874
 49
0.03937007874
 49
-0.03937007874
  0
LTYPE
  2
ACANSTGL
 70
     0
  3
_ _ _ _ _
 72
    65
 73
     2
 40
0.11811023622
 49
0.07874015748
 49
-0.03937007874
  0
ENDTAB
  0
TABLE
  2
LAYER
 70
     5
  0
LAYER
  2
0
 70
     0
 62
     7
  6
CONTINUOUS
  0
LAYER
  2
AM_0
 70
     0
 62
     7
  6
CONTINUOUS
  0
LAYER
  2
DEFPOINTS
 70
     0
 62
     7
  6
CONTINUOUS
  0
LAYER
  2
ﾁｭｳｼﾝｾﾝ
 70
     0
 62
     1
  6
GEN7
  0
LAYER
  2
ﾁｭｳｼﾝｾﾝ1
 70
     0
 62
     1
  6
GEN7A
  0
ENDTAB
  0
TABLE
  2
STYLE
 70
     9
  0
STYLE
  2
STANDARD
 70
     0
 40
0.0
 41
0.8299999999999999
 50
0.0
 71
     0
 42
2.5
  3
txt.shx
  4
bigfont.shx
  0
STYLE
  2
ANNOTATIVE
 70
     0
 40
0.0
 41
1.0
 50
0.0
 71
     0
 42
0.2
  3
txt
  4

  0
STYLE
  2

 70
     1
 40
0.0
 41
1.0
 50
0.0
 71
     0
 42
2.5
  3
ltypeshp.shx
  4

  0
STYLE
  2
ACISOTS
 70
     0
 40
1.0
 41
1.0
 50
0.0
 71
     0
 42
2.5
  3
isocp.shx
  4
extfont.shx
  0
STYLE
  2
ACISOGDT
 70
     0
 40
0.0
 41
1.0
 50
0.0
 71
     0
 42
2.5
  3
amgdt.shx
  4

  0
STYLE
  2
ACANSTS
 70
     0
 40
1.0
 41
1.0
 50
0.0
 71
     0
 42
2.5
  3
romans.shx
  4
bigfont.shx
  0
STYLE
  2
ACANSGDT
 70
     0
 40
0.0
 41
1.0
 50
0.0
 71
     0
 42
2.5
  3
amgdt.shx
  4

  0
STYLE
  2
ACJISTS
 70
     0
 40
1.0
 41
1.0
 50
0.0
 71
     0
 42
2.5
  3
isocp.shx
  4
bigfont.shx
  0
STYLE
  2
ACJISGDT
 70
     0
 40
0.0
 41
1.0
 50
0.0
 71
     0
 42
2.5
  3
amgdt.shx
  4

  0
ENDTAB
  0
TABLE
  2
VIEW
 70
     6
  0
VIEW
  2
AM_VIEW1
 70
     0
 40
277.49999999999989
 10
249.64779005524849
 20
416.24999999999989
 41
499.2955801104971
 11
0.0
 21
0.0
 31
1.0
 12
0.0
 22
0.0
 32
0.0
 42
50.0
 43
0.0
 44
0.0
 50
0.0
 71
     0
  0
VIEW
  2
AM_VIEW2
 70
     0
 40
277.49999999999989
 10
603.85220994475117
 20
416.24999999999989
 41
499.2955801104971
 11
0.0
 21
0.0
 31
1.0
 12
0.0
 22
0.0
 32
0.0
 42
50.0
 43
0.0
 44
0.0
 50
0.0
 71
     0
  0
VIEW
  2
AM_VIEW3
 70
     0
 40
277.49999999999989
 10
249.64779005524849
 20
138.7499999999998
 41
499.2955801104971
 11
0.0
 21
0.0
 31
1.0
 12
0.0
 22
0.0
 32
0.0
 42
50.0
 43
0.0
 44
0.0
 50
0.0
 71
     0
  0
VIEW
  2
AM_VIEW4
 70
     0
 40
277.49999999999989
 10
603.85220994475117
 20
138.7499999999998
 41
499.2955801104971
 11
0.0
 21
0.0
 31
1.0
 12
0.0
 22
0.0
 32
0.0
 42
50.0
 43
0.0
 44
0.0
 50
0.0
 71
     0
  0
VIEW
  2
AM_VIEW5
 70
     0
 40
277.5
 10
426.75
 20
277.49999999999989
 41
499.2955801104971
 11
0.0
 21
0.0
 31
1.0
 12
0.0
 22
0.0
 32
0.0
 42
50.0
 43
0.0
 44
0.0
 50
0.0
 71
     0
  0
VIEW
  2
AM_VIEW6
 70
     0
 40
554.99445000000014
 10
426.75
 20
277.49999999999989
 41
998.5811743093924
 11
0.0
 21
0.0
 31
1.0
 12
0.0
 22
0.0
 32
0.0
 42
50.0
 43
0.0
 44
0.0
 50
0.0
 71
     0
  0
ENDTAB
  0
TABLE
  2
UCS
 70
     0
  0
ENDTAB
  0
TABLE
  2
APPID
 70
    95
  0
APPID
  2
ACAD
 70
     0
  0
APPID
  2
ACADANNOTATIVE
 70
     0
  0
APPID
  2
MCAD_NO_VIS
 70
     0
  0
APPID
  2
ACAD_TEMP_GRAPHIC
 70
     0
  0
APPID
  2
ACATTRIBSERVICES
 70
     0
  0
APPID
  2
GENIUS_GENREC_14
 70
     0
  0
APPID
  2
GENIUS_GENOBJ-N-REC_13
 70
     0
  0
APPID
  2
GENIUS_GENODEF_13
 70
     0
  0
APPID
  2
GENIUS_GENOLIS_13
 70
     0
  0
APPID
  2
GENIUS_GENOBJ-N-TIT_13
 70
     0
  0
APPID
  2
GENIUS_GENOENT_13
 70
     0
  0
APPID
  2
GENIUS_GENTITLE_13
 70
     0
  0
APPID
  2
GENIUS_GENOREF_13
 70
     0
  0
APPID
  2
GENIUS_GENSCREG_15
 70
     0
  0
APPID
  2
GENIUS_GENOBJ-N-SDF_13
 70
     0
  0
APPID
  2
GENIUS_GENFIL_13
 70
     0
  0
APPID
  2
GENIUS_GENOBJ-N-CHA_13
 70
     0
  0
APPID
  2
GENIUS_GENDTOL_13
 70
     0
  0
APPID
  2
GENIUS_GENOBJ-N-FIL_13
 70
     0
  0
APPID
  2
AD_DRAW
 70
     0
  0
APPID
  2
DESIGNERASSEMBLIES
 70
     0
  0
APPID
  2
ASURF_PCURVE_APPNAME
 70
     0
  0
APPID
  2
GENIUS_GE3SECT_13
 70
     0
  0
APPID
  2
GENIUS_GENCFG_13
 70
     0
  0
APPID
  2
GENIUS_GE3CFG0_13
 70
     0
  0
APPID
  2
GENIUS_GENCFG0_13
 70
     0
  0
APPID
  2
GENIUS_GENCFG1_13
 70
     0
  0
APPID
  2
GENIUS_GENCFG2_13
 70
     0
  0
APPID
  2
GENIUS_GENCFG3_13
 70
     0
  0
APPID
  2
GENIUS_GENCFG4_13
 70
     0
  0
APPID
  2
GENIUS_GEVCFG0_13
 70
     0
  0
APPID
  2
GENIUS_GENHINW_13
 70
     0
  0
APPID
  2
GENIUS_FIRSTVISTXT_14
 70
     0
  0
APPID
  2
GENIUS_GENOBJ-N-LEADER_13
 70
     0
  0
APPID
  2
GEV_VCCNULL_SWITCH_OFF
 70
     0
  0
APPID
  2
GENIUS_GEFCFG0_13
 70
     0
  0
APPID
  2
GENIUS_GENZVEED_13
 70
     0
  0
APPID
  2
GENIUS_GENSCREG_13
 70
     0
  0
APPID
  2
GENIUS_DUMCFG0_13
 70
     0
  0
APPID
  2
GEVID936201362
 70
     0
  0
APPID
  2
GEVDC
 70
     0
  0
APPID
  2
GEVCON
 70
     0
  0
APPID
  2
VCC
 70
     0
  0
APPID
  2
GEVPT
 70
     0
  0
APPID
  2
GEVIT
 70
     0
  0
APPID
  2
GENBH
 70
     0
  0
APPID
  2
GEVMK
 70
     0
  0
APPID
  2
GENIUS_GENBH_13
 70
     0
  0
APPID
  2
GENIUS_GENOBJ-NBEHI-BHF_13
 70
     0
  0
APPID
  2
GENIUS_GENOBJ-NBEHI-BHB_13
 70
     0
  0
APPID
  2
GENIUS_GENOBJ-F-DESC_13
 70
     0
  0
APPID
  2
GENIUS_GEFDESC_14
 70
     0
  0
APPID
  2
GENIUS_GENOBJ-F-PART_13
 70
     0
  0
APPID
  2
GENIUS_GEFSTDP_13
 70
     0
  0
APPID
  2
GENIUS_GEFPARTINS_13
 70
     0
  0
APPID
  2
GENIUS_GENTRA_14
 70
     0
  0
APPID
  2
GENIUS_GENINF13_13
 70
     0
  0
APPID
  2
GENIUS_GENOBJ-N-INFOPT_13
 70
     0
  0
APPID
  2
GENIUS_GENOBJ-N-RSSYM_13
 70
     0
  0
APPID
  2
GENIUS_GENSYMENT_13
 70
     0
  0
APPID
  2
GENIUS_GENSCSYM_13
 70
     0
  0
APPID
  2
GENIUS_GEFINFNAM_13
 70
     0
  0
APPID
  2
GENIUS_GENOBJ-N-CEN_13
 70
     0
  0
APPID
  2
GENIUS_GENOBJ-N-CRS_13
 70
     0
  0
APPID
  2
GENIUS_GENOBJ-N-CRC_13
 70
     0
  0
APPID
  2
GENIUS_GENCRC_14
 70
     0
  0
APPID
  2
GEVID942827039
 70
     0
  0
APPID
  2
GEVID942827040
 70
     0
  0
APPID
  2
GEVID942827041
 70
     0
  0
APPID
  2
GENIUS_GENOBJ-F-SCPASSM_13
 70
     0
  0
APPID
  2
GENIUS_GENDIMSH_14
 70
     0
  0
APPID
  2
GEVID942827042
 70
     0
  0
APPID
  2
GEVID946020473
 70
     0
  0
APPID
  2
GEVID946020474
 70
     0
  0
APPID
  2
GEVID946020475
 70
     0
  0
APPID
  2
GENIUS_GENOBJ-N-HTC_13
 70
     0
  0
APPID
  2
GENIUS_GENHATCH_13
 70
     0
  0
APPID
  2
GEVID948854295
 70
     0
  0
APPID
  2
GEVID939402019
 70
     0
  0
APPID
  2
GEVID952919491
 70
     0
  0
APPID
  2
GEVID952919492
 70
     0
  0
APPID
  2
GENIUS_GEFWELD_13
 70
     0
  0
APPID
  2
GENIUS_GENOBJ-F-WELS_13
 70
     0
  0
APPID
  2
GEVID952919493
 70
     0
  0
APPID
  2
GENIUS_GENOBJ-N-RSBK_13
 70
     0
  0
APPID
  2
GENIUS_GENOBJ-N-LIB_13
 70
     0
  0
APPID
  2
GENIUS_GENSCALE_13
 70
     0
  0
APPID
  2
GEVID986376691
 70
     0
  0
APPID
  2
DCO15
 70
     0
  0
APPID
  2
ACAD_DSTYLE_DIMBREAK
 70
     0
  0
APPID
  2
ACAD_DSTYLE_DIMJAG
 70
     0
  0
APPID
  2
ACAD_NAV_VCDISPLAY
 70
     0
  0
APPID
  2
ACADANNOPO
 70
     0
  0
APPID
  2
ACAD_EXEMPT_FROM_CAD_STANDARDS
 70
     0
  0
APPID
  2
ACAD_MLEADERVER
 70
     0
  0
ENDTAB
  0
TABLE
  2
DIMSTYLE
 70
    22
  0
DIMSTYLE
  2
STANDARD
 70
     0
  3

  4

  5

  6

  7

 40
1.0
 41
0.18
 42
0.0625
 43
0.38
 44
0.18
 45
0.0
 46
0.0
 47
0.0
 48
0.0
140
0.18
141
0.09
142
0.0
143
25.399999999999999
144
1.0
145
0.0
146
1.0
147
0.09
 71
     0
 72
     0
 73
     1
 74
     1
 75
     0
 76
     0
 77
     0
 78
     0
170
     0
171
     2
172
     0
173
     0
174
     0
175
     0
176
     0
177
     0
178
     0
  0
DIMSTYLE
  2
ANNOTATIVE
 70
     0
  3

  4

  5

  6

  7

 40
1.0
 41
0.18
 42
0.0625
 43
0.38
 44
0.18
 45
0.0
 46
0.0
 47
0.0
 48
0.0
140
0.18
141
0.09
142
0.0
143
25.399999999999999
144
1.0
145
0.0
146
1.0
147
0.09
 71
     0
 72
     0
 73
     1
 74
     1
 75
     0
 76
     0
 77
     0
 78
     0
170
     0
171
     2
172
     0
173
     0
174
     0
175
     0
176
     0
177
     0
178
     0
  0
DIMSTYLE
  2
AM_ISO
 70
     0
  3

  4
"
  5

  6

  7

 40
1.0
 41
2.5
 42
1.0
 43
8.0
 44
0.6
 45
0.0
 46
0.0
 47
0.1
 48
0.1
140
2.5
141
0.0
142
0.0
143
0.0393701
144
1.0
145
0.0
146
0.71
147
0.8
 71
     0
 72
     0
 73
     0
 74
     0
 75
     0
 76
     0
 77
     1
 78
     8
170
     0
171
     2
172
     1
173
     0
174
     0
175
     0
176
   256
177
   256
178
     4
  0
DIMSTYLE
  2
AM_ISO$3
 70
     0
  3

  4
"
  5

  6

  7

 40
1.0
 41
2.5
 42
1.0
 43
8.0
 44
0.6
 45
0.0
 46
0.0
 47
0.1
 48
0.1
140
2.5
141
0.0
142
0.0
143
0.0393701
144
1.0
145
0.0
146
0.71
147
0.8
 71
     0
 72
     0
 73
     0
 74
     1
 75
     0
 76
     0
 77
     1
 78
     8
170
     0
171
     2
172
     0
173
     0
174
     0
175
     0
176
   256
177
   256
178
     4
  0
DIMSTYLE
  2
AM_ISO$4
 70
     0
  3

  4
"
  5

  6

  7

 40
1.0
 41
2.5
 42
1.0
 43
8.0
 44
0.6
 45
0.0
 46
0.0
 47
0.1
 48
0.1
140
2.5
141
0.0
142
0.0
143
0.0393701
144
1.0
145
0.0
146
0.71
147
0.8
 71
     0
 72
     0
 73
     0
 74
     1
 75
     0
 76
     0
 77
     1
 78
     8
170
     0
171
     2
172
     0
173
     0
174
     0
175
     0
176
   256
177
   256
178
     4
  0
DIMSTYLE
  2
AM_ISO$6
 70
     0
  3

  4
"
  5

  6

  7

 40
1.0
 41
2.5
 42
1.0
 43
8.0
 44
0.6
 45
0.0
 46
0.0
 47
0.1
 48
0.1
140
2.5
141
0.0
142
0.0
143
0.0393701
144
1.0
145
0.0
146
0.71
147
0.8
 71
     0
 72
     0
 73
     0
 74
     0
 75
     0
 76
     0
 77
     0
 78
     8
170
     0
171
     2
172
     1
173
     0
174
     0
175
     0
176
   256
177
   256
178
     4
  0
DIMSTYLE
  2
AM_ISO$7
 70
     0
  3

  4
"
  5

  6

  7

 40
1.0
 41
2.5
 42
1.0
 43
8.0
 44
0.6
 45
0.0
 46
0.0
 47
0.1
 48
0.1
140
2.5
141
0.0
142
0.0
143
0.0393701
144
1.0
145
0.0
146
0.71
147
0.8
 71
     0
 72
     0
 73
     0
 74
     0
 75
     0
 76
     0
 77
     1
 78
     8
170
     0
171
     2
172
     1
173
     0
174
     0
175
     0
176
   256
177
   256
178
     4
  0
DIMSTYLE
  2
AM_ISO$SF
 70
     0
  3

  4
"
  5

  6

  7

 40
1.0
 41
2.5
 42
1.0
 43
10.0
 44
1.0
 45
0.0
 46
0.0
 47
0.1
 48
0.1
140
3.5
141
0.0
142
0.0
143
0.0393701
144
1.0
145
0.0
146
0.71
147
1.5
 71
     0
 72
     0
 73
     0
 74
     0
 75
     1
 76
     1
 77
     1
 78
     8
170
     0
171
     2
172
     1
173
     0
174
     0
175
     0
176
   256
177
   256
178
     2
  0
DIMSTYLE
  2
AM_ISO$SH
 70
     0
  3

  4
"
  5

  6

  7

 40
1.0
 41
2.5
 42
1.0
 43
10.0
 44
1.0
 45
0.0
 46
0.0
 47
0.1
 48
0.1
140
3.5
141
0.0
142
0.0
143
0.0393701
144
2.0
145
0.0
146
0.71
147
1.5
 71
     0
 72
     0
 73
     0
 74
     0
 75
     1
 76
     1
 77
     1
 78
     8
170
     0
171
     2
172
     1
173
     1
174
     0
175
     0
176
   256
177
   256
178
     2
  0
DIMSTYLE
  2
AM_JIS
 70
     0
  3

  4
"
  5

  6

  7

 40
1.0
 41
2.5
 42
1.0
 43
7.0
 44
1.0
 45
0.0
 46
0.0
 47
0.1
 48
0.1000000001
140
2.5
141
0.0
142
0.0
143
0.0393701
144
1.0
145
0.0
146
0.71
147
1.0
 71
     0
 72
     0
 73
     0
 74
     0
 75
     0
 76
     0
 77
     3
 78
     8
170
     0
171
     2
172
     1
173
     0
174
     0
175
     0
176
   256
177
   256
178
     4
  0
DIMSTYLE
  2
AM_JIS$3
 70
     0
  3

  4
"
  5

  6

  7

 40
1.0
 41
2.5
 42
1.0
 43
7.0
 44
1.0
 45
0.0
 46
0.0
 47
0.1
 48
0.1000000001
140
2.5
141
0.0
142
0.0
143
0.0393701
144
1.0
145
0.0
146
0.71
147
1.0
 71
     0
 72
     0
 73
     0
 74
     1
 75
     0
 76
     0
 77
     3
 78
     8
170
     0
171
     2
172
     0
173
     0
174
     0
175
     0
176
   256
177
   256
178
     4
  0
DIMSTYLE
  2
AM_JIS$4
 70
     0
  3

  4
"
  5

  6

  7

 40
1.0
 41
2.5
 42
1.0
 43
7.0
 44
1.0
 45
0.0
 46
0.0
 47
0.1
 48
0.1000000001
140
2.5
141
0.0
142
0.0
143
0.0393701
144
1.0
145
0.0
146
0.71
147
1.0
 71
     0
 72
     0
 73
     0
 74
     0
 75
     0
 76
     0
 77
     3
 78
     8
170
     0
171
     2
172
     0
173
     0
174
     0
175
     0
176
   256
177
   256
178
     4
  0
DIMSTYLE
  2
AM_JIS$6
 70
     0
  3

  4
"
  5

  6

  7

 40
1.0
 41
2.5
 42
1.0
 43
7.0
 44
1.0
 45
0.0
 46
0.0
 47
0.1
 48
0.1000000001
140
2.5
141
0.0
142
0.0
143
0.0393701
144
1.0
145
0.0
146
0.71
147
1.0
 71
     0
 72
     0
 73
     0
 74
     0
 75
     0
 76
     0
 77
     0
 78
     8
170
     0
171
     2
172
     1
173
     0
174
     0
175
     0
176
   256
177
   256
178
     4
  0
DIMSTYLE
  2
AM_JIS$7
 70
     0
  3

  4
"
  5

  6

  7

 40
1.0
 41
2.5
 42
1.0
 43
7.0
 44
1.0
 45
0.0
 46
0.0
 47
0.1
 48
0.1000000001
140
2.5
141
0.0
142
0.0
143
0.0393701
144
1.0
145
0.0
146
0.71
147
1.0
 71
     0
 72
     0
 73
     0
 74
     0
 75
     0
 76
     0
 77
     3
 78
     8
170
     0
171
     2
172
     1
173
     0
174
     0
175
     0
176
   256
177
   256
178
     4
  0
DIMSTYLE
  2
AM_JIS$SF
 70
     0
  3

  4
"
  5

  6

  7

 40
1.0
 41
2.5
 42
1.0
 43
10.0
 44
1.0
 45
0.0
 46
0.0
 47
0.1
 48
0.1
140
3.5
141
0.0
142
0.0
143
0.0393701
144
1.0
145
0.0
146
0.71
147
1.5
 71
     0
 72
     0
 73
     0
 74
     0
 75
     1
 76
     1
 77
     3
 78
     8
170
     0
171
     2
172
     1
173
     0
174
     0
175
     0
176
   256
177
   256
178
     4
  0
DIMSTYLE
  2
AM_JIS$SH
 70
     0
  3

  4
"
  5

  6

  7

 40
1.0
 41
2.5
 42
1.0
 43
10.0
 44
1.0
 45
0.0
 46
0.0
 47
0.1
 48
0.1
140
3.5
141
0.0
142
0.0
143
0.0393701
144
1.0
145
0.0
146
0.71
147
1.5
 71
     0
 72
     0
 73
     0
 74
     0
 75
     1
 76
     0
 77
     3
 78
     8
170
     0
171
     2
172
     1
173
     1
174
     0
175
     0
176
   256
177
   256
178
     4
  0
DIMSTYLE
  2
AM_ANSI
 70
     0
  3

  4
mm
  5

  6

  7

 40
1.0
 41
0.1
 42
0.05
 43
0.5
 44
0.1
 45
0.0
 46
0.0
 47
0.1
 48
0.1
140
0.12
141
0.0
142
0.0
143
25.399999999999999
144
1.0
145
0.0
146
0.71
147
0.06
 71
     0
 72
     0
 73
     1
 74
     1
 75
     0
 76
     0
 77
     0
 78
     7
170
     0
171
     2
172
     0
173
     0
174
     0
175
     0
176
   256
177
   256
178
     2
  0
DIMSTYLE
  2
AM_ANSI$3
 70
     0
  3

  4
mm
  5

  6

  7

 40
1.0
 41
0.1
 42
0.05
 43
0.5
 44
0.1
 45
0.0
 46
0.0
 47
0.1
 48
0.1
140
0.12
141
0.0
142
0.0
143
25.399999999999999
144
1.0
145
0.0
146
0.71
147
0.06
 71
     0
 72
     0
 73
     1
 74
     1
 75
     0
 76
     0
 77
     0
 78
     7
170
     0
171
     2
172
     0
173
     0
174
     0
175
     0
176
   256
177
   256
178
     2
  0
DIMSTYLE
  2
AM_ANSI$4
 70
     0
  3

  4
mm
  5

  6

  7

 40
1.0
 41
0.1
 42
0.05
 43
0.5
 44
0.1
 45
0.0
 46
0.0
 47
0.1
 48
0.1
140
0.12
141
0.0
142
0.0
143
25.399999999999999
144
1.0
145
0.0
146
0.71
147
0.06
 71
     0
 72
     0
 73
     1
 74
     1
 75
     0
 76
     0
 77
     0
 78
     7
170
     0
171
     2
172
     0
173
     0
174
     0
175
     0
176
   256
177
   256
178
     2
  0
DIMSTYLE
  2
AM_ANSI$7
 70
     0
  3

  4
mm
  5

  6

  7

 40
1.0
 41
0.1
 42
0.05
 43
0.5
 44
0.1
 45
0.0
 46
0.0
 47
0.1
 48
0.1
140
0.24
141
0.0
142
0.0
143
25.399999999999999
144
1.0
145
0.0
146
0.71
147
0.06
 71
     0
 72
     0
 73
     1
 74
     1
 75
     0
 76
     0
 77
     0
 78
     7
170
     0
171
     2
172
     0
173
     0
174
     0
175
     0
176
   256
177
   256
178
     2
  0
DIMSTYLE
  2
AM_ANSI$SF
 70
     0
  3

  4
mm
  5

  6

  7

 40
1.0
 41
0.1
 42
0.05
 43
0.5
 44
0.1
 45
0.0
 46
0.0
 47
0.1
 48
0.1
140
0.12
141
0.0
142
0.0
143
25.399999999999999
144
1.0
145
0.0
146
0.71
147
0.06
 71
     0
 72
     0
 73
     1
 74
     1
 75
     1
 76
     1
 77
     0
 78
     7
170
     0
171
     2
172
     0
173
     0
174
     0
175
     0
176
   256
177
   256
178
     2
  0
DIMSTYLE
  2
AM_ANSI$SH
 70
     0
  3

  4
mm
  5

  6

  7

 40
1.0
 41
0.1
 42
0.05
 43
0.5
 44
0.1
 45
0.0
 46
0.0
 47
0.1
 48
0.1
140
0.12
141
0.0
142
0.0
143
25.399999999999999
144
1.0
145
0.0
146
0.71
147
0.06
 71
     0
 72
     0
 73
     1
 74
     1
 75
     1
 76
     1
 77
     0
 78
     7
170
     0
171
     2
172
     0
173
     1
174
     0
175
     0
176
   256
177
   256
178
     2
  0
ENDTAB
  0
ENDSEC
  0
SECTION
  2
BLOCKS
  0
BLOCK
  8
0
  2
$MODEL_SPACE
 70
     0
 10
0.0
 20
0.0
 30
0.0
  3
$MODEL_SPACE
  1

  0
ENDBLK
  5
2E6E
  8
0
  0
BLOCK
 67
     1
  8
0
  2
$PAPER_SPACE
 70
     0
 10
0.0
 20
0.0
 30
0.0
  3
$PAPER_SPACE
  1

  0
ENDBLK
  5
2E6A
 67
     1
  8
0
  0
BLOCK
  8
0
  2
GENAXEH
 70
     0
 10
0.0
 20
0.0
 30
0.0
  3
GENAXEH
  1

  0
LINE
  5
2C1D
  8
0
 10
-1.0
 20
0.0
 30
0.0
 11
1.0
 21
0.0
 31
0.0
  0
ENDBLK
  5
2C1E
  8
0
  0
BLOCK
  8
0
  2
_OPEN30
 70
     0
 10
0.0
 20
0.0
 30
0.0
  3
_OPEN30
  1

  0
LINE
  5
2C21
  8
0
 62
     0
 10
-1.0
 20
0.26794919
 30
0.0
 11
0.0
 21
0.0
 31
0.0
  0
LINE
  5
2C22
  8
0
 62
     0
 10
0.0
 20
0.0
 30
0.0
 11
-1.0
 21
-0.26794919
 31
0.0
  0
LINE
  5
2C23
  8
0
 62
     0
 10
0.0
 20
0.0
 30
0.0
 11
-1.0
 21
0.0
 31
0.0
  0
ENDBLK
  5
2C24
  8
0
  0
BLOCK
  8
0
  2
_NONE
 70
     0
 10
0.0
 20
0.0
 30
0.0
  3
_NONE
  1

  0
ENDBLK
  5
2C27
  8
0
  0
BLOCK
  8
0
  2
_ACMFILLEDHALF
 70
     0
 10
0.0
 20
0.0
 30
0.0
  3
_ACMFILLEDHALF
  1

  0
TRACE
  5
2F63
  8
AM_0
 62
     0
 10
-0.8
 20
0.0
 30
0.0
 11
-1.0
 21
0.166666666
 31
0.0
 12
0.0
 22
0.0
 32
0.0
 13
0.0
 23
0.0
 33
0.0
  0
LINE
  5
2F64
  8
AM_0
 62
     0
 10
-1.0
 20
0.0
 30
0.0
 11
-0.8
 21
0.0
 31
0.0
  0
ENDBLK
  5
2F62
  8
0
  0
ENDSEC
  0
SECTION
  2
ENTITIES
  0
LINE
  5
2C28
  8
ﾁｭｳｼﾝｾﾝ
 10
484.2906228549582
 20
251.39154325451
 30
0.0
 11
241.17059285495799
 21
251.39154325451
 31
0.0
  0
LINE
  5
2C29
  8
AM_0
 10
481.17230285495828
 20
267.39154225451
 30
0.0
 11
423.17231285495831
 21
267.39154225451
 31
0.0
  0
LINE
  5
2C2A
  8
AM_0
 10
481.17230285495828
 20
235.39157425451009
 30
0.0
 11
423.17231285495831
 21
235.39157425451009
 31
0.0
  0
LINE
  5
2C2B
  8
AM_0
 10
392.06018285495799
 20
300.42858025451
 30
0.0
 11
387.63944285495842
 21
257.82471025451008
 31
0.0
  0
LINE
  5
2C2C
  8
AM_0
 10
230.17229285495799
 20
278.76279025450998
 30
0.0
 11
230.17229285495799
 21
258.83621425451003
 31
0.0
  0
LINE
  5
2C2D
  8
AM_0
 10
238.41362285495811
 20
257.57101825451002
 30
0.0
 11
258.79364285495808
 21
277.95099325451002
 31
0.0
  0
LINE
  5
2C2E
  8
AM_0
 10
259.67231285495831
 20
163.1616962545101
 30
0.0
 11
259.67231285495831
 21
284.60115025451
 31
0.0
  0
LINE
  5
2C2F
  8
AM_0
 10
268.67231285495831
 20
159.39153925451009
 30
0.0
 11
268.67231285495831
 21
287.39154025451001
 31
0.0
  0
LINE
  5
2C30
  8
AM_0
 10
411.17231285495831
 20
251.39154325451
 30
0.0
 11
411.17231285495831
 21
341.99127025451008
 31
0.0
  0
LINE
  5
2C31
  8
AM_0
 10
419.17229285495779
 20
251.39154325451
 30
0.0
 11
419.17229285495779
 21
368.89158025451002
 31
0.0
  0
LINE
  5
2C32
  8
AM_0
 10
404.17229285495819
 20
222.62730625450999
 30
0.0
 11
404.17229285495819
 21
310.30230025450987
 31
0.0
  0
LINE
  5
2C33
  8
AM_0
 10
423.17231285495831
 20
146.39155525451011
 30
0.0
 11
423.17231285495831
 21
356.39157025450999
 31
0.0
  0
LINE
  5
2C34
  8
AM_0
 10
281.17229285495802
 20
151.4626142545101
 30
0.0
 11
281.17229285495802
 21
295.32051025451
 31
0.0
  0
LINE
  5
2C35
  8
AM_0
 10
296.17229285495819
 20
126.1721342545101
 30
0.0
 11
296.17229285495819
 21
320.61096025451008
 31
0.0
  0
LINE
  5
2C36
  8
AM_0
 10
306.17231285495831
 20
123.89155525451
 30
0.0
 11
306.17231285495831
 21
322.89153025450997
 31
0.0
  0
LINE
  5
2C37
  8
ﾁｭｳｼﾝｾﾝ
 10
254.0204328549581
 20
198.39155725450979
 30
0.0
 11
107.25940643147931
 21
198.39155725450979
 31
0.0
  0
LINE
  5
2C38
  8
AM_0
 10
146.6722928549581
 20
223.39155725450991
 30
0.0
 11
161.03015723122701
 21
223.39155725450991
 31
0.0
  0
LINE
  5
2C39
  8
AM_0
 10
146.6722928549581
 20
173.39155725450979
 30
0.0
 11
161.03015723122701
 21
173.39155725450979
 31
0.0
  0
LINE
  5
2C3A
  8
AM_0
 10
142.6722928549581
 20
212.56313012976381
 30
0.0
 11
142.6722928549581
 21
184.21998437925609
 31
0.0
  0
LINE
  5
2C3B
  8
AM_0
 10
144.6722928549581
 20
175.39155725450979
 30
0.0
 11
144.6722928549581
 21
221.39155725450991
 31
0.0
  0
LINE
  5
2C3C
  8
AM_0
 10
143.25807929258531
 20
182.8057708168831
 30
0.0
 11
144.08650641733141
 21
181.9773436921368
 31
0.0
  0
ARC
  5
2C3D
  8
AM_0
 10
144.6722928549581
 20
184.21998437925609
 30
0.0
 40
2.0
 50
180.0
 51
225.0000000000006
1001
GENIUS_GENODEF_13
1002
{
1000
HIER
1070
     0
1002
}
1002
{
1000
MANEDIT
1070
     0
1002
}
1002
{
1000
NOSEL
1070
     0
1002
}
1002
{
1000
BEHIND
1070
     0
1002
}
1002
{
1000
OTHER
1070
     0
1002
}
1002
{
1000
REACTOR
1002
}
1001
GENIUS_GENOBJ-N-FIL_13
1002
{
1000
OWNER
1000
GEN
1002
}
  0
ARC
  5
2C3E
  8
AM_0
 10
146.6722928549581
 20
175.39155725450979
 30
0.0
 40
2.0
 50
180.0
 51
270.0
1001
GENIUS_GENODEF_13
1002
{
1000
HIER
1070
     0
1002
}
1002
{
1000
MANEDIT
1070
     0
1002
}
1002
{
1000
NOSEL
1070
     0
1002
}
1002
{
1000
BEHIND
1070
     0
1002
}
1002
{
1000
OTHER
1070
     0
1002
}
1002
{
1000
REACTOR
1002
}
1001
GENIUS_GENOBJ-N-FIL_13
1002
{
1000
OWNER
1000
GEN
1002
}
  0
ARC
  5
2C3F
  8
AM_0
 10
142.6722928549581
 20
180.56313012976381
 30
0.0
 40
2.0
 50
0.0
 51
45.000000000000568
1001
GENIUS_GENODEF_13
1002
{
1000
HIER
1070
     0
1002
}
1002
{
1000
MANEDIT
1070
     0
1002
}
1002
{
1000
NOSEL
1070
     0
1002
}
1002
{
1000
BEHIND
1070
     0
1002
}
1002
{
1000
OTHER
1070
     0
1002
}
1002
{
1000
REACTOR
1002
}
1001
GENIUS_GENOBJ-N-FIL_13
1002
{
1000
OWNER
1000
GEN
1002
}
  0
LINE
  5
2C40
  8
AM_0
 10
115.6722928549581
 20
205.89155725450999
 30
0.0
 11
133.67229285495799
 21
205.89155725450999
 31
0.0
  0
LINE
  5
2C41
  8
AM_0
 10
115.6722928549581
 20
192.39155725450999
 30
0.0
 11
140.6722928549581
 21
192.39155725450999
 31
0.0
  0
LINE
  5
2C42
  8
AM_0
 10
115.6722928549581
 20
204.39155725450991
 30
0.0
 11
140.6722928549581
 21
204.39155725450991
 31
0.0
  0
LINE
  5
2C43
  8
AM_0
 10
115.6722928549581
 20
205.89155725450999
 30
0.0
 11
115.6722928549581
 21
192.39155725450999
 31
0.0
  0
LINE
  5
2C44
  8
AM_0
 10
140.6722928549581
 20
205.89155725450999
 30
0.0
 11
140.6722928549581
 21
190.8915496251154
 31
0.0
  0
LINE
  5
2C45
  8
AM_0
 10
140.6722928549581
 20
190.8915496251154
 30
0.0
 11
142.6722928549581
 21
190.8915496251154
 31
0.0
  0
LINE
  5
2C46
  8
AM_0
 10
133.67229285495799
 20
205.89155725450999
 30
0.0
 11
133.67229285495799
 21
204.39155725450991
 31
0.0
  0
LINE
  5
2C47
  8
AM_0
 10
140.6722928549581
 20
205.89155725450999
 30
0.0
 11
142.6722928549581
 21
205.89155725450999
 31
0.0
  0
LINE
  5
2C48
  8
AM_0
 10
143.25807929258531
 20
213.9773436921368
 30
0.0
 11
144.08650641733141
 21
214.80577081688301
 31
0.0
  0
ARC
  5
2C49
  8
AM_0
 10
144.6722928549581
 20
212.56313012976381
 30
0.0
 40
2.0
 50
134.9999999999994
 51
180.0
1001
GENIUS_GENODEF_13
1002
{
1000
HIER
1070
     0
1002
}
1002
{
1000
MANEDIT
1070
     0
1002
}
1002
{
1000
NOSEL
1070
     0
1002
}
1002
{
1000
BEHIND
1070
     0
1002
}
1002
{
1000
OTHER
1070
     0
1002
}
1002
{
1000
REACTOR
1002
}
1001
GENIUS_GENOBJ-N-FIL_13
1002
{
1000
OWNER
1000
GEN
1002
}
  0
ARC
  5
2C4A
  8
AM_0
 10
146.6722928549581
 20
221.39155725450991
 30
0.0
 40
2.0
 50
90.0
 51
180.0
1001
GENIUS_GENODEF_13
1002
{
1000
HIER
1070
     0
1002
}
1002
{
1000
MANEDIT
1070
     0
1002
}
1002
{
1000
NOSEL
1070
     0
1002
}
1002
{
1000
BEHIND
1070
     0
1002
}
1002
{
1000
OTHER
1070
     0
1002
}
1002
{
1000
REACTOR
1002
}
1001
GENIUS_GENOBJ-N-FIL_13
1002
{
1000
OWNER
1000
GEN
1002
}
  0
ARC
  5
2C4B
  8
AM_0
 10
142.6722928549581
 20
216.219984379256
 30
0.0
 40
2.0
 50
314.99999999999932
 51
0.0
1001
GENIUS_GENODEF_13
1002
{
1000
HIER
1070
     0
1002
}
1002
{
1000
MANEDIT
1070
     0
1002
}
1002
{
1000
NOSEL
1070
     0
1002
}
1002
{
1000
BEHIND
1070
     0
1002
}
1002
{
1000
OTHER
1070
     0
1002
}
1002
{
1000
REACTOR
1002
}
1001
GENIUS_GENOBJ-N-FIL_13
1002
{
1000
OWNER
1000
GEN
1002
}
  0
LINE
  5
2C4C
  8
AM_0
 10
282.636772854958
 20
147.92709325451011
 30
0.0
 11
295.29365285495828
 21
135.27024625451
 31
0.0
  0
LINE
  5
2C4D
  8
AM_0
 10
165.1722928549581
 20
223.39155725450971
 30
0.0
 11
165.1722928549581
 21
173.39155725450979
 31
0.0
  0
LINE
  5
2C4E
  8
AM_0
 10
200.1722928549581
 20
141.89155525451011
 30
0.0
 11
200.1722928549581
 21
254.89154425451011
 31
0.0
  0
LINE
  5
2C4F
  8
AM_0
 10
220.17230285495799
 20
146.45271325451
 30
0.0
 11
220.17230285495799
 21
201.33154525450999
 31
0.0
  0
LINE
  5
2C50
  8
AM_0
 10
190.1722928549579
 20
253.6301786085449
 30
0.0
 11
190.1722928549589
 21
143.15293590047509
 31
0.0
  0
LINE
  5
2C51
  8
AM_0
 10
224.31188285495799
 20
166.32788125451009
 30
0.0
 11
257.74211285495801
 21
165.16047625451
 31
0.0
  0
LINE
  5
2C52
  8
AM_0
 10
222.35540285495799
 20
147.31713925451001
 30
0.0
 11
259.52723285495802
 21
159.65765425451011
 31
0.0
  0
ARC
  5
2C53
  8
AM_0
 10
223.6157328549582
 20
143.52088825450991
 30
0.0
 40
4.000000199999997
 50
108.3654199999999
 51
158.50144999999981
  0
ARC
  5
2C54
  8
AM_0
 10
185.17229285495799
 20
146.3204894426444
 30
0.0
 40
5.0
 50
0.0
 51
45.0
1001
GENIUS_GENODEF_13
1002
{
1000
HIER
1070
     0
1002
}
1002
{
1000
MANEDIT
1070
     0
1002
}
1002
{
1000
NOSEL
1070
     0
1002
}
1002
{
1000
BEHIND
1070
     0
1002
}
1002
{
1000
OTHER
1070
     0
1002
}
1002
{
1000
REACTOR
1002
}
1001
GENIUS_GENOBJ-N-FIL_13
1002
{
1000
OWNER
1000
GEN
1002
}
  0
LINE
  5
2C55
  8
AM_0
 10
191.14330966167481
 20
142.153356001464
 30
0.0
 11
200.1722928549581
 21
141.89155725450991
 31
0.0
  0
ARC
  5
2C56
  8
AM_0
 10
191.1722928549579
 20
143.15293590047509
 30
0.0
 40
1.0
 50
180.0
 51
268.33915276702578
1001
GENIUS_GENOBJ-N-FIL_13
1002
{
1000
OWNER
1000
GEN
1002
}
1001
GENIUS_GENODEF_13
1002
{
1000
HIER
1070
     0
1002
}
1002
{
1000
MANEDIT
1070
     0
1002
}
1002
{
1000
NOSEL
1070
     0
1002
}
1002
{
1000
BEHIND
1070
     0
1002
}
1002
{
1000
OTHER
1070
     0
1002
}
1002
{
1000
REACTOR
1002
}
  0
LINE
  5
2C57
  8
AM_0
 10
200.1722928549581
 20
141.89154025451001
 30
0.0
 11
216.31187285495801
 21
142.45515325451009
 31
0.0
  0
ARC
  5
2C58
  8
AM_0
 10
216.17231285495831
 20
146.45271325451
 30
0.0
 40
4.000000199999997
 50
272.0
 51
0.0
  0
LINE
  5
2C59
  8
AM_0
 10
188.70782676089101
 20
149.85602334857731
 30
0.0
 11
168.10122504309271
 21
170.46262506637561
 31
0.0
  0
ARC
  5
2C5A
  8
AM_0
 10
161.03015723122701
 20
163.39155725450999
 30
0.0
 40
10.0
 50
45.0
 51
90.0
1001
GENIUS_GENOBJ-N-FIL_13
1002
{
1000
OWNER
1000
GEN
1002
}
1001
GENIUS_GENODEF_13
1002
{
1000
HIER
1070
     0
1002
}
1002
{
1000
MANEDIT
1070
     0
1002
}
1002
{
1000
NOSEL
1070
     0
1002
}
1002
{
1000
BEHIND
1070
     0
1002
}
1002
{
1000
OTHER
1070
     0
1002
}
1002
{
1000
REACTOR
1002
}
  0
LINE
  5
2C5B
  8
AM_0
 10
200.1722928549581
 20
152.39155525451011
 30
0.0
 11
220.17230285495799
 21
152.39155525451011
 31
0.0
  0
LINE
  5
2C5C
  8
AM_0
 10
200.1722928549581
 20
166.45454425451001
 30
0.0
 11
220.17230285495799
 21
166.45454425451001
 31
0.0
  0
ARC
  5
2C5D
  8
AM_0
 10
224.17229285495799
 20
162.3303212545101
 30
0.0
 40
4.000000199999997
 50
88.0
 51
180.00001
  0
LINE
  5
2C5E
  8
AM_0
 10
259.67231285495831
 20
186.24319525451011
 30
0.0
 11
268.67231285495831
 21
186.24319525451011
 31
0.0
  0
LINE
  5
2C5F
  8
AM_0
 10
259.67231285495831
 20
171.89155525451011
 30
0.0
 11
268.67231285495831
 21
171.89155525451011
 31
0.0
  0
ARC
  5
2C60
  8
AM_0
 10
257.6723028549581
 20
163.1616962545101
 30
0.0
 40
2.00000007
 50
0.0
 51
88.0
  0
ARC
  5
2C61
  8
AM_0
 10
262.67231285495831
 20
162.6028892545099
 30
0.0
 40
3.0
 50
179.99998999999991
 51
268.00000999999992
  0
ARC
  5
2C62
  8
AM_0
 10
260.78753285495827
 20
155.86140325451009
 30
0.0
 40
4.000000199999997
 50
74.380296000000001
 51
108.3654199999999
  0
LINE
  5
2C63
  8
AM_0
 10
259.67231285495831
 20
162.6028892545099
 30
0.0
 11
259.67231285495831
 21
163.1616962545101
 31
0.0
  0
ARC
  5
2C64
  8
AM_0
 10
276.17231285495819
 20
154.62660325451
 30
0.0
 40
5.0000001000000003
 50
0.0
 51
88.0
  0
LINE
  5
2C65
  8
AM_0
 10
262.5676128549581
 20
159.60472225450991
 30
0.0
 11
268.67231285495831
 21
159.39153925451009
 31
0.0
  0
LINE
  5
2C66
  8
AM_0
 10
268.67231285495831
 20
159.89155525451011
 30
0.0
 11
276.34679285495821
 21
159.62355025451001
 31
0.0
  0
ARC
  5
2C67
  8
AM_0
 10
286.17230285495799
 20
151.4626142545101
 30
0.0
 40
5.0000001000000003
 50
179.99998999999991
 51
225.0
  0
LINE
  5
2C68
  8
AM_0
 10
268.67231285495831
 20
186.24363625450999
 30
0.0
 11
281.17229285495802
 21
186.24363625450999
 31
0.0
  0
LINE
  5
2C69
  8
AM_0
 10
268.67231285495831
 20
171.89155525451011
 30
0.0
 11
281.17229285495802
 21
171.89155525451011
 31
0.0
  0
LINE
  5
2C6A
  8
AM_0
 10
200.1722928549581
 20
254.89154425451011
 30
0.0
 11
227.27696285495799
 21
255.8380772545099
 31
0.0
  0
LINE
  5
2C6B
  8
AM_0
 10
225.17231285495831
 20
206.33154325450991
 30
0.0
 11
259.67231285495831
 21
206.33154325450991
 31
0.0
  0
LINE
  5
2C6C
  8
AM_0
 10
200.1722928549581
 20
230.32857025451
 30
0.0
 11
249.9138228549582
 21
230.32857025451
 31
0.0
  0
LINE
  5
2C6D
  8
AM_0
 10
200.1722928549581
 20
244.39154425451011
 30
0.0
 11
251.90576285495831
 21
244.39154425451011
 31
0.0
  0
LINE
  5
2C6E
  8
AM_0
 10
188.70782676089101
 20
246.92709116044259
 30
0.0
 11
168.10122504309271
 21
226.3204894426444
 31
0.0
  0
ARC
  5
2C6F
  8
AM_0
 10
161.03015723122701
 20
233.39155725450991
 30
0.0
 40
10.0
 50
270.0
 51
315.0
1001
GENIUS_GENODEF_13
1002
{
1000
HIER
1070
     0
1002
}
1002
{
1000
MANEDIT
1070
     0
1002
}
1002
{
1000
NOSEL
1070
     0
1002
}
1002
{
1000
BEHIND
1070
     0
1002
}
1002
{
1000
OTHER
1070
     0
1002
}
1002
{
1000
REACTOR
1002
}
1001
GENIUS_GENOBJ-N-FIL_13
1002
{
1000
OWNER
1000
GEN
1002
}
  0
POINT
  5
2C70
  8
AM_0
 10
200.1722928549581
 20
198.39155725450979
 30
0.0
  0
ARC
  5
2C71
  8
AM_0
 10
225.17231285495831
 20
201.33154525450999
 30
0.0
 40
5.0000001000000003
 50
90.000003000000007
 51
180.00001
  0
LINE
  5
2C72
  8
AM_0
 10
191.14330966167481
 20
254.62975850755601
 30
0.0
 11
200.1722928549581
 21
254.89155725450991
 31
0.0
  0
ARC
  5
2C73
  8
AM_0
 10
191.1722928549579
 20
253.6301786085449
 30
0.0
 40
1.0
 50
91.660847232974106
 51
180.0
1001
GENIUS_GENOBJ-N-FIL_13
1002
{
1000
OWNER
1000
GEN
1002
}
1001
GENIUS_GENODEF_13
1002
{
1000
HIER
1070
     0
1002
}
1002
{
1000
MANEDIT
1070
     0
1002
}
1002
{
1000
NOSEL
1070
     0
1002
}
1002
{
1000
BEHIND
1070
     0
1002
}
1002
{
1000
OTHER
1070
     0
1002
}
1002
{
1000
REACTOR
1002
}
  0
ARC
  5
2C74
  8
AM_0
 10
185.17229285495799
 20
250.46262506637541
 30
0.0
 40
5.0
 50
315.0
 51
0.0
1001
GENIUS_GENODEF_13
1002
{
1000
HIER
1070
     0
1002
}
1002
{
1000
MANEDIT
1070
     0
1002
}
1002
{
1000
NOSEL
1070
     0
1002
}
1002
{
1000
BEHIND
1070
     0
1002
}
1002
{
1000
OTHER
1070
     0
1002
}
1002
{
1000
REACTOR
1002
}
1001
GENIUS_GENOBJ-N-FIL_13
1002
{
1000
OWNER
1000
GEN
1002
}
  0
LINE
  5
2C75
  8
AM_0
 10
249.9138228549582
 20
230.32855525451001
 30
0.0
 11
255.44129285495799
 21
235.85600425451
 31
0.0
  0
LINE
  5
2C76
  8
AM_0
 10
249.9138228549582
 20
230.32855525451001
 30
0.0
 11
259.67231285495831
 21
210.89155825450999
 31
0.0
  0
LINE
  5
2C77
  8
AM_0
 10
259.67231285495831
 20
274.89154525451011
 30
0.0
 11
268.67231285495831
 21
274.89154525451011
 31
0.0
  0
LINE
  5
2C78
  8
AM_0
 10
259.67231285495831
 20
260.53989025451
 30
0.0
 11
268.67231285495831
 21
260.53989025451
 31
0.0
  0
LINE
  5
2C79
  8
AM_0
 10
237.0209328549582
 20
256.00869925451002
 30
0.0
 11
242.8533828549582
 21
244.39154425451011
 31
0.0
  0
ARC
  5
2C7A
  8
AM_0
 10
227.1722928549581
 20
258.83621425451003
 30
0.0
 40
3.0
 50
272.0
 51
0.0
  0
ARC
  5
2C7B
  8
AM_0
 10
234.87812285495821
 20
261.10653925450998
 30
0.0
 40
5.0000001000000003
 50
272.0
 51
315.0
  0
ARC
  5
2C7C
  8
AM_0
 10
251.90576285495831
 20
239.39155825450999
 30
0.0
 40
5.0000001000000003
 50
315.0
 51
90.000003000000007
  0
LINE
  5
2C7D
  8
AM_0
 10
227.27696285495799
 20
255.8380772545099
 30
0.0
 11
235.0526028549582
 21
256.10959225451001
 31
0.0
  0
LINE
  5
2C7E
  8
AM_0
 10
268.67231285495831
 20
260.53949125450998
 30
0.0
 11
281.17229285495802
 21
260.53949125450998
 31
0.0
  0
LINE
  5
2C7F
  8
AM_0
 10
268.67231285495831
 20
274.89154525451011
 30
0.0
 11
281.17229285495802
 21
274.89154525451011
 31
0.0
  0
LINE
  5
2C80
  8
AM_0
 10
411.17231285495831
 20
160.0235732545101
 30
0.0
 11
411.17231285495831
 21
251.39154325451
 31
0.0
  0
LINE
  5
2C81
  8
AM_0
 10
419.17229285495779
 20
133.89155425451
 30
0.0
 11
419.17229285495779
 21
251.39154325451
 31
0.0
  0
LINE
  5
2C82
  8
AM_0
 10
306.17231285495831
 20
123.89155525451
 30
0.0
 11
391.40921285495801
 21
121.65954325451
 31
0.0
  0
LINE
  5
2C83
  8
AM_0
 10
296.17229285495819
 20
142.9737692545101
 30
0.0
 11
402.4358028549583
 21
142.9737692545101
 31
0.0
  0
LINE
  5
2C84
  8
AM_0
 10
296.17229285495819
 20
163.01130625451009
 30
0.0
 11
402.4358028549583
 21
163.01130625451009
 31
0.0
  0
ARC
  5
2C85
  8
AM_0
 10
298.1723028549581
 20
126.1721342545101
 30
0.0
 40
2.00000007
 50
179.99998999999991
 51
268.00000999999992
  0
LINE
  5
2C86
  8
AM_0
 10
298.10246285495828
 20
124.1733542545101
 30
0.0
 11
306.17231285495831
 21
123.89155525451
 31
0.0
  0
ARC
  5
2C87
  8
AM_0
 10
293.17229285495802
 20
133.14891025451001
 30
0.0
 40
3.0
 50
0.0
 51
45.00000099999999
  0
LINE
  5
2C88
  8
AM_0
 10
404.17229285495819
 20
136.47433525451001
 30
0.0
 11
404.17229285495819
 21
186.70228525451
 31
0.0
  0
LINE
  5
2C89
  8
AM_0
 10
391.40924285495828
 20
121.65954325451
 30
0.0
 11
412.17230285495828
 21
133.64710825450999
 31
0.0
  0
LINE
  5
2C8A
  8
AM_0
 10
407.27702285495792
 20
133.47616525450999
 30
0.0
 11
419.17229285495779
 21
133.89155425451
 31
0.0
  0
ARC
  5
2C8B
  8
AM_0
 10
407.1722928549579
 20
136.47433525451001
 30
0.0
 40
3.0
 50
179.99998999999991
 51
271.99998999999991
  0
LINE
  5
2C8C
  8
AM_0
 10
419.17229285495779
 20
146.39155525451011
 30
0.0
 11
423.17231285495831
 21
146.39155525451011
 31
0.0
  0
ARC
  5
2C8D
  8
AM_0
 10
408.17231285495831
 20
160.0235732545101
 30
0.0
 40
3.0
 50
272.0
 51
0.0
  0
LINE
  5
2C8E
  8
AM_0
 10
406.45685285495819
 20
156.96185425451
 30
0.0
 11
408.277012854958
 21
157.0254062545101
 31
0.0
  0
LINE
  5
2C8F
  8
AM_0
 10
407.1722928549579
 20
189.70228525451
 30
0.0
 11
411.17231285495831
 21
189.70228525451
 31
0.0
  0
ARC
  5
2C90
  8
AM_0
 10
407.1722928549579
 20
186.70228525451
 30
0.0
 40
3.0
 50
90.000003000000007
 51
180.00001
  0
LINE
  5
2C91
  8
AM_0
 10
306.17231285495831
 20
253.57687525451001
 30
0.0
 11
306.17390285495821
 21
253.57687525451001
 31
0.0
  0
ARC
  5
2C92
  8
AM_0
 10
427.42577285495821
 20
253.69632325451011
 30
0.0
 40
40.000001999999981
 50
174.07597999999999
 51
234.45533999999989
  0
LINE
  5
2C93
  8
AM_0
 10
407.1722928549579
 20
219.6273062545101
 30
0.0
 11
411.17231285495831
 21
219.6273062545101
 31
0.0
  0
ARC
  5
2C94
  8
AM_0
 10
407.1722928549579
 20
222.62730625450999
 30
0.0
 40
3.0
 50
179.99998999999991
 51
270.0
  0
LINE
  5
2C95
  8
AM_0
 10
282.636772854958
 20
298.85601025451001
 30
0.0
 11
295.29365285495828
 21
311.51289025451001
 31
0.0
  0
ARC
  5
2C96
  8
AM_0
 10
262.67231285495831
 20
284.18022025451
 30
0.0
 40
3.0
 50
91.999997999999948
 51
166.38106999999991
  0
ARC
  5
2C97
  8
AM_0
 10
256.84100285495828
 20
285.59295025451001
 30
0.0
 40
3.0
 50
272.0
 51
346.38107000000002
  0
LINE
  5
2C98
  8
AM_0
 10
233.0676228549581
 20
281.76096025451
 30
0.0
 11
256.94573285495818
 21
282.59479225451008
 31
0.0
  0
ARC
  5
2C99
  8
AM_0
 10
233.17229285495799
 20
278.76279025450998
 30
0.0
 40
3.0
 50
91.999997999999948
 51
180.00001
  0
ARC
  5
2C9A
  8
AM_0
 10
256.67231285495831
 20
280.07232925451001
 30
0.0
 40
3.0
 50
315.0
 51
0.0
  0
ARC
  5
2C9B
  8
AM_0
 10
276.17231285495819
 20
292.15650025451021
 30
0.0
 40
5.0000001000000003
 50
272.0
 51
0.0
  0
LINE
  5
2C9C
  8
AM_0
 10
262.5676128549581
 20
287.17839025451002
 30
0.0
 11
268.67231285495831
 21
287.39154025451001
 31
0.0
  0
LINE
  5
2C9D
  8
AM_0
 10
268.67231285495831
 20
286.89156025451001
 30
0.0
 11
276.34679285495821
 21
287.15958025450988
 31
0.0
  0
ARC
  5
2C9E
  8
AM_0
 10
286.17230285495799
 20
295.32051025451
 30
0.0
 40
5.0000001000000003
 50
135.0
 51
180.00001
  0
LINE
  5
2C9F
  8
AM_0
 10
404.17229285495819
 20
310.30230025450987
 30
0.0
 11
404.17229285495819
 21
365.47068025451011
 31
0.0
  0
LINE
  5
2CA0
  8
AM_0
 10
306.17231285495831
 20
322.89159025451011
 30
0.0
 11
365.27816285495828
 21
324.43932025451022
 31
0.0
  0
LINE
  5
2CA1
  8
AM_0
 10
296.17229285495819
 20
302.59599025451018
 30
0.0
 11
391.16576285495819
 21
302.59599025451018
 31
0.0
  0
ARC
  5
2CA2
  8
AM_0
 10
298.1723028549581
 20
320.61096025451008
 30
0.0
 40
2.00000007
 50
91.999997999999948
 51
180.00001
  0
ARC
  5
2CA3
  8
AM_0
 10
293.17229285495802
 20
313.63419025451009
 30
0.0
 40
3.0
 50
315.0
 51
0.0
  0
LINE
  5
2CA4
  8
AM_0
 10
298.10246285495828
 20
322.60974025451009
 30
0.0
 11
306.17231285495831
 21
322.89153025450997
 31
0.0
  0
ARC
  5
2CA5
  8
AM_0
 10
371.17229285495819
 20
302.59599025451018
 30
0.0
 40
21.000000600000011
 50
354.07597999999979
 51
80.875524999999996
  0
LINE
  5
2CA6
  8
AM_0
 10
407.1722928549579
 20
307.3023002545101
 30
0.0
 11
411.17231285495831
 21
307.3023002545101
 31
0.0
  0
ARC
  5
2CA7
  8
AM_0
 10
407.1722928549579
 20
310.30230025450987
 30
0.0
 40
3.0
 50
179.99998999999991
 51
270.0
  0
LINE
  5
2CA8
  8
AM_0
 10
368.68280285495803
 20
325.90203025451001
 30
0.0
 11
404.17229285495819
 21
361.39158025451002
 31
0.0
  0
ARC
  5
2CA9
  8
AM_0
 10
365.14727285495832
 20
329.43756025451
 30
0.0
 40
5.0000001000000003
 50
271.49999999999972
 51
315.0
  0
LINE
  5
2CAA
  8
AM_0
 10
367.27226285495829
 20
324.49152025451002
 30
0.0
 11
374.502472854958
 21
323.33028025451
 31
0.0
  0
ARC
  5
2CAB
  8
AM_0
 10
408.17231285495831
 20
341.99127025451008
 30
0.0
 40
3.0
 50
0.0
 51
91.999997999999948
  0
LINE
  5
2CAC
  8
AM_0
 10
407.88776285495783
 20
344.98320025451011
 30
0.0
 11
408.06761285495821
 21
344.98947025451002
 31
0.0
  0
LINE
  5
2CAD
  8
AM_0
 10
419.17229285495779
 20
356.39157025450999
 30
0.0
 11
423.17231285495831
 21
356.39157025450999
 31
0.0
  0
LINE
  5
2CAE
  8
AM_0
 10
407.0676228549579
 20
368.4688502545099
 30
0.0
 11
419.17229285495779
 21
368.89155025451032
 31
0.0
  0
ARC
  5
2CAF
  8
AM_0
 10
407.1722928549579
 20
365.47068025451011
 30
0.0
 40
3.0
 50
91.999997999999948
 51
180.00001
  0
LINE
  5
2CB0
  8
ﾁｭｳｼﾝｾﾝ
 10
723.90400653818244
 20
118.6208162545101
 30
0.0
 11
723.90400653818244
 21
374.48895025450997
 31
0.0
  0
ARC
  5
2CB1
  8
AM_0
 10
723.90400653818244
 20
223.39157125451001
 30
0.0
 40
99.500004000000004
 50
29.730242999999991
 51
54.136312000000011
  0
ARC
  5
2CB2
  8
AM_0
 10
723.90400653818244
 20
223.39157125451001
 30
0.0
 40
99.500004000000004
 50
125.86368999999991
 51
150.26975999999991
  0
ARC
  5
2CB3
  8
AM_0
 10
723.90400653818244
 20
251.39154325451
 30
0.0
 40
48.0
 50
144.77683999999991
 51
180.00001
  0
CIRCLE
  5
2CB4
  8
AM_0
 10
723.90400653818244
 20
251.39154325451
 30
0.0
 40
29.000001000000001
  0
ARC
  5
2CB5
  8
AM_0
 10
723.90400653818244
 20
251.39154325451
 30
0.0
 40
48.0
 50
0.0
 51
35.223151999999992
  0
CIRCLE
  5
2CB6
  8
AM_0
 10
723.90400653818244
 20
251.39154325451
 30
0.0
 40
99.000003000000021
  0
CIRCLE
  5
2CB7
  8
AM_0
 10
723.90400653818244
 20
251.39154325451
 30
0.0
 40
105.00000299999979
  0
LINE
  5
2CB8
  8
AM_0
 10
606.4040055381829
 20
251.39154325451
 30
0.0
 11
606.4040055381829
 21
281.39154325451
 31
0.0
  0
LINE
  5
2CB9
  8
AM_0
 10
841.40400453818279
 20
251.39154325451
 30
0.0
 11
841.40400453818279
 21
281.39154325451
 31
0.0
  0
LINE
  5
2CBA
  8
ﾁｭｳｼﾝｾﾝ
 10
667.41293225746676
 20
198.39157125451001
 30
0.0
 11
782.94940068128221
 21
198.39157125451001
 31
0.0
  0
LINE
  5
2CBB
  8
ﾁｭｳｼﾝｾﾝ
 10
601.23635553818303
 20
251.39154325451
 30
0.0
 11
845.71373553818285
 21
251.39154325451
 31
0.0
  0
ARC
  5
2CBC
  8
AM_0
 10
723.90400653818244
 20
223.39157125451001
 30
0.0
 40
99.500004000000004
 50
242.88566
 51
297.11435
  0
LINE
  5
2CBD
  8
AM_0
 10
753.90399453818259
 20
133.89155425451
 30
0.0
 11
819.06327453818278
 21
137.30641225451001
 31
0.0
  0
ARC
  5
2CBE
  8
AM_0
 10
723.90400653818244
 20
251.39154325451
 30
0.0
 40
89.000003999999961
 50
166.12423000000001
 51
179.57176999999999
  0
ARC
  5
2CBF
  8
AM_0
 10
637.92725853818274
 20
213.39155725450991
 30
0.0
 40
5.0000001000000003
 50
203.8444699999998
 51
270.0
  0
CIRCLE
  5
2CC0
  8
AM_0
 10
628.44459453818286
 20
155.93214325451001
 30
0.0
 40
7.5000002999999982
  0
LINE
  5
2CC1
  8
AM_0
 10
693.90399153818271
 20
133.89155425451
 30
0.0
 11
628.74470253818299
 21
137.30641225451001
 31
0.0
  0
LINE
  5
2CC2
  8
AM_0
 10
606.40397553818298
 20
221.39155825450999
 30
0.0
 11
609.81881553818312
 21
156.23228425451009
 31
0.0
  0
ARC
  5
2CC3
  8
AM_0
 10
629.79145653818296
 20
157.27900525451
 30
0.0
 40
20.000000700000001
 50
183.00001
 51
267.0
  0
LINE
  5
2CC4
  8
AM_0
 10
481.17230285495828
 20
270.39154225451
 30
0.0
 11
436.1722728549579
 21
270.39154225451
 31
0.0
  0
LINE
  5
2CC5
  8
AM_0
 10
436.1722728549579
 20
267.39154225451
 30
0.0
 11
436.1722728549579
 21
270.39154225451
 31
0.0
  0
LINE
  5
2CC6
  8
AM_0
 10
481.17230285495828
 20
235.39157425451009
 30
0.0
 11
481.17230285495828
 21
270.39154225451
 31
0.0
  0
ARC
  5
2CC7
  8
AM_0
 10
723.90400653818244
 20
223.39157125451001
 30
0.0
 40
93.500003999999976
 50
162.14678999999981
 51
183.00788
  0
LINE
  5
2CC8
  8
AM_0
 10
606.4040055381829
 20
251.39154325451
 30
0.0
 11
606.4040055381829
 21
221.39155825450999
 31
0.0
  0
LINE
  5
2CC9
  8
AM_0
 10
723.90400653818244
 20
133.89155425451
 30
0.0
 11
693.90399153818271
 21
133.89155425451
 31
0.0
  0
LINE
  5
2CCA
  8
AM_0
 10
723.90400653818244
 20
133.89155425451
 30
0.0
 11
753.904009538183
 21
133.89155425451
 31
0.0
  0
LINE
  5
2CCB
  8
AM_0
 10
675.90399153818248
 20
251.39154325451
 30
0.0
 11
675.90399153818248
 21
213.39155725450991
 31
0.0
  0
LINE
  5
2CCC
  8
AM_0
 10
670.90399053818271
 20
208.39157125451001
 30
0.0
 11
637.92725853818274
 21
208.39157125451001
 31
0.0
  0
ARC
  5
2CCD
  8
AM_0
 10
670.90399053818271
 20
213.39155725450991
 30
0.0
 40
5.0000001000000003
 50
270.0
 51
0.0
  0
ARC
  5
2CCE
  8
AM_0
 10
723.90400653818244
 20
251.39154325451
 30
0.0
 40
16.000000499999999
 50
108.20996
 51
71.790052000000003
  0
ARC
  5
2CCF
  8
AM_0
 10
723.90400653818244
 20
251.39154325451
 30
0.0
 40
16.000000499999999
 50
108.20996
 51
71.790052000000003
  0
CIRCLE
  5
2CD0
  8
AM_0
 62
     2
 10
723.90400653818244
 20
251.39154325451
 30
0.0
 40
4.000000199999997
  0
CIRCLE
  5
2CD1
  8
AM_0
 10
723.90400653818244
 20
251.39154325451
 30
0.0
 40
2.75000007
  0
CIRCLE
  5
2CD2
  8
AM_0
 10
723.90400653818244
 20
251.39154325451
 30
0.0
 40
2.75000007
  0
LINE
  5
2CD3
  8
AM_0
 10
728.90399253818282
 20
262.39157425450998
 30
0.0
 11
728.90399253818282
 21
270.39154225451
 31
0.0
  0
LINE
  5
2CD4
  8
AM_0
 10
718.9039935381827
 20
262.39157425450998
 30
0.0
 11
718.9039935381827
 21
270.39154225451
 31
0.0
  0
LINE
  5
2CD5
  8
AM_0
 10
718.9039935381827
 20
262.39157425450998
 30
0.0
 11
728.90399253818282
 21
262.39157425450998
 31
0.0
  0
LINE
  5
2CD6
  8
AM_0
 10
718.9039935381827
 20
270.39154225451
 30
0.0
 11
728.90399253818282
 21
270.39154225451
 31
0.0
  0
LINE
  5
2CD7
  8
AM_0
 10
841.40400453818279
 20
221.39155825450999
 30
0.0
 11
837.98914653818269
 21
156.2322692545101
 31
0.0
  0
ARC
  5
2CD8
  8
AM_0
 10
818.01655953818272
 20
157.27900525451
 30
0.0
 40
20.000000700000001
 50
273.0
 51
357.0
  0
CIRCLE
  5
2CD9
  8
AM_0
 10
819.36341553818272
 20
155.93214325451001
 30
0.0
 40
7.5000002999999982
  0
LINE
  5
2CDA
  8
AM_0
 10
771.904009538183
 20
251.39154325451
 30
0.0
 11
771.904009538183
 21
213.39155725450991
 31
0.0
  0
ARC
  5
2CDB
  8
AM_0
 10
723.90400653818244
 20
223.39157125451001
 30
0.0
 40
93.500003999999976
 50
356.99212
 51
17.853213
  0
LINE
  5
2CDC
  8
AM_0
 10
776.90401053818266
 20
208.39157125451001
 30
0.0
 11
809.88073953818321
 21
208.39157125451001
 31
0.0
  0
ARC
  5
2CDD
  8
AM_0
 10
776.90401053818266
 20
213.39155725450991
 30
0.0
 40
5.0000001000000003
 50
179.99998999999991
 51
270.0
  0
ARC
  5
2CDE
  8
AM_0
 10
809.88073953818321
 20
213.39155725450991
 30
0.0
 40
5.0000001000000003
 50
270.0
 51
336.15553
  0
ARC
  5
2CDF
  8
AM_0
 10
723.90400653818244
 20
251.39154325451
 30
0.0
 40
89.000003999999961
 50
0.42822786
 51
13.875764
  0
LINE
  5
2CE0
  8
AM_0
 10
841.40400453818279
 20
251.39154325451
 30
0.0
 11
841.40400453818279
 21
221.39155825450999
 31
0.0
  0
LINE
  5
2CE1
  8
AM_0
 10
758.007937538183
 20
291.15234025451002
 30
0.0
 11
787.23825453818245
 21
320.38266025450997
 31
0.0
  0
LINE
  5
2CE2
  8
AM_0
 10
763.6647975381826
 20
285.49551025451001
 30
0.0
 11
792.8951055381832
 21
314.72580025450998
 31
0.0
  0
ARC
  5
2CE3
  8
AM_0
 10
723.90400653818244
 20
223.39157125451001
 30
0.0
 40
99.500004000000004
 50
58.838493999999997
 51
86.644180000000006
  0
LINE
  5
2CE4
  8
AM_0
 10
753.90399453818259
 20
368.89155025451032
 30
0.0
 11
819.06327453818278
 21
365.47668025450997
 31
0.0
  0
LINE
  5
2CE5
  8
AM_0
 10
693.90399153818271
 20
368.89155025451032
 30
0.0
 11
628.74473253818292
 21
365.47668025450997
 31
0.0
  0
CIRCLE
  5
2CE6
  8
AM_0
 10
628.44459453818286
 20
346.8510002545101
 30
0.0
 40
7.5000002999999982
  0
ARC
  5
2CE7
  8
AM_0
 10
629.79145653818296
 20
345.5041202545101
 30
0.0
 40
20.000000700000001
 50
92.999999000000017
 51
176.99999
  0
LINE
  5
2CE8
  8
AM_0
 10
606.4040055381829
 20
281.39154325451
 30
0.0
 11
609.81884553818247
 21
346.55085025451001
 31
0.0
  0
ARC
  5
2CE9
  8
AM_0
 10
723.90400653818244
 20
251.39154325451
 30
0.0
 40
48.0
 50
54.77685000000001
 51
125.22314
  0
ARC
  5
2CEA
  8
AM_0
 10
664.10527053818248
 20
323.91822025451
 30
0.0
 40
5.0000001000000003
 50
129.5058199999998
 51
225.0
  0
LINE
  5
2CEB
  8
AM_0
 10
684.143203538183
 20
285.49548025451008
 30
0.0
 11
654.91291653818257
 21
314.72580025450998
 31
0.0
  0
LINE
  5
2CEC
  8
AM_0
 10
689.8000635381826
 20
291.15234025451002
 30
0.0
 11
660.56976153818277
 21
320.38266025450997
 31
0.0
  0
ARC
  5
2CED
  8
AM_0
 10
651.37736253818298
 20
311.19027025450998
 30
0.0
 40
5.0000001000000003
 50
45.00000099999999
 51
140.49418
  0
ARC
  5
2CEE
  8
AM_0
 10
680.60766453818258
 20
281.95996525450988
 30
0.0
 40
5.0000001000000003
 50
324.77685000000002
 51
45.00000099999999
  0
ARC
  5
2CEF
  8
AM_0
 10
693.33558753818295
 20
294.68790025451
 30
0.0
 40
5.0000001000000003
 50
225.0
 51
305.22314999999992
  0
ARC
  5
2CF0
  8
AM_0
 10
754.47241353818254
 20
294.68790025451
 30
0.0
 40
5.0000001000000003
 50
234.77686
 51
315.0
  0
ARC
  5
2CF1
  8
AM_0
 10
767.20033353818303
 20
281.95996525450988
 30
0.0
 40
5.0000001000000003
 50
135.0
 51
215.22315
  0
ARC
  5
2CF2
  8
AM_0
 10
717.90399153818271
 20
325.71579025451013
 30
0.0
 40
3.0
 50
273.35581999999999
 51
0.0
  0
ARC
  5
2CF3
  8
AM_0
 10
717.90399153818271
 20
331.90629025451
 30
0.0
 40
3.0
 50
0.0
 51
90.000003000000007
  0
ARC
  5
2CF4
  8
AM_0
 10
723.90400653818244
 20
223.39157125451001
 30
0.0
 40
99.500004000000004
 50
93.355817999999985
 51
121.1615
  0
LINE
  5
2CF5
  8
AM_0
 10
726.90400653818244
 20
331.90629025451
 30
0.0
 11
726.90400653818244
 21
325.71579025451013
 31
0.0
  0
LINE
  5
2CF6
  8
AM_0
 10
720.90400653818256
 20
331.90629025451
 30
0.0
 11
720.90400653818256
 21
325.71579025451013
 31
0.0
  0
ARC
  5
2CF7
  8
AM_0
 10
729.90400653818233
 20
325.71579025451013
 30
0.0
 40
3.0
 50
179.99998999999991
 51
266.64418999999992
  0
ARC
  5
2CF8
  8
AM_0
 10
729.90400653818233
 20
331.90629025451
 30
0.0
 40
3.0
 50
90.000003000000007
 51
180.00001
  0
LINE
  5
2CF9
  8
AM_0
 10
723.90400653818244
 20
368.89158025451002
 30
0.0
 11
693.90399153818271
 21
368.89158025451002
 31
0.0
  0
LINE
  5
2CFA
  8
AM_0
 10
723.90400653818244
 20
368.89158025451002
 30
0.0
 11
753.904009538183
 21
368.89158025451002
 31
0.0
  0
ARC
  5
2CFB
  8
AM_0
 10
818.01655953818272
 20
345.5041202545101
 30
0.0
 40
20.000000700000001
 50
3.0000000999999981
 51
86.999998999999988
  0
ARC
  5
2CFC
  8
AM_0
 10
783.70273053818255
 20
323.91822025451
 30
0.0
 40
5.0000001000000003
 50
315.0
 51
50.494182000000002
  0
ARC
  5
2CFD
  8
AM_0
 10
796.43063553818263
 20
311.19027025450998
 30
0.0
 40
5.0000001000000003
 50
39.505817999999998
 51
135.0
  0
CIRCLE
  5
2CFE
  8
AM_0
 10
819.36341553818272
 20
346.8510002545101
 30
0.0
 40
7.5000002999999982
  0
ARC
  5
2CFF
  8
ﾁｭｳｼﾝｾﾝ1
 10
723.90400653818244
 20
251.39154325451
 30
0.0
 40
135.00000299999991
 50
37.992831412951929
 51
52.00719739716471
  0
LINE
  5
2D00
  8
ﾁｭｳｼﾝｾﾝ1
 10
807.69615296979919
 20
335.1837386194739
 30
0.0
 11
832.15867519851793
 21
359.64627683155641
 31
0.0
  0
LINE
  5
2D01
  8
AM_0
 10
841.40399553818315
 20
281.39157325451009
 30
0.0
 11
837.98914653818269
 21
346.55085025451001
 31
0.0
  0
LINE
  5
2D02
  8
AM_0
 10
200.17229285495799
 20
230.32898875450999
 30
0.0
 11
190.1722928549579
 21
230.32898875450999
 31
0.0
  0
LINE
  5
2D03
  8
AM_0
 10
200.17229285495799
 20
244.39155475451
 30
0.0
 11
190.1722928549579
 21
244.39155475451
 31
0.0
  0
LINE
  5
2D04
  8
AM_0
 10
200.1722928549581
 20
152.39154775450999
 30
0.0
 11
190.17229285495799
 21
152.39154775450999
 31
0.0
  0
LINE
  5
2D05
  8
AM_0
 10
200.17229285495799
 20
166.45411075451011
 30
0.0
 11
190.1722928549579
 21
166.45411075451011
 31
0.0
  0
LINE
  5
2D06
  8
AM_0
 10
140.6722428549584
 20
564.56441253087087
 30
0.0
 11
140.6722428549584
 21
549.56440490147634
 31
0.0
  0
LINE
  5
2D07
  8
AM_0
 10
115.6722428549584
 20
563.06441253087075
 30
0.0
 11
115.6722428549584
 21
551.06441253087075
 31
0.0
  0
LINE
  5
2D08
  8
AM_0
 10
190.1722428549584
 20
612.30303388490574
 30
0.0
 11
190.17224285495931
 21
501.82579117683588
 31
0.0
  0
LINE
  5
2D09
  8
AM_0
 10
144.6722428549582
 20
534.06441253087075
 30
0.0
 11
144.67224285495851
 21
580.06441253087075
 31
0.0
  0
LINE
  5
2D0A
  8
AM_0
 10
165.17224285495831
 20
582.06441253087053
 30
0.0
 11
165.17224285495831
 21
532.06441253087064
 31
0.0
  0
LINE
  5
2D0B
  8
AM_0
 10
142.6722428549584
 20
571.23598540612466
 30
0.0
 11
142.6722428549584
 21
542.89283965561697
 31
0.0
  0
LINE
  5
2D0C
  8
AM_0
 10
146.67224285495831
 20
532.06441253087075
 30
0.0
 11
161.0301072312275
 21
532.06441253087075
 31
0.0
  0
LINE
  5
2D0D
  8
AM_0
 10
115.6722428549584
 20
559.06441253087075
 30
0.0
 11
133.6722428549584
 21
559.06441253087075
 31
0.0
  0
LINE
  5
2D0E
  8
AM_0
 10
115.6722428549584
 20
555.06441253087075
 30
0.0
 11
133.6722428549584
 21
555.06441253087075
 31
0.0
  0
LINE
  5
2D0F
  8
AM_0
 10
115.6722428549584
 20
551.06441253087075
 30
0.0
 11
140.6722428549584
 21
551.06441253087075
 31
0.0
  0
LINE
  5
2D10
  8
AM_0
 10
143.25802929258529
 20
541.47862609324375
 30
0.0
 11
144.0864564173315
 21
540.65019896849765
 31
0.0
  0
ARC
  5
2D11
  8
AM_0
 10
146.67224285495831
 20
534.06441253087075
 30
0.0
 40
2.0
 50
180.0
 51
270.0
1001
GENIUS_GENODEF_13
1002
{
1000
HIER
1070
     0
1002
}
1002
{
1000
MANEDIT
1070
     0
1002
}
1002
{
1000
NOSEL
1070
     0
1002
}
1002
{
1000
BEHIND
1070
     0
1002
}
1002
{
1000
OTHER
1070
     0
1002
}
1002
{
1000
REACTOR
1002
}
1001
GENIUS_GENOBJ-N-FIL_13
1002
{
1000
OWNER
1000
GEN
1002
}
  0
ARC
  5
2D12
  8
AM_0
 10
142.6722428549584
 20
539.23598540612466
 30
0.0
 40
2.0
 50
0.0
 51
45.0
1001
GENIUS_GENODEF_13
1002
{
1000
HIER
1070
     0
1002
}
1002
{
1000
MANEDIT
1070
     0
1002
}
1002
{
1000
NOSEL
1070
     0
1002
}
1002
{
1000
BEHIND
1070
     0
1002
}
1002
{
1000
OTHER
1070
     0
1002
}
1002
{
1000
REACTOR
1002
}
1001
GENIUS_GENOBJ-N-FIL_13
1002
{
1000
OWNER
1000
GEN
1002
}
  0
ARC
  5
2D13
  8
AM_0
 10
133.6722428549584
 20
557.06441253087075
 30
0.0
 40
1.9999999999998861
 50
270.0
 51
90.0
  0
LINE
  5
2D14
  8
AM_0
 10
133.6722428549584
 20
559.06441253087064
 30
0.0
 11
133.6722428549584
 21
555.06441253087075
 31
0.0
  0
LINE
  5
2D15
  8
AM_0
 10
140.6722428549584
 20
549.56440490147634
 30
0.0
 11
142.6722428549584
 21
549.56440490147634
 31
0.0
  0
ARC
  5
2D16
  8
AM_0
 10
144.6722428549584
 20
542.89283965561697
 30
0.0
 40
2.0
 50
180.0
 51
225.0
1001
GENIUS_GENODEF_13
1002
{
1000
HIER
1070
     0
1002
}
1002
{
1000
MANEDIT
1070
     0
1002
}
1002
{
1000
NOSEL
1070
     0
1002
}
1002
{
1000
BEHIND
1070
     0
1002
}
1002
{
1000
OTHER
1070
     0
1002
}
1002
{
1000
REACTOR
1002
}
1001
GENIUS_GENOBJ-N-FIL_13
1002
{
1000
OWNER
1000
GEN
1002
}
  0
LINE
  5
2D17
  8
AM_0
 10
188.70777676089111
 20
508.5288786249377
 30
0.0
 11
168.10117504309301
 21
529.13548034273617
 31
0.0
  0
LINE
  5
2D18
  8
AM_0
 10
191.1432596616753
 20
500.82621127782471
 30
0.0
 11
200.1722428549584
 21
500.56441253087081
 31
0.0
  0
ARC
  5
2D19
  8
AM_0
 10
185.1722428549584
 20
504.99334471900528
 30
0.0
 40
5.0
 50
0.0
 51
45.0
1001
GENIUS_GENODEF_13
1002
{
1000
HIER
1070
     0
1002
}
1002
{
1000
MANEDIT
1070
     0
1002
}
1002
{
1000
NOSEL
1070
     0
1002
}
1002
{
1000
BEHIND
1070
     0
1002
}
1002
{
1000
OTHER
1070
     0
1002
}
1002
{
1000
REACTOR
1002
}
1001
GENIUS_GENOBJ-N-FIL_13
1002
{
1000
OWNER
1000
GEN
1002
}
  0
ARC
  5
2D1A
  8
AM_0
 10
191.1722428549584
 20
501.82579117683588
 30
0.0
 40
1.0
 50
180.0
 51
268.33915276702578
1001
GENIUS_GENOBJ-N-FIL_13
1002
{
1000
OWNER
1000
GEN
1002
}
1001
GENIUS_GENODEF_13
1002
{
1000
HIER
1070
     0
1002
}
1002
{
1000
MANEDIT
1070
     0
1002
}
1002
{
1000
NOSEL
1070
     0
1002
}
1002
{
1000
BEHIND
1070
     0
1002
}
1002
{
1000
OTHER
1070
     0
1002
}
1002
{
1000
REACTOR
1002
}
  0
LINE
  5
2D1B
  8
AM_0
 10
200.1722428549584
 20
511.06441053087059
 30
0.0
 11
190.1722428549586
 21
511.06441053087059
 31
0.0
  0
ARC
  5
2D1C
  8
AM_0
 10
161.0301072312273
 20
522.06441253087075
 30
0.0
 40
10.0
 50
45.0
 51
90.0
1001
GENIUS_GENOBJ-N-FIL_13
1002
{
1000
OWNER
1000
GEN
1002
}
1001
GENIUS_GENODEF_13
1002
{
1000
HIER
1070
     0
1002
}
1002
{
1000
MANEDIT
1070
     0
1002
}
1002
{
1000
NOSEL
1070
     0
1002
}
1002
{
1000
BEHIND
1070
     0
1002
}
1002
{
1000
OTHER
1070
     0
1002
}
1002
{
1000
REACTOR
1002
}
  0
LINE
  5
2D1D
  8
AM_0
 10
200.1722428549584
 20
525.12697353087083
 30
0.0
 11
190.1722428549584
 21
525.12697353087083
 31
0.0
  0
LINE
  5
2D1E
  8
AM_0
 10
146.67224285495831
 20
582.06441253087075
 30
0.0
 11
161.0301072312275
 21
582.06441253087075
 31
0.0
  0
LINE
  5
2D1F
  8
AM_0
 10
115.6722428549584
 20
563.06441253087075
 30
0.0
 11
140.6722428549584
 21
563.06441253087075
 31
0.0
  0
ARC
  5
2D20
  8
AM_0
 10
142.6722428549584
 20
574.89283965561685
 30
0.0
 40
2.0
 50
315.0
 51
0.0
1001
GENIUS_GENODEF_13
1002
{
1000
HIER
1070
     0
1002
}
1002
{
1000
MANEDIT
1070
     0
1002
}
1002
{
1000
NOSEL
1070
     0
1002
}
1002
{
1000
BEHIND
1070
     0
1002
}
1002
{
1000
OTHER
1070
     0
1002
}
1002
{
1000
REACTOR
1002
}
1001
GENIUS_GENOBJ-N-FIL_13
1002
{
1000
OWNER
1000
GEN
1002
}
  0
ARC
  5
2D21
  8
AM_0
 10
144.6722428549584
 20
571.23598540612466
 30
0.0
 40
2.0
 50
135.0
 51
180.0
1001
GENIUS_GENODEF_13
1002
{
1000
HIER
1070
     0
1002
}
1002
{
1000
MANEDIT
1070
     0
1002
}
1002
{
1000
NOSEL
1070
     0
1002
}
1002
{
1000
BEHIND
1070
     0
1002
}
1002
{
1000
OTHER
1070
     0
1002
}
1002
{
1000
REACTOR
1002
}
1001
GENIUS_GENOBJ-N-FIL_13
1002
{
1000
OWNER
1000
GEN
1002
}
  0
LINE
  5
2D22
  8
AM_0
 10
143.25802929258529
 20
572.65019896849765
 30
0.0
 11
144.0864564173315
 21
573.47862609324375
 31
0.0
  0
LINE
  5
2D23
  8
AM_0
 10
140.6722428549584
 20
564.56441253087087
 30
0.0
 11
142.6722428549584
 21
564.56441253087087
 31
0.0
  0
ARC
  5
2D24
  8
AM_0
 10
146.67224285495831
 20
580.06441253087075
 30
0.0
 40
2.0
 50
90.0
 51
180.0
1001
GENIUS_GENODEF_13
1002
{
1000
HIER
1070
     0
1002
}
1002
{
1000
MANEDIT
1070
     0
1002
}
1002
{
1000
NOSEL
1070
     0
1002
}
1002
{
1000
BEHIND
1070
     0
1002
}
1002
{
1000
OTHER
1070
     0
1002
}
1002
{
1000
REACTOR
1002
}
1001
GENIUS_GENOBJ-N-FIL_13
1002
{
1000
OWNER
1000
GEN
1002
}
  0
ARC
  5
2D25
  8
AM_0
 10
185.1722428549584
 20
609.1354803427364
 30
0.0
 40
5.0
 50
315.0
 51
0.0
1001
GENIUS_GENODEF_13
1002
{
1000
HIER
1070
     0
1002
}
1002
{
1000
MANEDIT
1070
     0
1002
}
1002
{
1000
NOSEL
1070
     0
1002
}
1002
{
1000
BEHIND
1070
     0
1002
}
1002
{
1000
OTHER
1070
     0
1002
}
1002
{
1000
REACTOR
1002
}
1001
GENIUS_GENOBJ-N-FIL_13
1002
{
1000
OWNER
1000
GEN
1002
}
  0
LINE
  5
2D26
  8
AM_0
 10
188.70777676089111
 20
605.59994643680352
 30
0.0
 11
168.10117504309301
 21
584.99334471900534
 31
0.0
  0
ARC
  5
2D27
  8
AM_0
 10
161.0301072312275
 20
592.06441253087075
 30
0.0
 40
10.0
 50
270.0
 51
315.0
1001
GENIUS_GENODEF_13
1002
{
1000
HIER
1070
     0
1002
}
1002
{
1000
MANEDIT
1070
     0
1002
}
1002
{
1000
NOSEL
1070
     0
1002
}
1002
{
1000
BEHIND
1070
     0
1002
}
1002
{
1000
OTHER
1070
     0
1002
}
1002
{
1000
REACTOR
1002
}
1001
GENIUS_GENOBJ-N-FIL_13
1002
{
1000
OWNER
1000
GEN
1002
}
  0
LINE
  5
2D28
  8
AM_0
 10
200.1722428549584
 20
589.00185153087091
 30
0.0
 11
190.1722428549584
 21
589.00185153087091
 31
0.0
  0
LINE
  5
2D29
  8
AM_0
 10
200.1722428549584
 20
603.06441753087074
 30
0.0
 11
190.1722428549584
 21
603.06441753087074
 31
0.0
  0
LINE
  5
2D2A
  8
AM_0
 10
191.1432596616753
 20
613.30261378391674
 30
0.0
 11
200.1722428549584
 21
613.56441253087075
 31
0.0
  0
ARC
  5
2D2B
  8
AM_0
 10
191.1722428549584
 20
612.30303388490574
 30
0.0
 40
1.0
 50
91.660847232974191
 51
180.0
1001
GENIUS_GENOBJ-N-FIL_13
1002
{
1000
OWNER
1000
GEN
1002
}
1001
GENIUS_GENODEF_13
1002
{
1000
HIER
1070
     0
1002
}
1002
{
1000
MANEDIT
1070
     0
1002
}
1002
{
1000
NOSEL
1070
     0
1002
}
1002
{
1000
BEHIND
1070
     0
1002
}
1002
{
1000
OTHER
1070
     0
1002
}
1002
{
1000
REACTOR
1002
}
  0
LINE
  5
2D2D
  8
AM_0
 10
436.17227285495829
 20
552.06442753087083
 30
0.0
 11
481.17230285495828
 21
552.06442753087083
 31
0.0
  0
LINE
  5
2D2E
  8
AM_0
 10
436.17227285495829
 20
562.06442753087083
 30
0.0
 11
481.17230285495828
 21
562.06442753087083
 31
0.0
  0
LINE
  5
2D2F
  8
AM_0
 10
481.17230285495828
 20
573.06445753087075
 30
0.0
 11
423.17227285495829
 21
573.06445753087075
 31
0.0
  0
LINE
  5
2D30
  8
AM_0
 10
481.17230285495828
 20
541.06445753087075
 30
0.0
 11
423.17227285495829
 21
541.06445753087075
 31
0.0
  0
LINE
  5
2D31
  8
ﾁｭｳｼﾝｾﾝ
 10
107.25940643147931
 20
557.06442753087072
 30
0.0
 11
489.08511285495831
 21
557.06442753087072
 31
0.0
  0
LINE
  5
2D32
  8
AM_0
 10
200.1722428549584
 20
589.02606753087093
 30
0.0
 11
245.99121285495821
 21
589.02606753087093
 31
0.0
  0
LINE
  5
2D33
  8
AM_0
 10
200.1722428549584
 20
603.06475753087079
 30
0.0
 11
250.4613028549584
 21
603.06475753087079
 31
0.0
  0
LINE
  5
2D34
  8
AM_0
 10
256.79584285495832
 20
615.04180753087076
 30
0.0
 11
200.1722428549584
 21
613.06445753087075
 31
0.0
  0
LINE
  5
2D35
  8
AM_0
 10
200.1722428549584
 20
501.06442753087077
 30
0.0
 11
256.79578285495842
 21
499.08706753087051
 31
0.0
  0
LINE
  5
2D36
  8
AM_0
 10
200.1722428549584
 20
511.06411753087087
 30
0.0
 11
250.4613028549584
 21
511.06411753087087
 31
0.0
  0
LINE
  5
2D37
  8
AM_0
 10
200.1722428549584
 20
525.10275753087058
 30
0.0
 11
245.99121285495821
 21
525.10275753087058
 31
0.0
  0
LINE
  5
2D38
  8
AM_0
 10
200.1722428549584
 20
500.56441253087053
 30
0.0
 11
200.1722428549584
 21
613.56441253087075
 31
0.0
  0
POLYLINE
  5
2D39
  8
AM_0
 66
     1
 10
0.0
 20
0.0
 30
0.0
  0
VERTEX
  5
2D3A
  8
AM_0
 10
396.83838285495841
 20
659.73052753087075
 30
0.0
 42
0.079826744
  0
VERTEX
  5
2D3B
  8
AM_0
 10
370.9965528549584
 20
592.82408753087054
 30
0.0
 42
0.10414854
  0
VERTEX
  5
2D3C
  8
AM_0
 10
370.99662285495828
 20
521.30438753087083
 30
0.0
 42
0.079826277
  0
VERTEX
  5
2D3D
  8
AM_0
 10
396.83838285495841
 20
454.39828753087079
 30
0.0
  0
SEQEND
  5
2D3E
  8
AM_0
  0
ARC
  5
2D3F
  8
AM_0
 10
436.17227285495829
 20
557.06442753087072
 30
0.0
 40
5.0
 50
90.000003000000945
 51
270.0
  0
LINE
  5
2D40
  8
AM_0
 10
436.17227285495829
 20
562.06442753087083
 30
0.0
 11
436.17227285495829
 21
552.06442753087083
 31
0.0
  0
LINE
  5
2D41
  8
AM_0
 10
423.17227285495829
 20
452.06439753087079
 30
0.0
 11
423.17227285495829
 21
662.06445753087075
 31
0.0
  0
LINE
  5
2D42
  8
AM_0
 10
419.17227285495829
 20
439.56442753087089
 30
0.0
 11
419.17227285495829
 21
674.56445753087075
 31
0.0
  0
LINE
  5
2D43
  8
AM_0
 10
411.17227285495829
 20
466.46469753087058
 30
0.0
 11
411.17227285495829
 21
647.66418753087078
 31
0.0
  0
LINE
  5
2D44
  8
AM_0
 10
404.17227285495829
 20
442.98529753087058
 30
0.0
 11
404.17227285495829
 21
671.14355753087079
 31
0.0
  0
LINE
  5
2D45
  8
AM_0
 10
230.1722428549584
 20
547.06442753087083
 30
0.0
 11
230.1722428549584
 21
567.06442753087072
 31
0.0
  0
LINE
  5
2D46
  8
AM_0
 10
259.67224285495843
 20
496.56442753087077
 30
0.0
 11
259.67224285495843
 21
617.56439753087079
 31
0.0
  0
LINE
  5
2D47
  8
AM_0
 10
268.67224285495843
 20
493.56442753087077
 30
0.0
 11
268.67224285495843
 21
620.56439753087056
 31
0.0
  0
LINE
  5
2D48
  8
AM_0
 10
268.67224285495843
 20
620.56439753087056
 30
0.0
 11
268.67224285495843
 21
493.56436753087092
 31
0.0
  0
LINE
  5
2D49
  8
AM_0
 10
296.17224285495843
 20
459.8450375308708
 30
0.0
 11
296.17224285495843
 21
654.28381753087092
 31
0.0
  0
LINE
  5
2D4A
  8
AM_0
 10
281.17224285495843
 20
485.13549753087079
 30
0.0
 11
281.17224285495843
 21
628.99334753087055
 31
0.0
  0
LINE
  5
2D4B
  8
AM_0
 10
306.17224285495843
 20
457.56442753087077
 30
0.0
 11
306.17224285495843
 21
656.56439753087079
 31
0.0
  0
LINE
  5
2D4C
  8
AM_0
 10
306.17230285495828
 20
457.56442753087077
 30
0.0
 11
394.87003285495842
 21
454.46704753087079
 31
0.0
  0
LINE
  5
2D4D
  8
AM_0
 10
298.10242285495832
 20
457.84622753087081
 30
0.0
 11
306.17224285495843
 21
457.56442753087077
 31
0.0
  0
ARC
  5
2D4E
  8
AM_0
 10
298.17224285495843
 20
459.8450375308708
 30
0.0
 40
2.0
 50
179.9999899999988
 51
268.00000999999861
  0
LINE
  5
2D4F
  8
AM_0
 10
268.6723028549585
 20
493.56436753087092
 30
0.0
 11
276.34674285495839
 21
493.29641753087083
 31
0.0
  0
LINE
  5
2D50
  8
AM_0
 10
268.67224285495843
 20
505.02441753087078
 30
0.0
 11
281.17224285495843
 21
505.02441753087078
 31
0.0
  0
LINE
  5
2D51
  8
AM_0
 10
268.67224285495843
 20
519.91442753087085
 30
0.0
 11
281.17224285495843
 21
519.91442753087085
 31
0.0
  0
POLYLINE
  5
2D52
  8
AM_0
 66
     1
 10
0.0
 20
0.0
 30
0.0
  0
VERTEX
  5
2D53
  8
AM_0
 10
257.60357285495832
 20
503.68379753087078
 30
0.0
  0
VERTEX
  5
2D54
  8
AM_0
 10
252.0601428549584
 20
511.52600753087091
 30
0.0
 42
-1.0
  0
SEQEND
  5
2D55
  8
AM_0
  0
ARC
  5
2D56
  8
AM_0
 10
250.4613028549584
 20
514.06411753087082
 30
0.0
 40
3.0
 50
270.0
 51
31.46020299999924
  0
ARC
  5
2D57
  8
AM_0
 10
249.6722428549584
 20
497.59332753087051
 30
0.0
 40
10.0
 50
0.0
 51
37.523535999997527
  0
ARC
  5
2D58
  8
AM_0
 10
256.69104285495843
 20
496.08892753087082
 30
0.0
 40
3.0
 50
4.545488300001014
 51
87.999999999999503
  0
LINE
  5
2D59
  8
AM_0
 10
268.67224285495843
 20
493.56442753087077
 30
0.0
 11
262.67224285495843
 21
493.56442753087077
 31
0.0
  0
ARC
  5
2D5A
  8
AM_0
 10
262.67224285495843
 20
496.56442753087077
 30
0.0
 40
3.0
 50
180.00001000000091
 51
270.0
  0
LINE
  5
2D5B
  8
AM_0
 10
268.67224285495843
 20
505.02441753087078
 30
0.0
 11
259.67224285495843
 21
505.02441753087078
 31
0.0
  0
POLYLINE
  5
2D5C
  8
AM_0
 66
     1
 10
0.0
 20
0.0
 30
0.0
  0
VERTEX
  5
2D5D
  8
AM_0
 10
244.54915285495841
 20
525.10195753087089
 30
0.0
  0
VERTEX
  5
2D5E
  8
AM_0
 10
238.2616028549584
 20
544.0638975308708
 30
0.0
 42
-1.0
  0
SEQEND
  5
2D5F
  8
AM_0
  0
LINE
  5
2D60
  8
AM_0
 10
233.1722428549584
 20
544.06442753087083
 30
0.0
 11
256.67224285495848
 21
544.06442753087083
 31
0.0
  0
ARC
  5
2D61
  8
AM_0
 10
233.1722428549584
 20
547.06442753087083
 30
0.0
 40
3.0
 50
180.00001000000091
 51
270.0
  0
POLYLINE
  5
2D62
  8
AM_0
 66
     1
 10
0.0
 20
0.0
 30
0.0
  0
VERTEX
  5
2D63
  8
AM_0
 10
253.02035285495819
 20
515.62983753087087
 30
0.0
 42
-0.0050917014
  0
VERTEX
  5
2D64
  8
AM_0
 10
251.87243285495839
 20
517.54948753087092
 30
0.0
 42
-0.0052112711
  0
VERTEX
  5
2D65
  8
AM_0
 10
250.7642928549584
 20
519.49237753087084
 30
0.0
 42
-0.0053447966
  0
VERTEX
  5
2D66
  8
AM_0
 10
249.69741285495849
 20
521.45822753087054
 30
0.0
 42
-0.0054924736
  0
VERTEX
  5
2D67
  8
AM_0
 10
248.67337285495819
 20
523.44674753087088
 30
0.0
  0
SEQEND
  5
2D68
  8
AM_0
  0
ARC
  5
2D69
  8
AM_0
 10
245.99121285495821
 20
522.1027575308708
 30
0.0
 40
3.0
 50
26.61499800000183
 51
90.000003000000945
  0
LINE
  5
2D6A
  8
AM_0
 10
268.67224285495843
 20
519.91650753087083
 30
0.0
 11
259.67224285495843
 21
519.91650753087083
 31
0.0
  0
ARC
  5
2D6B
  8
AM_0
 10
256.67224285495848
 20
541.06442753087083
 30
0.0
 40
3.0
 50
0.0
 51
90.000003000000945
  0
LINE
  5
2D6C
  8
AM_0
 10
282.63672285495829
 20
481.59997753087077
 30
0.0
 11
295.2935828549584
 21
468.94311753087078
 31
0.0
  0
ARC
  5
2D6D
  8
AM_0
 10
286.17224285495848
 20
485.13549753087079
 30
0.0
 40
5.0
 50
179.9999899999988
 51
225.0
  0
ARC
  5
2D6E
  8
AM_0
 10
293.17224285495843
 20
466.82177753087092
 30
0.0
 40
3.0
 50
0.0
 51
44.999998000001611
  0
ARC
  5
2D6F
  8
AM_0
 10
276.17224285495843
 20
488.29946753087052
 30
0.0
 40
5.0
 50
0.0
 51
87.999999999999503
  0
ARC
  5
2D70
  8
AM_0
 10
408.17227285495829
 20
466.46469753087058
 30
0.0
 40
3.0
 50
267.99999999999932
 51
0.0
  0
LINE
  5
2D71
  8
AM_0
 10
407.06757285495831
 20
439.98712753087079
 30
0.0
 11
419.17227285495829
 21
439.56442753087089
 31
0.0
  0
LINE
  5
2D72
  8
AM_0
 10
398.23105285495842
 20
453.00561753087078
 30
0.0
 11
404.17227285495829
 21
447.06439753087079
 31
0.0
  0
ARC
  5
2D73
  8
AM_0
 10
407.17227285495829
 20
442.98529753087058
 30
0.0
 40
3.0
 50
179.9999899999988
 51
268.00000999999861
  0
ARC
  5
2D74
  8
AM_0
 10
394.69553285495829
 20
449.47006753087078
 30
0.0
 40
5.0
 50
45.000000999996892
 51
87.999999999999503
  0
LINE
  5
2D75
  8
AM_0
 10
419.17227285495829
 20
452.06439753087079
 30
0.0
 11
423.17227285495829
 21
452.06439753087079
 31
0.0
  0
LINE
  5
2D76
  8
AM_0
 10
407.8877328549583
 20
463.47280753087051
 30
0.0
 11
408.06757285495831
 21
463.46652753087079
 31
0.0
  0
LINE
  5
2D77
  8
AM_0
 10
407.17227285495829
 20
501.15368753087051
 30
0.0
 11
411.17227285495829
 21
501.15368753087051
 31
0.0
  0
ARC
  5
2D78
  8
AM_0
 10
407.17227285495829
 20
498.1536875308708
 30
0.0
 40
3.0
 50
90.000003000000945
 51
180.00001000000091
  0
LINE
  5
2D79
  8
AM_0
 10
306.17230285495828
 20
656.56439753087079
 30
0.0
 11
394.87003285495842
 21
659.66180753087076
 31
0.0
  0
ARC
  5
2D7A
  8
AM_0
 10
298.17224285495843
 20
654.28381753087092
 30
0.0
 40
2.0
 50
91.999998000000545
 51
180.00001000000091
  0
LINE
  5
2D7B
  8
AM_0
 10
268.67224285495843
 20
620.56445753087075
 30
0.0
 11
276.34674285495839
 21
620.83239753087071
 31
0.0
  0
LINE
  5
2D7C
  8
AM_0
 10
268.67224285495843
 20
594.21441753087049
 30
0.0
 11
281.17224285495843
 21
594.21441753087049
 31
0.0
  0
LINE
  5
2D7D
  8
AM_0
 10
268.67224285495843
 20
609.10443753087054
 30
0.0
 11
281.17224285495843
 21
609.10443753087054
 31
0.0
  0
POLYLINE
  5
2D7E
  8
AM_0
 66
     1
 10
0.0
 20
0.0
 30
0.0
  0
VERTEX
  5
2D7F
  8
AM_0
 10
257.60357285495832
 20
610.4450275308709
 30
0.0
  0
VERTEX
  5
2D80
  8
AM_0
 10
252.0601428549584
 20
602.60280753087056
 30
0.0
 42
-1.0
  0
SEQEND
  5
2D81
  8
AM_0
  0
POLYLINE
  5
2D82
  8
AM_0
 66
     1
 10
0.0
 20
0.0
 30
0.0
  0
VERTEX
  5
2D83
  8
AM_0
 10
244.54915285495841
 20
589.02686753087096
 30
0.0
  0
VERTEX
  5
2D84
  8
AM_0
 10
238.2616028549584
 20
570.06494753087054
 30
0.0
 42
-1.0
  0
SEQEND
  5
2D85
  8
AM_0
  0
LINE
  5
2D86
  8
AM_0
 10
233.1722428549584
 20
570.0644275308706
 30
0.0
 11
256.67224285495848
 21
570.0644275308706
 31
0.0
  0
ARC
  5
2D87
  8
AM_0
 10
233.1722428549584
 20
567.06442753087072
 30
0.0
 40
3.0
 50
90.000003000000945
 51
180.00001000000091
  0
ARC
  5
2D88
  8
AM_0
 10
256.67224285495848
 20
573.06439753087079
 30
0.0
 40
3.0
 50
270.0
 51
0.0
  0
POLYLINE
  5
2D89
  8
AM_0
 66
     1
 10
0.0
 20
0.0
 30
0.0
  0
VERTEX
  5
2D8A
  8
AM_0
 10
253.02035285495819
 20
598.49898753087075
 30
0.0
 42
0.0050916976
  0
VERTEX
  5
2D8B
  8
AM_0
 10
251.87243285495839
 20
596.5793375308707
 30
0.0
 42
0.005211269
  0
VERTEX
  5
2D8C
  8
AM_0
 10
250.7642928549584
 20
594.63644753087056
 30
0.0
 42
0.005344796
  0
VERTEX
  5
2D8D
  8
AM_0
 10
249.69741285495849
 20
592.67059753087074
 30
0.0
 42
0.0054924746
  0
VERTEX
  5
2D8E
  8
AM_0
 10
248.67337285495819
 20
590.68208753087072
 30
0.0
  0
SEQEND
  5
2D8F
  8
AM_0
  0
ARC
  5
2D90
  8
AM_0
 10
245.99121285495821
 20
592.02606753087093
 30
0.0
 40
3.0
 50
270.0
 51
333.38500000000118
  0
ARC
  5
2D91
  8
AM_0
 10
250.4613028549584
 20
600.06475753087079
 30
0.0
 40
3.0
 50
328.53980000000098
 51
90.000003000000945
  0
LINE
  5
2D92
  8
AM_0
 10
268.67224285495843
 20
594.21234753087072
 30
0.0
 11
259.67224285495843
 21
594.21234753087072
 31
0.0
  0
ARC
  5
2D93
  8
AM_0
 10
262.67224285495843
 20
617.56439753087079
 30
0.0
 40
3.0
 50
90.000003000000945
 51
180.00001000000091
  0
LINE
  5
2D94
  8
AM_0
 10
268.67224285495843
 20
609.10443753087054
 30
0.0
 11
259.67224285495843
 21
609.10443753087054
 31
0.0
  0
ARC
  5
2D95
  8
AM_0
 10
249.6722428549584
 20
616.53552753087092
 30
0.0
 40
10.0
 50
322.47645999999781
 51
0.0
  0
ARC
  5
2D96
  8
AM_0
 10
256.69104285495843
 20
618.03991753087075
 30
0.0
 40
3.0
 50
272.0000000000004
 51
355.45443000000142
  0
LINE
  5
2D97
  8
AM_0
 10
268.67224285495843
 20
620.56439753087056
 30
0.0
 11
262.67224285495843
 21
620.56439753087056
 31
0.0
  0
ARC
  5
2D98
  8
AM_0
 10
286.17224285495848
 20
628.99334753087055
 30
0.0
 40
5.0
 50
135.0
 51
180.00001000000091
  0
ARC
  5
2D99
  8
AM_0
 10
276.17224285495843
 20
625.82940753087075
 30
0.0
 40
5.0
 50
272.0000000000004
 51
0.0
  0
LINE
  5
2D9A
  8
AM_0
 10
282.63672285495829
 20
632.5288675308708
 30
0.0
 11
295.2935828549584
 21
645.18573753087094
 31
0.0
  0
ARC
  5
2D9B
  8
AM_0
 10
293.17224285495843
 20
647.30706753087088
 30
0.0
 40
3.0
 50
315.0
 51
0.0
  0
LINE
  5
2D9C
  8
AM_0
 10
298.1024828549584
 20
656.28259753087048
 30
0.0
 11
306.17224285495843
 21
656.56439753087079
 31
0.0
  0
LINE
  5
2D9D
  8
AM_0
 10
407.17227285495829
 20
612.97515753087055
 30
0.0
 11
411.17227285495829
 21
612.97515753087055
 31
0.0
  0
ARC
  5
2D9E
  8
AM_0
 10
407.17227285495829
 20
615.97515753087077
 30
0.0
 40
3.0
 50
179.9999899999988
 51
270.0
  0
ARC
  5
2D9F
  8
AM_0
 10
408.17227285495829
 20
647.66418753087078
 30
0.0
 40
3.0
 50
0.0
 51
91.999998000000545
  0
LINE
  5
2DA0
  8
AM_0
 10
407.8877328549583
 20
650.65600753087085
 30
0.0
 11
408.06757285495831
 21
650.66229753087055
 31
0.0
  0
LINE
  5
2DA1
  8
AM_0
 10
407.0676028549583
 20
674.14172753087075
 30
0.0
 11
419.17227285495829
 21
674.56439753087056
 31
0.0
  0
LINE
  5
2DA2
  8
AM_0
 10
398.2310828549584
 20
661.12323753087094
 30
0.0
 11
404.17227285495829
 21
667.06445753087075
 31
0.0
  0
ARC
  5
2DA3
  8
AM_0
 10
394.69553285495829
 20
664.65875753087084
 30
0.0
 40
5.0
 50
272.0000000000004
 51
315.0
  0
ARC
  5
2DA4
  8
AM_0
 10
407.17227285495829
 20
671.14355753087079
 30
0.0
 40
3.0
 50
91.999998000000545
 51
180.00001000000091
  0
LINE
  5
2DA5
  8
AM_0
 10
419.17227285495829
 20
662.06445753087075
 30
0.0
 11
423.17227285495829
 21
662.06445753087075
 31
0.0
  0
LINE
  5
2DA6
  8
AM_0
 10
481.17230285495828
 20
541.06445753087075
 30
0.0
 11
481.17230285495828
 21
573.06445753087075
 31
0.0
  0
LINE
  5
2DA7
  8
ﾁｭｳｼﾝｾﾝ1
 10
807.69620190314663
 20
167.59939682289371
 30
0.0
 11
832.15874011522919
 21
143.1368745941748
 31
0.0
  0
ARC
  5
2DA8
  8
ﾁｭｳｼﾝｾﾝ1
 10
723.90400653818244
 20
251.39154325451011
 30
0.0
 40
135.00000299999991
 50
307.99283141295189
 51
322.00719739716448
  0
LINE
  5
2DA9
  8
ﾁｭｳｼﾝｾﾝ1
 10
640.11186010656638
 20
335.1837386194739
 30
0.0
 11
615.64933787784753
 21
359.64627683155641
 31
0.0
  0
ARC
  5
2DAA
  8
ﾁｭｳｼﾝｾﾝ1
 10
723.90400653818244
 20
251.39154325451
 30
0.0
 40
135.00000299999991
 50
127.9928026028352
 51
142.007168587048
  0
ARC
  5
2DAB
  8
ﾁｭｳｼﾝｾﾝ1
 10
723.90400653818244
 20
251.39154325451011
 30
0.0
 40
135.00000299999991
 50
217.9928026028353
 51
232.00716858704811
  0
LINE
  5
2DAC
  8
ﾁｭｳｼﾝｾﾝ1
 10
640.11181117321905
 20
167.59939682289371
 30
0.0
 11
615.64927296113638
 21
143.1368745941748
 31
0.0
  0
TEXT
  5
2F8A
  8
AM_0
 10
570.40727848001279
 20
585.55786017693663
 30
0.0
 40
15.0
  1
VX01-800GF~VX01-K20GF
  0
ENDSEC
  0
EOF
