  0
SECTION
  2
HEADER
  9
$ACADVER
  1
AC1009
  9
$INSBASE
 10
0.0
 20
0.0
 30
0.0
  9
$EXTMIN
 10
185.23148566232001
 20
160.29419093194201
 30
-0.0000000000000058
  9
$EXTMAX
 10
639.16127187928805
 20
538.20671208808994
 30
0.0000000000000104
  9
$LIMMIN
 10
0.0
 20
0.0
  9
$LIMMAX
 10
853.5
 20
555.00000000000011
  9
$ORTHOMODE
 70
     0
  9
$REGENMODE
 70
     1
  9
$FILLMODE
 70
     1
  9
$QTEXTMODE
 70
     0
  9
$MIRRTEXT
 70
     1
  9
$DRAGMODE
 70
     2
  9
$LTSCALE
 40
3.0
  9
$OSMODE
 70
   551
  9
$ATTMODE
 70
     1
  9
$TEXTSIZE
 40
2.5
  9
$TRACEWID
 40
1.0
  9
$TEXTSTYLE
  7
STANDARD
  9
$CLAYER
  8
AM_0
  9
$CELTYPE
  6
BYLAYER
  9
$CECOLOR
 62
   256
  9
$DIMSCALE
 40
1.0
  9
$DIMASZ
 40
0.1
  9
$DIMEXO
 40
0.05
  9
$DIMDLI
 40
0.5
  9
$DIMRND
 40
0.0
  9
$DIMDLE
 40
0.0
  9
$DIMEXE
 40
0.1
  9
$DIMTP
 40
0.1
  9
$DIMTM
 40
0.1
  9
$DIMTXT
 40
0.12
  9
$DIMCEN
 40
0.0
  9
$DIMTSZ
 40
0.0
  9
$DIMTOL
 70
     0
  9
$DIMLIM
 70
     0
  9
$DIMTIH
 70
     1
  9
$DIMTOH
 70
     1
  9
$DIMSE1
 70
     0
  9
$DIMSE2
 70
     0
  9
$DIMTAD
 70
     0
  9
$DIMZIN
 70
     8
  9
$DIMBLK
  1

  9
$DIMASO
 70
     1
  9
$DIMSHO
 70
     1
  9
$DIMPOST
  1

  9
$DIMAPOST
  1
mm
  9
$DIMALT
 70
     0
  9
$DIMALTD
 70
     2
  9
$DIMALTF
 40
25.399999999999999
  9
$DIMLFAC
 40
1.0
  9
$DIMTOFL
 70
     0
  9
$DIMTVP
 40
0.0
  9
$DIMTIX
 70
     0
  9
$DIMSOXD
 70
     0
  9
$DIMSAH
 70
     0
  9
$DIMBLK1
  1

  9
$DIMBLK2
  1

  9
$DIMSTYLE
  2
AM_ANSI
  9
$DIMCLRD
 70
   256
  9
$DIMCLRE
 70
   256
  9
$DIMCLRT
 70
     2
  9
$DIMTFAC
 40
0.71
  9
$DIMGAP
 40
0.06
  9
$LUNITS
 70
     2
  9
$LUPREC
 70
     2
  9
$SKETCHINC
 40
1.0
  9
$FILLETRAD
 40
15.0
  9
$AUNITS
 70
     0
  9
$AUPREC
 70
     0
  9
$MENU
  1
.
  9
$ELEVATION
 40
0.0
  9
$PELEVATION
 40
0.0
  9
$THICKNESS
 40
0.0
  9
$LIMCHECK
 70
     0
  9
$BLIPMODE
 70
     0
  9
$CHAMFERA
 40
6.0
  9
$CHAMFERB
 40
3.0
  9
$SKPOLY
 70
     0
  9
$TDCREATE
 40
2452065.7146578361
  9
$TDUPDATE
 40
2458541.438300509
  9
$TDINDWG
 40
0.0424958681
  9
$TDUSRTIMER
 40
0.0424954977
  9
$USRTIMER
 70
     1
  9
$ANGBASE
 50
0.0
  9
$ANGDIR
 70
     0
  9
$PDMODE
 70
     0
  9
$PDSIZE
 40
0.0
  9
$PLINEWID
 40
0.0
  9
$COORDS
 70
     1
  9
$SPLFRAME
 70
     0
  9
$SPLINETYPE
 70
     6
  9
$SPLINESEGS
 70
     8
  9
$ATTDIA
 70
     1
  9
$ATTREQ
 70
     1
  9
$HANDLING
 70
     1
  9
$HANDSEED
  5
326B
  9
$SURFTAB1
 70
     6
  9
$SURFTAB2
 70
     6
  9
$SURFTYPE
 70
     6
  9
$SURFU
 70
     6
  9
$SURFV
 70
     6
  9
$UCSNAME
  2

  9
$UCSORG
 10
0.0
 20
0.0
 30
0.0
  9
$UCSXDIR
 10
1.0
 20
0.0
 30
0.0
  9
$UCSYDIR
 10
0.0
 20
1.0
 30
0.0
  9
$PUCSNAME
  2

  9
$PUCSORG
 10
0.0
 20
0.0
 30
0.0
  9
$PUCSXDIR
 10
1.0
 20
0.0
 30
0.0
  9
$PUCSYDIR
 10
0.0
 20
1.0
 30
0.0
  9
$USERI1
 70
     0
  9
$USERI2
 70
     0
  9
$USERI3
 70
     0
  9
$USERI4
 70
     0
  9
$USERI5
 70
     0
  9
$USERR1
 40
0.0
  9
$USERR2
 40
0.0
  9
$USERR3
 40
0.0
  9
$USERR4
 40
0.0
  9
$USERR5
 40
0.0
  9
$WORLDVIEW
 70
     1
  9
$SHADEDGE
 70
     3
  9
$SHADEDIF
 70
    70
  9
$TILEMODE
 70
     1
  9
$MAXACTVP
 70
    64
  9
$PLIMCHECK
 70
     0
  9
$PEXTMIN
 10
1.0000000000000000E+020
 20
1.0000000000000000E+020
 30
1.0000000000000000E+020
  9
$PEXTMAX
 10
-1.0000000000000000E+020
 20
-1.0000000000000000E+020
 30
-1.0000000000000000E+020
  9
$PLIMMIN
 10
0.0
 20
0.0
  9
$PLIMMAX
 10
420.0
 20
297.0
  9
$UNITMODE
 70
     0
  9
$VISRETAIN
 70
     1
  9
$PLINEGEN
 70
     0
  9
$PSLTSCALE
 70
     1
  0
ENDSEC
  0
SECTION
  2
TABLES
  0
TABLE
  2
VPORT
 70
     1
  0
VPORT
  2
*ACTIVE
 70
     0
 10
0.0
 20
0.0
 11
1.0
 21
1.0
 12
412.1963787708039
 22
349.25045151001598
 13
0.0
 23
0.0
 14
7.5
 24
7.5
 15
30.0
 25
30.0
 16
0.0
 26
0.0
 36
1.0
 17
0.0
 27
0.0
 37
0.0
 40
380.506886289943
 41
1.7571592210767459
 42
50.0
 43
0.0
 44
0.0
 50
0.0
 51
0.0
 71
     0
 72
   100
 73
     1
 74
     3
 75
     0
 76
     0
 77
     0
 78
     0
  0
ENDTAB
  0
TABLE
  2
LTYPE
 70
    25
  0
LTYPE
  2
CONTINUOUS
 70
     0
  3
Solid line
 72
    65
 73
     0
 40
0.0
  0
LTYPE
  2
AM_ISO02W050
 70
     0
  3
__ __ __ __ __ __ __ __ __ __ __ __ __ __ __
 72
    65
 73
     2
 40
7.5
 49
6.0
 49
-1.5
  0
LTYPE
  2
AM_ISO08W050
 70
     0
  3
____ . ____ . ____ . ____ . ____ . ____ . ____
 72
    65
 73
     4
 40
18.0
 49
12.0
 49
-1.5
 49
3.0
 49
-1.5
  0
LTYPE
  2
AM_ISO09W050
 70
     0
  3
_____ . . _____ . . _____ . . ____ .. ____
 72
    65
 73
     6
 40
22.5
 49
12.0
 49
-1.5
 49
3.0
 49
-1.5
 49
3.0
 49
-1.5
  0
LTYPE
  2
AMCONSTR
 70
     0
  3
_______________________
 72
    65
 73
     2
 40
9999.0
 49
9999.0
 49
0.0
  0
LTYPE
  2
AM_ISO08W050X2
 70
     0
  3
__ . __ . __ . __ . __ . __
 72
    65
 73
     4
 40
9.0
 49
6.0
 49
-0.75
 49
1.5
 49
-0.75
  0
LTYPE
  2
AM_ISO02W050X2
 70
     0
  3
 _ _ _ _ _ _ _ _ _ _ _ _
 72
    65
 73
     2
 40
3.75
 49
3.0
 49
-0.75
  0
LTYPE
  2
AMZIGZAG
 70
     0
  3
/\/-/\/-/\/-/\/-/\/-/\/
 72
    65
 73
     2
 40
11.000099999999991
 49
0.0001
 49
-11.0
  0
LTYPE
  2
ACISOWELD
 70
     0
  3
_ _ _ _ _
 72
    65
 73
     2
 40
2.0
 49
2.0
 49
-1.0
  0
LTYPE
  2
ACISOTGB
 70
     0
  3
__ . . __ . .
 72
    65
 73
     6
 40
9.0
 49
4.0
 49
-1.0
 49
1.0
 49
-1.0
 49
1.0
 49
-1.0
  0
LTYPE
  2
ACISOTGL
 70
     0
  3
_ _ _ _ _
 72
    65
 73
     2
 40
3.0
 49
2.0
 49
-1.0
  0
LTYPE
  2
CENTER
 70
     0
  3
__ . __
 72
    65
 73
     4
 40
7.0
 49
4.0
 49
-1.0
 49
1.0
 49
-1.0
  0
LTYPE
  2
PHANTOM2
 70
     0
  3
Phantom (.5x) ___ _ _ ___ _ _ ___ _ _ ___ _ _
 72
    65
 73
     6
 40
31.75
 49
15.875
 49
-3.174999999999998
 49
3.174999999999998
 49
-3.174999999999998
 49
3.174999999999998
 49
-3.174999999999998
  0
LTYPE
  2
ACANSTGBM
 70
     0
  3
__ . . __ . .
 72
    65
 73
     6
 40
9.0
 49
4.0
 49
-1.0
 49
1.0
 49
-1.0
 49
1.0
 49
-1.0
  0
LTYPE
  2
ACANSTGLM
 70
     0
  3
_ _ _ _ _
 72
    65
 73
     2
 40
3.0
 49
2.0
 49
-1.0
  0
LTYPE
  2
GEN7
 70
     0
  3
____ . ____ . ____ . ____ . ____ . ____ . ____
 72
    65
 73
     4
 40
14.25
 49
9.75
 49
-1.5
 49
1.5
 49
-1.5
  0
LTYPE
  2
ACJISTGB
 70
     0
  3
__ . . __ . .
 72
    65
 73
     6
 40
9.0
 49
4.0
 49
-1.0
 49
1.0
 49
-1.0
 49
1.0
 49
-1.0
  0
LTYPE
  2
ACJISTGL
 70
     0
  3
_ _ _ _ _
 72
    65
 73
     2
 40
3.0
 49
2.0
 49
-1.0
  0
LTYPE
  2
HIDDEN
 70
     0
  3
Hidden __ __ __ __ __ __ __ __ __ __ __ __ __ _
 72
    65
 73
     2
 40
0.375
 49
0.25
 49
-0.125
  0
LTYPE
  2
CENTER2
 70
     0
  3
Center (.5x) ___ _ ___ _ ___ _ ___ _ ___ _ ___
 72
    65
 73
     4
 40
1.125
 49
0.75
 49
-0.125
 49
0.125
 49
-0.125
  0
LTYPE
  2
HIDDEN2
 70
     0
  3
Hidden (.5x) _ _ _ _ _ _ _ _ _ _ _ _ _ _ _ _ _
 72
    65
 73
     2
 40
0.1875
 49
0.125
 49
-0.0625
  0
LTYPE
  2
AMZIGZAG2
 70
     0
  3
/\/-/\/-/\/-/\/-/\/-/\/
 72
    65
 73
     2
 40
0.4401
 49
0.0001
 49
-0.4400000000000003
  0
LTYPE
  2
ACANSTGB
 70
     0
  3
__ . . __ . .
 72
    65
 73
     6
 40
0.35433070866
 49
0.15748031496
 49
-0.03937007874
 49
0.03937007874
 49
-0.03937007874
 49
0.03937007874
 49
-0.03937007874
  0
LTYPE
  2
ACANSTGL
 70
     0
  3
_ _ _ _ _
 72
    65
 73
     2
 40
0.11811023622
 49
0.07874015748
 49
-0.03937007874
  0
ENDTAB
  0
TABLE
  2
LAYER
 70
     6
  0
LAYER
  2
0
 70
     0
 62
     7
  6
CONTINUOUS
  0
LAYER
  2
AM_0
 70
     0
 62
     7
  6
CONTINUOUS
  0
LAYER
  2
AM_5
 70
     0
 62
     2
  6
CONTINUOUS
  0
LAYER
  2
DEFPOINTS
 70
     0
 62
     7
  6
CONTINUOUS
  0
LAYER
  2
ﾁｭｳｼﾝｾﾝ
 70
     0
 62
     1
  6
GEN7
  0
LAYER
  2
AM_7
 70
     0
 62
     1
  6
AM_ISO08W050
  0
ENDTAB
  0
TABLE
  2
STYLE
 70
     9
  0
STYLE
  2
STANDARD
 70
     0
 40
0.0
 41
0.8299999999999999
 50
0.0
 71
     0
 42
2.5
  3
txt.shx
  4
bigfont.shx
  0
STYLE
  2
ANNOTATIVE
 70
     0
 40
0.0
 41
1.0
 50
0.0
 71
     0
 42
0.2
  3
txt
  4

  0
STYLE
  2

 70
     1
 40
0.0
 41
1.0
 50
0.0
 71
     0
 42
2.5
  3
ltypeshp.shx
  4

  0
STYLE
  2
ACISOTS
 70
     0
 40
1.0
 41
1.0
 50
0.0
 71
     0
 42
2.5
  3
isocp.shx
  4
extfont.shx
  0
STYLE
  2
ACISOGDT
 70
     0
 40
0.0
 41
1.0
 50
0.0
 71
     0
 42
2.5
  3
amgdt.shx
  4

  0
STYLE
  2
ACANSTS
 70
     0
 40
1.0
 41
1.0
 50
0.0
 71
     0
 42
2.5
  3
romans.shx
  4
bigfont.shx
  0
STYLE
  2
ACANSGDT
 70
     0
 40
0.0
 41
1.0
 50
0.0
 71
     0
 42
2.5
  3
amgdt.shx
  4

  0
STYLE
  2
ACJISTS
 70
     0
 40
1.0
 41
1.0
 50
0.0
 71
     0
 42
2.5
  3
isocp.shx
  4
bigfont.shx
  0
STYLE
  2
ACJISGDT
 70
     0
 40
0.0
 41
1.0
 50
0.0
 71
     0
 42
2.5
  3
amgdt.shx
  4

  0
ENDTAB
  0
TABLE
  2
VIEW
 70
     6
  0
VIEW
  2
AM_VIEW1
 70
     0
 40
277.49999999999989
 10
249.64779005524841
 20
416.24999999999989
 41
499.2955801104971
 11
0.0
 21
0.0
 31
1.0
 12
0.0
 22
0.0
 32
0.0
 42
50.0
 43
0.0
 44
0.0
 50
0.0
 71
     0
  0
VIEW
  2
AM_VIEW2
 70
     0
 40
277.49999999999989
 10
603.85220994475117
 20
416.24999999999989
 41
499.2955801104971
 11
0.0
 21
0.0
 31
1.0
 12
0.0
 22
0.0
 32
0.0
 42
50.0
 43
0.0
 44
0.0
 50
0.0
 71
     0
  0
VIEW
  2
AM_VIEW3
 70
     0
 40
277.49999999999989
 10
249.64779005524841
 20
138.7499999999998
 41
499.2955801104971
 11
0.0
 21
0.0
 31
1.0
 12
0.0
 22
0.0
 32
0.0
 42
50.0
 43
0.0
 44
0.0
 50
0.0
 71
     0
  0
VIEW
  2
AM_VIEW4
 70
     0
 40
277.49999999999989
 10
603.85220994475117
 20
138.7499999999998
 41
499.2955801104971
 11
0.0
 21
0.0
 31
1.0
 12
0.0
 22
0.0
 32
0.0
 42
50.0
 43
0.0
 44
0.0
 50
0.0
 71
     0
  0
VIEW
  2
AM_VIEW5
 70
     0
 40
277.49999999999989
 10
426.75
 20
277.49999999999989
 41
499.2955801104971
 11
0.0
 21
0.0
 31
1.0
 12
0.0
 22
0.0
 32
0.0
 42
50.0
 43
0.0
 44
0.0
 50
0.0
 71
     0
  0
VIEW
  2
AM_VIEW6
 70
     0
 40
554.99445000000014
 10
426.75
 20
277.49999999999989
 41
998.5811743093924
 11
0.0
 21
0.0
 31
1.0
 12
0.0
 22
0.0
 32
0.0
 42
50.0
 43
0.0
 44
0.0
 50
0.0
 71
     0
  0
ENDTAB
  0
TABLE
  2
UCS
 70
     0
  0
ENDTAB
  0
TABLE
  2
APPID
 70
    95
  0
APPID
  2
ACAD
 70
     0
  0
APPID
  2
ACADANNOTATIVE
 70
     0
  0
APPID
  2
MCAD_NO_VIS
 70
     0
  0
APPID
  2
ACAD_TEMP_GRAPHIC
 70
     0
  0
APPID
  2
ACATTRIBSERVICES
 70
     0
  0
APPID
  2
GENIUS_GENREC_14
 70
     0
  0
APPID
  2
GENIUS_GENOBJ-N-REC_13
 70
     0
  0
APPID
  2
GENIUS_GENODEF_13
 70
     0
  0
APPID
  2
GENIUS_GENOLIS_13
 70
     0
  0
APPID
  2
GENIUS_GENOBJ-N-TIT_13
 70
     0
  0
APPID
  2
GENIUS_GENOENT_13
 70
     0
  0
APPID
  2
GENIUS_GENTITLE_13
 70
     0
  0
APPID
  2
GENIUS_GENOREF_13
 70
     0
  0
APPID
  2
GENIUS_GENSCREG_15
 70
     0
  0
APPID
  2
GENIUS_GENOBJ-N-SDF_13
 70
     0
  0
APPID
  2
GENIUS_GENFIL_13
 70
     0
  0
APPID
  2
GENIUS_GENOBJ-N-CHA_13
 70
     0
  0
APPID
  2
GENIUS_GENDTOL_13
 70
     0
  0
APPID
  2
GENIUS_GENOBJ-N-FIL_13
 70
     0
  0
APPID
  2
AD_DRAW
 70
     0
  0
APPID
  2
DESIGNERASSEMBLIES
 70
     0
  0
APPID
  2
ASURF_PCURVE_APPNAME
 70
     0
  0
APPID
  2
GENIUS_GE3SECT_13
 70
     0
  0
APPID
  2
GENIUS_GENCFG_13
 70
     0
  0
APPID
  2
GENIUS_GE3CFG0_13
 70
     0
  0
APPID
  2
GENIUS_GENCFG0_13
 70
     0
  0
APPID
  2
GENIUS_GENCFG1_13
 70
     0
  0
APPID
  2
GENIUS_GENCFG2_13
 70
     0
  0
APPID
  2
GENIUS_GENCFG3_13
 70
     0
  0
APPID
  2
GENIUS_GENCFG4_13
 70
     0
  0
APPID
  2
GENIUS_GEVCFG0_13
 70
     0
  0
APPID
  2
GENIUS_GENHINW_13
 70
     0
  0
APPID
  2
GENIUS_FIRSTVISTXT_14
 70
     0
  0
APPID
  2
GENIUS_GENOBJ-N-LEADER_13
 70
     0
  0
APPID
  2
GEV_VCCNULL_SWITCH_OFF
 70
     0
  0
APPID
  2
GENIUS_GEFCFG0_13
 70
     0
  0
APPID
  2
GENIUS_GENZVEED_13
 70
     0
  0
APPID
  2
GENIUS_GENSCREG_13
 70
     0
  0
APPID
  2
GENIUS_DUMCFG0_13
 70
     0
  0
APPID
  2
GEVID936201362
 70
     0
  0
APPID
  2
GEVDC
 70
     0
  0
APPID
  2
GEVCON
 70
     0
  0
APPID
  2
VCC
 70
     0
  0
APPID
  2
GEVPT
 70
     0
  0
APPID
  2
GEVIT
 70
     0
  0
APPID
  2
GENBH
 70
     0
  0
APPID
  2
GEVMK
 70
     0
  0
APPID
  2
GENIUS_GENBH_13
 70
     0
  0
APPID
  2
GENIUS_GENOBJ-NBEHI-BHF_13
 70
     0
  0
APPID
  2
GENIUS_GENOBJ-NBEHI-BHB_13
 70
     0
  0
APPID
  2
GENIUS_GENOBJ-F-DESC_13
 70
     0
  0
APPID
  2
GENIUS_GEFDESC_14
 70
     0
  0
APPID
  2
GENIUS_GENOBJ-F-PART_13
 70
     0
  0
APPID
  2
GENIUS_GEFSTDP_13
 70
     0
  0
APPID
  2
GENIUS_GEFPARTINS_13
 70
     0
  0
APPID
  2
GENIUS_GENTRA_14
 70
     0
  0
APPID
  2
GENIUS_GENINF13_13
 70
     0
  0
APPID
  2
GENIUS_GENOBJ-N-INFOPT_13
 70
     0
  0
APPID
  2
GENIUS_GENOBJ-N-RSSYM_13
 70
     0
  0
APPID
  2
GENIUS_GENSYMENT_13
 70
     0
  0
APPID
  2
GENIUS_GENSCSYM_13
 70
     0
  0
APPID
  2
GENIUS_GEFINFNAM_13
 70
     0
  0
APPID
  2
GENIUS_GENOBJ-N-CEN_13
 70
     0
  0
APPID
  2
GENIUS_GENOBJ-N-CRS_13
 70
     0
  0
APPID
  2
GENIUS_GENOBJ-N-CRC_13
 70
     0
  0
APPID
  2
GENIUS_GENCRC_14
 70
     0
  0
APPID
  2
GEVID942827039
 70
     0
  0
APPID
  2
GEVID942827040
 70
     0
  0
APPID
  2
GEVID942827041
 70
     0
  0
APPID
  2
GENIUS_GENOBJ-F-SCPASSM_13
 70
     0
  0
APPID
  2
GENIUS_GENDIMSH_14
 70
     0
  0
APPID
  2
GEVID942827042
 70
     0
  0
APPID
  2
GEVID946020473
 70
     0
  0
APPID
  2
GEVID946020474
 70
     0
  0
APPID
  2
GEVID946020475
 70
     0
  0
APPID
  2
GENIUS_GENOBJ-N-HTC_13
 70
     0
  0
APPID
  2
GENIUS_GENHATCH_13
 70
     0
  0
APPID
  2
GEVID948854295
 70
     0
  0
APPID
  2
GEVID939402019
 70
     0
  0
APPID
  2
GEVID952919491
 70
     0
  0
APPID
  2
GEVID952919492
 70
     0
  0
APPID
  2
GENIUS_GEFWELD_13
 70
     0
  0
APPID
  2
GENIUS_GENOBJ-F-WELS_13
 70
     0
  0
APPID
  2
GEVID952919493
 70
     0
  0
APPID
  2
GENIUS_GENOBJ-N-RSBK_13
 70
     0
  0
APPID
  2
GENIUS_GENOBJ-N-LIB_13
 70
     0
  0
APPID
  2
GENIUS_GENSCALE_13
 70
     0
  0
APPID
  2
GEVID986376691
 70
     0
  0
APPID
  2
DCO15
 70
     0
  0
APPID
  2
ACAD_DSTYLE_DIMBREAK
 70
     0
  0
APPID
  2
ACAD_DSTYLE_DIMJAG
 70
     0
  0
APPID
  2
ACAD_NAV_VCDISPLAY
 70
     0
  0
APPID
  2
ACADANNOPO
 70
     0
  0
APPID
  2
ACAD_EXEMPT_FROM_CAD_STANDARDS
 70
     0
  0
APPID
  2
ACAD_MLEADERVER
 70
     0
  0
ENDTAB
  0
TABLE
  2
DIMSTYLE
 70
    22
  0
DIMSTYLE
  2
STANDARD
 70
     0
  3

  4

  5

  6

  7

 40
1.0
 41
0.18
 42
0.0625
 43
0.38
 44
0.18
 45
0.0
 46
0.0
 47
0.0
 48
0.0
140
0.18
141
0.09
142
0.0
143
25.399999999999999
144
1.0
145
0.0
146
1.0
147
0.09
 71
     0
 72
     0
 73
     1
 74
     1
 75
     0
 76
     0
 77
     0
 78
     0
170
     0
171
     2
172
     0
173
     0
174
     0
175
     0
176
     0
177
     0
178
     0
  0
DIMSTYLE
  2
ANNOTATIVE
 70
     0
  3

  4

  5

  6

  7

 40
1.0
 41
0.18
 42
0.0625
 43
0.38
 44
0.18
 45
0.0
 46
0.0
 47
0.0
 48
0.0
140
0.18
141
0.09
142
0.0
143
25.399999999999999
144
1.0
145
0.0
146
1.0
147
0.09
 71
     0
 72
     0
 73
     1
 74
     1
 75
     0
 76
     0
 77
     0
 78
     0
170
     0
171
     2
172
     0
173
     0
174
     0
175
     0
176
     0
177
     0
178
     0
  0
DIMSTYLE
  2
AM_ISO
 70
     0
  3

  4
"
  5

  6

  7

 40
1.0
 41
2.5
 42
1.0
 43
8.0
 44
0.6
 45
0.0
 46
0.0
 47
0.1
 48
0.1
140
2.5
141
0.0
142
0.0
143
0.0393701
144
1.0
145
0.0
146
0.71
147
0.8
 71
     0
 72
     0
 73
     0
 74
     0
 75
     0
 76
     0
 77
     1
 78
     8
170
     0
171
     2
172
     1
173
     0
174
     0
175
     0
176
   256
177
   256
178
     4
  0
DIMSTYLE
  2
AM_ISO$3
 70
     0
  3

  4
"
  5

  6

  7

 40
1.0
 41
2.5
 42
1.0
 43
8.0
 44
0.6
 45
0.0
 46
0.0
 47
0.1
 48
0.1
140
2.5
141
0.0
142
0.0
143
0.0393701
144
1.0
145
0.0
146
0.71
147
0.8
 71
     0
 72
     0
 73
     0
 74
     1
 75
     0
 76
     0
 77
     1
 78
     8
170
     0
171
     2
172
     0
173
     0
174
     0
175
     0
176
   256
177
   256
178
     4
  0
DIMSTYLE
  2
AM_ISO$4
 70
     0
  3

  4
"
  5

  6

  7

 40
1.0
 41
2.5
 42
1.0
 43
8.0
 44
0.6
 45
0.0
 46
0.0
 47
0.1
 48
0.1
140
2.5
141
0.0
142
0.0
143
0.0393701
144
1.0
145
0.0
146
0.71
147
0.8
 71
     0
 72
     0
 73
     0
 74
     1
 75
     0
 76
     0
 77
     1
 78
     8
170
     0
171
     2
172
     0
173
     0
174
     0
175
     0
176
   256
177
   256
178
     4
  0
DIMSTYLE
  2
AM_ISO$6
 70
     0
  3

  4
"
  5

  6

  7

 40
1.0
 41
2.5
 42
1.0
 43
8.0
 44
0.6
 45
0.0
 46
0.0
 47
0.1
 48
0.1
140
2.5
141
0.0
142
0.0
143
0.0393701
144
1.0
145
0.0
146
0.71
147
0.8
 71
     0
 72
     0
 73
     0
 74
     0
 75
     0
 76
     0
 77
     0
 78
     8
170
     0
171
     2
172
     1
173
     0
174
     0
175
     0
176
   256
177
   256
178
     4
  0
DIMSTYLE
  2
AM_ISO$7
 70
     0
  3

  4
"
  5

  6

  7

 40
1.0
 41
2.5
 42
1.0
 43
8.0
 44
0.6
 45
0.0
 46
0.0
 47
0.1
 48
0.1
140
2.5
141
0.0
142
0.0
143
0.0393701
144
1.0
145
0.0
146
0.71
147
0.8
 71
     0
 72
     0
 73
     0
 74
     0
 75
     0
 76
     0
 77
     1
 78
     8
170
     0
171
     2
172
     1
173
     0
174
     0
175
     0
176
   256
177
   256
178
     4
  0
DIMSTYLE
  2
AM_ISO$SF
 70
     0
  3

  4
"
  5

  6

  7

 40
1.0
 41
2.5
 42
1.0
 43
10.0
 44
1.0
 45
0.0
 46
0.0
 47
0.1
 48
0.1
140
3.5
141
0.0
142
0.0
143
0.0393701
144
1.0
145
0.0
146
0.71
147
1.5
 71
     0
 72
     0
 73
     0
 74
     0
 75
     1
 76
     1
 77
     1
 78
     8
170
     0
171
     2
172
     1
173
     0
174
     0
175
     0
176
   256
177
   256
178
     2
  0
DIMSTYLE
  2
AM_ISO$SH
 70
     0
  3

  4
"
  5

  6

  7

 40
1.0
 41
2.5
 42
1.0
 43
10.0
 44
1.0
 45
0.0
 46
0.0
 47
0.1
 48
0.1
140
3.5
141
0.0
142
0.0
143
0.0393701
144
2.0
145
0.0
146
0.71
147
1.5
 71
     0
 72
     0
 73
     0
 74
     0
 75
     1
 76
     1
 77
     1
 78
     8
170
     0
171
     2
172
     1
173
     1
174
     0
175
     0
176
   256
177
   256
178
     2
  0
DIMSTYLE
  2
AM_JIS
 70
     0
  3

  4
"
  5

  6

  7

 40
1.0
 41
2.5
 42
1.0
 43
7.0
 44
1.0
 45
0.0
 46
0.0
 47
0.1
 48
0.1000000001
140
2.5
141
0.0
142
0.0
143
0.0393701
144
1.0
145
0.0
146
0.71
147
1.0
 71
     0
 72
     0
 73
     0
 74
     0
 75
     0
 76
     0
 77
     3
 78
     8
170
     0
171
     2
172
     1
173
     0
174
     0
175
     0
176
   256
177
   256
178
     4
  0
DIMSTYLE
  2
AM_JIS$3
 70
     0
  3

  4
"
  5

  6

  7

 40
1.0
 41
2.5
 42
1.0
 43
7.0
 44
1.0
 45
0.0
 46
0.0
 47
0.1
 48
0.1000000001
140
2.5
141
0.0
142
0.0
143
0.0393701
144
1.0
145
0.0
146
0.71
147
1.0
 71
     0
 72
     0
 73
     0
 74
     1
 75
     0
 76
     0
 77
     3
 78
     8
170
     0
171
     2
172
     0
173
     0
174
     0
175
     0
176
   256
177
   256
178
     4
  0
DIMSTYLE
  2
AM_JIS$4
 70
     0
  3

  4
"
  5

  6

  7

 40
1.0
 41
2.5
 42
1.0
 43
7.0
 44
1.0
 45
0.0
 46
0.0
 47
0.1
 48
0.1000000001
140
2.5
141
0.0
142
0.0
143
0.0393701
144
1.0
145
0.0
146
0.71
147
1.0
 71
     0
 72
     0
 73
     0
 74
     0
 75
     0
 76
     0
 77
     3
 78
     8
170
     0
171
     2
172
     0
173
     0
174
     0
175
     0
176
   256
177
   256
178
     4
  0
DIMSTYLE
  2
AM_JIS$6
 70
     0
  3

  4
"
  5

  6

  7

 40
1.0
 41
2.5
 42
1.0
 43
7.0
 44
1.0
 45
0.0
 46
0.0
 47
0.1
 48
0.1000000001
140
2.5
141
0.0
142
0.0
143
0.0393701
144
1.0
145
0.0
146
0.71
147
1.0
 71
     0
 72
     0
 73
     0
 74
     0
 75
     0
 76
     0
 77
     0
 78
     8
170
     0
171
     2
172
     1
173
     0
174
     0
175
     0
176
   256
177
   256
178
     4
  0
DIMSTYLE
  2
AM_JIS$7
 70
     0
  3

  4
"
  5

  6

  7

 40
1.0
 41
2.5
 42
1.0
 43
7.0
 44
1.0
 45
0.0
 46
0.0
 47
0.1
 48
0.1000000001
140
2.5
141
0.0
142
0.0
143
0.0393701
144
1.0
145
0.0
146
0.71
147
1.0
 71
     0
 72
     0
 73
     0
 74
     0
 75
     0
 76
     0
 77
     3
 78
     8
170
     0
171
     2
172
     1
173
     0
174
     0
175
     0
176
   256
177
   256
178
     4
  0
DIMSTYLE
  2
AM_JIS$SF
 70
     0
  3

  4
"
  5

  6

  7

 40
1.0
 41
2.5
 42
1.0
 43
10.0
 44
1.0
 45
0.0
 46
0.0
 47
0.1
 48
0.1
140
3.5
141
0.0
142
0.0
143
0.0393701
144
1.0
145
0.0
146
0.71
147
1.5
 71
     0
 72
     0
 73
     0
 74
     0
 75
     1
 76
     1
 77
     3
 78
     8
170
     0
171
     2
172
     1
173
     0
174
     0
175
     0
176
   256
177
   256
178
     4
  0
DIMSTYLE
  2
AM_JIS$SH
 70
     0
  3

  4
"
  5

  6

  7

 40
1.0
 41
2.5
 42
1.0
 43
10.0
 44
1.0
 45
0.0
 46
0.0
 47
0.1
 48
0.1
140
3.5
141
0.0
142
0.0
143
0.0393701
144
1.0
145
0.0
146
0.71
147
1.5
 71
     0
 72
     0
 73
     0
 74
     0
 75
     1
 76
     0
 77
     3
 78
     8
170
     0
171
     2
172
     1
173
     1
174
     0
175
     0
176
   256
177
   256
178
     4
  0
DIMSTYLE
  2
AM_ANSI
 70
     0
  3

  4
mm
  5

  6

  7

 40
1.0
 41
0.1
 42
0.05
 43
0.5
 44
0.1
 45
0.0
 46
0.0
 47
0.1
 48
0.1
140
0.12
141
0.0
142
0.0
143
25.399999999999999
144
1.0
145
0.0
146
0.71
147
0.06
 71
     0
 72
     0
 73
     1
 74
     1
 75
     0
 76
     0
 77
     0
 78
     7
170
     0
171
     2
172
     0
173
     0
174
     0
175
     0
176
   256
177
   256
178
     2
  0
DIMSTYLE
  2
AM_ANSI$3
 70
     0
  3

  4
mm
  5

  6

  7

 40
1.0
 41
0.1
 42
0.05
 43
0.5
 44
0.1
 45
0.0
 46
0.0
 47
0.1
 48
0.1
140
0.12
141
0.0
142
0.0
143
25.399999999999999
144
1.0
145
0.0
146
0.71
147
0.06
 71
     0
 72
     0
 73
     1
 74
     1
 75
     0
 76
     0
 77
     0
 78
     7
170
     0
171
     2
172
     0
173
     0
174
     0
175
     0
176
   256
177
   256
178
     2
  0
DIMSTYLE
  2
AM_ANSI$4
 70
     0
  3

  4
mm
  5

  6

  7

 40
1.0
 41
0.1
 42
0.05
 43
0.5
 44
0.1
 45
0.0
 46
0.0
 47
0.1
 48
0.1
140
0.12
141
0.0
142
0.0
143
25.399999999999999
144
1.0
145
0.0
146
0.71
147
0.06
 71
     0
 72
     0
 73
     1
 74
     1
 75
     0
 76
     0
 77
     0
 78
     7
170
     0
171
     2
172
     0
173
     0
174
     0
175
     0
176
   256
177
   256
178
     2
  0
DIMSTYLE
  2
AM_ANSI$7
 70
     0
  3

  4
mm
  5

  6

  7

 40
1.0
 41
0.1
 42
0.05
 43
0.5
 44
0.1
 45
0.0
 46
0.0
 47
0.1
 48
0.1
140
0.24
141
0.0
142
0.0
143
25.399999999999999
144
1.0
145
0.0
146
0.71
147
0.06
 71
     0
 72
     0
 73
     1
 74
     1
 75
     0
 76
     0
 77
     0
 78
     7
170
     0
171
     2
172
     0
173
     0
174
     0
175
     0
176
   256
177
   256
178
     2
  0
DIMSTYLE
  2
AM_ANSI$SF
 70
     0
  3

  4
mm
  5

  6

  7

 40
1.0
 41
0.1
 42
0.05
 43
0.5
 44
0.1
 45
0.0
 46
0.0
 47
0.1
 48
0.1
140
0.12
141
0.0
142
0.0
143
25.399999999999999
144
1.0
145
0.0
146
0.71
147
0.06
 71
     0
 72
     0
 73
     1
 74
     1
 75
     1
 76
     1
 77
     0
 78
     7
170
     0
171
     2
172
     0
173
     0
174
     0
175
     0
176
   256
177
   256
178
     2
  0
DIMSTYLE
  2
AM_ANSI$SH
 70
     0
  3

  4
mm
  5

  6

  7

 40
1.0
 41
0.1
 42
0.05
 43
0.5
 44
0.1
 45
0.0
 46
0.0
 47
0.1
 48
0.1
140
0.12
141
0.0
142
0.0
143
25.399999999999999
144
1.0
145
0.0
146
0.71
147
0.06
 71
     0
 72
     0
 73
     1
 74
     1
 75
     1
 76
     1
 77
     0
 78
     7
170
     0
171
     2
172
     0
173
     1
174
     0
175
     0
176
   256
177
   256
178
     2
  0
ENDTAB
  0
ENDSEC
  0
SECTION
  2
BLOCKS
  0
BLOCK
  8
0
  2
$MODEL_SPACE
 70
     0
 10
0.0
 20
0.0
 30
0.0
  3
$MODEL_SPACE
  1

  0
ENDBLK
  5
30DE
  8
0
  0
BLOCK
 67
     1
  8
0
  2
$PAPER_SPACE
 70
     0
 10
0.0
 20
0.0
 30
0.0
  3
$PAPER_SPACE
  1

  0
ENDBLK
  5
30DA
 67
     1
  8
0
  0
BLOCK
  8
0
  2
GENAXEH
 70
     0
 10
0.0
 20
0.0
 30
0.0
  3
GENAXEH
  1

  0
LINE
  5
2DF8
  8
0
 10
-1.0
 20
0.0
 30
0.0
 11
1.0
 21
0.0
 31
0.0
  0
ENDBLK
  5
2DF9
  8
0
  0
BLOCK
  8
0
  2
_OPEN30
 70
     0
 10
0.0
 20
0.0
 30
0.0
  3
_OPEN30
  1

  0
LINE
  5
2DFC
  8
0
 62
     0
 10
-1.0
 20
0.26794919
 30
0.0
 11
0.0
 21
0.0
 31
0.0
  0
LINE
  5
2DFD
  8
0
 62
     0
 10
0.0
 20
0.0
 30
0.0
 11
-1.0
 21
-0.26794919
 31
0.0
  0
LINE
  5
2DFE
  8
0
 62
     0
 10
0.0
 20
0.0
 30
0.0
 11
-1.0
 21
0.0
 31
0.0
  0
ENDBLK
  5
2DFF
  8
0
  0
BLOCK
  8
0
  2
_NONE
 70
     0
 10
0.0
 20
0.0
 30
0.0
  3
_NONE
  1

  0
ENDBLK
  5
2E02
  8
0
  0
BLOCK
  8
0
  2
*U5
 70
     1
 10
0.0
 20
0.0
 30
0.0
  3
*U5
  1

  0
TEXT
  5
2E05
  8
AM_0
 62
     4
 10
430.47332206690322
 20
234.1780433840033
 30
0.0
 40
7.5
  1
\U+2205
 50
90.0
 41
0.8299999999999999
  0
TEXT
  5
2E06
  8
AM_0
 62
     4
 10
430.47332206690322
 20
240.40304338400321
 30
0.0
 40
7.5
  1
140
 50
90.0
 41
0.8299999999999999
  0
TEXT
  5
2E07
  8
AM_0
 62
     4
 10
430.47332206690322
 20
255.9655433840033
 30
0.0
 40
6.0
  1
h7
 50
90.0
 41
0.8299999999999999
  0
ENDBLK
  5
2E08
  8
0
  0
BLOCK
  8
0
  2
_ACMFILLEDHALF
 70
     0
 10
0.0
 20
0.0
 30
0.0
  3
_ACMFILLEDHALF
  1

  0
TRACE
  5
31D5
  8
AM_0
 62
     0
 10
-0.8
 20
0.0
 30
0.0
 11
-1.0
 21
0.166666666
 31
0.0
 12
0.0
 22
0.0
 32
0.0
 13
0.0
 23
0.0
 33
0.0
  0
LINE
  5
31D6
  8
AM_0
 62
     0
 10
-1.0
 20
0.0
 30
0.0
 11
-0.8
 21
0.0
 31
0.0
  0
ENDBLK
  5
31D4
  8
0
  0
ENDSEC
  0
SECTION
  2
ENTITIES
  0
LINE
  5
2E09
  8
AM_0
 10
356.48246804937622
 20
316.97181038400322
 30
0.0
 11
356.48246804937622
 21
246.97179338400329
 31
0.0
  0
LINE
  5
2E0A
  8
AM_0
 10
329.48246804937628
 20
311.20290038400321
 30
0.0
 11
329.48246804937628
 21
205.23648638400309
 31
0.0
  0
LINE
  5
2E0B
  8
AM_0
 10
352.48241804937618
 20
321.9717903840031
 30
0.0
 11
352.48241804937618
 21
177.06796838400319
 31
0.0
  0
LINE
  5
2E0C
  8
AM_0
 10
347.48246804937622
 20
306.47181038400322
 30
0.0
 11
347.48246804937622
 21
192.3564813840029
 31
0.0
  0
LINE
  5
2E0D
  8
AM_0
 10
297.48245804937631
 20
289.9717953840032
 30
0.0
 11
297.48245804937631
 21
165.1578723840033
 31
0.0
  0
LINE
  5
2E0E
  8
AM_0
 10
262.01799195530913
 20
278.50732928993591
 30
0.0
 11
241.41139023751069
 21
257.90072757213773
 31
0.0
  0
LINE
  5
2E0F
  8
AM_0
 10
291.48245804937631
 20
288.35344838400312
 30
0.0
 11
291.48245804937631
 21
273.97179638400308
 31
0.0
  0
LINE
  5
2E10
  8
AM_0
 10
263.48245804937619
 20
285.21041673803802
 30
0.0
 11
263.48245804937699
 21
174.7331740299685
 31
0.0
  0
LINE
  5
2E11
  8
AM_0
 10
273.48245804937608
 20
286.47179538400309
 30
0.0
 11
273.48245804937568
 21
173.47179538400309
 31
0.0
  0
LINE
  5
2E12
  8
ﾁｭｳｼﾝｾﾝ
 10
286.13303804937613
 20
246.97179338400329
 30
0.0
 11
389.21594804937632
 21
246.97179338400329
 31
0.0
  0
LINE
  5
2E13
  8
ﾁｭｳｼﾝｾﾝ
 10
185.2657074640484
 20
229.97179538400309
 30
0.0
 11
295.4460280493762
 21
229.97179538400309
 31
0.0
  0
LINE
  5
2E14
  8
AM_0
 10
291.48245804937631
 20
177.17990738400309
 30
0.0
 11
297.48245804937631
 21
177.17990738400309
 31
0.0
  0
LINE
  5
2E15
  8
AM_0
 10
286.94321804937613
 20
165.43386038400331
 30
0.0
 11
297.48245804937631
 21
165.1578723840033
 31
0.0
  0
LINE
  5
2E16
  8
AM_0
 10
285.48245804937631
 20
272.5786383840034
 30
0.0
 11
297.48245804937631
 21
272.5786383840034
 31
0.0
  0
LINE
  5
2E17
  8
AM_0
 10
262.01799195530913
 20
181.43626147807041
 30
0.0
 11
241.41139023751069
 21
202.04286319586839
 31
0.0
  0
LINE
  5
2E18
  8
AM_0
 10
291.48245804937631
 20
179.17990838400311
 30
0.0
 11
291.48245804937631
 21
229.97179538400309
 31
0.0
  0
LINE
  5
2E19
  8
AM_0
 10
285.48245804937631
 20
177.6013713840033
 30
0.0
 11
285.48245804937631
 21
166.93334138400331
 31
0.0
  0
ARC
  5
2E1A
  8
AM_0
 10
286.98245804937631
 20
166.93334138400331
 30
0.0
 40
1.5000000299999969
 50
179.9999899999988
 51
268.50000999999992
  0
LINE
  5
2E1B
  8
AM_0
 10
273.48245804937608
 20
183.9717783840033
 30
0.0
 11
291.48245804937631
 21
183.9717783840033
 31
0.0
  0
LINE
  5
2E1C
  8
AM_0
 10
273.48239804937629
 20
173.97177638400331
 30
0.0
 11
284.02169804937631
 21
173.69580638400311
 31
0.0
  0
ARC
  5
2E1D
  8
AM_0
 10
258.48245804937631
 20
177.90072757213781
 30
0.0
 40
5.0
 50
0.0
 51
45.000000000000227
1001
GENIUS_GENODEF_13
1002
{
1000
HIER
1070
     0
1002
}
1002
{
1000
MANEDIT
1070
     0
1002
}
1002
{
1000
NOSEL
1070
     0
1002
}
1002
{
1000
BEHIND
1070
     0
1002
}
1002
{
1000
OTHER
1070
     0
1002
}
1002
{
1000
REACTOR
1002
}
1001
GENIUS_GENOBJ-N-FIL_13
1002
{
1000
OWNER
1000
GEN
1002
}
  0
LINE
  5
2E1E
  8
AM_0
 10
264.45347485609301
 20
173.7335941309571
 30
0.0
 11
273.48245804937608
 21
173.47179538400309
 31
0.0
  0
ARC
  5
2E1F
  8
AM_0
 10
264.48245804937631
 20
174.7331740299685
 30
0.0
 40
1.0
 50
180.0
 51
268.33915276702561
1001
GENIUS_GENOBJ-N-FIL_13
1002
{
1000
OWNER
1000
GEN
1002
}
1001
GENIUS_GENODEF_13
1002
{
1000
HIER
1070
     0
1002
}
1002
{
1000
MANEDIT
1070
     0
1002
}
1002
{
1000
NOSEL
1070
     0
1002
}
1002
{
1000
BEHIND
1070
     0
1002
}
1002
{
1000
OTHER
1070
     0
1002
}
1002
{
1000
REACTOR
1002
}
  0
ARC
  5
2E20
  8
AM_0
 10
283.48244804937627
 20
177.6013713840033
 30
0.0
 40
2.00000007
 50
0.0
 51
90.000003000000007
  0
ARC
  5
2E21
  8
AM_0
 10
283.98245804937631
 20
172.1963253840033
 30
0.0
 40
1.5000000299999969
 50
0.0
 51
88.499996999999894
  0
ARC
  5
2E22
  8
AM_0
 10
289.48244804937627
 20
179.17990838400311
 30
0.0
 40
2.00000007
 50
270.0
 51
0.0
  0
LINE
  5
2E23
  8
AM_0
 10
285.48245804937631
 20
179.6013843840031
 30
0.0
 11
291.48245804937631
 21
179.6013843840031
 31
0.0
  0
LINE
  5
2E24
  8
AM_0
 10
219.98245804937631
 20
254.97179538400309
 30
0.0
 11
234.3403224256451
 21
254.97179538400309
 31
0.0
  0
LINE
  5
2E25
  8
AM_0
 10
219.98245804937631
 20
204.97179538400309
 30
0.0
 11
234.3403224256451
 21
204.97179538400309
 31
0.0
  0
LINE
  5
2E26
  8
AM_0
 10
213.98245804937631
 20
237.47179538400309
 30
0.0
 11
213.98245804937631
 21
222.47178775460861
 31
0.0
  0
LINE
  5
2E27
  8
AM_0
 10
188.98245804937631
 20
237.47179538400309
 30
0.0
 11
188.98245804937631
 21
223.97179538400309
 31
0.0
  0
LINE
  5
2E28
  8
AM_0
 10
217.98245804937611
 20
206.97179538400309
 30
0.0
 11
217.98245804937631
 21
252.97179538400309
 31
0.0
  0
LINE
  5
2E29
  8
AM_0
 10
215.98245804937631
 20
244.1433682592569
 30
0.0
 11
215.98245804937631
 21
215.80022250874919
 31
0.0
  0
LINE
  5
2E2A
  8
AM_0
 10
188.98245804937631
 20
223.97179538400309
 30
0.0
 11
213.98245804937631
 21
223.97179538400309
 31
0.0
  0
ARC
  5
2E2B
  8
AM_0
 10
215.98245804937631
 20
212.1433682592569
 30
0.0
 40
2.0
 50
0.0
 51
45.000000000000519
1001
GENIUS_GENODEF_13
1002
{
1000
HIER
1070
     0
1002
}
1002
{
1000
MANEDIT
1070
     0
1002
}
1002
{
1000
NOSEL
1070
     0
1002
}
1002
{
1000
BEHIND
1070
     0
1002
}
1002
{
1000
OTHER
1070
     0
1002
}
1002
{
1000
REACTOR
1002
}
1001
GENIUS_GENOBJ-N-FIL_13
1002
{
1000
OWNER
1000
GEN
1002
}
  0
ARC
  5
2E2C
  8
AM_0
 10
219.98245804937631
 20
206.97179538400309
 30
0.0
 40
2.0
 50
180.0
 51
270.0
1001
GENIUS_GENODEF_13
1002
{
1000
HIER
1070
     0
1002
}
1002
{
1000
MANEDIT
1070
     0
1002
}
1002
{
1000
NOSEL
1070
     0
1002
}
1002
{
1000
BEHIND
1070
     0
1002
}
1002
{
1000
OTHER
1070
     0
1002
}
1002
{
1000
REACTOR
1002
}
1001
GENIUS_GENOBJ-N-FIL_13
1002
{
1000
OWNER
1000
GEN
1002
}
  0
LINE
  5
2E2D
  8
AM_0
 10
213.98245804937631
 20
222.47178775460861
 30
0.0
 11
215.98245804937631
 21
222.47178775460861
 31
0.0
  0
ARC
  5
2E2E
  8
AM_0
 10
217.98245804937631
 20
215.80022250874919
 30
0.0
 40
2.0
 50
180.0
 51
225.0000000000004
1001
GENIUS_GENODEF_13
1002
{
1000
HIER
1070
     0
1002
}
1002
{
1000
MANEDIT
1070
     0
1002
}
1002
{
1000
NOSEL
1070
     0
1002
}
1002
{
1000
BEHIND
1070
     0
1002
}
1002
{
1000
OTHER
1070
     0
1002
}
1002
{
1000
REACTOR
1002
}
1001
GENIUS_GENOBJ-N-FIL_13
1002
{
1000
OWNER
1000
GEN
1002
}
  0
LINE
  5
2E2F
  8
AM_0
 10
216.56824448700311
 20
214.38600894637631
 30
0.0
 11
217.39667161174941
 21
213.55758182163009
 31
0.0
  0
LINE
  5
2E30
  8
AM_0
 10
188.98245804937631
 20
235.97179538400309
 30
0.0
 11
213.98245804937631
 21
235.97179538400309
 31
0.0
  0
LINE
  5
2E31
  8
AM_0
 10
188.98245804937631
 20
237.47179538400309
 30
0.0
 11
206.98245804937611
 21
237.47179538400309
 31
0.0
  0
LINE
  5
2E32
  8
AM_0
 10
206.98245804937611
 20
237.47179538400309
 30
0.0
 11
206.98245804937611
 21
235.97179538400309
 31
0.0
  0
ARC
  5
2E33
  8
AM_0
 10
217.98245804937631
 20
244.1433682592569
 30
0.0
 40
2.0
 50
134.9999999999994
 51
180.0
1001
GENIUS_GENODEF_13
1002
{
1000
HIER
1070
     0
1002
}
1002
{
1000
MANEDIT
1070
     0
1002
}
1002
{
1000
NOSEL
1070
     0
1002
}
1002
{
1000
BEHIND
1070
     0
1002
}
1002
{
1000
OTHER
1070
     0
1002
}
1002
{
1000
REACTOR
1002
}
1001
GENIUS_GENOBJ-N-FIL_13
1002
{
1000
OWNER
1000
GEN
1002
}
  0
LINE
  5
2E34
  8
AM_0
 10
213.98245804937631
 20
237.47179538400309
 30
0.0
 11
215.98245804937631
 21
237.47179538400309
 31
0.0
  0
ARC
  5
2E35
  8
AM_0
 10
219.98245804937631
 20
252.97179538400309
 30
0.0
 40
2.0
 50
90.0
 51
180.0
1001
GENIUS_GENODEF_13
1002
{
1000
HIER
1070
     0
1002
}
1002
{
1000
MANEDIT
1070
     0
1002
}
1002
{
1000
NOSEL
1070
     0
1002
}
1002
{
1000
BEHIND
1070
     0
1002
}
1002
{
1000
OTHER
1070
     0
1002
}
1002
{
1000
REACTOR
1002
}
1001
GENIUS_GENOBJ-N-FIL_13
1002
{
1000
OWNER
1000
GEN
1002
}
  0
LINE
  5
2E36
  8
AM_0
 10
216.56824448700311
 20
245.5575818216299
 30
0.0
 11
217.39667161174941
 21
246.38600894637599
 31
0.0
  0
ARC
  5
2E37
  8
AM_0
 10
215.98245804937631
 20
247.8002225087493
 30
0.0
 40
2.0
 50
314.99999999999949
 51
0.0
1001
GENIUS_GENODEF_13
1002
{
1000
HIER
1070
     0
1002
}
1002
{
1000
MANEDIT
1070
     0
1002
}
1002
{
1000
NOSEL
1070
     0
1002
}
1002
{
1000
BEHIND
1070
     0
1002
}
1002
{
1000
OTHER
1070
     0
1002
}
1002
{
1000
REACTOR
1002
}
1001
GENIUS_GENOBJ-N-FIL_13
1002
{
1000
OWNER
1000
GEN
1002
}
  0
LINE
  5
2E38
  8
AM_0
 10
238.48245804937611
 20
254.97179538400309
 30
0.0
 11
238.48245804937611
 21
204.97179538400309
 31
0.0
  0
LINE
  5
2E39
  8
AM_0
 10
291.48245804937631
 20
269.84542238400331
 30
0.0
 11
291.48245804937631
 21
229.97179538400309
 31
0.0
  0
ARC
  5
2E3A
  8
AM_0
 10
234.3403224256451
 20
194.97179538400309
 30
0.0
 40
10.0
 50
45.000000000000227
 51
90.0
1001
GENIUS_GENOBJ-N-FIL_13
1002
{
1000
OWNER
1000
GEN
1002
}
1001
GENIUS_GENODEF_13
1002
{
1000
HIER
1070
     0
1002
}
1002
{
1000
MANEDIT
1070
     0
1002
}
1002
{
1000
NOSEL
1070
     0
1002
}
1002
{
1000
BEHIND
1070
     0
1002
}
1002
{
1000
OTHER
1070
     0
1002
}
1002
{
1000
REACTOR
1002
}
  0
LINE
  5
2E3B
  8
AM_0
 10
273.48245804937608
 20
198.03435338400311
 30
0.0
 11
291.48245804937631
 21
198.03435338400311
 31
0.0
  0
ARC
  5
2E3C
  8
AM_0
 10
234.3403224256451
 20
264.9717953840032
 30
0.0
 40
10.0
 50
270.0
 51
314.99999999999972
1001
GENIUS_GENODEF_13
1002
{
1000
HIER
1070
     0
1002
}
1002
{
1000
MANEDIT
1070
     0
1002
}
1002
{
1000
NOSEL
1070
     0
1002
}
1002
{
1000
BEHIND
1070
     0
1002
}
1002
{
1000
OTHER
1070
     0
1002
}
1002
{
1000
REACTOR
1002
}
1001
GENIUS_GENOBJ-N-FIL_13
1002
{
1000
OWNER
1000
GEN
1002
}
  0
LINE
  5
2E3D
  8
AM_0
 10
285.48245804937631
 20
273.97179638400308
 30
0.0
 11
285.48245804937631
 21
255.75450938400309
 31
0.0
  0
LINE
  5
2E3E
  8
AM_0
 10
285.48245804937631
 20
255.75450938400309
 30
0.0
 11
291.48245804937631
 21
255.75450938400309
 31
0.0
  0
LINE
  5
2E3F
  8
AM_0
 10
273.48245804937608
 20
261.9092343840033
 30
0.0
 11
285.48245804937631
 21
261.9092343840033
 31
0.0
  0
LINE
  5
2E40
  8
AM_0
 10
273.48245804937608
 20
275.9717943840032
 30
0.0
 11
291.48245804937631
 21
275.9717943840032
 31
0.0
  0
LINE
  5
2E41
  8
AM_0
 10
285.48245804937631
 20
273.97179638400308
 30
0.0
 11
291.48245804937631
 21
273.97179638400308
 31
0.0
  0
ARC
  5
2E42
  8
AM_0
 10
345.48245804937631
 20
192.3564813840029
 30
0.0
 40
2.00000007
 50
267.99999999999972
 51
0.0
  0
LINE
  5
2E43
  8
AM_0
 10
342.48245804937619
 20
179.34856238400309
 30
0.0
 11
342.48245804937619
 21
206.43678938400319
 31
0.0
  0
LINE
  5
2E44
  8
AM_0
 10
356.48246804937622
 20
246.97179338400329
 30
0.0
 11
356.48246804937622
 21
181.47177638400331
 31
0.0
  0
LINE
  5
2E45
  8
AM_0
 10
297.48245804937631
 20
177.19115438400311
 30
0.0
 11
333.48245804937631
 21
177.19115438400311
 31
0.0
  0
LINE
  5
2E46
  8
AM_0
 10
297.48245804937631
 20
165.1578723840033
 30
0.0
 11
333.482488049376
 21
163.90071638400309
 31
0.0
  0
LINE
  5
2E47
  8
AM_0
 10
333.48245804937631
 20
180.1705683840033
 30
0.0
 11
333.48245804937631
 21
163.9717773840033
 31
0.0
  0
ARC
  5
2E48
  8
AM_0
 10
327.96794804937628
 20
171.76737038400299
 30
0.0
 40
9.5144921999999994
 50
342.41195999999991
 51
17.588032999999321
  0
LINE
  5
2E49
  8
AM_0
 10
337.48241804937618
 20
176.0798703840031
 30
0.0
 11
337.48241804937618
 21
167.45485538400311
 31
0.0
  0
LINE
  5
2E4A
  8
AM_0
 10
337.03766804937618
 20
168.8923713840033
 30
0.0
 11
333.48245804937631
 21
168.8923713840033
 31
0.0
  0
LINE
  5
2E4B
  8
AM_0
 10
337.03766804937618
 20
166.0173693840033
 30
0.0
 11
333.48245804937631
 21
166.0173693840033
 31
0.0
  0
ARC
  5
2E4C
  8
AM_0
 10
334.93703804937638
 20
167.45485538400311
 30
0.0
 40
2.5454064299999981
 50
325.6155700000017
 51
34.384439000000079
  0
ARC
  5
2E4D
  8
AM_0
 10
344.48246804937622
 20
179.34856238400309
 30
0.0
 40
2.00000007
 50
179.9999899999988
 51
268.00000999999992
  0
ARC
  5
2E4E
  8
AM_0
 10
334.48241804937612
 20
179.89536038400311
 30
0.0
 40
1.0000000199999981
 50
91.500000999999955
 51
180.00001000000091
  0
LINE
  5
2E4F
  8
AM_0
 10
337.03766804937618
 20
174.64238738400309
 30
0.0
 11
333.48245804937631
 21
174.64238738400309
 31
0.0
  0
LINE
  5
2E50
  8
AM_0
 10
337.03766804937618
 20
177.5173713840031
 30
0.0
 11
333.48245804937631
 21
177.5173713840031
 31
0.0
  0
ARC
  5
2E51
  8
AM_0
 10
334.93703804937638
 20
176.0798703840031
 30
0.0
 40
2.5454064299999981
 50
325.6155700000017
 51
34.384439000000079
  0
LINE
  5
2E52
  8
AM_0
 10
334.45625804937612
 20
180.89499638400309
 30
0.0
 11
342.48245804937619
 21
181.10517038400309
 31
0.0
  0
LINE
  5
2E53
  8
AM_0
 10
344.4126880493763
 20
177.34976738400309
 30
0.0
 11
352.48241804937618
 21
177.06796838400319
 31
0.0
  0
LINE
  5
2E54
  8
AM_0
 10
352.48244804937622
 20
181.36702538400311
 30
0.0
 11
356.48246804937622
 21
181.47177638400331
 31
0.0
  0
LINE
  5
2E55
  8
AM_0
 10
359.4824380493763
 20
256.4717943840032
 30
0.0
 11
387.48245804937631
 21
256.4717943840032
 31
0.0
  0
LINE
  5
2E56
  8
AM_0
 10
359.4824380493763
 20
237.47179538400309
 30
0.0
 11
387.48245804937631
 21
237.47179538400309
 31
0.0
  0
LINE
  5
2E57
  8
AM_0
 10
357.48245804937631
 20
265.99764338400331
 30
0.0
 11
357.48245804937631
 21
227.7273633840033
 31
0.0
  0
ARC
  5
2E58
  8
AM_0
 10
344.48246804937622
 20
206.43678938400319
 30
0.0
 40
2.00000007
 50
90.000003000000007
 51
180.00001000000091
  0
ARC
  5
2E59
  8
AM_0
 10
334.48241804937612
 20
205.23648638400309
 30
0.0
 40
5.0000001000000003
 50
179.9999899999988
 51
270.0
  0
LINE
  5
2E5A
  8
AM_0
 10
334.48241804937612
 20
200.2365033840033
 30
0.0
 11
342.48245804937619
 21
200.2365033840033
 31
0.0
  0
ARC
  5
2E5B
  8
AM_0
 10
355.48241804937629
 20
227.7273633840033
 30
0.0
 40
2.00000007
 50
314.99999999999972
 51
0.0
  0
LINE
  5
2E5C
  8
AM_0
 10
356.48246804937622
 20
225.89890238400329
 30
0.0
 11
356.89667804937631
 21
226.31311838400319
 31
0.0
  0
LINE
  5
2E5D
  8
AM_0
 10
297.48245804937631
 20
272.5786383840034
 30
0.0
 11
327.67847804937588
 21
272.5786383840034
 31
0.0
  0
LINE
  5
2E5E
  8
AM_0
 10
359.4824380493763
 20
256.9717953840032
 30
0.0
 11
359.4824380493763
 21
246.97179338400329
 31
0.0
  0
LINE
  5
2E5F
  8
AM_0
 10
359.4824380493763
 20
236.97180938400331
 30
0.0
 11
359.4824380493763
 21
246.97179338400329
 31
0.0
  0
LINE
  5
2E60
  8
AM_0
 10
357.48245804937631
 20
236.97180938400331
 30
0.0
 11
359.4824380493763
 21
236.97180938400331
 31
0.0
  0
ARC
  5
2E61
  8
AM_0
 10
355.48241804937629
 20
266.07048938400328
 30
0.0
 40
2.00000007
 50
0.0
 51
45.000001000002129
  0
LINE
  5
2E62
  8
AM_0
 10
357.48245804937631
 20
256.9717953840032
 30
0.0
 11
359.4824380493763
 21
256.9717953840032
 31
0.0
  0
LINE
  5
2E63
  8
AM_0
 10
356.48246804937622
 20
267.89895038400317
 30
0.0
 11
356.89667804937631
 21
267.48470438400341
 31
0.0
  0
LINE
  5
2E64
  8
AM_0
 10
387.48245804937631
 20
237.47179538400309
 30
0.0
 11
387.48245804937631
 21
258.97179538400331
 31
0.0
  0
LINE
  5
2E65
  8
AM_0
 10
365.4824380493763
 20
258.97179538400331
 30
0.0
 11
387.48245804937631
 21
258.97179538400331
 31
0.0
  0
LINE
  5
2E66
  8
AM_0
 10
365.4824380493763
 20
256.4717943840032
 30
0.0
 11
365.4824380493763
 21
258.97179538400331
 31
0.0
  0
LINE
  5
2E67
  8
AM_0
 10
292.94321804937618
 20
289.85295938400321
 30
0.0
 11
297.48245804937631
 21
289.9717953840032
 31
0.0
  0
LINE
  5
2E68
  8
AM_0
 10
273.48245804937608
 20
285.97179638400308
 30
0.0
 11
290.0216980493762
 21
286.4049003840031
 31
0.0
  0
LINE
  5
2E69
  8
AM_0
 10
264.45347485609301
 20
286.20999663704907
 30
0.0
 11
273.48245804937608
 21
286.47179538400309
 31
0.0
  0
ARC
  5
2E6A
  8
AM_0
 10
264.48245804937631
 20
285.21041673803802
 30
0.0
 40
1.0
 50
91.660847232974191
 51
180.0
1001
GENIUS_GENOBJ-N-FIL_13
1002
{
1000
OWNER
1000
GEN
1002
}
1001
GENIUS_GENODEF_13
1002
{
1000
HIER
1070
     0
1002
}
1002
{
1000
MANEDIT
1070
     0
1002
}
1002
{
1000
NOSEL
1070
     0
1002
}
1002
{
1000
BEHIND
1070
     0
1002
}
1002
{
1000
OTHER
1070
     0
1002
}
1002
{
1000
REACTOR
1002
}
  0
ARC
  5
2E6B
  8
AM_0
 10
258.48245804937631
 20
282.04286319586862
 30
0.0
 40
5.0
 50
314.99999999999972
 51
0.0
1001
GENIUS_GENODEF_13
1002
{
1000
HIER
1070
     0
1002
}
1002
{
1000
MANEDIT
1070
     0
1002
}
1002
{
1000
NOSEL
1070
     0
1002
}
1002
{
1000
BEHIND
1070
     0
1002
}
1002
{
1000
OTHER
1070
     0
1002
}
1002
{
1000
REACTOR
1002
}
1001
GENIUS_GENOBJ-N-FIL_13
1002
{
1000
OWNER
1000
GEN
1002
}
  0
ARC
  5
2E6C
  8
AM_0
 10
289.98245804937631
 20
287.90438138400322
 30
0.0
 40
1.5000000299999969
 50
271.49999999999972
 51
0.0
  0
ARC
  5
2E6D
  8
AM_0
 10
292.98245804937631
 20
288.35344838400312
 30
0.0
 40
1.5000000299999969
 50
91.500000999999955
 51
180.00001000000091
  0
ARC
  5
2E6E
  8
AM_0
 10
344.48246804937622
 20
319.6912203840032
 30
0.0
 40
2.00000007
 50
91.999997999999948
 51
180.00001000000091
  0
ARC
  5
2E6F
  8
AM_0
 10
326.48246804937628
 20
293.7322023840033
 30
0.0
 40
3.0
 50
271.49999999999972
 51
0.0
  0
LINE
  5
2E70
  8
AM_0
 10
297.48245804937631
 20
289.9717953840032
 30
0.0
 11
326.56097804937627
 21
290.73324038400312
 31
0.0
  0
LINE
  5
2E71
  8
AM_0
 10
342.48245804937619
 20
319.6912203840032
 30
0.0
 11
342.48245804937619
 21
287.41216538400312
 31
0.0
  0
ARC
  5
2E72
  8
AM_0
 10
344.48246804937622
 20
287.41216538400312
 30
0.0
 40
2.00000007
 50
179.9999899999988
 51
271.51463999999999
  0
LINE
  5
2E73
  8
AM_0
 10
334.30799804937618
 20
316.19988038400311
 30
0.0
 11
339.5871580493764
 21
316.38423038400322
 31
0.0
  0
ARC
  5
2E74
  8
AM_0
 10
334.48241804937612
 20
311.20290038400321
 30
0.0
 40
5.0000001000000003
 50
91.999997999999948
 51
180.00001000000091
  0
ARC
  5
2E75
  8
AM_0
 10
339.48245804937631
 20
319.38240038400318
 30
0.0
 40
3.0
 50
272.0
 51
0.0
  0
ARC
  5
2E76
  8
AM_0
 10
344.48246804937622
 20
306.47181038400322
 30
0.0
 40
3.0
 50
0.0
 51
90.000003000000007
  0
LINE
  5
2E77
  8
AM_0
 10
352.48241804937618
 20
316.97181038400322
 30
0.0
 11
356.48246804937622
 21
316.97181038400322
 31
0.0
  0
LINE
  5
2E78
  8
AM_0
 10
344.41265804937632
 20
321.69000038400321
 30
0.0
 11
352.48244804937622
 21
321.9717903840031
 31
0.0
  0
LINE
  5
2E79
  8
ﾁｭｳｼﾝｾﾝ
 10
547.54109164850149
 20
160.30002338400311
 30
0.0
 11
547.54109164850149
 21
326.41218265646881
 31
0.0
  0
LINE
  5
2E7A
  8
AM_0
 10
622.54109464850137
 20
266.97176438400322
 30
0.0
 11
618.84765964850135
 21
309.1879503840031
 31
0.0
  0
LINE
  5
2E7B
  8
AM_0
 10
569.19200164850145
 20
271.45113638400329
 30
0.0
 11
590.53409164850154
 21
292.79320838400321
 31
0.0
  0
LINE
  5
2E7C
  8
AM_0
 10
572.02043464850135
 20
268.62270638400332
 30
0.0
 11
593.36252164850146
 21
289.96477838400318
 31
0.0
  0
ARC
  5
2E7D
  8
AM_0
 10
547.54109164850149
 20
246.97179338400329
 30
0.0
 40
44.000000999999983
 50
137.5473200000005
 51
174.5058099999971
  0
LINE
  5
2E7E
  8
AM_0
 10
472.54108564850151
 20
266.97176438400322
 30
0.0
 11
476.23453564850121
 21
309.1879503840031
 31
0.0
  0
LINE
  5
2E7F
  8
AM_0
 10
523.06175164850163
 20
268.62270638400332
 30
0.0
 11
501.71968564850118
 21
289.96474538400321
 31
0.0
  0
LINE
  5
2E80
  8
AM_0
 10
525.89018164850165
 20
271.45113638400329
 30
0.0
 11
504.54811564850132
 21
292.79317538400312
 31
0.0
  0
ARC
  5
2E81
  8
AM_0
 10
547.54109164850149
 20
246.97179338400329
 30
0.0
 40
70.000001999999995
 50
290.65615000000082
 51
249.3438399999994
  0
ARC
  5
2E82
  8
AM_0
 10
547.54109164850149
 20
246.97179338400329
 30
0.0
 40
66.000003000000007
 50
291.27996000000093
 51
248.72002999999879
  0
LINE
  5
2E83
  8
ﾁｭｳｼﾝｾﾝ
 10
591.46383016830043
 20
229.97179538400309
 30
0.0
 11
503.61835312870232
 21
229.97179538400309
 31
0.0
  0
LINE
  5
2E84
  8
ﾁｭｳｼﾝｾﾝ
 10
471.10306564850129
 20
246.97179338400329
 30
0.0
 11
626.27152257503474
 21
246.97179338400329
 31
0.0
  0
ARC
  5
2E85
  8
AM_0
 10
547.54109164850149
 20
246.97179338400329
 30
0.0
 40
30.0
 50
17.592214000001871
 51
225.82602999999881
  0
ARC
  5
2E86
  8
AM_0
 10
547.54109164850149
 20
246.97179338400329
 30
0.0
 40
20.000000700000001
 50
90.000003000000007
 51
270.0
  0
ARC
  5
2E87
  8
AM_0
 10
547.54109164850149
 20
246.97179338400329
 30
0.0
 40
20.000000700000001
 50
270.0
 51
90.000003000000007
  0
ARC
  5
2E88
  8
AM_0
 10
547.54109164850149
 20
246.97179338400329
 30
0.0
 40
20.000000700000001
 50
90.000003000000007
 51
270.0
  0
ARC
  5
2E89
  8
AM_0
 10
547.54109164850149
 20
246.97179338400329
 30
0.0
 40
20.000000700000001
 50
270.0
 51
90.000003000000007
  0
LINE
  5
2E8A
  8
AM_0
 10
523.4320236485014
 20
164.7673713840033
 30
0.0
 11
571.6501476485015
 21
164.7673713840033
 31
0.0
  0
LINE
  5
2E8B
  8
AM_0
 10
555.15431464850155
 20
197.74722938400311
 30
0.0
 11
526.63590964850152
 21
225.4549623840031
 31
0.0
  0
LINE
  5
2E8C
  8
AM_0
 10
512.21757364850123
 20
181.47177638400331
 30
0.0
 11
547.54109164850149
 21
181.47177638400331
 31
0.0
  0
LINE
  5
2E8D
  8
AM_0
 10
517.84260664850126
 20
214.4448633840033
 30
0.0
 11
541.69438264850157
 21
190.5930993840033
 31
0.0
  0
LINE
  5
2E8E
  8
AM_0
 10
571.49417164850138
 20
185.4717783840033
 30
0.0
 11
523.58802964850145
 21
185.4717783840033
 31
0.0
  0
CIRCLE
  5
2E8F
  8
AM_0
 10
487.43701564850141
 20
186.8676963840029
 30
0.0
 40
5.0000001000000003
  0
LINE
  5
2E90
  8
AM_7
 10
495.2108256485015
 20
194.64148538400329
 30
0.0
 11
480.0626256485013
 21
179.4932913840031
 31
0.0
  0
LINE
  5
2E91
  8
AM_0
 10
472.54108564850151
 20
226.9717623840032
 30
0.0
 11
476.20438564850122
 21
185.10021038400311
 31
0.0
  0
ARC
  5
2E92
  8
AM_7
 10
547.54109164850149
 20
246.97179338400329
 30
0.0
 40
85.000001999999981
 50
215.69552999999749
 51
234.1425800000012
  0
LINE
  5
2E93
  8
AM_0
 10
509.04216064850141
 20
175.9717773840033
 30
0.0
 11
486.16630564850141
 21
175.9717773840033
 31
0.0
  0
ARC
  5
2E94
  8
AM_0
 10
486.16630564850141
 20
185.97177638400331
 30
0.0
 40
10.000000200000001
 50
184.9999899999992
 51
270.0
  0
ARC
  5
2E95
  8
AM_0
 10
523.4320236485014
 20
171.76735538400311
 30
0.0
 40
7.0000007999999987
 50
161.74801999999809
 51
270.0
  0
CIRCLE
  5
2E96
  8
AM_0
 10
523.4320236485014
 20
171.76738538400309
 30
0.0
 40
4.9999998000000003
  0
LINE
  5
2E97
  8
AM_0
 10
518.43205264850155
 20
174.6541353840031
 30
0.0
 11
518.43205264850155
 21
168.88060538400319
 31
0.0
  0
LINE
  5
2E98
  8
AM_0
 10
528.4320216485014
 20
168.88060538400319
 30
0.0
 11
528.4320216485014
 21
174.6541353840031
 31
0.0
  0
LINE
  5
2E99
  8
AM_0
 10
523.4320236485014
 20
165.993903384003
 30
0.0
 11
528.4320216485014
 21
168.88065038400299
 31
0.0
  0
LINE
  5
2E9A
  8
AM_0
 10
518.43205264850155
 20
168.88062038400309
 30
0.0
 11
523.43205364850144
 21
165.993870384003
 31
0.0
  0
ARC
  5
2E9B
  8
AM_0
 10
512.03578264850137
 20
175.52573138400319
 30
0.0
 40
5.0000001000000003
 50
341.74801999999801
 51
56.890859000000702
  0
LINE
  5
2E9C
  8
AM_0
 10
509.04216064850141
 20
175.9717773840033
 30
0.0
 11
512.21757364850123
 21
181.47177638400331
 31
0.0
  0
ARC
  5
2E9D
  8
AM_0
 10
547.54109164850149
 20
229.9717803840031
 30
0.0
 40
60.000002999999992
 50
233.9334099999981
 51
236.8908499999998
  0
LINE
  5
2E9E
  8
AM_0
 10
528.4320216485014
 20
174.65412038400311
 30
0.0
 11
523.43205364850144
 21
177.54087038400311
 31
0.0
  0
LINE
  5
2E9F
  8
AM_0
 10
523.4320236485014
 20
177.5408853840031
 30
0.0
 11
518.4320226485014
 21
174.6541353840031
 31
0.0
  0
ARC
  5
2EA0
  8
AM_0
 10
547.54109164850149
 20
246.97179338400329
 30
0.0
 40
44.000000999999983
 50
185.4941900000025
 51
222.45267999999919
  0
LINE
  5
2EA1
  8
AM_0
 10
472.54108564850151
 20
246.97179338400329
 30
0.0
 11
472.54108564850151
 21
226.9717803840033
 31
0.0
  0
ARC
  5
2EA2
  8
AM_0
 10
499.59838564850122
 20
206.10010538400309
 30
0.0
 40
3.0
 50
220.44791999999919
 51
314.99999999999972
  0
LINE
  5
2EA3
  8
AM_0
 10
525.66932764850151
 20
222.27158438400309
 30
0.0
 11
504.54811564850132
 21
201.1503513840033
 31
0.0
  0
LINE
  5
2EA4
  8
AM_0
 10
523.06175164850163
 20
225.32086838400321
 30
0.0
 11
501.71968564850118
 21
203.97878138400301
 31
0.0
  0
ARC
  5
2EA5
  8
AM_0
 10
506.66941864850128
 20
199.02903038400331
 30
0.0
 40
3.0
 50
134.9999999999996
 51
229.5520799999984
  0
ARC
  5
2EA6
  8
AM_0
 10
527.79066664850154
 20
220.15027538400329
 30
0.0
 40
3.0
 50
45.826031000001933
 51
134.9999999999996
  0
ARC
  5
2EA7
  8
AM_0
 10
520.94041564850124
 20
227.44219238400331
 30
0.0
 40
3.0
 50
314.99999999999972
 51
36.285257000000378
  0
CIRCLE
  5
2EA8
  8
AM_0
 10
497.55982564850149
 20
268.32375338400328
 30
0.0
 40
4.9999998000000003
  0
LINE
  5
2EA9
  8
AM_0
 10
484.70200564850143
 20
248.4717933840034
 30
0.0
 11
500.75701564850152
 21
248.4717933840034
 31
0.0
  0
LINE
  5
2EAA
  8
AM_0
 10
484.70200564850143
 20
245.47179338400321
 30
0.0
 11
500.75701564850152
 21
245.47179338400321
 31
0.0
  0
LINE
  5
2EAB
  8
AM_0
 10
497.55982564850149
 20
262.55025638400309
 30
0.0
 11
502.55983564850141
 21
265.4370063840031
 31
0.0
  0
LINE
  5
2EAC
  8
AM_0
 10
502.55983564850141
 20
271.21050338400312
 30
0.0
 11
497.55982564850149
 21
274.09725338400312
 31
0.0
  0
LINE
  5
2EAD
  8
AM_0
 10
472.54108564850151
 20
246.97179338400329
 30
0.0
 11
472.54108564850151
 21
266.97176438400322
 31
0.0
  0
ARC
  5
2EAE
  8
AM_0
 10
484.70200564850143
 20
251.47179638400311
 30
0.0
 40
3.0
 50
175.90394999999879
 51
270.0
  0
ARC
  5
2EAF
  8
AM_0
 10
484.70200564850143
 20
242.47179338400329
 30
0.0
 40
3.0
 50
90.000003000000007
 51
184.0960399999976
  0
LINE
  5
2EB0
  8
AM_0
 10
492.55981564850151
 20
271.21050338400312
 30
0.0
 11
492.55981564850151
 21
265.4370063840031
 31
0.0
  0
LINE
  5
2EB1
  8
AM_0
 10
492.55981564850151
 20
265.4370063840031
 30
0.0
 11
497.55982564850149
 21
262.55025638400309
 31
0.0
  0
LINE
  5
2EB2
  8
AM_0
 10
497.55985564850141
 20
274.09725338400312
 30
0.0
 11
492.55981564850151
 21
271.21050338400312
 31
0.0
  0
ARC
  5
2EB3
  8
AM_0
 10
500.75701564850152
 20
242.47179338400329
 30
0.0
 40
3.0
 50
5.4941789999993604
 51
90.000003000000007
  0
ARC
  5
2EB4
  8
AM_0
 10
500.75701564850152
 20
251.47179638400311
 30
0.0
 40
3.0
 50
270.0
 51
354.50581999999741
  0
LINE
  5
2EB5
  8
AM_0
 10
502.55983564850141
 20
265.4370063840031
 30
0.0
 11
502.55983564850141
 21
271.21050338400312
 31
0.0
  0
ARC
  5
2EB6
  8
AM_0
 10
520.94041564850124
 20
266.50136738400312
 30
0.0
 40
3.0
 50
323.71474000000148
 51
45.000001000002129
  0
ARC
  5
2EB7
  8
AM_0
 10
528.01149064850154
 20
273.5724423840033
 30
0.0
 40
3.0
 50
225.0000000000002
 51
306.28526000000107
  0
CIRCLE
  5
2EB8
  8
AM_0
 10
607.64515864850125
 20
186.8676963840029
 30
0.0
 40
5.0000001000000003
  0
LINE
  5
2EB9
  8
AM_7
 10
599.87138764850135
 20
194.64148538400329
 30
0.0
 11
615.01956364850139
 21
179.49330638400301
 31
0.0
  0
LINE
  5
2EBA
  8
AM_0
 10
622.54109464850137
 20
226.9717803840033
 30
0.0
 11
618.87780964850151
 21
185.1002253840031
 31
0.0
  0
ARC
  5
2EBB
  8
AM_0
 10
576.2962506485012
 20
190.91698238400309
 30
0.0
 40
3.0
 50
297.15704999999957
 51
31.70912200000086
  0
ARC
  5
2EBC
  8
AM_0
 10
569.09109664850155
 20
212.09177438400329
 30
0.0
 40
20.000000700000001
 50
225.82602999999881
 51
17.592214000001871
  0
ARC
  5
2EBD
  8
AM_7
 10
547.54109164850149
 20
246.97179338400329
 30
0.0
 40
85.000001999999981
 50
305.6955299999986
 51
324.1425799999987
  0
LINE
  5
2EBE
  8
AM_0
 10
586.04002564850146
 20
175.9717773840033
 30
0.0
 11
608.91586564850149
 21
175.9717773840033
 31
0.0
  0
LINE
  5
2EBF
  8
AM_0
 10
582.86460964850153
 20
181.47177638400331
 30
0.0
 11
547.54109164850149
 21
181.47177638400331
 31
0.0
  0
ARC
  5
2EC0
  8
AM_0
 10
539.57304364850154
 20
188.47179338400329
 30
0.0
 40
3.0
 50
270.0
 51
45.000001000002129
  0
ARC
  5
2EC1
  8
AM_0
 10
571.6501476485015
 20
171.76735538400311
 30
0.0
 40
7.0000007999999987
 50
270.0
 51
18.251978000000442
  0
CIRCLE
  5
2EC2
  8
AM_0
 10
571.6501476485015
 20
171.76738538400309
 30
0.0
 40
4.9999998000000003
  0
LINE
  5
2EC3
  8
AM_0
 10
566.65013164850154
 20
174.6541353840031
 30
0.0
 11
566.65013164850154
 21
168.88060538400319
 31
0.0
  0
LINE
  5
2EC4
  8
AM_0
 10
576.65014864850161
 20
168.88060538400319
 30
0.0
 11
576.65014864850161
 21
174.6541353840031
 31
0.0
  0
LINE
  5
2EC5
  8
AM_0
 10
571.6501476485015
 20
165.9938883840033
 30
0.0
 11
576.65014864850161
 21
168.88063538400331
 31
0.0
  0
LINE
  5
2EC6
  8
AM_0
 10
566.65016464850146
 20
168.88060538400319
 30
0.0
 11
571.6501476485015
 21
165.9938553840031
 31
0.0
  0
ARC
  5
2EC7
  8
AM_0
 10
547.54109164850149
 20
229.9717803840031
 30
0.0
 40
60.000002999999992
 50
303.1091400000011
 51
306.06659000000172
  0
ARC
  5
2EC8
  8
AM_0
 10
547.54109164850149
 20
229.9717803840031
 30
0.0
 40
60.000002999999992
 50
303.1091400000011
 51
304.4115100000011
  0
ARC
  5
2EC9
  8
AM_0
 10
583.0464036485015
 20
175.52573138400319
 30
0.0
 40
5.0000001000000003
 50
123.1091300000011
 51
198.25198000000159
  0
LINE
  5
2ECA
  8
AM_0
 10
576.65014864850161
 20
174.65412038400311
 30
0.0
 11
571.65016264850135
 21
177.54087038400311
 31
0.0
  0
LINE
  5
2ECB
  8
AM_0
 10
571.6501476485015
 20
177.54090038400309
 30
0.0
 11
566.65013164850154
 21
174.65415038400309
 31
0.0
  0
LINE
  5
2ECC
  8
AM_0
 10
586.04002564850146
 20
175.97176238400311
 30
0.0
 11
582.86459464850145
 21
181.47176138400309
 31
0.0
  0
ARC
  5
2ECD
  8
AM_0
 10
608.91586564850149
 20
185.97177638400331
 30
0.0
 40
10.000000200000001
 50
270.0
 51
355.00000000000023
  0
CIRCLE
  5
2ECE
  8
AM_0
 10
597.52234264850154
 20
268.32375338400328
 30
0.0
 40
4.9999998000000003
  0
LINE
  5
2ECF
  8
AM_0
 10
610.38015964850138
 20
245.47179338400321
 30
0.0
 11
599.19529864850153
 21
245.47179338400321
 31
0.0
  0
LINE
  5
2ED0
  8
AM_0
 10
610.38015964850138
 20
248.4717933840034
 30
0.0
 11
595.91958964850153
 21
248.4717933840034
 31
0.0
  0
LINE
  5
2ED1
  8
AM_0
 10
602.52235564850139
 20
271.21050338400312
 30
0.0
 11
597.5223576485015
 21
274.09725338400312
 31
0.0
  0
LINE
  5
2ED2
  8
AM_0
 10
597.5223576485015
 20
262.55025638400309
 30
0.0
 11
602.52235564850139
 21
265.43703638400302
 31
0.0
  0
LINE
  5
2ED3
  8
AM_0
 10
596.37623764850116
 20
241.4457183840033
 30
0.0
 11
605.40043864850145
 21
216.65190938400329
 31
0.0
  0
LINE
  5
2ED4
  8
AM_0
 10
588.15571864850153
 20
218.13658838400329
 30
0.0
 11
576.13804864850135
 21
256.03899338400322
 31
0.0
  0
ARC
  5
2ED5
  8
AM_0
 10
584.80353064850135
 20
196.17304238400311
 30
0.0
 40
3.0
 50
211.7091199999989
 51
306.2611999999981
  0
LINE
  5
2ED6
  8
AM_0
 10
577.8490926485016
 20
194.1112893840033
 30
0.0
 11
578.84843764850154
 21
192.49381238400301
 31
0.0
  0
LINE
  5
2ED7
  8
AM_0
 10
581.2520016485015
 20
196.2137223840034
 30
0.0
 11
582.25134364850135
 21
194.59624538400311
 31
0.0
  0
ARC
  5
2ED8
  8
AM_0
 10
567.07068064850125
 20
273.5724423840033
 30
0.0
 40
3.0
 50
233.71474999999941
 51
314.99999999999972
  0
LINE
  5
2ED9
  8
AM_0
 10
550.54109164850149
 20
252.9717963840032
 30
0.0
 11
550.54109164850149
 21
258.9717963840032
 31
0.0
  0
LINE
  5
2EDA
  8
AM_0
 10
544.54109164850126
 20
258.9717963840032
 30
0.0
 11
544.54109164850126
 21
252.9717963840032
 31
0.0
  0
ARC
  5
2EDB
  8
AM_0
 10
547.54109164850149
 20
246.97179338400329
 30
0.0
 40
9.5000003999999993
 50
108.40848
 51
71.591511999999952
  0
CIRCLE
  5
2EDC
  8
AM_5
 10
547.54109164850149
 20
246.97179338400329
 30
0.0
 40
3.0
  0
CIRCLE
  5
2EDD
  8
AM_0
 10
547.54109164850149
 20
246.97179338400329
 30
0.0
 40
2.4999998400000001
  0
LINE
  5
2EDE
  8
AM_0
 10
544.54109164850126
 20
252.9717963840032
 30
0.0
 11
550.54109164850149
 21
252.9717963840032
 31
0.0
  0
LINE
  5
2EDF
  8
AM_0
 10
550.54109164850149
 20
258.9717963840032
 30
0.0
 11
544.54109164850126
 21
258.9717963840032
 31
0.0
  0
LINE
  5
2EE0
  8
AM_0
 10
588.88755964850145
 20
262.02065438400331
 30
0.0
 11
593.10049564850158
 21
250.44571838400319
 31
0.0
  0
ARC
  5
2EE1
  8
AM_0
 10
599.19529864850153
 20
242.47179338400329
 30
0.0
 40
3.0
 50
90.000003000000007
 51
199.9999999999969
  0
ARC
  5
2EE2
  8
AM_0
 10
595.91958964850153
 20
251.47179638400311
 30
0.0
 40
3.0
 50
199.9999999999969
 51
270.0
  0
ARC
  5
2EE3
  8
AM_0
 10
547.54109164850149
 20
246.97179338400329
 30
0.0
 40
44.000000999999983
 50
19.9999989999991
 51
42.452681999999122
  0
ARC
  5
2EE4
  8
AM_0
 10
574.14175564850154
 20
266.50136738400312
 30
0.0
 40
3.0
 50
134.9999999999996
 51
216.2852599999984
  0
LINE
  5
2EE5
  8
AM_0
 10
592.52234164850154
 20
271.21050338400312
 30
0.0
 11
592.52234164850154
 21
265.4370063840031
 31
0.0
  0
LINE
  5
2EE6
  8
AM_0
 10
592.52235664850139
 20
265.4370063840031
 30
0.0
 11
597.52234264850154
 21
262.55025638400309
 31
0.0
  0
LINE
  5
2EE7
  8
AM_0
 10
597.52234264850154
 20
274.09728338400322
 30
0.0
 11
592.52234164850154
 21
271.21053338400338
 31
0.0
  0
LINE
  5
2EE8
  8
AM_0
 10
622.54109464850137
 20
246.97179338400329
 30
0.0
 11
622.54109464850137
 21
226.9717803840033
 31
0.0
  0
LINE
  5
2EE9
  8
AM_0
 10
622.54109464850137
 20
246.97179338400329
 30
0.0
 11
622.54109464850137
 21
266.97176438400322
 31
0.0
  0
ARC
  5
2EEA
  8
AM_0
 10
610.38015964850138
 20
242.47179338400329
 30
0.0
 40
3.0
 50
355.90396000000209
 51
90.000003000000007
  0
ARC
  5
2EEB
  8
AM_0
 10
610.38015964850138
 20
251.47179638400311
 30
0.0
 40
3.0
 50
270.0
 51
4.0960440000003251
  0
LINE
  5
2EEC
  8
AM_0
 10
602.52235564850139
 20
265.4370063840031
 30
0.0
 11
602.52235564850139
 21
271.21050338400312
 31
0.0
  0
LINE
  5
2EED
  8
AM_0
 10
547.54109164850149
 20
321.9717903840031
 30
0.0
 11
527.54109364850126
 21
321.9717903840031
 31
0.0
  0
LINE
  5
2EEE
  8
AM_0
 10
527.54109364850126
 20
321.97176038400312
 30
0.0
 11
485.32492564850151
 21
318.27834038400329
 31
0.0
  0
ARC
  5
2EEF
  8
AM_0
 10
499.59838564850122
 20
287.8434393840032
 30
0.0
 40
3.0
 50
45.000001000002129
 51
139.5520800000005
  0
ARC
  5
2EF0
  8
AM_7
 10
547.54109164850149
 20
246.97179338400329
 30
0.0
 40
85.000001999999981
 50
125.6955299999985
 51
144.1425799999985
  0
ARC
  5
2EF1
  8
AM_0
 10
486.19648564850132
 20
308.3163903840034
 30
0.0
 40
10.000000200000001
 50
95.000001999999967
 51
175.0000100000006
  0
CIRCLE
  5
2EF2
  8
AM_0
 10
487.43701564850141
 20
307.07586038400308
 30
0.0
 40
5.0000001000000003
  0
LINE
  5
2EF3
  8
AM_7
 10
495.21079564850118
 20
299.30205038400322
 30
0.0
 11
480.0626256485013
 21
314.4502503840032
 31
0.0
  0
ARC
  5
2EF4
  8
AM_0
 10
506.66941864850128
 20
294.91451438400321
 30
0.0
 40
3.0
 50
130.4479300000001
 51
225.0000000000002
  0
ARC
  5
2EF5
  8
AM_7
 10
547.54109164850149
 20
246.97179338400329
 30
0.0
 40
85.000001999999981
 50
35.695527999999683
 51
54.142581999998157
  0
LINE
  5
2EF6
  8
AM_0
 10
567.54109264850115
 20
321.9717903840031
 30
0.0
 11
609.75726664850151
 21
318.27834038400329
 31
0.0
  0
ARC
  5
2EF7
  8
AM_0
 10
547.54109164850149
 20
246.97179338400329
 30
0.0
 40
44.000000999999983
 50
47.547316999998742
 51
84.505818999999789
  0
LINE
  5
2EF8
  8
AM_0
 10
549.04109164850126
 20
309.81084038400309
 30
0.0
 11
549.04109164850126
 21
293.75585438400321
 31
0.0
  0
LINE
  5
2EF9
  8
AM_0
 10
546.04109164850149
 20
309.81084038400309
 30
0.0
 11
546.04109164850149
 21
293.75585438400321
 31
0.0
  0
ARC
  5
2EFA
  8
AM_0
 10
552.04109464850126
 20
293.75585438400321
 30
0.0
 40
3.0
 50
179.9999899999988
 51
264.50581999999991
  0
ARC
  5
2EFB
  8
AM_0
 10
547.54109164850149
 20
246.97179338400329
 30
0.0
 40
44.000000999999983
 50
95.494178999999249
 51
132.4526799999995
  0
ARC
  5
2EFC
  8
AM_0
 10
543.04109164850149
 20
293.75585438400321
 30
0.0
 40
3.0
 50
275.49417999999991
 51
0.0
  0
ARC
  5
2EFD
  8
AM_0
 10
552.04109464850126
 20
309.81084038400309
 30
0.0
 40
3.0
 50
85.903959000000114
 51
180.00001000000091
  0
ARC
  5
2EFE
  8
AM_0
 10
543.04109164850149
 20
309.81084038400309
 30
0.0
 40
3.0
 50
0.0
 51
94.096045999999944
  0
ARC
  5
2EFF
  8
AM_0
 10
588.41276764850147
 20
294.91451438400321
 30
0.0
 40
3.0
 50
314.99999999999972
 51
49.552073000000178
  0
ARC
  5
2F00
  8
AM_0
 10
595.48382764850135
 20
287.8434393840032
 30
0.0
 40
3.0
 50
40.447928999998332
 51
134.9999999999996
  0
LINE
  5
2F01
  8
AM_0
 10
547.54109164850149
 20
321.9717903840031
 30
0.0
 11
567.54107764850153
 21
321.9717903840031
 31
0.0
  0
ARC
  5
2F02
  8
AM_0
 10
608.88570064850148
 20
308.3163903840034
 30
0.0
 40
10.000000200000001
 50
4.9999998999975821
 51
84.999997000000164
  0
CIRCLE
  5
2F03
  8
AM_0
 10
607.64515864850125
 20
307.07586038400308
 30
0.0
 40
5.0000001000000003
  0
LINE
  5
2F04
  8
AM_7
 10
599.87138764850135
 20
299.30205038400322
 30
0.0
 11
615.01958164850123
 21
314.4502503840032
 31
0.0
  0
LINE
  5
2F05
  8
AM_0
 10
273.48245804937608
 20
261.90923438400313
 30
0.0
 11
263.48245804937619
 21
261.90923438400313
 31
0.0
  0
LINE
  5
2F06
  8
AM_0
 10
273.48245804937608
 20
275.97180038400307
 30
0.0
 11
263.48245804937619
 21
275.97180038400307
 31
0.0
  0
LINE
  5
2F07
  8
AM_0
 10
273.48245804937608
 20
183.97179338400289
 30
0.0
 11
263.48245804937619
 21
183.97179338400289
 31
0.0
  0
LINE
  5
2F08
  8
AM_0
 10
273.48245804937608
 20
198.0343563840031
 30
0.0
 11
263.48245804937619
 21
198.0343563840031
 31
0.0
  0
LINE
  5
2F09
  8
ﾁｭｳｼﾝｾﾝ
 10
185.2657074640484
 20
463.19582608648551
 30
0.0
 11
392.84628804937631
 21
463.19582608648551
 31
0.0
  0
ARC
  5
2F0A
  8
AM_0
 10
365.48242804937621
 20
463.19582608648551
 30
0.0
 40
3.0
 50
89.986013999999244
 51
270.01398999999992
  0
LINE
  5
2F0B
  8
AM_0
 10
365.48242804937621
 20
460.19582608648523
 30
0.0
 11
365.48242804937621
 21
466.19582608648562
 31
0.0
  0
LINE
  5
2F0C
  8
AM_0
 10
387.48245804937631
 20
453.69582608648562
 30
0.0
 11
387.48245804937631
 21
472.69582608648523
 31
0.0
  0
LINE
  5
2F0D
  8
AM_0
 10
359.48242804937621
 20
453.19582608648551
 30
0.0
 11
359.48242804937621
 21
473.19582608648551
 31
0.0
  0
LINE
  5
2F0E
  8
AM_0
 10
291.48248804937629
 20
405.30122608648549
 30
0.0
 11
291.48248804937629
 21
521.09038608648552
 31
0.0
  0
LINE
  5
2F0F
  8
AM_0
 10
297.482488049376
 20
403.19582608648551
 30
0.0
 11
297.482488049376
 21
523.19582608648545
 31
0.0
  0
LINE
  5
2F10
  8
AM_0
 10
357.48245804937631
 20
482.2216360864856
 30
0.0
 11
357.48245804937631
 21
443.9513760864856
 31
0.0
  0
LINE
  5
2F11
  8
AM_0
 10
347.48248804937617
 20
522.69582608648545
 30
0.0
 11
347.48248804937617
 21
403.69579608648559
 31
0.0
  0
LINE
  5
2F12
  8
AM_0
 10
352.48245804937631
 20
538.19579608648564
 30
0.0
 11
352.48245804937631
 21
388.19579608648559
 31
0.0
  0
LINE
  5
2F13
  8
AM_0
 10
356.48248804937629
 20
533.19582608648557
 30
0.0
 11
356.48248804937629
 21
393.19579608648547
 31
0.0
  0
LINE
  5
2F14
  8
AM_0
 10
329.482488049376
 20
527.42693608648563
 30
0.0
 11
329.482488049376
 21
398.9821960864856
 31
0.0
  0
LINE
  5
2F15
  8
AM_0
 10
273.48248804937612
 20
406.69582608648551
 30
0.0
 11
273.48248804937612
 21
519.69585608648549
 31
0.0
  0
LINE
  5
2F16
  8
AM_0
 10
297.482488049376
 20
407.66945608648552
 30
0.0
 11
329.482488049376
 21
407.66945608648552
 31
0.0
  0
LINE
  5
2F17
  8
AM_0
 10
329.482488049376
 20
402.35783608648541
 30
0.0
 11
293.43011804937612
 21
403.3018960864855
 31
0.0
  0
LINE
  5
2F18
  8
AM_0
 10
282.482488049376
 20
415.01152608648562
 30
0.0
 11
282.482488049376
 21
408.16286608648551
 31
0.0
  0
LINE
  5
2F19
  8
AM_0
 10
273.48245804937608
 20
406.69582608648551
 30
0.0
 11
283.47677804937632
 21
406.4341060864856
 31
0.0
  0
LINE
  5
2F1A
  8
AM_0
 10
284.43011804937601
 20
406.16353608648558
 30
0.0
 11
290.11111804937627
 21
406.01475608648548
 31
0.0
  0
ARC
  5
2F1B
  8
AM_0
 10
284.48248804937617
 20
408.16286608648551
 30
0.0
 40
2.0
 50
180.00001000000091
 51
268.5000000000004
  0
ARC
  5
2F1C
  8
AM_0
 10
293.48248804937629
 20
405.30122608648549
 30
0.0
 40
2.0
 50
180.00001000000091
 51
268.5000000000004
  0
ARC
  5
2F1D
  8
AM_0
 10
290.071848049376
 20
404.51530608648551
 30
0.0
 40
1.5
 50
12.976653000001519
 51
88.499997000000747
  0
ARC
  5
2F1E
  8
AM_0
 10
280.48248804937612
 20
415.01152608648562
 30
0.0
 40
2.0
 50
0.0
 51
88.499997000000747
  0
LINE
  5
2F1F
  8
AM_0
 10
273.48248804937612
 20
417.19548608648557
 30
0.0
 11
289.53479804937621
 21
416.77516608648563
 31
0.0
  0
ARC
  5
2F20
  8
AM_0
 10
289.48248804937629
 20
414.77583608648541
 30
0.0
 40
2.0
 50
0.0
 51
88.499997000000747
  0
LINE
  5
2F21
  8
AM_0
 10
273.48248804937612
 20
431.25587608648561
 30
0.0
 11
289.48248804937629
 21
431.25587608648561
 31
0.0
  0
ARC
  5
2F22
  8
AM_0
 10
289.48248804937629
 20
429.25587608648561
 30
0.0
 40
2.0
 50
0.0
 51
90.000003000000945
  0
ARC
  5
2F23
  8
AM_0
 10
339.48245804937631
 20
390.78520608648557
 30
0.0
 40
3.0
 50
0.0
 51
87.999999999999659
  0
LINE
  5
2F24
  8
AM_0
 10
342.48245804937619
 20
390.47639608648552
 30
0.0
 11
342.48245804937619
 21
422.75542608648561
 31
0.0
  0
ARC
  5
2F25
  8
AM_0
 10
344.48248804937617
 20
390.47639608648552
 30
0.0
 40
2.0
 50
179.9999899999988
 51
268.00000999999861
  0
LINE
  5
2F26
  8
AM_0
 10
344.41266804937618
 20
388.47762608648549
 30
0.0
 11
352.48248804937617
 21
388.19582608648551
 31
0.0
  0
LINE
  5
2F27
  8
AM_0
 10
359.48242804937621
 20
453.69582608648562
 30
0.0
 11
387.48245804937631
 21
453.69582608648562
 31
0.0
  0
LINE
  5
2F28
  8
AM_0
 10
365.48242804937621
 20
460.19582608648523
 30
0.0
 11
387.48245804937631
 21
460.19582608648523
 31
0.0
  0
ARC
  5
2F29
  8
AM_0
 10
344.48248804937617
 20
422.75542608648561
 30
0.0
 40
2.0
 50
88.485353000001012
 51
180.00001000000091
  0
ARC
  5
2F2A
  8
AM_0
 10
334.48245804937631
 20
398.96468608648547
 30
0.0
 40
5.0
 50
179.9999899999988
 51
268.00000999999861
  0
LINE
  5
2F2B
  8
AM_0
 10
334.3080180493763
 20
393.96773608648562
 30
0.0
 11
339.5871980493763
 21
393.78337608648548
 31
0.0
  0
LINE
  5
2F2C
  8
AM_0
 10
352.48245804937631
 20
393.19579608648547
 30
0.0
 11
356.48248804937629
 21
393.19579608648547
 31
0.0
  0
ARC
  5
2F2D
  8
AM_0
 10
344.48248804937617
 20
403.69579608648559
 30
0.0
 40
3.0
 50
270.0
 51
0.0
  0
ARC
  5
2F2E
  8
AM_0
 10
355.48245804937631
 20
444.09709608648558
 30
0.0
 40
2.0
 50
315.0
 51
0.0
  0
LINE
  5
2F2F
  8
AM_0
 10
356.48245804937631
 20
442.26863608648551
 30
0.0
 11
356.89670804937617
 21
442.68288608648561
 31
0.0
  0
LINE
  5
2F30
  8
AM_0
 10
357.48248804937617
 20
453.19582608648551
 30
0.0
 11
359.48242804937621
 21
453.19582608648551
 31
0.0
  0
LINE
  5
2F31
  8
AM_0
 10
297.482488049376
 20
518.72215608648548
 30
0.0
 11
329.482488049376
 21
518.72215608648548
 31
0.0
  0
LINE
  5
2F32
  8
AM_0
 10
293.43008804937631
 20
523.08968608648559
 30
0.0
 11
329.482488049376
 21
524.03377608648555
 31
0.0
  0
ARC
  5
2F33
  8
AM_0
 10
289.48248804937629
 20
497.1357660864856
 30
0.0
 40
2.0
 50
270.0
 51
0.0
  0
LINE
  5
2F34
  8
AM_0
 10
273.48248804937612
 20
495.13576608648549
 30
0.0
 11
289.48248804937629
 21
495.13576608648549
 31
0.0
  0
LINE
  5
2F35
  8
AM_0
 10
282.482488049376
 20
511.38008608648562
 30
0.0
 11
282.482488049376
 21
518.22874608648544
 31
0.0
  0
ARC
  5
2F36
  8
AM_0
 10
280.48248804937612
 20
511.38008608648562
 30
0.0
 40
2.0
 50
271.4999999999992
 51
0.0
  0
LINE
  5
2F37
  8
AM_0
 10
273.48245804937608
 20
509.19609608648551
 30
0.0
 11
289.53479804937621
 21
509.6164460864851
 31
0.0
  0
ARC
  5
2F38
  8
AM_0
 10
289.48248804937629
 20
511.61577608648548
 30
0.0
 40
2.0
 50
271.4999999999992
 51
0.0
  0
LINE
  5
2F39
  8
AM_0
 10
273.48245804937608
 20
519.69579608648564
 30
0.0
 11
283.47677804937632
 21
519.95750608648564
 31
0.0
  0
ARC
  5
2F3A
  8
AM_0
 10
293.48248804937629
 20
521.09038608648552
 30
0.0
 40
2.0
 50
91.500001000001546
 51
180.00001000000091
  0
LINE
  5
2F3B
  8
AM_0
 10
284.43011804937601
 20
520.22804608648562
 30
0.0
 11
290.11111804937627
 21
520.37682608648561
 31
0.0
  0
ARC
  5
2F3C
  8
AM_0
 10
284.48248804937617
 20
518.22874608648544
 30
0.0
 40
2.0
 50
91.500001000001546
 51
180.00001000000091
  0
ARC
  5
2F3D
  8
AM_0
 10
290.071848049376
 20
521.87633608648559
 30
0.0
 40
1.5
 50
271.4999999999992
 51
347.02334999999908
  0
ARC
  5
2F3E
  8
AM_0
 10
334.48245804937631
 20
527.42693608648563
 30
0.0
 40
5.0
 50
91.999998000000545
 51
180.00001000000091
  0
LINE
  5
2F3F
  8
AM_0
 10
342.48245804937619
 20
535.91521608648554
 30
0.0
 11
342.48245804937619
 21
503.63618608648562
 31
0.0
  0
LINE
  5
2F40
  8
AM_0
 10
359.48242804937621
 20
472.69582608648523
 30
0.0
 11
387.48245804937631
 21
472.69582608648523
 31
0.0
  0
LINE
  5
2F41
  8
AM_0
 10
365.48242804937621
 20
466.19582608648562
 30
0.0
 11
387.48245804937631
 21
466.19582608648562
 31
0.0
  0
LINE
  5
2F42
  8
AM_0
 10
357.48248804937617
 20
473.19582608648551
 30
0.0
 11
359.48242804937621
 21
473.19582608648551
 31
0.0
  0
ARC
  5
2F43
  8
AM_0
 10
355.48245804937631
 20
482.2945160864856
 30
0.0
 40
2.0
 50
0.0
 51
45.000000999999187
  0
LINE
  5
2F44
  8
AM_0
 10
356.48245804937631
 20
484.12297608648538
 30
0.0
 11
356.89667804937631
 21
483.70872608648551
 31
0.0
  0
ARC
  5
2F45
  8
AM_0
 10
344.48248804937617
 20
503.63618608648562
 30
0.0
 40
2.0
 50
179.9999899999988
 51
271.51463999999902
  0
ARC
  5
2F46
  8
AM_0
 10
344.48248804937617
 20
522.69582608648545
 30
0.0
 40
3.0
 50
0.0
 51
90.000003000000945
  0
ARC
  5
2F47
  8
AM_0
 10
344.48248804937617
 20
535.91521608648554
 30
0.0
 40
2.0
 50
91.999998000000545
 51
180.00001000000091
  0
ARC
  5
2F48
  8
AM_0
 10
339.48245804937631
 20
535.60640608648555
 30
0.0
 40
3.0
 50
272.0000000000004
 51
0.0
  0
LINE
  5
2F49
  8
AM_0
 10
334.3080180493763
 20
532.42387608648539
 30
0.0
 11
339.5871980493763
 21
532.60823608648525
 31
0.0
  0
LINE
  5
2F4A
  8
AM_0
 10
352.48245804937631
 20
533.19582608648557
 30
0.0
 11
356.48248804937629
 21
533.19582608648557
 31
0.0
  0
LINE
  5
2F4B
  8
AM_0
 10
344.41266804937618
 20
537.91402608648559
 30
0.0
 11
352.48248804937617
 21
538.19582608648545
 31
0.0
  0
LINE
  5
2F4C
  8
AM_0
 10
262.01802195530882
 20
414.66029218055269
 30
0.0
 11
241.41142023751061
 21
435.26689389835087
 31
0.0
  0
LINE
  5
2F4D
  8
AM_0
 10
263.48248804937612
 20
518.43444744052044
 30
0.0
 11
263.4824880493772
 21
407.95720473245041
 31
0.0
  0
ARC
  5
2F4E
  8
AM_0
 10
258.48248804937612
 20
411.12475827461998
 30
0.0
 40
5.0
 50
0.0
 51
45.0
1001
GENIUS_GENODEF_13
1002
{
1000
HIER
1070
     0
1002
}
1002
{
1000
MANEDIT
1070
     0
1002
}
1002
{
1000
NOSEL
1070
     0
1002
}
1002
{
1000
BEHIND
1070
     0
1002
}
1002
{
1000
OTHER
1070
     0
1002
}
1002
{
1000
REACTOR
1002
}
1001
GENIUS_GENOBJ-N-FIL_13
1002
{
1000
OWNER
1000
GEN
1002
}
  0
ARC
  5
2F4F
  8
AM_0
 10
264.48248804937612
 20
407.95720473245041
 30
0.0
 40
1.0
 50
180.0
 51
268.33915276702578
1001
GENIUS_GENOBJ-N-FIL_13
1002
{
1000
OWNER
1000
GEN
1002
}
1001
GENIUS_GENODEF_13
1002
{
1000
HIER
1070
     0
1002
}
1002
{
1000
MANEDIT
1070
     0
1002
}
1002
{
1000
NOSEL
1070
     0
1002
}
1002
{
1000
BEHIND
1070
     0
1002
}
1002
{
1000
OTHER
1070
     0
1002
}
1002
{
1000
REACTOR
1002
}
  0
LINE
  5
2F50
  8
AM_0
 10
264.45350485609282
 20
406.95762483343941
 30
0.0
 11
273.48248804937612
 21
406.69582608648551
 31
0.0
  0
LINE
  5
2F51
  8
AM_0
 10
273.48248804937612
 20
431.25838708648541
 30
0.0
 11
263.48248804937612
 21
431.25838708648541
 31
0.0
  0
LINE
  5
2F52
  8
AM_0
 10
273.48248804937612
 20
417.19582408648517
 30
0.0
 11
263.48248804937612
 21
417.19582408648517
 31
0.0
  0
LINE
  5
2F53
  8
AM_0
 10
213.98248804937609
 20
455.69581845709092
 30
0.0
 11
215.98248804937609
 21
455.69581845709092
 31
0.0
  0
LINE
  5
2F54
  8
AM_0
 10
213.98248804937609
 20
470.69582608648551
 30
0.0
 11
215.98248804937609
 21
470.69582608648551
 31
0.0
  0
LINE
  5
2F55
  8
AM_0
 10
213.98248804937609
 20
470.69582608648551
 30
0.0
 11
213.98248804937609
 21
455.69581845709092
 31
0.0
  0
LINE
  5
2F56
  8
AM_0
 10
188.98248804937609
 20
465.19582608648551
 30
0.0
 11
206.98248804937609
 21
465.19582608648511
 31
0.0
  0
LINE
  5
2F57
  8
AM_0
 10
188.98248804937609
 20
461.19582608648551
 30
0.0
 11
206.98248804937609
 21
461.19582608648551
 31
0.0
  0
LINE
  5
2F58
  8
AM_0
 10
188.98248804937609
 20
469.19582608648551
 30
0.0
 11
213.98248804937609
 21
469.19582608648551
 31
0.0
  0
LINE
  5
2F59
  8
AM_0
 10
188.98248804937609
 20
457.19582608648551
 30
0.0
 11
213.98248804937609
 21
457.19582608648551
 31
0.0
  0
LINE
  5
2F5A
  8
AM_0
 10
188.98248804937609
 20
469.19582608648551
 30
0.0
 11
188.98248804937609
 21
457.19582608648551
 31
0.0
  0
ARC
  5
2F5B
  8
AM_0
 10
206.98248804937609
 20
463.19582608648551
 30
0.0
 40
1.9999999999998861
 50
270.0
 51
90.0
  0
LINE
  5
2F5C
  8
AM_0
 10
206.98248804937609
 20
465.19582608648511
 30
0.0
 11
206.98248804937609
 21
461.19582608648551
 31
0.0
  0
ARC
  5
2F5D
  8
AM_0
 10
217.982488049376
 20
477.36739896173918
 30
0.0
 40
2.0
 50
135.0
 51
180.0
1001
GENIUS_GENODEF_13
1002
{
1000
HIER
1070
     0
1002
}
1002
{
1000
MANEDIT
1070
     0
1002
}
1002
{
1000
NOSEL
1070
     0
1002
}
1002
{
1000
BEHIND
1070
     0
1002
}
1002
{
1000
OTHER
1070
     0
1002
}
1002
{
1000
REACTOR
1002
}
1001
GENIUS_GENOBJ-N-FIL_13
1002
{
1000
OWNER
1000
GEN
1002
}
  0
LINE
  5
2F5E
  8
AM_0
 10
217.982488049376
 20
440.19582608648511
 30
0.0
 11
217.982488049376
 21
486.19582608648551
 31
0.0
  0
LINE
  5
2F5F
  8
AM_0
 10
238.48248804937609
 20
488.19582608648523
 30
0.0
 11
238.48248804937609
 21
438.19582608648523
 31
0.0
  0
LINE
  5
2F60
  8
AM_0
 10
215.98248804937609
 20
477.36739896173918
 30
0.0
 11
215.98248804937609
 21
449.02425321123172
 31
0.0
  0
LINE
  5
2F61
  8
AM_0
 10
219.98248804937609
 20
438.19582608648551
 30
0.0
 11
234.34035242564511
 21
438.19582608648551
 31
0.0
  0
ARC
  5
2F62
  8
AM_0
 10
215.98248804937609
 20
445.36739896173913
 30
0.0
 40
2.0
 50
0.0
 51
45.0
1001
GENIUS_GENODEF_13
1002
{
1000
HIER
1070
     0
1002
}
1002
{
1000
MANEDIT
1070
     0
1002
}
1002
{
1000
NOSEL
1070
     0
1002
}
1002
{
1000
BEHIND
1070
     0
1002
}
1002
{
1000
OTHER
1070
     0
1002
}
1002
{
1000
REACTOR
1002
}
1001
GENIUS_GENOBJ-N-FIL_13
1002
{
1000
OWNER
1000
GEN
1002
}
  0
ARC
  5
2F63
  8
AM_0
 10
219.98248804937609
 20
440.19582608648551
 30
0.0
 40
2.0
 50
180.0
 51
270.0
1001
GENIUS_GENODEF_13
1002
{
1000
HIER
1070
     0
1002
}
1002
{
1000
MANEDIT
1070
     0
1002
}
1002
{
1000
NOSEL
1070
     0
1002
}
1002
{
1000
BEHIND
1070
     0
1002
}
1002
{
1000
OTHER
1070
     0
1002
}
1002
{
1000
REACTOR
1002
}
1001
GENIUS_GENOBJ-N-FIL_13
1002
{
1000
OWNER
1000
GEN
1002
}
  0
LINE
  5
2F64
  8
AM_0
 10
216.5682744870029
 20
447.61003964885828
 30
0.0
 11
217.39670161174911
 21
446.7816125241124
 31
0.0
  0
ARC
  5
2F65
  8
AM_0
 10
217.982488049376
 20
449.02425321123172
 30
0.0
 40
2.0
 50
180.0
 51
225.0
1001
GENIUS_GENODEF_13
1002
{
1000
HIER
1070
     0
1002
}
1002
{
1000
MANEDIT
1070
     0
1002
}
1002
{
1000
NOSEL
1070
     0
1002
}
1002
{
1000
BEHIND
1070
     0
1002
}
1002
{
1000
OTHER
1070
     0
1002
}
1002
{
1000
REACTOR
1002
}
1001
GENIUS_GENOBJ-N-FIL_13
1002
{
1000
OWNER
1000
GEN
1002
}
  0
ARC
  5
2F66
  8
AM_0
 10
234.34035242564511
 20
428.19582608648523
 30
0.0
 40
10.0
 50
45.0
 51
90.0
1001
GENIUS_GENOBJ-N-FIL_13
1002
{
1000
OWNER
1000
GEN
1002
}
1001
GENIUS_GENODEF_13
1002
{
1000
HIER
1070
     0
1002
}
1002
{
1000
MANEDIT
1070
     0
1002
}
1002
{
1000
NOSEL
1070
     0
1002
}
1002
{
1000
BEHIND
1070
     0
1002
}
1002
{
1000
OTHER
1070
     0
1002
}
1002
{
1000
REACTOR
1002
}
  0
LINE
  5
2F67
  8
AM_0
 10
262.01802195530882
 20
511.73135999241822
 30
0.0
 11
241.41142023751061
 21
491.12475827461998
 31
0.0
  0
LINE
  5
2F68
  8
AM_0
 10
219.98248804937609
 20
488.19582608648551
 30
0.0
 11
234.34035242564511
 21
488.19582608648551
 31
0.0
  0
ARC
  5
2F69
  8
AM_0
 10
219.98248804937609
 20
486.19582608648551
 30
0.0
 40
2.0
 50
90.0
 51
180.0
1001
GENIUS_GENODEF_13
1002
{
1000
HIER
1070
     0
1002
}
1002
{
1000
MANEDIT
1070
     0
1002
}
1002
{
1000
NOSEL
1070
     0
1002
}
1002
{
1000
BEHIND
1070
     0
1002
}
1002
{
1000
OTHER
1070
     0
1002
}
1002
{
1000
REACTOR
1002
}
1001
GENIUS_GENOBJ-N-FIL_13
1002
{
1000
OWNER
1000
GEN
1002
}
  0
LINE
  5
2F6A
  8
AM_0
 10
216.5682744870029
 20
478.7816125241124
 30
0.0
 11
217.39670161174911
 21
479.6100396488585
 31
0.0
  0
ARC
  5
2F6B
  8
AM_0
 10
215.98248804937609
 20
481.02425321123161
 30
0.0
 40
2.0
 50
315.0
 51
0.0
1001
GENIUS_GENODEF_13
1002
{
1000
HIER
1070
     0
1002
}
1002
{
1000
MANEDIT
1070
     0
1002
}
1002
{
1000
NOSEL
1070
     0
1002
}
1002
{
1000
BEHIND
1070
     0
1002
}
1002
{
1000
OTHER
1070
     0
1002
}
1002
{
1000
REACTOR
1002
}
1001
GENIUS_GENOBJ-N-FIL_13
1002
{
1000
OWNER
1000
GEN
1002
}
  0
ARC
  5
2F6C
  8
AM_0
 10
234.34035242564511
 20
498.19582608648551
 30
0.0
 40
10.0
 50
270.0
 51
315.0
1001
GENIUS_GENODEF_13
1002
{
1000
HIER
1070
     0
1002
}
1002
{
1000
MANEDIT
1070
     0
1002
}
1002
{
1000
NOSEL
1070
     0
1002
}
1002
{
1000
BEHIND
1070
     0
1002
}
1002
{
1000
OTHER
1070
     0
1002
}
1002
{
1000
REACTOR
1002
}
1001
GENIUS_GENOBJ-N-FIL_13
1002
{
1000
OWNER
1000
GEN
1002
}
  0
LINE
  5
2F6D
  8
AM_0
 10
273.48248804937612
 20
495.13326508648549
 30
0.0
 11
263.48248804937612
 21
495.13326508648549
 31
0.0
  0
ARC
  5
2F6E
  8
AM_0
 10
264.48248804937612
 20
518.43444744052044
 30
0.0
 40
1.0
 50
91.660847232974191
 51
180.0
1001
GENIUS_GENOBJ-N-FIL_13
1002
{
1000
OWNER
1000
GEN
1002
}
1001
GENIUS_GENODEF_13
1002
{
1000
HIER
1070
     0
1002
}
1002
{
1000
MANEDIT
1070
     0
1002
}
1002
{
1000
NOSEL
1070
     0
1002
}
1002
{
1000
BEHIND
1070
     0
1002
}
1002
{
1000
OTHER
1070
     0
1002
}
1002
{
1000
REACTOR
1002
}
  0
LINE
  5
2F6F
  8
AM_0
 10
273.48248804937612
 20
509.19583108648521
 30
0.0
 11
263.48248804937612
 21
509.19583108648521
 31
0.0
  0
ARC
  5
2F70
  8
AM_0
 10
258.48248804937612
 20
515.26689389835076
 30
0.0
 40
5.0
 50
315.0
 51
0.0
1001
GENIUS_GENODEF_13
1002
{
1000
HIER
1070
     0
1002
}
1002
{
1000
MANEDIT
1070
     0
1002
}
1002
{
1000
NOSEL
1070
     0
1002
}
1002
{
1000
BEHIND
1070
     0
1002
}
1002
{
1000
OTHER
1070
     0
1002
}
1002
{
1000
REACTOR
1002
}
1001
GENIUS_GENOBJ-N-FIL_13
1002
{
1000
OWNER
1000
GEN
1002
}
  0
LINE
  5
2F71
  8
AM_0
 10
264.45350485609282
 20
519.43402733953144
 30
0.0
 11
273.48248804937612
 21
519.69582608648545
 31
0.0
  0
TEXT
  5
31FC
  8
AM_0
 10
435.8191163811623
 20
473.9599685873485
 30
0.0
 40
10.0
  1
VX02-003GF~VX02-030GF
  0
ENDSEC
  0
EOF
