  0
SECTION
  2
HEADER
  9
$ACADVER
  1
AC1009
  9
$INSBASE
 10
0.0
 20
0.0
 30
0.0
  9
$EXTMIN
 10
141.73340821910341
 20
144.16845323955289
 30
-0.0000000000112498
  9
$EXTMAX
 10
645.15202506009018
 20
555.07988529298007
 30
0.0000000000002956
  9
$LIMMIN
 10
0.0
 20
0.0
  9
$LIMMAX
 10
853.5
 20
555.00000000000011
  9
$ORTHOMODE
 70
     0
  9
$REGENMODE
 70
     1
  9
$FILLMODE
 70
     1
  9
$QTEXTMODE
 70
     0
  9
$MIRRTEXT
 70
     1
  9
$DRAGMODE
 70
     2
  9
$LTSCALE
 40
3.0
  9
$OSMODE
 70
   551
  9
$ATTMODE
 70
     1
  9
$TEXTSIZE
 40
2.5
  9
$TRACEWID
 40
1.0
  9
$TEXTSTYLE
  7
STANDARD
  9
$CLAYER
  8
AM_0
  9
$CELTYPE
  6
BYLAYER
  9
$CECOLOR
 62
   256
  9
$DIMSCALE
 40
1.0
  9
$DIMASZ
 40
2.5
  9
$DIMEXO
 40
1.0
  9
$DIMDLI
 40
8.0
  9
$DIMRND
 40
0.0
  9
$DIMDLE
 40
0.0
  9
$DIMEXE
 40
0.6
  9
$DIMTP
 40
0.1
  9
$DIMTM
 40
0.1
  9
$DIMTXT
 40
2.5
  9
$DIMCEN
 40
0.0
  9
$DIMTSZ
 40
0.0
  9
$DIMTOL
 70
     0
  9
$DIMLIM
 70
     0
  9
$DIMTIH
 70
     0
  9
$DIMTOH
 70
     0
  9
$DIMSE1
 70
     0
  9
$DIMSE2
 70
     0
  9
$DIMTAD
 70
     1
  9
$DIMZIN
 70
     8
  9
$DIMBLK
  1

  9
$DIMASO
 70
     1
  9
$DIMSHO
 70
     1
  9
$DIMPOST
  1

  9
$DIMAPOST
  1
"
  9
$DIMALT
 70
     0
  9
$DIMALTD
 70
     2
  9
$DIMALTF
 40
0.0393701
  9
$DIMLFAC
 40
1.0
  9
$DIMTOFL
 70
     1
  9
$DIMTVP
 40
0.0
  9
$DIMTIX
 70
     0
  9
$DIMSOXD
 70
     0
  9
$DIMSAH
 70
     0
  9
$DIMBLK1
  1

  9
$DIMBLK2
  1

  9
$DIMSTYLE
  2
AM_ISO
  9
$DIMCLRD
 70
   256
  9
$DIMCLRE
 70
   256
  9
$DIMCLRT
 70
     4
  9
$DIMTFAC
 40
0.71
  9
$DIMGAP
 40
0.8
  9
$LUNITS
 70
     2
  9
$LUPREC
 70
     2
  9
$SKETCHINC
 40
1.0
  9
$FILLETRAD
 40
15.0
  9
$AUNITS
 70
     0
  9
$AUPREC
 70
     0
  9
$MENU
  1
.
  9
$ELEVATION
 40
0.0
  9
$PELEVATION
 40
0.0
  9
$THICKNESS
 40
0.0
  9
$LIMCHECK
 70
     0
  9
$BLIPMODE
 70
     0
  9
$CHAMFERA
 40
6.0
  9
$CHAMFERB
 40
3.0
  9
$SKPOLY
 70
     0
  9
$TDCREATE
 40
2452065.7447439241
  9
$TDUPDATE
 40
2458541.4390507638
  9
$TDINDWG
 40
0.0533976968
  9
$TDUSRTIMER
 40
0.0533973032
  9
$USRTIMER
 70
     1
  9
$ANGBASE
 50
0.0
  9
$ANGDIR
 70
     0
  9
$PDMODE
 70
     0
  9
$PDSIZE
 40
0.0
  9
$PLINEWID
 40
0.0
  9
$COORDS
 70
     1
  9
$SPLFRAME
 70
     0
  9
$SPLINETYPE
 70
     6
  9
$SPLINESEGS
 70
     8
  9
$ATTDIA
 70
     1
  9
$ATTREQ
 70
     1
  9
$HANDLING
 70
     1
  9
$HANDSEED
  5
2FE2
  9
$SURFTAB1
 70
     6
  9
$SURFTAB2
 70
     6
  9
$SURFTYPE
 70
     6
  9
$SURFU
 70
     6
  9
$SURFV
 70
     6
  9
$UCSNAME
  2

  9
$UCSORG
 10
0.0
 20
0.0
 30
0.0
  9
$UCSXDIR
 10
1.0
 20
0.0
 30
0.0
  9
$UCSYDIR
 10
0.0
 20
1.0
 30
0.0
  9
$PUCSNAME
  2

  9
$PUCSORG
 10
0.0
 20
0.0
 30
0.0
  9
$PUCSXDIR
 10
1.0
 20
0.0
 30
0.0
  9
$PUCSYDIR
 10
0.0
 20
1.0
 30
0.0
  9
$USERI1
 70
     0
  9
$USERI2
 70
     0
  9
$USERI3
 70
     0
  9
$USERI4
 70
     0
  9
$USERI5
 70
     0
  9
$USERR1
 40
0.0
  9
$USERR2
 40
0.0
  9
$USERR3
 40
0.0
  9
$USERR4
 40
0.0
  9
$USERR5
 40
0.0
  9
$WORLDVIEW
 70
     1
  9
$SHADEDGE
 70
     3
  9
$SHADEDIF
 70
    70
  9
$TILEMODE
 70
     1
  9
$MAXACTVP
 70
    64
  9
$PLIMCHECK
 70
     0
  9
$PEXTMIN
 10
1.0000000000000000E+020
 20
1.0000000000000000E+020
 30
1.0000000000000000E+020
  9
$PEXTMAX
 10
-1.0000000000000000E+020
 20
-1.0000000000000000E+020
 30
-1.0000000000000000E+020
  9
$PLIMMIN
 10
0.0
 20
0.0
  9
$PLIMMAX
 10
420.0
 20
297.0
  9
$UNITMODE
 70
     0
  9
$VISRETAIN
 70
     1
  9
$PLINEGEN
 70
     0
  9
$PSLTSCALE
 70
     1
  0
ENDSEC
  0
SECTION
  2
TABLES
  0
TABLE
  2
VPORT
 70
     1
  0
VPORT
  2
*ACTIVE
 70
     0
 10
0.0
 20
0.0
 11
1.0
 21
1.0
 12
393.44271663959682
 22
349.62416926626662
 13
0.0
 23
0.0
 14
7.5
 24
7.5
 15
30.0
 25
30.0
 16
0.0
 26
0.0
 36
1.0
 17
0.0
 27
0.0
 37
0.0
 40
413.73233433297008
 41
1.7571592210767459
 42
50.0
 43
0.0
 44
0.0
 50
0.0
 51
0.0
 71
     0
 72
   100
 73
     1
 74
     3
 75
     0
 76
     0
 77
     0
 78
     0
  0
ENDTAB
  0
TABLE
  2
LTYPE
 70
    26
  0
LTYPE
  2
CONTINUOUS
 70
     0
  3
Solid line
 72
    65
 73
     0
 40
0.0
  0
LTYPE
  2
AM_ISO02W050
 70
     0
  3
__ __ __ __ __ __ __ __ __ __ __ __ __ __ __
 72
    65
 73
     2
 40
7.5
 49
6.0
 49
-1.5
  0
LTYPE
  2
AM_ISO08W050
 70
     0
  3
____ . ____ . ____ . ____ . ____ . ____ . ____
 72
    65
 73
     4
 40
18.0
 49
12.0
 49
-1.5
 49
3.0
 49
-1.5
  0
LTYPE
  2
AM_ISO09W050
 70
     0
  3
_____ . . _____ . . _____ . . ____ .. ____
 72
    65
 73
     6
 40
22.5
 49
12.0
 49
-1.5
 49
3.0
 49
-1.5
 49
3.0
 49
-1.5
  0
LTYPE
  2
AMCONSTR
 70
     0
  3
_______________________
 72
    65
 73
     2
 40
9999.0
 49
9999.0
 49
0.0
  0
LTYPE
  2
AM_ISO08W050X2
 70
     0
  3
__ . __ . __ . __ . __ . __
 72
    65
 73
     4
 40
9.0
 49
6.0
 49
-0.75
 49
1.5
 49
-0.75
  0
LTYPE
  2
AM_ISO02W050X2
 70
     0
  3
 _ _ _ _ _ _ _ _ _ _ _ _
 72
    65
 73
     2
 40
3.75
 49
3.0
 49
-0.75
  0
LTYPE
  2
AMZIGZAG
 70
     0
  3
/\/-/\/-/\/-/\/-/\/-/\/
 72
    65
 73
     2
 40
11.000099999999991
 49
0.0001
 49
-11.0
  0
LTYPE
  2
ACISOWELD
 70
     0
  3
_ _ _ _ _
 72
    65
 73
     2
 40
2.0
 49
2.0
 49
-1.0
  0
LTYPE
  2
ACISOTGB
 70
     0
  3
__ . . __ . .
 72
    65
 73
     6
 40
9.0
 49
4.0
 49
-1.0
 49
1.0
 49
-1.0
 49
1.0
 49
-1.0
  0
LTYPE
  2
ACISOTGL
 70
     0
  3
_ _ _ _ _
 72
    65
 73
     2
 40
3.0
 49
2.0
 49
-1.0
  0
LTYPE
  2
CENTER
 70
     0
  3
__ . __
 72
    65
 73
     4
 40
7.0
 49
4.0
 49
-1.0
 49
1.0
 49
-1.0
  0
LTYPE
  2
PHANTOM2
 70
     0
  3
Phantom (.5x) ___ _ _ ___ _ _ ___ _ _ ___ _ _
 72
    65
 73
     6
 40
31.75
 49
15.875
 49
-3.174999999999998
 49
3.174999999999998
 49
-3.174999999999998
 49
3.174999999999998
 49
-3.174999999999998
  0
LTYPE
  2
ACANSTGBM
 70
     0
  3
__ . . __ . .
 72
    65
 73
     6
 40
9.0
 49
4.0
 49
-1.0
 49
1.0
 49
-1.0
 49
1.0
 49
-1.0
  0
LTYPE
  2
ACANSTGLM
 70
     0
  3
_ _ _ _ _
 72
    65
 73
     2
 40
3.0
 49
2.0
 49
-1.0
  0
LTYPE
  2
GEN7
 70
     0
  3
____ . ____ . ____ . ____ . ____ . ____ . ____
 72
    65
 73
     4
 40
14.25
 49
9.75
 49
-1.5
 49
1.5
 49
-1.5
  0
LTYPE
  2
GEN7A
 70
     0
  3
__ . __ . __
 72
    65
 73
     4
 40
7.375
 49
4.75
 49
-0.875
 49
0.875
 49
-0.875
  0
LTYPE
  2
ACJISTGB
 70
     0
  3
__ . . __ . .
 72
    65
 73
     6
 40
9.0
 49
4.0
 49
-1.0
 49
1.0
 49
-1.0
 49
1.0
 49
-1.0
  0
LTYPE
  2
ACJISTGL
 70
     0
  3
_ _ _ _ _
 72
    65
 73
     2
 40
3.0
 49
2.0
 49
-1.0
  0
LTYPE
  2
HIDDEN
 70
     0
  3
Hidden __ __ __ __ __ __ __ __ __ __ __ __ __ _
 72
    65
 73
     2
 40
0.375
 49
0.25
 49
-0.125
  0
LTYPE
  2
CENTER2
 70
     0
  3
Center (.5x) ___ _ ___ _ ___ _ ___ _ ___ _ ___
 72
    65
 73
     4
 40
1.125
 49
0.75
 49
-0.125
 49
0.125
 49
-0.125
  0
LTYPE
  2
HIDDEN2
 70
     0
  3
Hidden (.5x) _ _ _ _ _ _ _ _ _ _ _ _ _ _ _ _ _
 72
    65
 73
     2
 40
0.1875
 49
0.125
 49
-0.0625
  0
LTYPE
  2
AMZIGZAG2
 70
     0
  3
/\/-/\/-/\/-/\/-/\/-/\/
 72
    65
 73
     2
 40
0.4401
 49
0.0001
 49
-0.4400000000000002
  0
LTYPE
  2
ACANSTGB
 70
     0
  3
__ . . __ . .
 72
    65
 73
     6
 40
0.35433070866
 49
0.15748031496
 49
-0.03937007874
 49
0.03937007874
 49
-0.03937007874
 49
0.03937007874
 49
-0.03937007874
  0
LTYPE
  2
ACANSTGL
 70
     0
  3
_ _ _ _ _
 72
    65
 73
     2
 40
0.11811023622
 49
0.07874015748
 49
-0.03937007874
  0
ENDTAB
  0
TABLE
  2
LAYER
 70
     6
  0
LAYER
  2
0
 70
     0
 62
     7
  6
CONTINUOUS
  0
LAYER
  2
AM_0
 70
     0
 62
     7
  6
CONTINUOUS
  0
LAYER
  2
AM_5
 70
     0
 62
     2
  6
CONTINUOUS
  0
LAYER
  2
DEFPOINTS
 70
     0
 62
     7
  6
CONTINUOUS
  0
LAYER
  2
ﾁｭｳｼﾝｾﾝ
 70
     0
 62
     1
  6
GEN7
  0
LAYER
  2
ﾁｭｳｼﾝｾﾝ1
 70
     0
 62
     1
  6
GEN7A
  0
ENDTAB
  0
TABLE
  2
STYLE
 70
     9
  0
STYLE
  2
STANDARD
 70
     0
 40
0.0
 41
0.8299999999999999
 50
0.0
 71
     0
 42
2.5
  3
txt.shx
  4
bigfont.shx
  0
STYLE
  2
ANNOTATIVE
 70
     0
 40
0.0
 41
1.0
 50
0.0
 71
     0
 42
0.2
  3
txt
  4

  0
STYLE
  2

 70
     1
 40
0.0
 41
1.0
 50
0.0
 71
     0
 42
2.5
  3
ltypeshp.shx
  4

  0
STYLE
  2
ACISOTS
 70
     0
 40
1.0
 41
1.0
 50
0.0
 71
     0
 42
2.5
  3
isocp.shx
  4
extfont.shx
  0
STYLE
  2
ACISOGDT
 70
     0
 40
0.0
 41
1.0
 50
0.0
 71
     0
 42
2.5
  3
amgdt.shx
  4

  0
STYLE
  2
ACANSTS
 70
     0
 40
1.0
 41
1.0
 50
0.0
 71
     0
 42
2.5
  3
romans.shx
  4
bigfont.shx
  0
STYLE
  2
ACANSGDT
 70
     0
 40
0.0
 41
1.0
 50
0.0
 71
     0
 42
2.5
  3
amgdt.shx
  4

  0
STYLE
  2
ACJISTS
 70
     0
 40
1.0
 41
1.0
 50
0.0
 71
     0
 42
2.5
  3
isocp.shx
  4
bigfont.shx
  0
STYLE
  2
ACJISGDT
 70
     0
 40
0.0
 41
1.0
 50
0.0
 71
     0
 42
2.5
  3
amgdt.shx
  4

  0
ENDTAB
  0
TABLE
  2
VIEW
 70
     6
  0
VIEW
  2
AM_VIEW1
 70
     0
 40
277.49999999999989
 10
249.64779005524849
 20
416.24999999999989
 41
499.2955801104971
 11
0.0
 21
0.0
 31
1.0
 12
0.0
 22
0.0
 32
0.0
 42
50.0
 43
0.0
 44
0.0
 50
0.0
 71
     0
  0
VIEW
  2
AM_VIEW2
 70
     0
 40
277.49999999999989
 10
603.85220994475117
 20
416.24999999999989
 41
499.2955801104971
 11
0.0
 21
0.0
 31
1.0
 12
0.0
 22
0.0
 32
0.0
 42
50.0
 43
0.0
 44
0.0
 50
0.0
 71
     0
  0
VIEW
  2
AM_VIEW3
 70
     0
 40
277.49999999999989
 10
249.64779005524849
 20
138.7499999999998
 41
499.2955801104971
 11
0.0
 21
0.0
 31
1.0
 12
0.0
 22
0.0
 32
0.0
 42
50.0
 43
0.0
 44
0.0
 50
0.0
 71
     0
  0
VIEW
  2
AM_VIEW4
 70
     0
 40
277.49999999999989
 10
603.85220994475117
 20
138.7499999999998
 41
499.2955801104971
 11
0.0
 21
0.0
 31
1.0
 12
0.0
 22
0.0
 32
0.0
 42
50.0
 43
0.0
 44
0.0
 50
0.0
 71
     0
  0
VIEW
  2
AM_VIEW5
 70
     0
 40
277.5
 10
426.75
 20
277.49999999999989
 41
499.2955801104971
 11
0.0
 21
0.0
 31
1.0
 12
0.0
 22
0.0
 32
0.0
 42
50.0
 43
0.0
 44
0.0
 50
0.0
 71
     0
  0
VIEW
  2
AM_VIEW6
 70
     0
 40
554.99445000000014
 10
426.75
 20
277.49999999999989
 41
998.5811743093924
 11
0.0
 21
0.0
 31
1.0
 12
0.0
 22
0.0
 32
0.0
 42
50.0
 43
0.0
 44
0.0
 50
0.0
 71
     0
  0
ENDTAB
  0
TABLE
  2
UCS
 70
     0
  0
ENDTAB
  0
TABLE
  2
APPID
 70
    95
  0
APPID
  2
ACAD
 70
     0
  0
APPID
  2
ACADANNOTATIVE
 70
     0
  0
APPID
  2
MCAD_NO_VIS
 70
     0
  0
APPID
  2
ACAD_TEMP_GRAPHIC
 70
     0
  0
APPID
  2
ACATTRIBSERVICES
 70
     0
  0
APPID
  2
GENIUS_GENREC_14
 70
     0
  0
APPID
  2
GENIUS_GENOBJ-N-REC_13
 70
     0
  0
APPID
  2
GENIUS_GENODEF_13
 70
     0
  0
APPID
  2
GENIUS_GENOLIS_13
 70
     0
  0
APPID
  2
GENIUS_GENOBJ-N-TIT_13
 70
     0
  0
APPID
  2
GENIUS_GENOENT_13
 70
     0
  0
APPID
  2
GENIUS_GENTITLE_13
 70
     0
  0
APPID
  2
GENIUS_GENOREF_13
 70
     0
  0
APPID
  2
GENIUS_GENSCREG_15
 70
     0
  0
APPID
  2
GENIUS_GENOBJ-N-SDF_13
 70
     0
  0
APPID
  2
GENIUS_GENFIL_13
 70
     0
  0
APPID
  2
GENIUS_GENOBJ-N-CHA_13
 70
     0
  0
APPID
  2
GENIUS_GENDTOL_13
 70
     0
  0
APPID
  2
GENIUS_GENOBJ-N-FIL_13
 70
     0
  0
APPID
  2
AD_DRAW
 70
     0
  0
APPID
  2
DESIGNERASSEMBLIES
 70
     0
  0
APPID
  2
ASURF_PCURVE_APPNAME
 70
     0
  0
APPID
  2
GENIUS_GE3SECT_13
 70
     0
  0
APPID
  2
GENIUS_GENCFG_13
 70
     0
  0
APPID
  2
GENIUS_GE3CFG0_13
 70
     0
  0
APPID
  2
GENIUS_GENCFG0_13
 70
     0
  0
APPID
  2
GENIUS_GENCFG1_13
 70
     0
  0
APPID
  2
GENIUS_GENCFG2_13
 70
     0
  0
APPID
  2
GENIUS_GENCFG3_13
 70
     0
  0
APPID
  2
GENIUS_GENCFG4_13
 70
     0
  0
APPID
  2
GENIUS_GEVCFG0_13
 70
     0
  0
APPID
  2
GENIUS_GENHINW_13
 70
     0
  0
APPID
  2
GENIUS_FIRSTVISTXT_14
 70
     0
  0
APPID
  2
GENIUS_GENOBJ-N-LEADER_13
 70
     0
  0
APPID
  2
GEV_VCCNULL_SWITCH_OFF
 70
     0
  0
APPID
  2
GENIUS_GEFCFG0_13
 70
     0
  0
APPID
  2
GENIUS_GENZVEED_13
 70
     0
  0
APPID
  2
GENIUS_GENSCREG_13
 70
     0
  0
APPID
  2
GENIUS_DUMCFG0_13
 70
     0
  0
APPID
  2
GEVID936201362
 70
     0
  0
APPID
  2
GEVDC
 70
     0
  0
APPID
  2
GEVCON
 70
     0
  0
APPID
  2
VCC
 70
     0
  0
APPID
  2
GEVPT
 70
     0
  0
APPID
  2
GEVIT
 70
     0
  0
APPID
  2
GENBH
 70
     0
  0
APPID
  2
GEVMK
 70
     0
  0
APPID
  2
GENIUS_GENBH_13
 70
     0
  0
APPID
  2
GENIUS_GENOBJ-NBEHI-BHF_13
 70
     0
  0
APPID
  2
GENIUS_GENOBJ-NBEHI-BHB_13
 70
     0
  0
APPID
  2
GENIUS_GENOBJ-F-DESC_13
 70
     0
  0
APPID
  2
GENIUS_GEFDESC_14
 70
     0
  0
APPID
  2
GENIUS_GENOBJ-F-PART_13
 70
     0
  0
APPID
  2
GENIUS_GEFSTDP_13
 70
     0
  0
APPID
  2
GENIUS_GEFPARTINS_13
 70
     0
  0
APPID
  2
GENIUS_GENTRA_14
 70
     0
  0
APPID
  2
GENIUS_GENINF13_13
 70
     0
  0
APPID
  2
GENIUS_GENOBJ-N-INFOPT_13
 70
     0
  0
APPID
  2
GENIUS_GENOBJ-N-RSSYM_13
 70
     0
  0
APPID
  2
GENIUS_GENSYMENT_13
 70
     0
  0
APPID
  2
GENIUS_GENSCSYM_13
 70
     0
  0
APPID
  2
GENIUS_GEFINFNAM_13
 70
     0
  0
APPID
  2
GENIUS_GENOBJ-N-CEN_13
 70
     0
  0
APPID
  2
GENIUS_GENOBJ-N-CRS_13
 70
     0
  0
APPID
  2
GENIUS_GENOBJ-N-CRC_13
 70
     0
  0
APPID
  2
GENIUS_GENCRC_14
 70
     0
  0
APPID
  2
GEVID942827039
 70
     0
  0
APPID
  2
GEVID942827040
 70
     0
  0
APPID
  2
GEVID942827041
 70
     0
  0
APPID
  2
GENIUS_GENOBJ-F-SCPASSM_13
 70
     0
  0
APPID
  2
GENIUS_GENDIMSH_14
 70
     0
  0
APPID
  2
GEVID942827042
 70
     0
  0
APPID
  2
GEVID946020473
 70
     0
  0
APPID
  2
GEVID946020474
 70
     0
  0
APPID
  2
GEVID946020475
 70
     0
  0
APPID
  2
GENIUS_GENOBJ-N-HTC_13
 70
     0
  0
APPID
  2
GENIUS_GENHATCH_13
 70
     0
  0
APPID
  2
GEVID948854295
 70
     0
  0
APPID
  2
GEVID939402019
 70
     0
  0
APPID
  2
GEVID952919491
 70
     0
  0
APPID
  2
GEVID952919492
 70
     0
  0
APPID
  2
GENIUS_GEFWELD_13
 70
     0
  0
APPID
  2
GENIUS_GENOBJ-F-WELS_13
 70
     0
  0
APPID
  2
GEVID952919493
 70
     0
  0
APPID
  2
GENIUS_GENOBJ-N-RSBK_13
 70
     0
  0
APPID
  2
GENIUS_GENOBJ-N-LIB_13
 70
     0
  0
APPID
  2
GENIUS_GENSCALE_13
 70
     0
  0
APPID
  2
GEVID986376691
 70
     0
  0
APPID
  2
DCO15
 70
     0
  0
APPID
  2
ACAD_DSTYLE_DIMBREAK
 70
     0
  0
APPID
  2
ACAD_DSTYLE_DIMJAG
 70
     0
  0
APPID
  2
ACAD_NAV_VCDISPLAY
 70
     0
  0
APPID
  2
ACADANNOPO
 70
     0
  0
APPID
  2
ACAD_EXEMPT_FROM_CAD_STANDARDS
 70
     0
  0
APPID
  2
ACAD_MLEADERVER
 70
     0
  0
ENDTAB
  0
TABLE
  2
DIMSTYLE
 70
    22
  0
DIMSTYLE
  2
STANDARD
 70
     0
  3

  4

  5

  6

  7

 40
1.0
 41
0.18
 42
0.0625
 43
0.38
 44
0.18
 45
0.0
 46
0.0
 47
0.0
 48
0.0
140
0.18
141
0.09
142
0.0
143
25.399999999999999
144
1.0
145
0.0
146
1.0
147
0.09
 71
     0
 72
     0
 73
     1
 74
     1
 75
     0
 76
     0
 77
     0
 78
     0
170
     0
171
     2
172
     0
173
     0
174
     0
175
     0
176
     0
177
     0
178
     0
  0
DIMSTYLE
  2
ANNOTATIVE
 70
     0
  3

  4

  5

  6

  7

 40
1.0
 41
0.18
 42
0.0625
 43
0.38
 44
0.18
 45
0.0
 46
0.0
 47
0.0
 48
0.0
140
0.18
141
0.09
142
0.0
143
25.399999999999999
144
1.0
145
0.0
146
1.0
147
0.09
 71
     0
 72
     0
 73
     1
 74
     1
 75
     0
 76
     0
 77
     0
 78
     0
170
     0
171
     2
172
     0
173
     0
174
     0
175
     0
176
     0
177
     0
178
     0
  0
DIMSTYLE
  2
AM_ISO
 70
     0
  3

  4
"
  5

  6

  7

 40
1.0
 41
2.5
 42
1.0
 43
8.0
 44
0.6
 45
0.0
 46
0.0
 47
0.1
 48
0.1
140
2.5
141
0.0
142
0.0
143
0.0393701
144
1.0
145
0.0
146
0.71
147
0.8
 71
     0
 72
     0
 73
     0
 74
     0
 75
     0
 76
     0
 77
     1
 78
     8
170
     0
171
     2
172
     1
173
     0
174
     0
175
     0
176
   256
177
   256
178
     4
  0
DIMSTYLE
  2
AM_ISO$3
 70
     0
  3

  4
"
  5

  6

  7

 40
1.0
 41
2.5
 42
1.0
 43
8.0
 44
0.6
 45
0.0
 46
0.0
 47
0.1
 48
0.1
140
2.5
141
0.0
142
0.0
143
0.0393701
144
1.0
145
0.0
146
0.71
147
0.8
 71
     0
 72
     0
 73
     0
 74
     1
 75
     0
 76
     0
 77
     1
 78
     8
170
     0
171
     2
172
     0
173
     0
174
     0
175
     0
176
   256
177
   256
178
     4
  0
DIMSTYLE
  2
AM_ISO$4
 70
     0
  3

  4
"
  5

  6

  7

 40
1.0
 41
2.5
 42
1.0
 43
8.0
 44
0.6
 45
0.0
 46
0.0
 47
0.1
 48
0.1
140
2.5
141
0.0
142
0.0
143
0.0393701
144
1.0
145
0.0
146
0.71
147
0.8
 71
     0
 72
     0
 73
     0
 74
     1
 75
     0
 76
     0
 77
     1
 78
     8
170
     0
171
     2
172
     0
173
     0
174
     0
175
     0
176
   256
177
   256
178
     4
  0
DIMSTYLE
  2
AM_ISO$6
 70
     0
  3

  4
"
  5

  6

  7

 40
1.0
 41
2.5
 42
1.0
 43
8.0
 44
0.6
 45
0.0
 46
0.0
 47
0.1
 48
0.1
140
2.5
141
0.0
142
0.0
143
0.0393701
144
1.0
145
0.0
146
0.71
147
0.8
 71
     0
 72
     0
 73
     0
 74
     0
 75
     0
 76
     0
 77
     0
 78
     8
170
     0
171
     2
172
     1
173
     0
174
     0
175
     0
176
   256
177
   256
178
     4
  0
DIMSTYLE
  2
AM_ISO$7
 70
     0
  3

  4
"
  5

  6

  7

 40
1.0
 41
2.5
 42
1.0
 43
8.0
 44
0.6
 45
0.0
 46
0.0
 47
0.1
 48
0.1
140
2.5
141
0.0
142
0.0
143
0.0393701
144
1.0
145
0.0
146
0.71
147
0.8
 71
     0
 72
     0
 73
     0
 74
     0
 75
     0
 76
     0
 77
     1
 78
     8
170
     0
171
     2
172
     1
173
     0
174
     0
175
     0
176
   256
177
   256
178
     4
  0
DIMSTYLE
  2
AM_ISO$SF
 70
     0
  3

  4
"
  5

  6

  7

 40
1.0
 41
2.5
 42
1.0
 43
10.0
 44
1.0
 45
0.0
 46
0.0
 47
0.1
 48
0.1
140
3.5
141
0.0
142
0.0
143
0.0393701
144
1.0
145
0.0
146
0.71
147
1.5
 71
     0
 72
     0
 73
     0
 74
     0
 75
     1
 76
     1
 77
     1
 78
     8
170
     0
171
     2
172
     1
173
     0
174
     0
175
     0
176
   256
177
   256
178
     2
  0
DIMSTYLE
  2
AM_ISO$SH
 70
     0
  3

  4
"
  5

  6

  7

 40
1.0
 41
2.5
 42
1.0
 43
10.0
 44
1.0
 45
0.0
 46
0.0
 47
0.1
 48
0.1
140
3.5
141
0.0
142
0.0
143
0.0393701
144
2.0
145
0.0
146
0.71
147
1.5
 71
     0
 72
     0
 73
     0
 74
     0
 75
     1
 76
     1
 77
     1
 78
     8
170
     0
171
     2
172
     1
173
     1
174
     0
175
     0
176
   256
177
   256
178
     2
  0
DIMSTYLE
  2
AM_JIS
 70
     0
  3

  4
"
  5

  6

  7

 40
1.0
 41
2.5
 42
1.0
 43
7.0
 44
1.0
 45
0.0
 46
0.0
 47
0.1
 48
0.1000000001
140
2.5
141
0.0
142
0.0
143
0.0393701
144
1.0
145
0.0
146
0.71
147
1.0
 71
     0
 72
     0
 73
     0
 74
     0
 75
     0
 76
     0
 77
     3
 78
     8
170
     0
171
     2
172
     1
173
     0
174
     0
175
     0
176
   256
177
   256
178
     4
  0
DIMSTYLE
  2
AM_JIS$3
 70
     0
  3

  4
"
  5

  6

  7

 40
1.0
 41
2.5
 42
1.0
 43
7.0
 44
1.0
 45
0.0
 46
0.0
 47
0.1
 48
0.1000000001
140
2.5
141
0.0
142
0.0
143
0.0393701
144
1.0
145
0.0
146
0.71
147
1.0
 71
     0
 72
     0
 73
     0
 74
     1
 75
     0
 76
     0
 77
     3
 78
     8
170
     0
171
     2
172
     0
173
     0
174
     0
175
     0
176
   256
177
   256
178
     4
  0
DIMSTYLE
  2
AM_JIS$4
 70
     0
  3

  4
"
  5

  6

  7

 40
1.0
 41
2.5
 42
1.0
 43
7.0
 44
1.0
 45
0.0
 46
0.0
 47
0.1
 48
0.1000000001
140
2.5
141
0.0
142
0.0
143
0.0393701
144
1.0
145
0.0
146
0.71
147
1.0
 71
     0
 72
     0
 73
     0
 74
     0
 75
     0
 76
     0
 77
     3
 78
     8
170
     0
171
     2
172
     0
173
     0
174
     0
175
     0
176
   256
177
   256
178
     4
  0
DIMSTYLE
  2
AM_JIS$6
 70
     0
  3

  4
"
  5

  6

  7

 40
1.0
 41
2.5
 42
1.0
 43
7.0
 44
1.0
 45
0.0
 46
0.0
 47
0.1
 48
0.1000000001
140
2.5
141
0.0
142
0.0
143
0.0393701
144
1.0
145
0.0
146
0.71
147
1.0
 71
     0
 72
     0
 73
     0
 74
     0
 75
     0
 76
     0
 77
     0
 78
     8
170
     0
171
     2
172
     1
173
     0
174
     0
175
     0
176
   256
177
   256
178
     4
  0
DIMSTYLE
  2
AM_JIS$7
 70
     0
  3

  4
"
  5

  6

  7

 40
1.0
 41
2.5
 42
1.0
 43
7.0
 44
1.0
 45
0.0
 46
0.0
 47
0.1
 48
0.1000000001
140
2.5
141
0.0
142
0.0
143
0.0393701
144
1.0
145
0.0
146
0.71
147
1.0
 71
     0
 72
     0
 73
     0
 74
     0
 75
     0
 76
     0
 77
     3
 78
     8
170
     0
171
     2
172
     1
173
     0
174
     0
175
     0
176
   256
177
   256
178
     4
  0
DIMSTYLE
  2
AM_JIS$SF
 70
     0
  3

  4
"
  5

  6

  7

 40
1.0
 41
2.5
 42
1.0
 43
10.0
 44
1.0
 45
0.0
 46
0.0
 47
0.1
 48
0.1
140
3.5
141
0.0
142
0.0
143
0.0393701
144
1.0
145
0.0
146
0.71
147
1.5
 71
     0
 72
     0
 73
     0
 74
     0
 75
     1
 76
     1
 77
     3
 78
     8
170
     0
171
     2
172
     1
173
     0
174
     0
175
     0
176
   256
177
   256
178
     4
  0
DIMSTYLE
  2
AM_JIS$SH
 70
     0
  3

  4
"
  5

  6

  7

 40
1.0
 41
2.5
 42
1.0
 43
10.0
 44
1.0
 45
0.0
 46
0.0
 47
0.1
 48
0.1
140
3.5
141
0.0
142
0.0
143
0.0393701
144
1.0
145
0.0
146
0.71
147
1.5
 71
     0
 72
     0
 73
     0
 74
     0
 75
     1
 76
     0
 77
     3
 78
     8
170
     0
171
     2
172
     1
173
     1
174
     0
175
     0
176
   256
177
   256
178
     4
  0
DIMSTYLE
  2
AM_ANSI
 70
     0
  3

  4
mm
  5

  6

  7

 40
1.0
 41
0.1
 42
0.05
 43
0.5
 44
0.1
 45
0.0
 46
0.0
 47
0.1
 48
0.1
140
0.12
141
0.0
142
0.0
143
25.399999999999999
144
1.0
145
0.0
146
0.71
147
0.06
 71
     0
 72
     0
 73
     1
 74
     1
 75
     0
 76
     0
 77
     0
 78
     7
170
     0
171
     2
172
     0
173
     0
174
     0
175
     0
176
   256
177
   256
178
     2
  0
DIMSTYLE
  2
AM_ANSI$3
 70
     0
  3

  4
mm
  5

  6

  7

 40
1.0
 41
0.1
 42
0.05
 43
0.5
 44
0.1
 45
0.0
 46
0.0
 47
0.1
 48
0.1
140
0.12
141
0.0
142
0.0
143
25.399999999999999
144
1.0
145
0.0
146
0.71
147
0.06
 71
     0
 72
     0
 73
     1
 74
     1
 75
     0
 76
     0
 77
     0
 78
     7
170
     0
171
     2
172
     0
173
     0
174
     0
175
     0
176
   256
177
   256
178
     2
  0
DIMSTYLE
  2
AM_ANSI$4
 70
     0
  3

  4
mm
  5

  6

  7

 40
1.0
 41
0.1
 42
0.05
 43
0.5
 44
0.1
 45
0.0
 46
0.0
 47
0.1
 48
0.1
140
0.12
141
0.0
142
0.0
143
25.399999999999999
144
1.0
145
0.0
146
0.71
147
0.06
 71
     0
 72
     0
 73
     1
 74
     1
 75
     0
 76
     0
 77
     0
 78
     7
170
     0
171
     2
172
     0
173
     0
174
     0
175
     0
176
   256
177
   256
178
     2
  0
DIMSTYLE
  2
AM_ANSI$7
 70
     0
  3

  4
mm
  5

  6

  7

 40
1.0
 41
0.1
 42
0.05
 43
0.5
 44
0.1
 45
0.0
 46
0.0
 47
0.1
 48
0.1
140
0.24
141
0.0
142
0.0
143
25.399999999999999
144
1.0
145
0.0
146
0.71
147
0.06
 71
     0
 72
     0
 73
     1
 74
     1
 75
     0
 76
     0
 77
     0
 78
     7
170
     0
171
     2
172
     0
173
     0
174
     0
175
     0
176
   256
177
   256
178
     2
  0
DIMSTYLE
  2
AM_ANSI$SF
 70
     0
  3

  4
mm
  5

  6

  7

 40
1.0
 41
0.1
 42
0.05
 43
0.5
 44
0.1
 45
0.0
 46
0.0
 47
0.1
 48
0.1
140
0.12
141
0.0
142
0.0
143
25.399999999999999
144
1.0
145
0.0
146
0.71
147
0.06
 71
     0
 72
     0
 73
     1
 74
     1
 75
     1
 76
     1
 77
     0
 78
     7
170
     0
171
     2
172
     0
173
     0
174
     0
175
     0
176
   256
177
   256
178
     2
  0
DIMSTYLE
  2
AM_ANSI$SH
 70
     0
  3

  4
mm
  5

  6

  7

 40
1.0
 41
0.1
 42
0.05
 43
0.5
 44
0.1
 45
0.0
 46
0.0
 47
0.1
 48
0.1
140
0.12
141
0.0
142
0.0
143
25.399999999999999
144
1.0
145
0.0
146
0.71
147
0.06
 71
     0
 72
     0
 73
     1
 74
     1
 75
     1
 76
     1
 77
     0
 78
     7
170
     0
171
     2
172
     0
173
     1
174
     0
175
     0
176
   256
177
   256
178
     2
  0
ENDTAB
  0
ENDSEC
  0
SECTION
  2
BLOCKS
  0
BLOCK
  8
0
  2
$MODEL_SPACE
 70
     0
 10
0.0
 20
0.0
 30
0.0
  3
$MODEL_SPACE
  1

  0
ENDBLK
  5
2E56
  8
0
  0
BLOCK
 67
     1
  8
0
  2
$PAPER_SPACE
 70
     0
 10
0.0
 20
0.0
 30
0.0
  3
$PAPER_SPACE
  1

  0
ENDBLK
  5
2E52
 67
     1
  8
0
  0
BLOCK
  8
0
  2
GENAXEH
 70
     0
 10
0.0
 20
0.0
 30
0.0
  3
GENAXEH
  1

  0
LINE
  5
2BFF
  8
0
 10
-1.0
 20
0.0
 30
0.0
 11
1.0
 21
0.0
 31
0.0
  0
ENDBLK
  5
2C00
  8
0
  0
BLOCK
  8
0
  2
_OPEN30
 70
     0
 10
0.0
 20
0.0
 30
0.0
  3
_OPEN30
  1

  0
LINE
  5
2C03
  8
0
 62
     0
 10
-1.0
 20
0.26794919
 30
0.0
 11
0.0
 21
0.0
 31
0.0
  0
LINE
  5
2C04
  8
0
 62
     0
 10
0.0
 20
0.0
 30
0.0
 11
-1.0
 21
-0.26794919
 31
0.0
  0
LINE
  5
2C05
  8
0
 62
     0
 10
0.0
 20
0.0
 30
0.0
 11
-1.0
 21
0.0
 31
0.0
  0
ENDBLK
  5
2C06
  8
0
  0
BLOCK
  8
0
  2
_NONE
 70
     0
 10
0.0
 20
0.0
 30
0.0
  3
_NONE
  1

  0
ENDBLK
  5
2C09
  8
0
  0
BLOCK
  8
0
  2
_ACMFILLEDHALF
 70
     0
 10
0.0
 20
0.0
 30
0.0
  3
_ACMFILLEDHALF
  1

  0
TRACE
  5
2F4C
  8
AM_0
 62
     0
 10
-0.8
 20
0.0
 30
0.0
 11
-1.0
 21
0.166666666
 31
0.0
 12
0.0
 22
0.0
 32
0.0
 13
0.0
 23
0.0
 33
0.0
  0
LINE
  5
2F4D
  8
AM_0
 62
     0
 10
-1.0
 20
0.0
 30
0.0
 11
-0.8
 21
0.0
 31
0.0
  0
ENDBLK
  5
2F4B
  8
0
  0
ENDSEC
  0
SECTION
  2
ENTITIES
  0
LINE
  5
2C0A
  8
AM_0
 10
271.94860037977452
 20
297.03664422900511
 30
0.0
 11
271.94860037977452
 21
152.53665522900511
 31
0.0
  0
LINE
  5
2C0B
  8
AM_0
 10
325.94860037977458
 20
181.7553172290051
 30
0.0
 11
325.94860037977458
 21
312.8179912290052
 31
0.0
  0
LINE
  5
2C0C
  8
AM_0
 10
303.94864037977459
 20
310.1106112290052
 30
0.0
 11
303.94864037977459
 21
264.88149222900512
 31
0.0
  0
LINE
  5
2C0D
  8
AM_0
 10
331.94860037977452
 20
163.5366412290052
 30
0.0
 11
331.94860037977452
 21
331.03666122900512
 31
0.0
  0
LINE
  5
2C0E
  8
AM_0
 10
233.9486503797747
 20
169.5366582290051
 30
0.0
 11
233.9486503797747
 21
282.53665822900518
 31
0.0
  0
LINE
  5
2C0F
  8
AM_0
 10
223.94865037977459
 20
281.27527958304
 30
0.0
 11
223.9486503797757
 21
170.79803687497031
 31
0.0
  0
ARC
  5
2C10
  8
AM_0
 10
218.94865037977479
 20
278.10772604087072
 30
0.0
 40
5.0
 50
315.0
 51
0.0
1001
GENIUS_GENODEF_13
1002
{
1000
HIER
1070
     0
1002
}
1002
{
1000
MANEDIT
1070
     0
1002
}
1002
{
1000
NOSEL
1070
     0
1002
}
1002
{
1000
BEHIND
1070
     0
1002
}
1002
{
1000
OTHER
1070
     0
1002
}
1002
{
1000
REACTOR
1002
}
1001
GENIUS_GENOBJ-N-FIL_13
1002
{
1000
OWNER
1000
GEN
1002
}
  0
ARC
  5
2C11
  8
AM_0
 10
261.94867037977463
 20
275.70378822900511
 30
0.0
 40
2.00000007
 50
90.00000299999769
 51
180.00001000000091
  0
ARC
  5
2C12
  8
AM_0
 10
262.94860037977452
 20
279.70382022900509
 30
0.0
 40
2.00000007
 50
270.0
 51
0.0
  0
LINE
  5
2C13
  8
AM_0
 10
332.66086037977431
 20
278.26726722900497
 30
0.0
 11
335.94859037977432
 21
274.34905422900522
 31
0.0
  0
LINE
  5
2C14
  8
ﾁｭｳｼﾝｾﾝ
 10
141.79263130786279
 20
226.03665822900521
 30
0.0
 11
278.92255037977469
 21
226.03665822900521
 31
0.0
  0
LINE
  5
2C15
  8
AM_0
 10
149.44865037977459
 20
232.03665822900521
 30
0.0
 11
174.4486503797747
 21
232.03665822900521
 31
0.0
  0
LINE
  5
2C16
  8
AM_0
 10
149.44865037977459
 20
220.0366582290051
 30
0.0
 11
174.4486503797747
 21
220.0366582290051
 31
0.0
  0
LINE
  5
2C17
  8
AM_0
 10
149.44865037977459
 20
233.5366582290053
 30
0.0
 11
167.44865037977459
 21
233.5366582290053
 31
0.0
  0
LINE
  5
2C18
  8
AM_0
 10
149.44865037977459
 20
233.5366582290053
 30
0.0
 11
149.44865037977459
 21
220.0366582290051
 31
0.0
  0
LINE
  5
2C19
  8
ﾁｭｳｼﾝｾﾝ
 10
382.6611103797747
 20
246.03664422900511
 30
0.0
 11
249.6263803797745
 21
246.03664422900511
 31
0.0
  0
LINE
  5
2C1A
  8
AM_0
 10
271.94860037977452
 20
152.53665522900511
 30
0.0
 11
307.94860037977469
 21
151.03665522900519
 31
0.0
  0
LINE
  5
2C1B
  8
AM_0
 10
271.94860037977452
 20
163.166570229005
 30
0.0
 11
307.94860037977469
 21
163.166570229005
 31
0.0
  0
LINE
  5
2C1C
  8
AM_0
 10
271.94860037977452
 20
274.83367122900512
 30
0.0
 11
302.26690037977471
 21
274.83367122900512
 31
0.0
  0
LINE
  5
2C1D
  8
AM_0
 10
264.94867037977463
 20
267.53096922900522
 30
0.0
 11
264.94867037977463
 21
157.03665522900511
 31
0.0
  0
LINE
  5
2C1E
  8
AM_0
 10
222.4841842857075
 20
177.5011243230723
 30
0.0
 11
201.87758256790951
 21
198.1077260408708
 31
0.0
  0
LINE
  5
2C1F
  8
AM_0
 10
224.91966718649141
 20
169.7984569759592
 30
0.0
 11
233.9486503797747
 21
169.5366582290051
 31
0.0
  0
ARC
  5
2C20
  8
AM_0
 10
224.94865037977479
 20
170.79803687497031
 30
0.0
 40
1.0
 50
180.0
 51
268.33915276702243
1001
GENIUS_GENOBJ-N-FIL_13
1002
{
1000
OWNER
1000
GEN
1002
}
1001
GENIUS_GENODEF_13
1002
{
1000
HIER
1070
     0
1002
}
1002
{
1000
MANEDIT
1070
     0
1002
}
1002
{
1000
NOSEL
1070
     0
1002
}
1002
{
1000
BEHIND
1070
     0
1002
}
1002
{
1000
OTHER
1070
     0
1002
}
1002
{
1000
REACTOR
1002
}
  0
ARC
  5
2C21
  8
AM_0
 10
218.94865037977479
 20
173.96559041713971
 30
0.0
 40
5.0
 50
0.0
 51
45.0
1001
GENIUS_GENODEF_13
1002
{
1000
HIER
1070
     0
1002
}
1002
{
1000
MANEDIT
1070
     0
1002
}
1002
{
1000
NOSEL
1070
     0
1002
}
1002
{
1000
BEHIND
1070
     0
1002
}
1002
{
1000
OTHER
1070
     0
1002
}
1002
{
1000
REACTOR
1002
}
1001
GENIUS_GENOBJ-N-FIL_13
1002
{
1000
OWNER
1000
GEN
1002
}
  0
LINE
  5
2C22
  8
AM_0
 10
233.9486503797747
 20
180.0366412290052
 30
0.0
 11
264.94867037977463
 21
180.0366412290052
 31
0.0
  0
ARC
  5
2C23
  8
AM_0
 10
256.94860037977452
 20
166.43335422900509
 30
0.0
 40
3.0
 50
0.0
 51
88.499997000000647
  0
LINE
  5
2C24
  8
AM_0
 10
259.9486003797744
 20
163.166570229005
 30
0.0
 11
264.94867037977463
 21
163.166570229005
 31
0.0
  0
LINE
  5
2C25
  8
AM_0
 10
259.9486003797744
 20
176.82089922900511
 30
0.0
 11
264.94867037977463
 21
176.82089922900511
 31
0.0
  0
ARC
  5
2C26
  8
AM_0
 10
257.94865037977479
 20
174.8209132290053
 30
0.0
 40
2.00000007
 50
0.0
 51
90.00000299999769
  0
LINE
  5
2C27
  8
AM_0
 10
259.9486003797744
 20
174.8209132290053
 30
0.0
 11
259.9486003797744
 21
163.0366582290053
 31
0.0
  0
LINE
  5
2C28
  8
AM_0
 10
233.9486503797747
 20
170.0366422290052
 30
0.0
 11
257.02714037977461
 21
169.4323162290051
 31
0.0
  0
LINE
  5
2C29
  8
AM_0
 10
266.94865037977462
 20
155.03664222900511
 30
0.0
 11
271.94860037977452
 21
155.03664222900511
 31
0.0
  0
ARC
  5
2C2A
  8
AM_0
 10
266.94865037977462
 20
157.03665522900511
 30
0.0
 40
2.00000007
 50
179.9999899999988
 51
270.0
  0
ARC
  5
2C2B
  8
AM_0
 10
261.94867037977463
 20
161.1665842290052
 30
0.0
 40
2.00000007
 50
90.00000299999769
 51
110.7662300000014
  0
LINE
  5
2C2C
  8
AM_0
 10
178.4486503797747
 20
203.03665822900521
 30
0.0
 11
178.4486503797747
 21
249.03665822900521
 31
0.0
  0
LINE
  5
2C2D
  8
AM_0
 10
198.94865037977479
 20
251.03665822900501
 30
0.0
 11
198.94865037977479
 21
201.03665822900501
 31
0.0
  0
LINE
  5
2C2E
  8
AM_0
 10
176.44865037977479
 20
240.20823110425891
 30
0.0
 11
176.44865037977479
 21
211.8650853537514
 31
0.0
  0
LINE
  5
2C2F
  8
AM_0
 10
180.44865037977479
 20
201.03665822900521
 30
0.0
 11
194.80651475604361
 21
201.03665822900521
 31
0.0
  0
ARC
  5
2C30
  8
AM_0
 10
178.4486503797747
 20
211.8650853537514
 30
0.0
 40
2.0
 50
180.0
 51
225.0
1001
GENIUS_GENODEF_13
1002
{
1000
HIER
1070
     0
1002
}
1002
{
1000
MANEDIT
1070
     0
1002
}
1002
{
1000
NOSEL
1070
     0
1002
}
1002
{
1000
BEHIND
1070
     0
1002
}
1002
{
1000
OTHER
1070
     0
1002
}
1002
{
1000
REACTOR
1002
}
1001
GENIUS_GENOBJ-N-FIL_13
1002
{
1000
OWNER
1000
GEN
1002
}
  0
ARC
  5
2C31
  8
AM_0
 10
180.44865037977479
 20
203.03665822900521
 30
0.0
 40
2.0
 50
180.0
 51
270.0
1001
GENIUS_GENODEF_13
1002
{
1000
HIER
1070
     0
1002
}
1002
{
1000
MANEDIT
1070
     0
1002
}
1002
{
1000
NOSEL
1070
     0
1002
}
1002
{
1000
BEHIND
1070
     0
1002
}
1002
{
1000
OTHER
1070
     0
1002
}
1002
{
1000
REACTOR
1002
}
1001
GENIUS_GENOBJ-N-FIL_13
1002
{
1000
OWNER
1000
GEN
1002
}
  0
LINE
  5
2C32
  8
AM_0
 10
177.03443681740191
 20
210.45087179137829
 30
0.0
 11
177.86286394214801
 21
209.62244466663211
 31
0.0
  0
ARC
  5
2C33
  8
AM_0
 10
176.44865037977479
 20
208.20823110425911
 30
0.0
 40
2.0
 50
0.0
 51
45.0
1001
GENIUS_GENODEF_13
1002
{
1000
HIER
1070
     0
1002
}
1002
{
1000
MANEDIT
1070
     0
1002
}
1002
{
1000
NOSEL
1070
     0
1002
}
1002
{
1000
BEHIND
1070
     0
1002
}
1002
{
1000
OTHER
1070
     0
1002
}
1002
{
1000
REACTOR
1002
}
1001
GENIUS_GENOBJ-N-FIL_13
1002
{
1000
OWNER
1000
GEN
1002
}
  0
LINE
  5
2C34
  8
AM_0
 10
174.4486503797747
 20
233.5366582290053
 30
0.0
 11
174.4486503797747
 21
218.5366505996106
 31
0.0
  0
LINE
  5
2C35
  8
AM_0
 10
174.4486503797747
 20
218.5366505996106
 30
0.0
 11
176.44865037977479
 21
218.5366505996106
 31
0.0
  0
LINE
  5
2C36
  8
AM_0
 10
167.44865037977459
 20
233.5366582290053
 30
0.0
 11
167.44865037977459
 21
232.03665822900521
 31
0.0
  0
LINE
  5
2C37
  8
AM_0
 10
174.4486503797747
 20
233.5366582290053
 30
0.0
 11
176.44865037977479
 21
233.5366582290053
 31
0.0
  0
ARC
  5
2C38
  8
AM_0
 10
194.80651475604361
 20
191.03665822900521
 30
0.0
 40
10.0
 50
45.0
 51
90.0
1001
GENIUS_GENOBJ-N-FIL_13
1002
{
1000
OWNER
1000
GEN
1002
}
1001
GENIUS_GENODEF_13
1002
{
1000
HIER
1070
     0
1002
}
1002
{
1000
MANEDIT
1070
     0
1002
}
1002
{
1000
NOSEL
1070
     0
1002
}
1002
{
1000
BEHIND
1070
     0
1002
}
1002
{
1000
OTHER
1070
     0
1002
}
1002
{
1000
REACTOR
1002
}
  0
LINE
  5
2C39
  8
AM_0
 10
180.44865037977479
 20
251.03665822900521
 30
0.0
 11
194.80651475604361
 21
251.03665822900521
 31
0.0
  0
ARC
  5
2C3A
  8
AM_0
 10
178.4486503797747
 20
240.20823110425891
 30
0.0
 40
2.0
 50
135.0
 51
180.0
1001
GENIUS_GENODEF_13
1002
{
1000
HIER
1070
     0
1002
}
1002
{
1000
MANEDIT
1070
     0
1002
}
1002
{
1000
NOSEL
1070
     0
1002
}
1002
{
1000
BEHIND
1070
     0
1002
}
1002
{
1000
OTHER
1070
     0
1002
}
1002
{
1000
REACTOR
1002
}
1001
GENIUS_GENOBJ-N-FIL_13
1002
{
1000
OWNER
1000
GEN
1002
}
  0
ARC
  5
2C3B
  8
AM_0
 10
176.44865037977479
 20
243.86508535375131
 30
0.0
 40
2.0
 50
315.0
 51
0.0
1001
GENIUS_GENODEF_13
1002
{
1000
HIER
1070
     0
1002
}
1002
{
1000
MANEDIT
1070
     0
1002
}
1002
{
1000
NOSEL
1070
     0
1002
}
1002
{
1000
BEHIND
1070
     0
1002
}
1002
{
1000
OTHER
1070
     0
1002
}
1002
{
1000
REACTOR
1002
}
1001
GENIUS_GENOBJ-N-FIL_13
1002
{
1000
OWNER
1000
GEN
1002
}
  0
LINE
  5
2C3C
  8
AM_0
 10
177.03443681740191
 20
241.62244466663199
 30
0.0
 11
177.86286394214801
 21
242.45087179137801
 31
0.0
  0
ARC
  5
2C3D
  8
AM_0
 10
180.44865037977479
 20
249.03665822900521
 30
0.0
 40
2.0
 50
90.0
 51
180.0
1001
GENIUS_GENODEF_13
1002
{
1000
HIER
1070
     0
1002
}
1002
{
1000
MANEDIT
1070
     0
1002
}
1002
{
1000
NOSEL
1070
     0
1002
}
1002
{
1000
BEHIND
1070
     0
1002
}
1002
{
1000
OTHER
1070
     0
1002
}
1002
{
1000
REACTOR
1002
}
1001
GENIUS_GENOBJ-N-FIL_13
1002
{
1000
OWNER
1000
GEN
1002
}
  0
LINE
  5
2C3E
  8
AM_0
 10
222.4841842857075
 20
274.57219213493772
 30
0.0
 11
201.87758256790951
 21
253.96559041713959
 31
0.0
  0
ARC
  5
2C3F
  8
AM_0
 10
194.80651475604361
 20
261.03665822900518
 30
0.0
 40
10.0
 50
270.0
 51
315.0
1001
GENIUS_GENODEF_13
1002
{
1000
HIER
1070
     0
1002
}
1002
{
1000
MANEDIT
1070
     0
1002
}
1002
{
1000
NOSEL
1070
     0
1002
}
1002
{
1000
BEHIND
1070
     0
1002
}
1002
{
1000
OTHER
1070
     0
1002
}
1002
{
1000
REACTOR
1002
}
1001
GENIUS_GENOBJ-N-FIL_13
1002
{
1000
OWNER
1000
GEN
1002
}
  0
LINE
  5
2C40
  8
AM_0
 10
233.9486503797747
 20
194.0996452290052
 30
0.0
 11
264.94867037977463
 21
194.0996452290052
 31
0.0
  0
ARC
  5
2C41
  8
AM_0
 10
257.94865037977479
 20
256.06469022900512
 30
0.0
 40
2.00000007
 50
270.0
 51
0.0
  0
LINE
  5
2C42
  8
AM_0
 10
259.9486003797744
 20
254.0647042290052
 30
0.0
 11
264.94867037977463
 21
254.0647042290052
 31
0.0
  0
ARC
  5
2C43
  8
AM_0
 10
261.94867037977463
 20
271.53099822900509
 30
0.0
 40
2.00000007
 50
179.9999899999988
 51
270.0
  0
LINE
  5
2C44
  8
AM_0
 10
233.9486503797747
 20
257.97365622900497
 30
0.0
 11
259.9486003797744
 21
257.97365622900497
 31
0.0
  0
LINE
  5
2C45
  8
AM_0
 10
233.9486503797747
 20
272.03664522900522
 30
0.0
 11
259.9486003797744
 21
272.03664522900522
 31
0.0
  0
LINE
  5
2C46
  8
AM_0
 10
259.9486003797744
 20
275.70378822900511
 30
0.0
 11
259.9486003797744
 21
256.06469022900512
 31
0.0
  0
LINE
  5
2C47
  8
AM_0
 10
261.94867037977463
 20
269.5310002290052
 30
0.0
 11
262.94860037977452
 21
269.5310002290052
 31
0.0
  0
ARC
  5
2C48
  8
AM_0
 10
262.94860037977452
 20
267.53096922900522
 30
0.0
 40
2.00000007
 50
0.0
 51
90.00000299999769
  0
LINE
  5
2C49
  8
AM_0
 10
335.94862037977452
 20
246.03664422900511
 30
0.0
 11
335.94862037977452
 21
176.0366572290051
 31
0.0
  0
LINE
  5
2C4A
  8
AM_0
 10
321.94864037977447
 20
165.8172202290051
 30
0.0
 11
321.94864037977447
 21
198.88231422900509
 31
0.0
  0
LINE
  5
2C4B
  8
AM_0
 10
323.87884037977489
 20
163.81844022900501
 30
0.0
 11
331.9486303797749
 21
163.5366412290052
 31
0.0
  0
LINE
  5
2C4C
  8
AM_0
 10
308.92246037977469
 20
167.44678122900501
 30
0.0
 11
321.94864037977447
 21
167.787878229005
 31
0.0
  0
LINE
  5
2C4D
  8
AM_0
 10
307.94860037977469
 20
166.44711822900521
 30
0.0
 11
307.94860037977469
 21
151.03665522900519
 31
0.0
  0
ARC
  5
2C4E
  8
AM_0
 10
308.94862037977452
 20
166.44711822900521
 30
0.0
 40
1.0000000199999981
 50
91.500001000001546
 51
180.00001000000091
  0
ARC
  5
2C4F
  8
AM_0
 10
323.94862037977452
 20
165.8172202290051
 30
0.0
 40
2.00000007
 50
179.9999899999988
 51
268.00000999999861
  0
ARC
  5
2C50
  8
AM_0
 10
322.94860037977469
 20
181.7553172290051
 30
0.0
 40
3.0
 50
270.0
 51
0.0
  0
LINE
  5
2C51
  8
AM_0
 10
331.94860037977452
 20
176.0366572290051
 30
0.0
 11
335.94862037977452
 21
176.0366572290051
 31
0.0
  0
LINE
  5
2C52
  8
AM_0
 10
338.94862037977452
 20
232.0366462290051
 30
0.0
 11
378.94864037977447
 21
232.0366462290051
 31
0.0
  0
LINE
  5
2C53
  8
AM_0
 10
338.94862037977452
 20
260.03666022900512
 30
0.0
 11
378.94864037977447
 21
260.03666022900512
 31
0.0
  0
LINE
  5
2C54
  8
AM_0
 10
346.9486003797744
 20
263.03666022900512
 30
0.0
 11
378.94864037977447
 21
263.03666022900512
 31
0.0
  0
LINE
  5
2C55
  8
AM_0
 10
338.94862037977452
 20
261.03664422900511
 30
0.0
 11
338.94862037977452
 21
231.03664422900491
 31
0.0
  0
LINE
  5
2C56
  8
AM_0
 10
336.94864037977447
 20
220.08733422900511
 30
0.0
 11
336.94864037977447
 21
272.06539122900517
 31
0.0
  0
ARC
  5
2C57
  8
AM_0
 10
324.94864037977459
 20
198.88231422900509
 30
0.0
 40
3.0
 50
90.00000299999769
 51
180.00001000000091
  0
ARC
  5
2C58
  8
AM_0
 10
333.94864037977447
 20
220.08733422900511
 30
0.0
 40
3.0
 50
311.81030999999888
 51
0.0
  0
LINE
  5
2C59
  8
AM_0
 10
336.94864037977447
 20
231.03664422900491
 30
0.0
 11
338.94862037977452
 21
231.03664422900491
 31
0.0
  0
LINE
  5
2C5A
  8
AM_0
 10
308.94862037977452
 20
259.88150922900502
 30
0.0
 11
323.1793903797747
 21
259.88150922900502
 31
0.0
  0
ARC
  5
2C5B
  8
AM_0
 10
308.94862037977452
 20
264.88149222900512
 30
0.0
 40
5.0000001000000003
 50
179.9999899999988
 51
270.0
  0
LINE
  5
2C5C
  8
AM_0
 10
335.94862037977452
 20
246.03664422900511
 30
0.0
 11
335.94862037977452
 21
257.83960722900503
 31
0.0
  0
LINE
  5
2C5D
  8
AM_0
 10
331.94860037977452
 20
257.83960722900503
 30
0.0
 11
335.94862037977452
 21
257.83960722900503
 31
0.0
  0
LINE
  5
2C5E
  8
AM_0
 10
336.94864037977447
 20
261.03664422900511
 30
0.0
 11
338.94862037977452
 21
261.03664422900511
 31
0.0
  0
LINE
  5
2C5F
  8
AM_0
 10
335.94859037977432
 20
274.34905422900522
 30
0.0
 11
336.24673037977431
 21
273.99376722900507
 31
0.0
  0
ARC
  5
2C60
  8
AM_0
 10
333.94864037977447
 20
272.06539122900517
 30
0.0
 40
3.0
 50
0.0
 51
39.999999000002383
  0
LINE
  5
2C61
  8
AM_0
 10
346.9486003797744
 20
263.03666022900512
 30
0.0
 11
346.9486003797744
 21
260.03666022900512
 31
0.0
  0
LINE
  5
2C62
  8
AM_0
 10
378.94864037977447
 20
263.03666022900512
 30
0.0
 11
378.94864037977447
 21
232.0366462290051
 31
0.0
  0
LINE
  5
2C63
  8
AM_0
 10
271.94866037977442
 20
297.03664422900511
 30
0.0
 11
301.0271503797743
 21
297.7980892290048
 31
0.0
  0
LINE
  5
2C64
  8
AM_0
 10
224.91966718649141
 20
282.27485948205111
 30
0.0
 11
233.9486503797747
 21
282.53665822900518
 31
0.0
  0
ARC
  5
2C65
  8
AM_0
 10
224.94865037977479
 20
281.27527958304
 30
0.0
 40
1.0
 50
91.660847232970866
 51
180.0
1001
GENIUS_GENOBJ-N-FIL_13
1002
{
1000
OWNER
1000
GEN
1002
}
1001
GENIUS_GENODEF_13
1002
{
1000
HIER
1070
     0
1002
}
1002
{
1000
MANEDIT
1070
     0
1002
}
1002
{
1000
NOSEL
1070
     0
1002
}
1002
{
1000
BEHIND
1070
     0
1002
}
1002
{
1000
OTHER
1070
     0
1002
}
1002
{
1000
REACTOR
1002
}
  0
LINE
  5
2C66
  8
AM_0
 10
233.9486503797747
 20
282.03664422900511
 30
0.0
 11
260.07952037977458
 21
282.7209112290052
 31
0.0
  0
LINE
  5
2C67
  8
AM_0
 10
264.94867037977463
 20
295.03664622900533
 30
0.0
 11
264.94867037977463
 21
279.70382022900509
 31
0.0
  0
ARC
  5
2C68
  8
AM_0
 10
259.9486003797744
 20
287.71920222900508
 30
0.0
 40
5.0000001000000003
 50
271.50000000000261
 51
0.0
  0
LINE
  5
2C69
  8
AM_0
 10
261.94867037977463
 20
277.70378922900522
 30
0.0
 11
262.94860037977452
 21
277.70378922900522
 31
0.0
  0
LINE
  5
2C6A
  8
AM_0
 10
266.94865037977462
 20
297.03664422900511
 30
0.0
 11
271.94860037977452
 21
297.03664422900511
 31
0.0
  0
ARC
  5
2C6B
  8
AM_0
 10
266.94865037977462
 20
295.03664622900533
 30
0.0
 40
2.00000007
 50
90.00000299999769
 51
180.00001000000091
  0
LINE
  5
2C6C
  8
AM_0
 10
321.94864037977447
 20
287.98830522900522
 30
0.0
 11
321.94864037977447
 21
328.7560312290052
 31
0.0
  0
LINE
  5
2C6D
  8
AM_0
 10
303.94864037977459
 20
292.27031922900511
 30
0.0
 11
320.27776037977418
 21
300.34014222900521
 31
0.0
  0
ARC
  5
2C6E
  8
AM_0
 10
300.94867037977468
 20
300.79708122900507
 30
0.0
 40
3.0
 50
271.50000000000261
 51
0.0
  0
LINE
  5
2C6F
  8
AM_0
 10
305.3968003797749
 20
285.76531422900501
 30
0.0
 11
322.43407037977482
 21
285.76531422900501
 31
0.0
  0
LINE
  5
2C70
  8
AM_0
 10
305.94862037977452
 20
288.69381222900512
 30
0.0
 11
319.40470037977502
 21
288.69381222900512
 31
0.0
  0
ARC
  5
2C71
  8
AM_0
 10
305.94862037977452
 20
290.69381022900518
 30
0.0
 40
2.00000007
 50
179.9999899999988
 51
270.0
  0
ARC
  5
2C72
  8
AM_0
 10
319.40470037977502
 20
285.69381222900512
 30
0.0
 40
3.0
 50
22.48353600000263
 51
90.00000299999769
  0
ARC
  5
2C73
  8
AM_0
 10
324.94864037977459
 20
287.98830522900522
 30
0.0
 40
3.0
 50
179.9999899999988
 51
270.0
  0
LINE
  5
2C74
  8
AM_0
 10
309.2741203797745
 20
315.10756122900511
 30
0.0
 11
319.05334037977423
 21
315.44905122900508
 31
0.0
  0
ARC
  5
2C75
  8
AM_0
 10
308.94862037977452
 20
310.1106112290052
 30
0.0
 40
5.0000001000000003
 50
91.999998000000502
 51
180.00001000000091
  0
ARC
  5
2C76
  8
AM_0
 10
318.94864037977447
 20
303.0296272290052
 30
0.0
 40
3.0
 50
296.29843000000301
 51
0.0
  0
ARC
  5
2C77
  8
AM_0
 10
318.94864037977447
 20
318.44725122900508
 30
0.0
 40
3.0
 50
271.9999999999971
 51
0.0
  0
ARC
  5
2C78
  8
AM_0
 10
322.94860037977469
 20
312.8179912290052
 30
0.0
 40
3.0
 50
0.0
 51
90.00000299999769
  0
LINE
  5
2C79
  8
AM_0
 10
335.94862037977452
 20
284.66127822900512
 30
0.0
 11
335.94862037977452
 21
316.03663122900502
 31
0.0
  0
LINE
  5
2C7A
  8
AM_0
 10
331.94860037977452
 20
284.66127822900512
 30
0.0
 11
335.94862037977452
 21
284.66127822900512
 31
0.0
  0
ARC
  5
2C7B
  8
AM_0
 10
330.36274037977449
 20
276.338921229005
 30
0.0
 40
3.0
 50
39.999999000002383
 51
58.086796999996537
  0
LINE
  5
2C7C
  8
AM_0
 10
331.94860037977452
 20
316.03663122900502
 30
0.0
 11
335.94862037977452
 21
316.03663122900502
 31
0.0
  0
LINE
  5
2C7D
  8
AM_0
 10
323.87881037977462
 20
330.75484122900502
 30
0.0
 11
331.94860037977452
 21
331.03666122900512
 31
0.0
  0
ARC
  5
2C7E
  8
AM_0
 10
323.94862037977452
 20
328.7560312290052
 30
0.0
 40
2.00000007
 50
91.999998000000502
 51
180.00001000000091
  0
LINE
  5
2C7F
  8
AM_0
 10
641.51137469601542
 20
276.03664422900511
 30
0.0
 11
639.24371969601589
 21
319.30606122900502
 31
0.0
  0
LINE
  5
2C80
  8
AM_0
 10
599.12126669601605
 20
292.18206222900523
 30
0.0
 11
579.90062369601583
 21
272.96141922900517
 31
0.0
  0
LINE
  5
2C81
  8
AM_0
 10
602.65678769601561
 20
288.64653822900522
 30
0.0
 11
583.43616269601557
 21
269.42589522900511
 31
0.0
  0
LINE
  5
2C82
  8
AM_0
 10
513.90150569601565
 20
292.18206222900523
 30
0.0
 11
533.12214869601576
 21
272.96141922900517
 31
0.0
  0
LINE
  5
2C83
  8
AM_0
 10
510.3659846960158
 20
288.64650822900512
 30
0.0
 11
529.58661269601589
 21
269.42589522900511
 31
0.0
  0
LINE
  5
2C84
  8
AM_0
 10
471.51140069601558
 20
276.03664422900511
 30
0.0
 11
473.77904069601573
 21
319.30606122900502
 31
0.0
  0
ARC
  5
2C85
  8
AM_0
 10
556.51137269601577
 20
246.03664422900511
 30
0.0
 40
66.000003000000007
 50
168.12283999999781
 51
0.0000100179138904
  0
ARC
  5
2C86
  8
AM_0
 10
556.51137269601577
 20
246.03664422900511
 30
0.0
 40
70.000001999999995
 50
164.54750999999871
 51
0.0000100179138904
  0
LINE
  5
2C87
  8
ﾁｭｳｼﾝｾﾝ
 10
556.51137269601577
 20
335.53495450421661
 30
0.0
 11
556.51137269601577
 21
144.17336022900511
 31
0.0
  0
ARC
  5
2C88
  8
AM_0
 10
556.51137269601577
 20
246.03664422900511
 30
0.0
 40
33.0
 50
0.0
 51
180.00001000000091
  0
ARC
  5
2C89
  8
AM_0
 10
498.1999376960157
 20
270.78063222900511
 30
0.0
 40
11.000000399999999
 50
85.156818000000413
 51
228.856059999997
  0
ARC
  5
2C8A
  8
AM_0
 10
556.51137269601577
 20
246.03664422900511
 30
0.0
 40
52.000007999999987
 50
137.7556700000041
 51
174.78408999999991
  0
ARC
  5
2C8B
  8
AM_0
 10
614.82283469601566
 20
270.78063222900511
 30
0.0
 40
11.000000399999999
 50
311.14394000000277
 51
94.843180000001425
  0
ARC
  5
2C8C
  8
AM_0
 10
556.51137269601577
 20
246.03664422900511
 30
0.0
 40
52.000007999999987
 50
5.2159076999984881
 51
42.244334000002823
  0
LINE
  5
2C8D
  8
ﾁｭｳｼﾝｾﾝ
 10
465.1733006960157
 20
246.03664422900511
 30
0.0
 11
645.12496169601582
 21
246.03664422900511
 31
0.0
  0
LINE
  5
2C8E
  8
AM_0
 10
515.56016669601604
 20
168.03667122900509
 30
0.0
 11
597.46259069601581
 21
168.03667122900509
 31
0.0
  0
CIRCLE
  5
2C8F
  8
AM_0
 10
528.38409569601561
 20
158.1315352290051
 30
0.0
 40
4.9796462999999971
  0
ARC
  5
2C90
  8
AM_0
 10
528.38409569601561
 20
158.1315352290051
 30
0.0
 40
7.0000007999999987
 50
164.919440000001
 51
270.0
  0
LINE
  5
2C91
  8
AM_0
 10
531.25908269601598
 20
153.15189222900511
 30
0.0
 11
525.50911169601568
 21
153.15189222900511
 31
0.0
  0
LINE
  5
2C92
  8
AM_0
 10
531.25908269601598
 20
163.11118122900501
 30
0.0
 11
525.50911169601568
 21
163.11118122900501
 31
0.0
  0
LINE
  5
2C93
  8
ﾁｭｳｼﾝｾﾝ
 10
600.33989962570956
 20
226.03665822900521
 30
0.0
 11
512.68284576632175
 21
226.03665822900521
 31
0.0
  0
LINE
  5
2C94
  8
AM_0
 10
471.51137069601538
 20
216.03664422900511
 30
0.0
 11
473.7661406960155
 21
173.01329622900511
 31
0.0
  0
LINE
  5
2C95
  8
AM_0
 10
483.75242669601579
 20
163.5366412290052
 30
0.0
 11
512.96208269601573
 21
163.5366412290052
 31
0.0
  0
LINE
  5
2C96
  8
ﾁｭｳｼﾝｾﾝ1
 10
476.81201069601588
 20
166.33728522900509
 30
0.0
 11
495.50727869601559
 21
185.03253822900521
 31
0.0
  0
ARC
  5
2C97
  8
ﾁｭｳｼﾝｾﾝ1
 10
556.51137269601577
 20
246.03664422900511
 30
0.0
 40
100.0000109999999
 50
217.75738000000209
 51
232.6399200000015
  0
ARC
  5
2C98
  8
AM_0
 10
483.75242669601579
 20
173.5366582290053
 30
0.0
 40
10.000000200000001
 50
183.00000999999961
 51
270.0
  0
CIRCLE
  5
2C99
  8
AM_0
 10
485.80070669601582
 20
175.3259782290051
 30
0.0
 40
6.0000002999999991
  0
LINE
  5
2C9A
  8
AM_0
 10
522.63408269601575
 20
158.1315352290051
 30
0.0
 11
525.50908169601553
 21
163.11118122900501
 31
0.0
  0
LINE
  5
2C9B
  8
AM_0
 10
525.50908169601553
 20
153.15189222900511
 30
0.0
 11
522.63408269601575
 21
158.13152022900499
 31
0.0
  0
ARC
  5
2C9C
  8
AM_0
 10
556.51137269601577
 20
226.03665822900521
 30
0.0
 40
71.000000999999983
 50
234.7757899999998
 51
238.49327000000019
  0
LINE
  5
2C9D
  8
AM_0
 10
512.96208269601573
 20
163.5366562290049
 30
0.0
 11
515.56016669601604
 21
168.0366562290049
 31
0.0
  0
ARC
  5
2C9E
  8
AM_0
 10
516.79387169601569
 20
161.240666229005
 30
0.0
 40
5.0000001000000003
 50
344.9836399999993
 51
56.872543000000888
  0
LINE
  5
2C9F
  8
AM_0
 10
471.51140069601558
 20
216.03664422900511
 30
0.0
 11
471.51140069601558
 21
246.03664422900511
 31
0.0
  0
LINE
  5
2CA0
  8
AM_0
 10
523.51136969601555
 20
246.03664422900511
 30
0.0
 11
523.51136969601555
 21
226.03665822900521
 31
0.0
  0
LINE
  5
2CA1
  8
AM_0
 10
504.51137069601549
 20
241.0366582290051
 30
0.0
 11
504.51137069601549
 21
224.03665722900519
 31
0.0
  0
LINE
  5
2CA2
  8
AM_0
 10
518.51136869601555
 20
221.03665722900499
 30
0.0
 11
497.47749569601592
 21
221.03665722900499
 31
0.0
  0
ARC
  5
2CA3
  8
AM_0
 10
501.51137069601532
 20
224.03665722900519
 30
0.0
 40
3.0
 50
270.0
 51
0.0
  0
ARC
  5
2CA4
  8
AM_0
 10
497.47749569601592
 20
224.03665722900519
 30
0.0
 40
3.0
 50
200.4387800000012
 51
270.0
  0
ARC
  5
2CA5
  8
AM_0
 10
518.51136869601555
 20
226.03665822900521
 30
0.0
 40
5.0000001000000003
 50
270.0
 51
0.0
  0
ARC
  5
2CA6
  8
AM_0
 10
493.71009869601579
 20
241.0366582290051
 30
0.0
 40
3.0
 50
90.00000299999769
 51
184.55206999999891
  0
CIRCLE
  5
2CA7
  8
AM_0
 10
498.1999376960157
 20
270.78063222900511
 30
0.0
 40
4.9796462999999971
  0
ARC
  5
2CA8
  8
AM_0
 10
493.71009869601579
 20
251.03666022900509
 30
0.0
 40
3.0
 50
175.44793000000101
 51
270.0
  0
LINE
  5
2CA9
  8
AM_0
 10
495.32493869601552
 20
265.80101922900531
 30
0.0
 11
492.4499366960157
 21
270.78063222900511
 31
0.0
  0
LINE
  5
2CAA
  8
AM_0
 10
492.4499366960157
 20
270.78063222900511
 30
0.0
 11
495.32493869601552
 21
275.7603082290052
 31
0.0
  0
LINE
  5
2CAB
  8
AM_0
 10
471.51140069601558
 20
276.03664422900511
 30
0.0
 11
471.51140069601558
 21
246.03664422900511
 31
0.0
  0
ARC
  5
2CAC
  8
AM_0
 10
489.22612169601553
 20
255.87000222900519
 30
0.0
 40
2.00000007
 50
351.68541000000101
 51
79.999998000001099
  0
ARC
  5
2CAD
  8
AM_0
 10
488.98860269601562
 20
260.23783122900511
 30
0.0
 40
3.0
 50
348.12283999999778
 51
48.856063000001683
  0
ARC
  5
2CAE
  8
AM_0
 10
489.22612169601553
 20
255.87000222900519
 30
0.0
 40
2.00000007
 50
79.999998000001099
 51
171.6854100000009
  0
LINE
  5
2CAF
  8
AM_0
 10
489.57344069601589
 20
257.83960722900503
 30
0.0
 11
489.57344069601589
 21
257.83960722900503
 31
0.0
  0
ARC
  5
2CB0
  8
AM_0
 10
501.51137069601532
 20
241.0366582290051
 30
0.0
 40
3.0
 50
0.0
 51
90.00000299999769
  0
LINE
  5
2CB1
  8
AM_0
 10
493.71009869601579
 20
244.0366582290053
 30
0.0
 11
501.51137069601532
 21
244.0366582290053
 31
0.0
  0
ARC
  5
2CB2
  8
AM_0
 10
501.73912169601579
 20
251.03666022900509
 30
0.0
 40
3.0
 50
270.0
 51
354.78408999999999
  0
LINE
  5
2CB3
  8
AM_0
 10
493.71009869601579
 20
248.03666022900501
 30
0.0
 11
501.73912169601579
 21
248.03666022900501
 31
0.0
  0
LINE
  5
2CB4
  8
AM_0
 10
503.94993869601529
 20
270.7806622290052
 30
0.0
 11
501.0749366960157
 21
265.8009892290051
 31
0.0
  0
LINE
  5
2CB5
  8
AM_0
 10
501.0749366960157
 20
265.8009892290051
 30
0.0
 11
495.32493869601552
 21
265.8009892290051
 31
0.0
  0
LINE
  5
2CB6
  8
AM_0
 10
503.94990869601588
 20
270.7806622290052
 30
0.0
 11
501.0749366960157
 21
275.76027822900528
 31
0.0
  0
LINE
  5
2CB7
  8
AM_0
 10
501.0749366960157
 20
275.76027822900528
 30
0.0
 11
495.32493869601552
 21
275.76027822900528
 31
0.0
  0
LINE
  5
2CB8
  8
AM_0
 10
641.51138969601607
 20
216.03664422900511
 30
0.0
 11
639.25662869601535
 21
173.01329622900511
 31
0.0
  0
ARC
  5
2CB9
  8
AM_0
 10
556.51137269601577
 20
226.03665822900521
 30
0.0
 40
71.000000999999983
 50
301.50671999999992
 51
305.22421000000008
  0
LINE
  5
2CBA
  8
AM_0
 10
528.38409569601561
 20
151.13153622900509
 30
0.0
 11
584.63866169601579
 21
151.13153622900509
 31
0.0
  0
LINE
  5
2CBB
  8
AM_0
 10
534.1340966960156
 20
158.1315352290051
 30
0.0
 11
531.25909769601606
 21
163.11118122900501
 31
0.0
  0
LINE
  5
2CBC
  8
AM_0
 10
534.13408169601553
 20
158.1315352290051
 30
0.0
 11
531.25908269601598
 21
153.15189222900511
 31
0.0
  0
CIRCLE
  5
2CBD
  8
AM_0
 10
584.63866169601579
 20
158.1315352290051
 30
0.0
 40
4.9796462999999971
  0
ARC
  5
2CBE
  8
AM_0
 10
584.63866169601579
 20
158.1315352290051
 30
0.0
 40
7.0000007999999987
 50
270.00002000000183
 51
15.08055900000241
  0
LINE
  5
2CBF
  8
AM_0
 10
578.88866069601545
 20
158.1315352290051
 30
0.0
 11
581.76365969601545
 21
163.11118122900501
 31
0.0
  0
LINE
  5
2CC0
  8
AM_0
 10
590.38865969601545
 20
158.1315352290051
 30
0.0
 11
587.51367569601553
 21
163.11118122900501
 31
0.0
  0
LINE
  5
2CC1
  8
AM_0
 10
587.51366069601545
 20
153.15189222900511
 30
0.0
 11
581.76367469601564
 21
153.15189222900511
 31
0.0
  0
LINE
  5
2CC2
  8
AM_0
 10
581.76365969601545
 20
153.15189222900511
 30
0.0
 11
578.88866069601545
 21
158.13152022900499
 31
0.0
  0
LINE
  5
2CC3
  8
AM_0
 10
590.38865969601545
 20
158.1315352290051
 30
0.0
 11
587.51366069601545
 21
153.15189222900511
 31
0.0
  0
LINE
  5
2CC4
  8
AM_0
 10
587.51366069601545
 20
163.11118122900501
 30
0.0
 11
581.76367469601564
 21
163.11118122900501
 31
0.0
  0
ARC
  5
2CC5
  8
AM_0
 10
596.2288856960156
 20
161.240666229005
 30
0.0
 40
5.0000001000000003
 50
121.50672999999971
 51
195.0163499999974
  0
LINE
  5
2CC6
  8
AM_0
 10
600.06065969601605
 20
163.5366412290052
 30
0.0
 11
629.27033069601555
 21
163.5366412290052
 31
0.0
  0
CIRCLE
  5
2CC7
  8
AM_0
 10
627.22205069601534
 20
175.3259782290051
 30
0.0
 40
6.0000002999999991
  0
LINE
  5
2CC8
  8
AM_0
 10
600.06067469601567
 20
163.5366412290052
 30
0.0
 11
597.46259069601581
 21
168.0366562290049
 31
0.0
  0
ARC
  5
2CC9
  8
AM_0
 10
629.27033069601555
 20
173.5366582290053
 30
0.0
 40
10.000000200000001
 50
270.0
 51
357.00000000000108
  0
ARC
  5
2CCA
  8
AM_0
 10
594.51138869601562
 20
226.03665822900521
 30
0.0
 40
5.0000001000000003
 50
179.9999899999988
 51
270.0
  0
ARC
  5
2CCB
  8
AM_0
 10
556.51137269601577
 20
246.03664422900471
 30
0.0
 40
14.000001299999999
 50
106.6015399999999
 51
73.398452000000006
  0
ARC
  5
2CCC
  8
AM_0
 10
556.51137269601577
 20
246.0366742290052
 30
0.0
 40
26.500002599999998
 50
270.0
 51
90.00000299999769
  0
ARC
  5
2CCD
  8
AM_0
 10
556.51137269601577
 20
246.0366742290052
 30
0.0
 40
26.500002599999998
 50
90.00000299999769
 51
270.0
  0
LINE
  5
2CCE
  8
AM_0
 10
589.51137269601577
 20
246.03664422900511
 30
0.0
 11
589.51137269601577
 21
226.03665822900521
 31
0.0
  0
LINE
  5
2CCF
  8
AM_0
 10
552.51135569601593
 20
263.03666022900472
 30
0.0
 11
560.51135669601581
 21
263.03666022900472
 31
0.0
  0
CIRCLE
  5
2CD0
  8
AM_5
 10
556.51137269601577
 20
246.03664422900471
 30
0.0
 40
4.000000199999997
  0
LINE
  5
2CD1
  8
AM_0
 10
552.51135569601593
 20
256.03664622900448
 30
0.0
 11
560.51135669601581
 21
256.03664622900448
 31
0.0
  0
CIRCLE
  5
2CD2
  8
AM_0
 10
556.51137269601577
 20
246.03664422900471
 30
0.0
 40
3.0
  0
ARC
  5
2CD3
  8
AM_0
 10
527.46527369601563
 20
267.30455922900512
 30
0.0
 40
3.0
 50
323.78793999999681
 51
45.000001000003799
  0
ARC
  5
2CD4
  8
AM_0
 10
535.24345769601575
 20
275.08275822900492
 30
0.0
 40
3.0
 50
225.0
 51
306.21206000000308
  0
LINE
  5
2CD5
  8
AM_0
 10
552.51135569601593
 20
256.03664622900448
 30
0.0
 11
552.51135569601593
 21
263.03666022900472
 31
0.0
  0
ARC
  5
2CD6
  8
AM_0
 10
577.77929969601564
 20
275.08275822900492
 30
0.0
 40
3.0
 50
233.78793999999681
 51
315.0
  0
LINE
  5
2CD7
  8
AM_0
 10
560.51135669601581
 20
256.03664622900448
 30
0.0
 11
560.51135669601581
 21
263.03666022900472
 31
0.0
  0
ARC
  5
2CD8
  8
AM_0
 10
585.55748369601565
 20
267.30455922900512
 30
0.0
 40
3.0
 50
135.0
 51
216.21206000000311
  0
LINE
  5
2CD9
  8
AM_0
 10
641.51137469601542
 20
216.03664422900511
 30
0.0
 11
641.51137469601542
 21
246.03664422900511
 31
0.0
  0
LINE
  5
2CDA
  8
AM_0
 10
608.51138669601585
 20
241.0366582290051
 30
0.0
 11
608.51138669601585
 21
224.03665722900519
 31
0.0
  0
ARC
  5
2CDB
  8
AM_0
 10
611.51138669601585
 20
224.03665722900519
 30
0.0
 40
3.0
 50
179.9999899999988
 51
270.0
  0
LINE
  5
2CDC
  8
AM_0
 10
594.51138869601562
 20
221.03665722900499
 30
0.0
 11
615.54527669601566
 21
221.03665722900499
 31
0.0
  0
ARC
  5
2CDD
  8
AM_0
 10
615.54527669601566
 20
224.03665722900519
 30
0.0
 40
3.0
 50
270.0
 51
339.56121999999863
  0
ARC
  5
2CDE
  8
AM_0
 10
556.51137269601577
 20
246.03664422900511
 30
0.0
 40
70.000001999999995
 50
0.0
 51
15.45248699999984
  0
ARC
  5
2CDF
  8
AM_0
 10
556.51137269601577
 20
246.03664422900511
 30
0.0
 40
66.000003000000007
 50
0.0
 51
11.877162000000441
  0
ARC
  5
2CE0
  8
AM_0
 10
623.79663569601553
 20
255.87000222900519
 30
0.0
 40
2.00000007
 50
99.999999999998593
 51
188.31458999999879
  0
ARC
  5
2CE1
  8
AM_0
 10
611.51138669601585
 20
241.0366582290051
 30
0.0
 40
3.0
 50
90.00000299999769
 51
180.00001000000091
  0
ARC
  5
2CE2
  8
AM_0
 10
611.28363569601595
 20
251.03666022900509
 30
0.0
 40
3.0
 50
185.21590999999989
 51
270.0
  0
LINE
  5
2CE3
  8
AM_0
 10
619.31265869601555
 20
244.0366582290053
 30
0.0
 11
611.51138669601585
 21
244.0366582290053
 31
0.0
  0
ARC
  5
2CE4
  8
AM_0
 10
619.31265869601555
 20
241.0366582290051
 30
0.0
 40
3.0
 50
355.44793000000112
 51
90.00000299999769
  0
LINE
  5
2CE5
  8
AM_0
 10
619.31265869601555
 20
248.03666022900501
 30
0.0
 11
611.28363569601595
 21
248.03666022900501
 31
0.0
  0
ARC
  5
2CE6
  8
AM_0
 10
619.31265869601555
 20
251.03666022900509
 30
0.0
 40
3.0
 50
270.0
 51
4.5520713999981091
  0
CIRCLE
  5
2CE7
  8
AM_0
 10
614.82287969601612
 20
270.7805722290052
 30
0.0
 40
4.9796462999999971
  0
LINE
  5
2CE8
  8
AM_0
 10
611.94786569601581
 20
265.80095622900512
 30
0.0
 11
609.07286669601581
 21
270.7805722290052
 31
0.0
  0
LINE
  5
2CE9
  8
AM_0
 10
609.07288169601566
 20
270.7805722290052
 30
0.0
 11
611.947880696016
 21
275.7602152290051
 31
0.0
  0
LINE
  5
2CEA
  8
AM_0
 10
620.5728656960157
 20
270.7805722290052
 30
0.0
 11
617.69788169601588
 21
265.8009262290052
 31
0.0
  0
LINE
  5
2CEB
  8
AM_0
 10
617.69788169601588
 20
265.8009262290052
 30
0.0
 11
611.947880696016
 21
265.8009262290052
 31
0.0
  0
LINE
  5
2CEC
  8
AM_0
 10
623.4493466960156
 20
257.83960722900503
 30
0.0
 11
623.4493466960156
 21
257.83960722900503
 31
0.0
  0
ARC
  5
2CED
  8
AM_0
 10
624.03416969601585
 20
260.23783122900511
 30
0.0
 40
3.0
 50
131.1439400000028
 51
191.87716000000191
  0
ARC
  5
2CEE
  8
AM_0
 10
623.79663569601553
 20
255.87000222900519
 30
0.0
 40
2.00000007
 50
8.3145874000023383
 51
99.999999999998593
  0
LINE
  5
2CEF
  8
AM_0
 10
620.5728656960157
 20
270.78060222900518
 30
0.0
 11
617.69788169601588
 21
275.76024822900501
 31
0.0
  0
LINE
  5
2CF0
  8
AM_0
 10
617.69788169601588
 20
275.76024822900501
 30
0.0
 11
611.947880696016
 21
275.76024822900501
 31
0.0
  0
LINE
  5
2CF1
  8
AM_0
 10
641.51137469601542
 20
276.03664422900511
 30
0.0
 11
641.51137469601542
 21
246.03664422900511
 31
0.0
  0
ARC
  5
2CF2
  8
AM_0
 10
556.51137269601577
 20
246.03664422900511
 30
0.0
 40
66.000003000000007
 50
34.109953999998901
 51
145.89004000000139
  0
ARC
  5
2CF3
  8
AM_0
 10
556.51137269601577
 20
246.03664422900511
 30
0.0
 40
70.000001999999995
 50
30.534626999999471
 51
149.46536999999779
  0
LINE
  5
2CF4
  8
AM_0
 10
526.51136969601555
 20
331.03666122900512
 30
0.0
 11
556.51137269601577
 21
331.03666122900512
 31
0.0
  0
ARC
  5
2CF5
  8
AM_0
 10
483.7653356960156
 20
318.78271122900492
 30
0.0
 40
10.000000200000001
 50
92.999999000001637
 51
176.99999000000011
  0
CIRCLE
  5
2CF6
  8
AM_0
 10
485.80070669601582
 20
316.74733122900511
 30
0.0
 40
6.0000002999999991
  0
ARC
  5
2CF7
  8
AM_0
 10
508.24464569601548
 20
286.52520222900517
 30
0.0
 40
3.0
 50
45.000001000003799
 51
140.00838999999851
  0
ARC
  5
2CF8
  8
AM_0
 10
501.98030369601611
 20
286.66127922900512
 30
0.0
 40
2.00000007
 50
235.0000000000025
 51
323.314590000002
  0
ARC
  5
2CF9
  8
AM_0
 10
499.3819436960157
 20
284.73067722900521
 30
0.0
 40
3.0
 50
265.1568199999985
 51
325.89004999999969
  0
ARC
  5
2CFA
  8
AM_0
 10
501.98030369601611
 20
286.66127922900512
 30
0.0
 40
2.00000007
 50
143.31457999999861
 51
235.00000999999901
  0
LINE
  5
2CFB
  8
AM_0
 10
500.83314569601561
 20
285.02297322900512
 30
0.0
 11
500.83314569601561
 21
285.02297322900512
 31
0.0
  0
ARC
  5
2CFC
  8
AM_0
 10
516.02281469601564
 20
294.30336822900512
 30
0.0
 40
3.0
 50
129.9916100000014
 51
225.0
  0
LINE
  5
2CFD
  8
AM_0
 10
526.51138469601574
 20
331.03666122900512
 30
0.0
 11
483.24195869601567
 21
328.76899122900522
 31
0.0
  0
LINE
  5
2CFE
  8
AM_0
 10
586.51138769601584
 20
331.03666122900512
 30
0.0
 11
629.78079869601549
 21
328.7690212290052
 31
0.0
  0
ARC
  5
2CFF
  8
AM_0
 10
561.51138569601562
 20
300.80892222900519
 30
0.0
 40
3.0
 50
179.9999899999988
 51
264.78408999999982
  0
ARC
  5
2D00
  8
AM_0
 10
561.51138569601562
 20
308.83792122900508
 30
0.0
 40
3.0
 50
85.44792699999806
 51
180.00001000000091
  0
ARC
  5
2D01
  8
AM_0
 10
551.51137169601543
 20
300.80892222900519
 30
0.0
 40
3.0
 50
275.21591000000001
 51
0.0
  0
ARC
  5
2D02
  8
AM_0
 10
556.51137269601577
 20
246.03664422900511
 30
0.0
 40
52.000007999999987
 50
95.215910999999693
 51
132.24432999999581
  0
ARC
  5
2D03
  8
AM_0
 10
551.51137169601543
 20
308.83792122900508
 30
0.0
 40
3.0
 50
0.0
 51
94.552071000002357
  0
LINE
  5
2D04
  8
AM_0
 10
558.51138569601551
 20
308.83792122900508
 30
0.0
 11
558.51138569601551
 21
300.80892222900519
 31
0.0
  0
LINE
  5
2D05
  8
AM_0
 10
554.51137169601543
 20
308.83792122900508
 30
0.0
 11
554.51137169601543
 21
300.80892222900519
 31
0.0
  0
ARC
  5
2D06
  8
AM_0
 10
556.51137269601577
 20
246.03664422900511
 30
0.0
 40
52.000007999999987
 50
47.755664999997713
 51
84.784093999997324
  0
LINE
  5
2D07
  8
AM_0
 10
586.51137269601566
 20
331.03666122900512
 30
0.0
 11
556.51137269601577
 21
331.03666122900512
 31
0.0
  0
ARC
  5
2D08
  8
AM_0
 10
629.25743669601582
 20
318.78271122900492
 30
0.0
 40
10.000000200000001
 50
3.0000000999988461
 51
86.99999899999699
  0
LINE
  5
2D09
  8
ﾁｭｳｼﾝｾﾝ1
 10
636.32849669601535
 20
325.85377122900508
 30
0.0
 11
617.4751166960159
 21
307.00039122900517
 31
0.0
  0
ARC
  5
2D0A
  8
ﾁｭｳｼﾝｾﾝ1
 10
556.51137269601577
 20
246.03664422900511
 30
0.0
 40
100.0000109999999
 50
37.757374999999747
 51
52.639915999999452
  0
CIRCLE
  5
2D0B
  8
AM_0
 10
627.22205069601534
 20
316.74733122900511
 30
0.0
 40
6.0000002999999991
  0
ARC
  5
2D0C
  8
AM_0
 10
611.04247169601558
 20
286.66127922900512
 30
0.0
 40
2.00000007
 50
216.6854200000011
 51
304.99999999999739
  0
ARC
  5
2D0D
  8
AM_0
 10
596.99994269601575
 20
294.30336822900512
 30
0.0
 40
3.0
 50
315.0
 51
50.008388000000743
  0
ARC
  5
2D0E
  8
AM_0
 10
604.77811169601534
 20
286.52520222900517
 30
0.0
 40
3.0
 50
39.99161100000034
 51
135.0
  0
ARC
  5
2D0F
  8
AM_0
 10
611.04247169601558
 20
286.66127922900512
 30
0.0
 40
2.00000007
 50
304.99999999999739
 51
36.68541400000079
  0
ARC
  5
2D10
  8
AM_0
 10
613.64082869601589
 20
284.73067722900521
 30
0.0
 40
3.0
 50
214.10995999999841
 51
274.8431800000015
  0
LINE
  5
2D11
  8
AM_0
 10
612.18962669601535
 20
285.02297322900512
 30
0.0
 11
612.18962669601535
 21
285.02297322900512
 31
0.0
  0
LINE
  5
2D12
  8
AM_0
 10
233.9486503797747
 20
257.97409722900522
 30
0.0
 11
223.94865037977459
 21
257.97409722900522
 31
0.0
  0
LINE
  5
2D13
  8
AM_0
 10
233.9486503797747
 20
272.03666322900523
 30
0.0
 11
223.94865037977459
 21
272.03666322900523
 31
0.0
  0
LINE
  5
2D14
  8
AM_0
 10
233.9486503797747
 20
180.03665622900519
 30
0.0
 11
223.94865037977479
 21
180.03665622900519
 31
0.0
  0
LINE
  5
2D15
  8
AM_0
 10
233.9486503797747
 20
194.0992192290052
 30
0.0
 11
223.94865037977459
 21
194.0992192290052
 31
0.0
  0
LINE
  5
2D16
  8
AM_0
 10
176.4486703797746
 20
484.2196019442718
 30
0.0
 11
176.4486703797746
 21
455.87645619376428
 31
0.0
  0
LINE
  5
2D17
  8
AM_0
 10
198.9486703797744
 20
495.04802906901801
 30
0.0
 11
198.9486703797744
 21
445.04802906901801
 31
0.0
  0
LINE
  5
2D18
  8
AM_0
 10
178.4486703797744
 20
447.04802906901801
 30
0.0
 11
178.4486703797746
 21
493.04802906901801
 31
0.0
  0
LINE
  5
2D19
  8
AM_0
 10
223.9486703797746
 20
525.28665042305306
 30
0.0
 11
223.94867037977551
 21
414.80940771498308
 31
0.0
  0
LINE
  5
2D1A
  8
AM_0
 10
180.4486703797746
 20
445.04802906901813
 30
0.0
 11
194.8065347560435
 21
445.04802906901813
 31
0.0
  0
ARC
  5
2D1B
  8
AM_0
 10
180.4486703797746
 20
447.04802906901801
 30
0.0
 40
2.0
 50
180.0
 51
270.0
1001
GENIUS_GENODEF_13
1002
{
1000
HIER
1070
     0
1002
}
1002
{
1000
MANEDIT
1070
     0
1002
}
1002
{
1000
NOSEL
1070
     0
1002
}
1002
{
1000
BEHIND
1070
     0
1002
}
1002
{
1000
OTHER
1070
     0
1002
}
1002
{
1000
REACTOR
1002
}
1001
GENIUS_GENOBJ-N-FIL_13
1002
{
1000
OWNER
1000
GEN
1002
}
  0
ARC
  5
2D1C
  8
AM_0
 10
178.4486703797746
 20
455.87645619376428
 30
0.0
 40
2.0
 50
180.0
 51
225.0
1001
GENIUS_GENODEF_13
1002
{
1000
HIER
1070
     0
1002
}
1002
{
1000
MANEDIT
1070
     0
1002
}
1002
{
1000
NOSEL
1070
     0
1002
}
1002
{
1000
BEHIND
1070
     0
1002
}
1002
{
1000
OTHER
1070
     0
1002
}
1002
{
1000
REACTOR
1002
}
1001
GENIUS_GENOBJ-N-FIL_13
1002
{
1000
OWNER
1000
GEN
1002
}
  0
LINE
  5
2D1D
  8
AM_0
 10
177.03445681740141
 20
454.46224263139112
 30
0.0
 11
177.86288394214759
 21
453.63381550664502
 31
0.0
  0
ARC
  5
2D1E
  8
AM_0
 10
176.4486703797746
 20
452.21960194427191
 30
0.0
 40
2.0
 50
0.0
 51
45.0
1001
GENIUS_GENODEF_13
1002
{
1000
HIER
1070
     0
1002
}
1002
{
1000
MANEDIT
1070
     0
1002
}
1002
{
1000
NOSEL
1070
     0
1002
}
1002
{
1000
BEHIND
1070
     0
1002
}
1002
{
1000
OTHER
1070
     0
1002
}
1002
{
1000
REACTOR
1002
}
1001
GENIUS_GENOBJ-N-FIL_13
1002
{
1000
OWNER
1000
GEN
1002
}
  0
ARC
  5
2D1F
  8
AM_0
 10
224.94867037977451
 20
414.80940771498308
 30
0.0
 40
1.0
 50
180.0
 51
268.33915276702578
1001
GENIUS_GENOBJ-N-FIL_13
1002
{
1000
OWNER
1000
GEN
1002
}
1001
GENIUS_GENODEF_13
1002
{
1000
HIER
1070
     0
1002
}
1002
{
1000
MANEDIT
1070
     0
1002
}
1002
{
1000
NOSEL
1070
     0
1002
}
1002
{
1000
BEHIND
1070
     0
1002
}
1002
{
1000
OTHER
1070
     0
1002
}
1002
{
1000
REACTOR
1002
}
  0
LINE
  5
2D20
  8
AM_0
 10
224.91968718649139
 20
413.80982781597208
 30
0.0
 11
233.94867037977451
 21
413.54802906901801
 31
0.0
  0
LINE
  5
2D21
  8
AM_0
 10
222.48420428570731
 20
421.5124951630853
 30
0.0
 11
201.87760256790901
 21
442.1190968808836
 31
0.0
  0
ARC
  5
2D22
  8
AM_0
 10
194.8065347560435
 20
435.04802906901801
 30
0.0
 40
10.0
 50
45.0
 51
90.0
1001
GENIUS_GENOBJ-N-FIL_13
1002
{
1000
OWNER
1000
GEN
1002
}
1001
GENIUS_GENODEF_13
1002
{
1000
HIER
1070
     0
1002
}
1002
{
1000
MANEDIT
1070
     0
1002
}
1002
{
1000
NOSEL
1070
     0
1002
}
1002
{
1000
BEHIND
1070
     0
1002
}
1002
{
1000
OTHER
1070
     0
1002
}
1002
{
1000
REACTOR
1002
}
  0
LINE
  5
2D23
  8
AM_0
 10
233.94867037977451
 20
424.04802706901808
 30
0.0
 11
223.94867037977471
 21
424.04802706901808
 31
0.0
  0
ARC
  5
2D24
  8
AM_0
 10
218.94867037977451
 20
417.9769612571526
 30
0.0
 40
5.0
 50
0.0
 51
45.0
1001
GENIUS_GENODEF_13
1002
{
1000
HIER
1070
     0
1002
}
1002
{
1000
MANEDIT
1070
     0
1002
}
1002
{
1000
NOSEL
1070
     0
1002
}
1002
{
1000
BEHIND
1070
     0
1002
}
1002
{
1000
OTHER
1070
     0
1002
}
1002
{
1000
REACTOR
1002
}
1001
GENIUS_GENOBJ-N-FIL_13
1002
{
1000
OWNER
1000
GEN
1002
}
  0
LINE
  5
2D25
  8
AM_0
 10
233.94867037977451
 20
438.11059006901797
 30
0.0
 11
223.94867037977471
 21
438.11059006901797
 31
0.0
  0
LINE
  5
2D26
  8
AM_0
 10
180.4486703797746
 20
495.04802906901813
 30
0.0
 11
194.8065347560435
 21
495.04802906901813
 31
0.0
  0
LINE
  5
2D27
  8
AM_0
 10
149.4486703797746
 20
464.04802906901801
 30
0.0
 11
174.4486703797746
 21
464.04802906901801
 31
0.0
  0
LINE
  5
2D28
  8
AM_0
 10
149.4486703797746
 20
476.04802906901801
 30
0.0
 11
174.4486703797746
 21
476.04802906901801
 31
0.0
  0
LINE
  5
2D29
  8
AM_0
 10
149.44867037977451
 20
468.04802906901801
 30
0.0
 11
167.44867037977451
 21
468.04802906901801
 31
0.0
  0
LINE
  5
2D2A
  8
AM_0
 10
149.44867037977451
 20
472.04802906901801
 30
0.0
 11
167.44867037977451
 21
472.04802906901801
 31
0.0
  0
LINE
  5
2D2B
  8
AM_0
 10
149.4486703797746
 20
476.04802906901801
 30
0.0
 11
149.4486703797746
 21
464.04802906901801
 31
0.0
  0
LINE
  5
2D2C
  8
AM_0
 10
167.4486703797746
 20
472.04802906901801
 30
0.0
 11
167.44867037977451
 21
468.04802906901801
 31
0.0
  0
ARC
  5
2D2D
  8
AM_0
 10
167.4486703797746
 20
470.04802906901813
 30
0.0
 40
1.9999999999998861
 50
270.0
 51
90.0
  0
LINE
  5
2D2E
  8
AM_0
 10
174.4486703797746
 20
477.54802906901813
 30
0.0
 11
174.4486703797746
 21
462.5480214396236
 31
0.0
  0
LINE
  5
2D2F
  8
AM_0
 10
174.4486703797746
 20
462.5480214396236
 30
0.0
 11
176.4486703797746
 21
462.5480214396236
 31
0.0
  0
LINE
  5
2D30
  8
AM_0
 10
174.4486703797746
 20
477.54802906901813
 30
0.0
 11
176.4486703797746
 21
477.54802906901813
 31
0.0
  0
ARC
  5
2D31
  8
AM_0
 10
176.4486703797746
 20
487.876456193764
 30
0.0
 40
2.0
 50
315.0
 51
0.0
1001
GENIUS_GENODEF_13
1002
{
1000
HIER
1070
     0
1002
}
1002
{
1000
MANEDIT
1070
     0
1002
}
1002
{
1000
NOSEL
1070
     0
1002
}
1002
{
1000
BEHIND
1070
     0
1002
}
1002
{
1000
OTHER
1070
     0
1002
}
1002
{
1000
REACTOR
1002
}
1001
GENIUS_GENOBJ-N-FIL_13
1002
{
1000
OWNER
1000
GEN
1002
}
  0
LINE
  5
2D32
  8
AM_0
 10
177.03445681740141
 20
485.63381550664491
 30
0.0
 11
177.86288394214759
 21
486.46224263139112
 31
0.0
  0
ARC
  5
2D33
  8
AM_0
 10
178.4486703797746
 20
484.2196019442718
 30
0.0
 40
2.0
 50
135.0
 51
180.0
1001
GENIUS_GENODEF_13
1002
{
1000
HIER
1070
     0
1002
}
1002
{
1000
MANEDIT
1070
     0
1002
}
1002
{
1000
NOSEL
1070
     0
1002
}
1002
{
1000
BEHIND
1070
     0
1002
}
1002
{
1000
OTHER
1070
     0
1002
}
1002
{
1000
REACTOR
1002
}
1001
GENIUS_GENOBJ-N-FIL_13
1002
{
1000
OWNER
1000
GEN
1002
}
  0
ARC
  5
2D34
  8
AM_0
 10
180.4486703797746
 20
493.04802906901801
 30
0.0
 40
2.0
 50
90.0
 51
180.0
1001
GENIUS_GENODEF_13
1002
{
1000
HIER
1070
     0
1002
}
1002
{
1000
MANEDIT
1070
     0
1002
}
1002
{
1000
NOSEL
1070
     0
1002
}
1002
{
1000
BEHIND
1070
     0
1002
}
1002
{
1000
OTHER
1070
     0
1002
}
1002
{
1000
REACTOR
1002
}
1001
GENIUS_GENOBJ-N-FIL_13
1002
{
1000
OWNER
1000
GEN
1002
}
  0
LINE
  5
2D35
  8
AM_0
 10
222.48420428570731
 20
518.58356297495084
 30
0.0
 11
201.87760256790901
 21
497.9769612571526
 31
0.0
  0
ARC
  5
2D36
  8
AM_0
 10
194.8065347560435
 20
505.04802906901801
 30
0.0
 40
10.0
 50
270.0
 51
315.0
1001
GENIUS_GENODEF_13
1002
{
1000
HIER
1070
     0
1002
}
1002
{
1000
MANEDIT
1070
     0
1002
}
1002
{
1000
NOSEL
1070
     0
1002
}
1002
{
1000
BEHIND
1070
     0
1002
}
1002
{
1000
OTHER
1070
     0
1002
}
1002
{
1000
REACTOR
1002
}
1001
GENIUS_GENOBJ-N-FIL_13
1002
{
1000
OWNER
1000
GEN
1002
}
  0
LINE
  5
2D37
  8
AM_0
 10
233.94867037977451
 20
501.98546806901822
 30
0.0
 11
223.94867037977471
 21
501.98546806901822
 31
0.0
  0
LINE
  5
2D38
  8
AM_0
 10
233.94867037977451
 20
516.04803406901794
 30
0.0
 11
223.94867037977471
 21
516.04803406901794
 31
0.0
  0
ARC
  5
2D39
  8
AM_0
 10
218.94867037977451
 20
522.11909688088372
 30
0.0
 40
5.0
 50
315.0
 51
0.0
1001
GENIUS_GENODEF_13
1002
{
1000
HIER
1070
     0
1002
}
1002
{
1000
MANEDIT
1070
     0
1002
}
1002
{
1000
NOSEL
1070
     0
1002
}
1002
{
1000
BEHIND
1070
     0
1002
}
1002
{
1000
OTHER
1070
     0
1002
}
1002
{
1000
REACTOR
1002
}
1001
GENIUS_GENOBJ-N-FIL_13
1002
{
1000
OWNER
1000
GEN
1002
}
  0
LINE
  5
2D3A
  8
AM_0
 10
224.91968718649139
 20
526.28623032206394
 30
0.0
 11
233.94867037977451
 21
526.54802906901818
 31
0.0
  0
ARC
  5
2D3B
  8
AM_0
 10
224.94867037977451
 20
525.28665042305306
 30
0.0
 40
1.0
 50
91.66084723297412
 51
180.0
1001
GENIUS_GENOBJ-N-FIL_13
1002
{
1000
OWNER
1000
GEN
1002
}
1001
GENIUS_GENODEF_13
1002
{
1000
HIER
1070
     0
1002
}
1002
{
1000
MANEDIT
1070
     0
1002
}
1002
{
1000
NOSEL
1070
     0
1002
}
1002
{
1000
BEHIND
1070
     0
1002
}
1002
{
1000
OTHER
1070
     0
1002
}
1002
{
1000
REACTOR
1002
}
  0
LINE
  5
2D3D
  8
ﾁｭｳｼﾝｾﾝ
 10
141.79263130786279
 20
470.04802906901813
 30
0.0
 11
385.16833037977449
 21
470.04802906901813
 31
0.0
  0
LINE
  5
2D3E
  8
AM_0
 10
338.94867037977451
 20
485.04802906901818
 30
0.0
 11
338.94867037977451
 21
455.04802906901801
 31
0.0
  0
LINE
  5
2D3F
  8
AM_0
 10
378.94864037977447
 20
484.0480290690179
 30
0.0
 11
378.94864037977447
 21
456.04802906901818
 31
0.0
  0
LINE
  5
2D40
  8
AM_0
 10
336.94864037977447
 20
444.51368906901803
 30
0.0
 11
336.94864037977447
 21
495.58232906901799
 31
0.0
  0
LINE
  5
2D41
  8
AM_0
 10
303.94864037977459
 20
540.43699906901816
 30
0.0
 11
303.94864037977459
 21
399.65904906901812
 31
0.0
  0
LINE
  5
2D42
  8
AM_0
 10
331.94864037977447
 20
385.04802906901801
 30
0.0
 11
331.94864037977447
 21
555.04805906901811
 31
0.0
  0
LINE
  5
2D43
  8
AM_0
 10
325.94864037977447
 20
403.26667906901798
 30
0.0
 11
325.94864037977447
 21
536.82936906901807
 31
0.0
  0
LINE
  5
2D44
  8
AM_0
 10
335.94867037977451
 20
540.04802906901818
 30
0.0
 11
335.94867037977451
 21
400.0480290690179
 31
0.0
  0
LINE
  5
2D45
  8
AM_0
 10
233.9486703797744
 20
413.54802906901801
 30
0.0
 11
233.94867037977451
 21
526.54802906901818
 31
0.0
  0
LINE
  5
2D46
  8
AM_0
 10
264.94867037977463
 20
401.17964906901801
 30
0.0
 11
264.94867037977463
 21
538.9163990690181
 31
0.0
  0
LINE
  5
2D47
  8
AM_0
 10
271.94864037977442
 20
541.04802906901796
 30
0.0
 11
271.94864037977442
 21
399.04802906901801
 31
0.0
  0
LINE
  5
2D48
  8
AM_0
 10
306.8701503797746
 20
396.66008906901811
 30
0.0
 11
319.02719037977459
 21
396.34175906901811
 31
0.0
  0
LINE
  5
2D49
  8
AM_0
 10
319.49145037977462
 20
411.37016906901817
 30
0.0
 11
306.40585037977462
 21
419.09919906901803
 31
0.0
  0
LINE
  5
2D4A
  8
AM_0
 10
304.94864037977447
 20
422.34990906901811
 30
0.0
 11
319.94864037977447
 21
422.34990906901811
 31
0.0
  0
LINE
  5
2D4B
  8
AM_0
 10
319.49148037977449
 20
407.88594906901812
 30
0.0
 11
306.4057903797746
 21
415.61500906901801
 31
0.0
  0
LINE
  5
2D4C
  8
AM_0
 10
233.94867037977451
 20
438.10808906901809
 30
0.0
 11
264.94867037977463
 21
438.10808906901809
 31
0.0
  0
LINE
  5
2D4D
  8
AM_0
 10
261.94864037977447
 20
404.83674906901803
 30
0.0
 11
262.94867037977463
 21
404.83674906901803
 31
0.0
  0
LINE
  5
2D4E
  8
AM_0
 10
233.94867037977451
 20
424.04771906901823
 30
0.0
 11
264.94867037977463
 21
424.04771906901823
 31
0.0
  0
LINE
  5
2D4F
  8
AM_0
 10
259.94867037977463
 20
413.36717906901811
 30
0.0
 11
233.94870037977449
 21
414.04802906901818
 31
0.0
  0
LINE
  5
2D50
  8
AM_0
 10
259.94864037977447
 20
406.83674906901808
 30
0.0
 11
259.94864037977447
 21
422.04771906901789
 31
0.0
  0
ARC
  5
2D51
  8
AM_0
 10
261.94864037977447
 20
406.83674906901808
 30
0.0
 40
2.0
 50
180.00001000000091
 51
270.0
  0
ARC
  5
2D52
  8
AM_0
 10
257.94864037977447
 20
422.04771906901789
 30
0.0
 40
2.0
 50
0.0
 51
90.000003000000945
  0
LINE
  5
2D53
  8
AM_0
 10
302.97226037977453
 20
398.23561906901801
 30
0.0
 11
271.94864037977442
 21
399.04799906901809
 31
0.0
  0
ARC
  5
2D54
  8
AM_0
 10
266.94867037977463
 20
401.17964906901801
 30
0.0
 40
2.0
 50
180.00001000000091
 51
268.5000000000004
  0
LINE
  5
2D55
  8
AM_0
 10
271.94867037977463
 20
399.04802906901801
 30
0.0
 11
266.89633037977461
 21
399.18031906901803
 31
0.0
  0
ARC
  5
2D56
  8
AM_0
 10
262.94867037977463
 20
402.83674906901808
 30
0.0
 40
2.0
 50
0.0
 51
90.000003000000945
  0
ARC
  5
2D57
  8
AM_0
 10
306.94864037977447
 20
399.65904906901812
 30
0.0
 40
3.0
 50
179.9999899999988
 51
268.50000999999872
  0
ARC
  5
2D58
  8
AM_0
 10
302.89371037977452
 20
395.23665906901812
 30
0.0
 40
3.0
 50
47.481952000001627
 51
88.499997000000747
  0
ARC
  5
2D59
  8
AM_0
 10
308.94864037977447
 20
419.92009906901791
 30
0.0
 40
5.0
 50
179.9999899999988
 51
239.431710000001
  0
ARC
  5
2D5A
  8
AM_0
 10
304.94864037977447
 20
423.34990906901788
 30
0.0
 40
1.0
 50
179.9999899999988
 51
270.0
  0
ARC
  5
2D5B
  8
AM_0
 10
308.94864037977447
 20
423.40434906901811
 30
0.0
 40
5.0
 50
179.9999899999988
 51
239.431710000001
  0
LINE
  5
2D5C
  8
AM_0
 10
321.94864037977447
 20
428.09636906901812
 30
0.0
 11
321.94864037977447
 21
387.32863906901798
 31
0.0
  0
ARC
  5
2D5D
  8
AM_0
 10
323.94867037977451
 20
387.32863906901798
 30
0.0
 40
2.0
 50
179.9999899999988
 51
268.00000999999861
  0
LINE
  5
2D5E
  8
AM_0
 10
323.87881037977451
 20
385.32982906901799
 30
0.0
 11
331.94861037977449
 21
385.04802906901801
 31
0.0
  0
LINE
  5
2D5F
  8
AM_0
 10
338.94867037977451
 20
456.04802906901818
 30
0.0
 11
378.94864037977447
 21
456.04802906901818
 31
0.0
  0
LINE
  5
2D60
  8
AM_0
 10
331.94864037977447
 20
400.0480290690179
 30
0.0
 11
335.94867037977451
 21
400.0480290690179
 31
0.0
  0
ARC
  5
2D61
  8
AM_0
 10
316.94864037977447
 20
407.06505906901799
 30
0.0
 40
5.0
 50
0.0
 51
59.431709000000481
  0
ARC
  5
2D62
  8
AM_0
 10
322.94864037977447
 20
403.26667906901798
 30
0.0
 40
3.0
 50
270.0
 51
0.0
  0
ARC
  5
2D63
  8
AM_0
 10
318.94864037977447
 20
393.34276906901817
 30
0.0
 40
3.0
 50
0.0
 51
88.499997000000747
  0
ARC
  5
2D64
  8
AM_0
 10
316.94864037977447
 20
403.58079906901798
 30
0.0
 40
5.0
 50
0.0
 51
59.431709000000481
  0
ARC
  5
2D65
  8
AM_0
 10
319.94864037977447
 20
420.34990906901811
 30
0.0
 40
2.0
 50
0.0
 51
90.000003000000945
  0
ARC
  5
2D66
  8
AM_0
 10
324.94864037977459
 20
428.09636906901812
 30
0.0
 40
3.0
 50
90.000003000000945
 51
180.00001000000091
  0
ARC
  5
2D67
  8
AM_0
 10
335.94864037977447
 20
444.51368906901803
 30
0.0
 40
1.0
 50
272.0000000000004
 51
0.0
  0
LINE
  5
2D68
  8
AM_0
 10
335.94867037977451
 20
443.5131090690179
 30
0.0
 11
335.98355037977461
 21
443.51433906901798
 31
0.0
  0
LINE
  5
2D69
  8
AM_0
 10
336.94864037977447
 20
455.04802906901801
 30
0.0
 11
338.94867037977451
 21
455.04802906901801
 31
0.0
  0
LINE
  5
2D6A
  8
AM_0
 10
304.94864037977447
 20
517.74614906901809
 30
0.0
 11
319.94864037977447
 21
517.74614906901809
 31
0.0
  0
LINE
  5
2D6B
  8
AM_0
 10
306.87012037977451
 20
543.43596906901814
 30
0.0
 11
319.0271603797745
 21
543.75432906901813
 31
0.0
  0
LINE
  5
2D6C
  8
AM_0
 10
319.49148037977449
 20
528.72587906901811
 30
0.0
 11
306.40582037977453
 21
520.99681906901799
 31
0.0
  0
LINE
  5
2D6D
  8
AM_0
 10
319.49148037977449
 20
532.21010906901824
 30
0.0
 11
306.40582037977453
 21
524.48103906901815
 31
0.0
  0
ARC
  5
2D6E
  8
AM_0
 10
266.94867037977463
 20
538.9163990690181
 30
0.0
 40
2.0
 50
91.500001000001546
 51
180.00001000000091
  0
LINE
  5
2D6F
  8
AM_0
 10
233.94867037977451
 20
501.98796906901811
 30
0.0
 11
264.94867037977463
 21
501.98796906901811
 31
0.0
  0
LINE
  5
2D70
  8
AM_0
 10
261.94864037977447
 20
535.25932906901801
 30
0.0
 11
262.94867037977463
 21
535.25932906901801
 31
0.0
  0
LINE
  5
2D71
  8
AM_0
 10
233.94867037977451
 20
516.04832906901811
 30
0.0
 11
264.94867037977463
 21
516.04832906901811
 31
0.0
  0
LINE
  5
2D72
  8
AM_0
 10
259.94867037977463
 20
526.72883906901825
 30
0.0
 11
233.94870037977449
 21
526.04802906901796
 31
0.0
  0
LINE
  5
2D73
  8
AM_0
 10
259.94864037977447
 20
533.25932906901812
 30
0.0
 11
259.94864037977447
 21
518.048329069018
 31
0.0
  0
ARC
  5
2D74
  8
AM_0
 10
257.94864037977447
 20
518.048329069018
 30
0.0
 40
2.0
 50
270.0
 51
0.0
  0
ARC
  5
2D75
  8
AM_0
 10
261.94864037977447
 20
533.25932906901812
 30
0.0
 40
2.0
 50
90.000003000000945
 51
180.00001000000091
  0
ARC
  5
2D76
  8
AM_0
 10
262.94867037977463
 20
537.25932906901812
 30
0.0
 40
2.0
 50
270.0
 51
0.0
  0
ARC
  5
2D77
  8
AM_0
 10
308.94864037977447
 20
516.69169906901811
 30
0.0
 40
5.0
 50
120.5682899999989
 51
180.00001000000091
  0
ARC
  5
2D78
  8
AM_0
 10
308.94864037977447
 20
520.17595906901818
 30
0.0
 40
5.0
 50
120.5682899999989
 51
180.00001000000091
  0
ARC
  5
2D79
  8
AM_0
 10
304.94864037977447
 20
516.7461490690182
 30
0.0
 40
1.0
 50
90.000003000000945
 51
180.00001000000091
  0
LINE
  5
2D7A
  8
AM_0
 10
302.9722303797746
 20
541.86039906901794
 30
0.0
 11
271.94864037977442
 21
541.04802906901796
 31
0.0
  0
LINE
  5
2D7B
  8
AM_0
 10
271.94864037977442
 20
541.04802906901796
 30
0.0
 11
266.89633037977461
 21
540.91572906901774
 31
0.0
  0
ARC
  5
2D7C
  8
AM_0
 10
302.89371037977452
 20
544.85936906901804
 30
0.0
 40
3.0
 50
271.49999999999932
 51
312.51811999999887
  0
ARC
  5
2D7D
  8
AM_0
 10
306.94864037977447
 20
540.43699906901816
 30
0.0
 40
3.0
 50
91.500001000001546
 51
180.00001000000091
  0
ARC
  5
2D7E
  8
AM_0
 10
322.94864037977447
 20
536.82936906901807
 30
0.0
 40
3.0
 50
0.0
 51
90.000003000000945
  0
LINE
  5
2D7F
  8
AM_0
 10
321.94864037977447
 20
511.99968906901802
 30
0.0
 11
321.94864037977447
 21
552.76741906901816
 31
0.0
  0
LINE
  5
2D80
  8
AM_0
 10
338.94867037977451
 20
484.0480290690179
 30
0.0
 11
378.94864037977447
 21
484.0480290690179
 31
0.0
  0
LINE
  5
2D81
  8
AM_0
 10
346.94864037977442
 20
474.04799906901809
 30
0.0
 11
378.94864037977447
 21
474.04799906901809
 31
0.0
  0
LINE
  5
2D82
  8
AM_0
 10
346.94864037977442
 20
466.04802906901801
 30
0.0
 11
378.94864037977447
 21
466.04802906901801
 31
0.0
  0
ARC
  5
2D83
  8
AM_0
 10
346.94864037977442
 20
470.04799906901809
 30
0.0
 40
3.9999962
 50
90.000003000000945
 51
270.0
  0
LINE
  5
2D84
  8
AM_0
 10
346.94864037977442
 20
474.04799906901809
 30
0.0
 11
346.94864037977442
 21
466.04802906901801
 31
0.0
  0
LINE
  5
2D85
  8
AM_0
 10
336.94864037977447
 20
485.04802906901818
 30
0.0
 11
338.94867037977451
 21
485.04802906901818
 31
0.0
  0
ARC
  5
2D86
  8
AM_0
 10
335.94864037977447
 20
495.58232906901799
 30
0.0
 40
1.0
 50
0.0
 51
87.999999999999659
  0
LINE
  5
2D87
  8
AM_0
 10
335.94867037977451
 20
496.58293906901798
 30
0.0
 11
335.98352037977452
 21
496.58171906901811
 31
0.0
  0
LINE
  5
2D88
  8
AM_0
 10
331.94864037977447
 20
540.04802906901818
 30
0.0
 11
335.94867037977451
 21
540.04802906901818
 31
0.0
  0
ARC
  5
2D89
  8
AM_0
 10
324.94864037977459
 20
511.99968906901802
 30
0.0
 40
3.0
 50
179.9999899999988
 51
270.0
  0
ARC
  5
2D8A
  8
AM_0
 10
319.94864037977447
 20
519.7461490690182
 30
0.0
 40
2.0
 50
270.0
 51
0.0
  0
ARC
  5
2D8B
  8
AM_0
 10
316.94864037977447
 20
533.03099906901821
 30
0.0
 40
5.0
 50
300.56828999999891
 51
0.0
  0
ARC
  5
2D8C
  8
AM_0
 10
316.94864037977447
 20
536.51524906901807
 30
0.0
 40
5.0
 50
300.56828999999891
 51
0.0
  0
ARC
  5
2D8D
  8
AM_0
 10
323.94867037977451
 20
552.76741906901816
 30
0.0
 40
2.0
 50
91.999998000000545
 51
180.00001000000091
  0
ARC
  5
2D8E
  8
AM_0
 10
318.94864037977447
 20
546.75328906901814
 30
0.0
 40
3.0
 50
271.49999999999932
 51
0.0
  0
LINE
  5
2D8F
  8
AM_0
 10
323.87881037977451
 20
554.76625906901813
 30
0.0
 11
331.94864037977447
 21
555.04805906901811
 31
0.0
  0
ARC
  5
2D90
  8
ﾁｭｳｼﾝｾﾝ1
 10
556.51137269601611
 20
246.03664422900451
 30
0.0
 40
100.0000109999999
 50
307.75737499999968
 51
322.63991599999929
  0
LINE
  5
2D91
  8
ﾁｭｳｼﾝｾﾝ1
 10
636.32849969601625
 20
166.21952022900479
 30
0.0
 11
617.47511969601612
 21
185.0729002290044
 31
0.0
  0
ARC
  5
2D92
  8
ﾁｭｳｼﾝｾﾝ1
 10
556.51137269601611
 20
246.03664422900451
 30
0.0
 40
100.0000109999999
 50
127.757380000002
 51
142.63992000000161
  0
LINE
  5
2D93
  8
ﾁｭｳｼﾝｾﾝ1
 10
476.81201369601621
 20
325.73600622900432
 30
0.0
 11
495.5072666960163
 21
307.04073822900438
 31
0.0
  0
TEXT
  5
2F73
  8
AM_0
 10
443.48132561672622
 20
489.63955527227409
 30
0.0
 40
10.0
  1
VX02-080GF~VX02-100GF
  0
ENDSEC
  0
EOF
