  0
SECTION
  2
HEADER
  9
$ACADVER
  1
AC1009
  9
$INSBASE
 10
0.0
 20
0.0
 30
0.0
  9
$EXTMIN
 10
142.71016145510379
 20
149.31665045318249
 30
-0.0000000000112498
  9
$EXTMAX
 10
679.46862208490336
 20
591.76645549745604
 30
0.0000000000002956
  9
$LIMMIN
 10
0.0
 20
0.0
  9
$LIMMAX
 10
853.5
 20
555.00000000000011
  9
$ORTHOMODE
 70
     0
  9
$REGENMODE
 70
     1
  9
$FILLMODE
 70
     1
  9
$QTEXTMODE
 70
     0
  9
$MIRRTEXT
 70
     1
  9
$DRAGMODE
 70
     2
  9
$LTSCALE
 40
3.0
  9
$OSMODE
 70
   551
  9
$ATTMODE
 70
     1
  9
$TEXTSIZE
 40
2.5
  9
$TRACEWID
 40
1.0
  9
$TEXTSTYLE
  7
STANDARD
  9
$CLAYER
  8
AM_0
  9
$CELTYPE
  6
BYLAYER
  9
$CECOLOR
 62
   256
  9
$DIMSCALE
 40
1.0
  9
$DIMASZ
 40
2.5
  9
$DIMEXO
 40
1.0
  9
$DIMDLI
 40
8.0
  9
$DIMRND
 40
0.0
  9
$DIMDLE
 40
0.0
  9
$DIMEXE
 40
0.6
  9
$DIMTP
 40
0.1
  9
$DIMTM
 40
0.1
  9
$DIMTXT
 40
2.5
  9
$DIMCEN
 40
0.0
  9
$DIMTSZ
 40
0.0
  9
$DIMTOL
 70
     0
  9
$DIMLIM
 70
     0
  9
$DIMTIH
 70
     0
  9
$DIMTOH
 70
     0
  9
$DIMSE1
 70
     0
  9
$DIMSE2
 70
     0
  9
$DIMTAD
 70
     1
  9
$DIMZIN
 70
     8
  9
$DIMBLK
  1

  9
$DIMASO
 70
     1
  9
$DIMSHO
 70
     1
  9
$DIMPOST
  1

  9
$DIMAPOST
  1
"
  9
$DIMALT
 70
     0
  9
$DIMALTD
 70
     2
  9
$DIMALTF
 40
0.0393701
  9
$DIMLFAC
 40
1.0
  9
$DIMTOFL
 70
     1
  9
$DIMTVP
 40
0.0
  9
$DIMTIX
 70
     0
  9
$DIMSOXD
 70
     0
  9
$DIMSAH
 70
     0
  9
$DIMBLK1
  1

  9
$DIMBLK2
  1

  9
$DIMSTYLE
  2
AM_ISO
  9
$DIMCLRD
 70
   256
  9
$DIMCLRE
 70
   256
  9
$DIMCLRT
 70
     4
  9
$DIMTFAC
 40
0.71
  9
$DIMGAP
 40
0.8
  9
$LUNITS
 70
     2
  9
$LUPREC
 70
     2
  9
$SKETCHINC
 40
1.0
  9
$FILLETRAD
 40
15.0
  9
$AUNITS
 70
     0
  9
$AUPREC
 70
     0
  9
$MENU
  1
.
  9
$ELEVATION
 40
0.0
  9
$PELEVATION
 40
0.0
  9
$THICKNESS
 40
0.0
  9
$LIMCHECK
 70
     0
  9
$BLIPMODE
 70
     0
  9
$CHAMFERA
 40
6.0
  9
$CHAMFERB
 40
3.0
  9
$SKPOLY
 70
     0
  9
$TDCREATE
 40
2452065.7561353361
  9
$TDUPDATE
 40
2458541.4394107992
  9
$TDINDWG
 40
0.0656014931
  9
$TDUSRTIMER
 40
0.0656014815
  9
$USRTIMER
 70
     1
  9
$ANGBASE
 50
0.0
  9
$ANGDIR
 70
     0
  9
$PDMODE
 70
     0
  9
$PDSIZE
 40
0.0
  9
$PLINEWID
 40
0.0
  9
$COORDS
 70
     1
  9
$SPLFRAME
 70
     0
  9
$SPLINETYPE
 70
     6
  9
$SPLINESEGS
 70
     8
  9
$ATTDIA
 70
     1
  9
$ATTREQ
 70
     1
  9
$HANDLING
 70
     1
  9
$HANDSEED
  5
2E71
  9
$SURFTAB1
 70
     6
  9
$SURFTAB2
 70
     6
  9
$SURFTYPE
 70
     6
  9
$SURFU
 70
     6
  9
$SURFV
 70
     6
  9
$UCSNAME
  2

  9
$UCSORG
 10
0.0
 20
0.0
 30
0.0
  9
$UCSXDIR
 10
1.0
 20
0.0
 30
0.0
  9
$UCSYDIR
 10
0.0
 20
1.0
 30
0.0
  9
$PUCSNAME
  2

  9
$PUCSORG
 10
0.0
 20
0.0
 30
0.0
  9
$PUCSXDIR
 10
1.0
 20
0.0
 30
0.0
  9
$PUCSYDIR
 10
0.0
 20
1.0
 30
0.0
  9
$USERI1
 70
     0
  9
$USERI2
 70
     0
  9
$USERI3
 70
     0
  9
$USERI4
 70
     0
  9
$USERI5
 70
     0
  9
$USERR1
 40
0.0
  9
$USERR2
 40
0.0
  9
$USERR3
 40
0.0
  9
$USERR4
 40
0.0
  9
$USERR5
 40
0.0
  9
$WORLDVIEW
 70
     1
  9
$SHADEDGE
 70
     3
  9
$SHADEDIF
 70
    70
  9
$TILEMODE
 70
     1
  9
$MAXACTVP
 70
    64
  9
$PLIMCHECK
 70
     0
  9
$PEXTMIN
 10
1.0000000000000000E+020
 20
1.0000000000000000E+020
 30
1.0000000000000000E+020
  9
$PEXTMAX
 10
-1.0000000000000000E+020
 20
-1.0000000000000000E+020
 30
-1.0000000000000000E+020
  9
$PLIMMIN
 10
0.0
 20
0.0
  9
$PLIMMAX
 10
420.0
 20
297.0
  9
$UNITMODE
 70
     0
  9
$VISRETAIN
 70
     1
  9
$PLINEGEN
 70
     0
  9
$PSLTSCALE
 70
     1
  0
ENDSEC
  0
SECTION
  2
TABLES
  0
TABLE
  2
VPORT
 70
     1
  0
VPORT
  2
*ACTIVE
 70
     0
 10
0.0
 20
0.0
 11
1.0
 21
1.0
 12
411.08939177000372
 22
370.54155297531929
 13
0.0
 23
0.0
 14
7.5
 24
7.5
 15
30.0
 25
30.0
 16
0.0
 26
0.0
 36
1.0
 17
0.0
 27
0.0
 37
0.0
 40
445.48721789354772
 41
1.7571592210767459
 42
50.0
 43
0.0
 44
0.0
 50
0.0
 51
0.0
 71
     0
 72
   100
 73
     1
 74
     3
 75
     0
 76
     0
 77
     0
 78
     0
  0
ENDTAB
  0
TABLE
  2
LTYPE
 70
    25
  0
LTYPE
  2
CONTINUOUS
 70
     0
  3
Solid line
 72
    65
 73
     0
 40
0.0
  0
LTYPE
  2
AM_ISO02W050
 70
     0
  3
__ __ __ __ __ __ __ __ __ __ __ __ __ __ __
 72
    65
 73
     2
 40
7.5
 49
6.0
 49
-1.5
  0
LTYPE
  2
AM_ISO08W050
 70
     0
  3
____ . ____ . ____ . ____ . ____ . ____ . ____
 72
    65
 73
     4
 40
18.0
 49
12.0
 49
-1.5
 49
3.0
 49
-1.5
  0
LTYPE
  2
AM_ISO09W050
 70
     0
  3
_____ . . _____ . . _____ . . ____ .. ____
 72
    65
 73
     6
 40
22.5
 49
12.0
 49
-1.5
 49
3.0
 49
-1.5
 49
3.0
 49
-1.5
  0
LTYPE
  2
AMCONSTR
 70
     0
  3
_______________________
 72
    65
 73
     2
 40
9999.0
 49
9999.0
 49
0.0
  0
LTYPE
  2
AM_ISO08W050X2
 70
     0
  3
__ . __ . __ . __ . __ . __
 72
    65
 73
     4
 40
9.0
 49
6.0
 49
-0.75
 49
1.5
 49
-0.75
  0
LTYPE
  2
AM_ISO02W050X2
 70
     0
  3
 _ _ _ _ _ _ _ _ _ _ _ _
 72
    65
 73
     2
 40
3.75
 49
3.0
 49
-0.75
  0
LTYPE
  2
AMZIGZAG
 70
     0
  3
/\/-/\/-/\/-/\/-/\/-/\/
 72
    65
 73
     2
 40
11.000099999999991
 49
0.0001
 49
-11.0
  0
LTYPE
  2
ACISOWELD
 70
     0
  3
_ _ _ _ _
 72
    65
 73
     2
 40
2.0
 49
2.0
 49
-1.0
  0
LTYPE
  2
ACISOTGB
 70
     0
  3
__ . . __ . .
 72
    65
 73
     6
 40
9.0
 49
4.0
 49
-1.0
 49
1.0
 49
-1.0
 49
1.0
 49
-1.0
  0
LTYPE
  2
ACISOTGL
 70
     0
  3
_ _ _ _ _
 72
    65
 73
     2
 40
3.0
 49
2.0
 49
-1.0
  0
LTYPE
  2
CENTER
 70
     0
  3
__ . __
 72
    65
 73
     4
 40
7.0
 49
4.0
 49
-1.0
 49
1.0
 49
-1.0
  0
LTYPE
  2
PHANTOM2
 70
     0
  3
Phantom (.5x) ___ _ _ ___ _ _ ___ _ _ ___ _ _
 72
    65
 73
     6
 40
31.75
 49
15.875
 49
-3.174999999999998
 49
3.174999999999998
 49
-3.174999999999998
 49
3.174999999999998
 49
-3.174999999999998
  0
LTYPE
  2
ACANSTGBM
 70
     0
  3
__ . . __ . .
 72
    65
 73
     6
 40
9.0
 49
4.0
 49
-1.0
 49
1.0
 49
-1.0
 49
1.0
 49
-1.0
  0
LTYPE
  2
ACANSTGLM
 70
     0
  3
_ _ _ _ _
 72
    65
 73
     2
 40
3.0
 49
2.0
 49
-1.0
  0
LTYPE
  2
GEN7
 70
     0
  3
____ . ____ . ____ . ____ . ____ . ____ . ____
 72
    65
 73
     4
 40
14.25
 49
9.75
 49
-1.5
 49
1.5
 49
-1.5
  0
LTYPE
  2
ACJISTGB
 70
     0
  3
__ . . __ . .
 72
    65
 73
     6
 40
9.0
 49
4.0
 49
-1.0
 49
1.0
 49
-1.0
 49
1.0
 49
-1.0
  0
LTYPE
  2
ACJISTGL
 70
     0
  3
_ _ _ _ _
 72
    65
 73
     2
 40
3.0
 49
2.0
 49
-1.0
  0
LTYPE
  2
HIDDEN
 70
     0
  3
Hidden __ __ __ __ __ __ __ __ __ __ __ __ __ _
 72
    65
 73
     2
 40
0.375
 49
0.25
 49
-0.125
  0
LTYPE
  2
CENTER2
 70
     0
  3
Center (.5x) ___ _ ___ _ ___ _ ___ _ ___ _ ___
 72
    65
 73
     4
 40
1.125
 49
0.75
 49
-0.125
 49
0.125
 49
-0.125
  0
LTYPE
  2
HIDDEN2
 70
     0
  3
Hidden (.5x) _ _ _ _ _ _ _ _ _ _ _ _ _ _ _ _ _
 72
    65
 73
     2
 40
0.1875
 49
0.125
 49
-0.0625
  0
LTYPE
  2
AMZIGZAG2
 70
     0
  3
/\/-/\/-/\/-/\/-/\/-/\/
 72
    65
 73
     2
 40
0.4401
 49
0.0001
 49
-0.4400000000000002
  0
LTYPE
  2
ACANSTGB
 70
     0
  3
__ . . __ . .
 72
    65
 73
     6
 40
0.35433070866
 49
0.15748031496
 49
-0.03937007874
 49
0.03937007874
 49
-0.03937007874
 49
0.03937007874
 49
-0.03937007874
  0
LTYPE
  2
ACANSTGL
 70
     0
  3
_ _ _ _ _
 72
    65
 73
     2
 40
0.11811023622
 49
0.07874015748
 49
-0.03937007874
  0
ENDTAB
  0
TABLE
  2
LAYER
 70
     5
  0
LAYER
  2
0
 70
     0
 62
     7
  6
CONTINUOUS
  0
LAYER
  2
AM_0
 70
     0
 62
     7
  6
CONTINUOUS
  0
LAYER
  2
AM_5
 70
     0
 62
     2
  6
CONTINUOUS
  0
LAYER
  2
DEFPOINTS
 70
     0
 62
     7
  6
CONTINUOUS
  0
LAYER
  2
ﾁｭｳｼﾝｾﾝ
 70
     0
 62
     1
  6
GEN7
  0
ENDTAB
  0
TABLE
  2
STYLE
 70
     9
  0
STYLE
  2
STANDARD
 70
     0
 40
0.0
 41
0.8299999999999999
 50
0.0
 71
     0
 42
2.5
  3
txt.shx
  4
bigfont.shx
  0
STYLE
  2
ANNOTATIVE
 70
     0
 40
0.0
 41
1.0
 50
0.0
 71
     0
 42
0.2
  3
txt
  4

  0
STYLE
  2

 70
     1
 40
0.0
 41
1.0
 50
0.0
 71
     0
 42
2.5
  3
ltypeshp.shx
  4

  0
STYLE
  2
ACISOTS
 70
     0
 40
1.0
 41
1.0
 50
0.0
 71
     0
 42
2.5
  3
isocp.shx
  4
extfont.shx
  0
STYLE
  2
ACISOGDT
 70
     0
 40
0.0
 41
1.0
 50
0.0
 71
     0
 42
2.5
  3
amgdt.shx
  4

  0
STYLE
  2
ACANSTS
 70
     0
 40
1.0
 41
1.0
 50
0.0
 71
     0
 42
2.5
  3
romans.shx
  4
bigfont.shx
  0
STYLE
  2
ACANSGDT
 70
     0
 40
0.0
 41
1.0
 50
0.0
 71
     0
 42
2.5
  3
amgdt.shx
  4

  0
STYLE
  2
ACJISTS
 70
     0
 40
1.0
 41
1.0
 50
0.0
 71
     0
 42
2.5
  3
isocp.shx
  4
bigfont.shx
  0
STYLE
  2
ACJISGDT
 70
     0
 40
0.0
 41
1.0
 50
0.0
 71
     0
 42
2.5
  3
amgdt.shx
  4

  0
ENDTAB
  0
TABLE
  2
VIEW
 70
     6
  0
VIEW
  2
AM_VIEW1
 70
     0
 40
277.49999999999989
 10
249.64779005524849
 20
416.24999999999989
 41
499.2955801104971
 11
0.0
 21
0.0
 31
1.0
 12
0.0
 22
0.0
 32
0.0
 42
50.0
 43
0.0
 44
0.0
 50
0.0
 71
     0
  0
VIEW
  2
AM_VIEW2
 70
     0
 40
277.49999999999989
 10
603.85220994475117
 20
416.24999999999989
 41
499.2955801104971
 11
0.0
 21
0.0
 31
1.0
 12
0.0
 22
0.0
 32
0.0
 42
50.0
 43
0.0
 44
0.0
 50
0.0
 71
     0
  0
VIEW
  2
AM_VIEW3
 70
     0
 40
277.49999999999989
 10
249.64779005524849
 20
138.7499999999998
 41
499.2955801104971
 11
0.0
 21
0.0
 31
1.0
 12
0.0
 22
0.0
 32
0.0
 42
50.0
 43
0.0
 44
0.0
 50
0.0
 71
     0
  0
VIEW
  2
AM_VIEW4
 70
     0
 40
277.49999999999989
 10
603.85220994475117
 20
138.7499999999998
 41
499.2955801104971
 11
0.0
 21
0.0
 31
1.0
 12
0.0
 22
0.0
 32
0.0
 42
50.0
 43
0.0
 44
0.0
 50
0.0
 71
     0
  0
VIEW
  2
AM_VIEW5
 70
     0
 40
277.5
 10
426.75
 20
277.49999999999989
 41
499.2955801104971
 11
0.0
 21
0.0
 31
1.0
 12
0.0
 22
0.0
 32
0.0
 42
50.0
 43
0.0
 44
0.0
 50
0.0
 71
     0
  0
VIEW
  2
AM_VIEW6
 70
     0
 40
554.99445000000014
 10
426.75
 20
277.49999999999989
 41
998.5811743093924
 11
0.0
 21
0.0
 31
1.0
 12
0.0
 22
0.0
 32
0.0
 42
50.0
 43
0.0
 44
0.0
 50
0.0
 71
     0
  0
ENDTAB
  0
TABLE
  2
UCS
 70
     0
  0
ENDTAB
  0
TABLE
  2
APPID
 70
    95
  0
APPID
  2
ACAD
 70
     0
  0
APPID
  2
ACADANNOTATIVE
 70
     0
  0
APPID
  2
MCAD_NO_VIS
 70
     0
  0
APPID
  2
ACAD_TEMP_GRAPHIC
 70
     0
  0
APPID
  2
ACATTRIBSERVICES
 70
     0
  0
APPID
  2
GENIUS_GENREC_14
 70
     0
  0
APPID
  2
GENIUS_GENOBJ-N-REC_13
 70
     0
  0
APPID
  2
GENIUS_GENODEF_13
 70
     0
  0
APPID
  2
GENIUS_GENOLIS_13
 70
     0
  0
APPID
  2
GENIUS_GENOBJ-N-TIT_13
 70
     0
  0
APPID
  2
GENIUS_GENOENT_13
 70
     0
  0
APPID
  2
GENIUS_GENTITLE_13
 70
     0
  0
APPID
  2
GENIUS_GENOREF_13
 70
     0
  0
APPID
  2
GENIUS_GENSCREG_15
 70
     0
  0
APPID
  2
GENIUS_GENOBJ-N-SDF_13
 70
     0
  0
APPID
  2
GENIUS_GENFIL_13
 70
     0
  0
APPID
  2
GENIUS_GENOBJ-N-CHA_13
 70
     0
  0
APPID
  2
GENIUS_GENDTOL_13
 70
     0
  0
APPID
  2
GENIUS_GENOBJ-N-FIL_13
 70
     0
  0
APPID
  2
AD_DRAW
 70
     0
  0
APPID
  2
DESIGNERASSEMBLIES
 70
     0
  0
APPID
  2
ASURF_PCURVE_APPNAME
 70
     0
  0
APPID
  2
GENIUS_GE3SECT_13
 70
     0
  0
APPID
  2
GENIUS_GENCFG_13
 70
     0
  0
APPID
  2
GENIUS_GE3CFG0_13
 70
     0
  0
APPID
  2
GENIUS_GENCFG0_13
 70
     0
  0
APPID
  2
GENIUS_GENCFG1_13
 70
     0
  0
APPID
  2
GENIUS_GENCFG2_13
 70
     0
  0
APPID
  2
GENIUS_GENCFG3_13
 70
     0
  0
APPID
  2
GENIUS_GENCFG4_13
 70
     0
  0
APPID
  2
GENIUS_GEVCFG0_13
 70
     0
  0
APPID
  2
GENIUS_GENHINW_13
 70
     0
  0
APPID
  2
GENIUS_FIRSTVISTXT_14
 70
     0
  0
APPID
  2
GENIUS_GENOBJ-N-LEADER_13
 70
     0
  0
APPID
  2
GEV_VCCNULL_SWITCH_OFF
 70
     0
  0
APPID
  2
GENIUS_GEFCFG0_13
 70
     0
  0
APPID
  2
GENIUS_GENZVEED_13
 70
     0
  0
APPID
  2
GENIUS_GENSCREG_13
 70
     0
  0
APPID
  2
GENIUS_DUMCFG0_13
 70
     0
  0
APPID
  2
GEVID936201362
 70
     0
  0
APPID
  2
GEVDC
 70
     0
  0
APPID
  2
GEVCON
 70
     0
  0
APPID
  2
VCC
 70
     0
  0
APPID
  2
GEVPT
 70
     0
  0
APPID
  2
GEVIT
 70
     0
  0
APPID
  2
GENBH
 70
     0
  0
APPID
  2
GEVMK
 70
     0
  0
APPID
  2
GENIUS_GENBH_13
 70
     0
  0
APPID
  2
GENIUS_GENOBJ-NBEHI-BHF_13
 70
     0
  0
APPID
  2
GENIUS_GENOBJ-NBEHI-BHB_13
 70
     0
  0
APPID
  2
GENIUS_GENOBJ-F-DESC_13
 70
     0
  0
APPID
  2
GENIUS_GEFDESC_14
 70
     0
  0
APPID
  2
GENIUS_GENOBJ-F-PART_13
 70
     0
  0
APPID
  2
GENIUS_GEFSTDP_13
 70
     0
  0
APPID
  2
GENIUS_GEFPARTINS_13
 70
     0
  0
APPID
  2
GENIUS_GENTRA_14
 70
     0
  0
APPID
  2
GENIUS_GENINF13_13
 70
     0
  0
APPID
  2
GENIUS_GENOBJ-N-INFOPT_13
 70
     0
  0
APPID
  2
GENIUS_GENOBJ-N-RSSYM_13
 70
     0
  0
APPID
  2
GENIUS_GENSYMENT_13
 70
     0
  0
APPID
  2
GENIUS_GENSCSYM_13
 70
     0
  0
APPID
  2
GENIUS_GEFINFNAM_13
 70
     0
  0
APPID
  2
GENIUS_GENOBJ-N-CEN_13
 70
     0
  0
APPID
  2
GENIUS_GENOBJ-N-CRS_13
 70
     0
  0
APPID
  2
GENIUS_GENOBJ-N-CRC_13
 70
     0
  0
APPID
  2
GENIUS_GENCRC_14
 70
     0
  0
APPID
  2
GEVID942827039
 70
     0
  0
APPID
  2
GEVID942827040
 70
     0
  0
APPID
  2
GEVID942827041
 70
     0
  0
APPID
  2
GENIUS_GENOBJ-F-SCPASSM_13
 70
     0
  0
APPID
  2
GENIUS_GENDIMSH_14
 70
     0
  0
APPID
  2
GEVID942827042
 70
     0
  0
APPID
  2
GEVID946020473
 70
     0
  0
APPID
  2
GEVID946020474
 70
     0
  0
APPID
  2
GEVID946020475
 70
     0
  0
APPID
  2
GENIUS_GENOBJ-N-HTC_13
 70
     0
  0
APPID
  2
GENIUS_GENHATCH_13
 70
     0
  0
APPID
  2
GEVID948854295
 70
     0
  0
APPID
  2
GEVID939402019
 70
     0
  0
APPID
  2
GEVID952919491
 70
     0
  0
APPID
  2
GEVID952919492
 70
     0
  0
APPID
  2
GENIUS_GEFWELD_13
 70
     0
  0
APPID
  2
GENIUS_GENOBJ-F-WELS_13
 70
     0
  0
APPID
  2
GEVID952919493
 70
     0
  0
APPID
  2
GENIUS_GENOBJ-N-RSBK_13
 70
     0
  0
APPID
  2
GENIUS_GENOBJ-N-LIB_13
 70
     0
  0
APPID
  2
GENIUS_GENSCALE_13
 70
     0
  0
APPID
  2
GEVID986376691
 70
     0
  0
APPID
  2
DCO15
 70
     0
  0
APPID
  2
ACAD_DSTYLE_DIMBREAK
 70
     0
  0
APPID
  2
ACAD_DSTYLE_DIMJAG
 70
     0
  0
APPID
  2
ACAD_NAV_VCDISPLAY
 70
     0
  0
APPID
  2
ACADANNOPO
 70
     0
  0
APPID
  2
ACAD_EXEMPT_FROM_CAD_STANDARDS
 70
     0
  0
APPID
  2
ACAD_MLEADERVER
 70
     0
  0
ENDTAB
  0
TABLE
  2
DIMSTYLE
 70
    22
  0
DIMSTYLE
  2
STANDARD
 70
     0
  3

  4

  5

  6

  7

 40
1.0
 41
0.18
 42
0.0625
 43
0.38
 44
0.18
 45
0.0
 46
0.0
 47
0.0
 48
0.0
140
0.18
141
0.09
142
0.0
143
25.399999999999999
144
1.0
145
0.0
146
1.0
147
0.09
 71
     0
 72
     0
 73
     1
 74
     1
 75
     0
 76
     0
 77
     0
 78
     0
170
     0
171
     2
172
     0
173
     0
174
     0
175
     0
176
     0
177
     0
178
     0
  0
DIMSTYLE
  2
ANNOTATIVE
 70
     0
  3

  4

  5

  6

  7

 40
1.0
 41
0.18
 42
0.0625
 43
0.38
 44
0.18
 45
0.0
 46
0.0
 47
0.0
 48
0.0
140
0.18
141
0.09
142
0.0
143
25.399999999999999
144
1.0
145
0.0
146
1.0
147
0.09
 71
     0
 72
     0
 73
     1
 74
     1
 75
     0
 76
     0
 77
     0
 78
     0
170
     0
171
     2
172
     0
173
     0
174
     0
175
     0
176
     0
177
     0
178
     0
  0
DIMSTYLE
  2
AM_ISO
 70
     0
  3

  4
"
  5

  6

  7

 40
1.0
 41
2.5
 42
1.0
 43
8.0
 44
0.6
 45
0.0
 46
0.0
 47
0.1
 48
0.1
140
2.5
141
0.0
142
0.0
143
0.0393701
144
1.0
145
0.0
146
0.71
147
0.8
 71
     0
 72
     0
 73
     0
 74
     0
 75
     0
 76
     0
 77
     1
 78
     8
170
     0
171
     2
172
     1
173
     0
174
     0
175
     0
176
   256
177
   256
178
     4
  0
DIMSTYLE
  2
AM_ISO$3
 70
     0
  3

  4
"
  5

  6

  7

 40
1.0
 41
2.5
 42
1.0
 43
8.0
 44
0.6
 45
0.0
 46
0.0
 47
0.1
 48
0.1
140
2.5
141
0.0
142
0.0
143
0.0393701
144
1.0
145
0.0
146
0.71
147
0.8
 71
     0
 72
     0
 73
     0
 74
     1
 75
     0
 76
     0
 77
     1
 78
     8
170
     0
171
     2
172
     0
173
     0
174
     0
175
     0
176
   256
177
   256
178
     4
  0
DIMSTYLE
  2
AM_ISO$4
 70
     0
  3

  4
"
  5

  6

  7

 40
1.0
 41
2.5
 42
1.0
 43
8.0
 44
0.6
 45
0.0
 46
0.0
 47
0.1
 48
0.1
140
2.5
141
0.0
142
0.0
143
0.0393701
144
1.0
145
0.0
146
0.71
147
0.8
 71
     0
 72
     0
 73
     0
 74
     1
 75
     0
 76
     0
 77
     1
 78
     8
170
     0
171
     2
172
     0
173
     0
174
     0
175
     0
176
   256
177
   256
178
     4
  0
DIMSTYLE
  2
AM_ISO$6
 70
     0
  3

  4
"
  5

  6

  7

 40
1.0
 41
2.5
 42
1.0
 43
8.0
 44
0.6
 45
0.0
 46
0.0
 47
0.1
 48
0.1
140
2.5
141
0.0
142
0.0
143
0.0393701
144
1.0
145
0.0
146
0.71
147
0.8
 71
     0
 72
     0
 73
     0
 74
     0
 75
     0
 76
     0
 77
     0
 78
     8
170
     0
171
     2
172
     1
173
     0
174
     0
175
     0
176
   256
177
   256
178
     4
  0
DIMSTYLE
  2
AM_ISO$7
 70
     0
  3

  4
"
  5

  6

  7

 40
1.0
 41
2.5
 42
1.0
 43
8.0
 44
0.6
 45
0.0
 46
0.0
 47
0.1
 48
0.1
140
2.5
141
0.0
142
0.0
143
0.0393701
144
1.0
145
0.0
146
0.71
147
0.8
 71
     0
 72
     0
 73
     0
 74
     0
 75
     0
 76
     0
 77
     1
 78
     8
170
     0
171
     2
172
     1
173
     0
174
     0
175
     0
176
   256
177
   256
178
     4
  0
DIMSTYLE
  2
AM_ISO$SF
 70
     0
  3

  4
"
  5

  6

  7

 40
1.0
 41
2.5
 42
1.0
 43
10.0
 44
1.0
 45
0.0
 46
0.0
 47
0.1
 48
0.1
140
3.5
141
0.0
142
0.0
143
0.0393701
144
1.0
145
0.0
146
0.71
147
1.5
 71
     0
 72
     0
 73
     0
 74
     0
 75
     1
 76
     1
 77
     1
 78
     8
170
     0
171
     2
172
     1
173
     0
174
     0
175
     0
176
   256
177
   256
178
     2
  0
DIMSTYLE
  2
AM_ISO$SH
 70
     0
  3

  4
"
  5

  6

  7

 40
1.0
 41
2.5
 42
1.0
 43
10.0
 44
1.0
 45
0.0
 46
0.0
 47
0.1
 48
0.1
140
3.5
141
0.0
142
0.0
143
0.0393701
144
2.0
145
0.0
146
0.71
147
1.5
 71
     0
 72
     0
 73
     0
 74
     0
 75
     1
 76
     1
 77
     1
 78
     8
170
     0
171
     2
172
     1
173
     1
174
     0
175
     0
176
   256
177
   256
178
     2
  0
DIMSTYLE
  2
AM_JIS
 70
     0
  3

  4
"
  5

  6

  7

 40
1.0
 41
2.5
 42
1.0
 43
7.0
 44
1.0
 45
0.0
 46
0.0
 47
0.1
 48
0.1000000001
140
2.5
141
0.0
142
0.0
143
0.0393701
144
1.0
145
0.0
146
0.71
147
1.0
 71
     0
 72
     0
 73
     0
 74
     0
 75
     0
 76
     0
 77
     3
 78
     8
170
     0
171
     2
172
     1
173
     0
174
     0
175
     0
176
   256
177
   256
178
     4
  0
DIMSTYLE
  2
AM_JIS$3
 70
     0
  3

  4
"
  5

  6

  7

 40
1.0
 41
2.5
 42
1.0
 43
7.0
 44
1.0
 45
0.0
 46
0.0
 47
0.1
 48
0.1000000001
140
2.5
141
0.0
142
0.0
143
0.0393701
144
1.0
145
0.0
146
0.71
147
1.0
 71
     0
 72
     0
 73
     0
 74
     1
 75
     0
 76
     0
 77
     3
 78
     8
170
     0
171
     2
172
     0
173
     0
174
     0
175
     0
176
   256
177
   256
178
     4
  0
DIMSTYLE
  2
AM_JIS$4
 70
     0
  3

  4
"
  5

  6

  7

 40
1.0
 41
2.5
 42
1.0
 43
7.0
 44
1.0
 45
0.0
 46
0.0
 47
0.1
 48
0.1000000001
140
2.5
141
0.0
142
0.0
143
0.0393701
144
1.0
145
0.0
146
0.71
147
1.0
 71
     0
 72
     0
 73
     0
 74
     0
 75
     0
 76
     0
 77
     3
 78
     8
170
     0
171
     2
172
     0
173
     0
174
     0
175
     0
176
   256
177
   256
178
     4
  0
DIMSTYLE
  2
AM_JIS$6
 70
     0
  3

  4
"
  5

  6

  7

 40
1.0
 41
2.5
 42
1.0
 43
7.0
 44
1.0
 45
0.0
 46
0.0
 47
0.1
 48
0.1000000001
140
2.5
141
0.0
142
0.0
143
0.0393701
144
1.0
145
0.0
146
0.71
147
1.0
 71
     0
 72
     0
 73
     0
 74
     0
 75
     0
 76
     0
 77
     0
 78
     8
170
     0
171
     2
172
     1
173
     0
174
     0
175
     0
176
   256
177
   256
178
     4
  0
DIMSTYLE
  2
AM_JIS$7
 70
     0
  3

  4
"
  5

  6

  7

 40
1.0
 41
2.5
 42
1.0
 43
7.0
 44
1.0
 45
0.0
 46
0.0
 47
0.1
 48
0.1000000001
140
2.5
141
0.0
142
0.0
143
0.0393701
144
1.0
145
0.0
146
0.71
147
1.0
 71
     0
 72
     0
 73
     0
 74
     0
 75
     0
 76
     0
 77
     3
 78
     8
170
     0
171
     2
172
     1
173
     0
174
     0
175
     0
176
   256
177
   256
178
     4
  0
DIMSTYLE
  2
AM_JIS$SF
 70
     0
  3

  4
"
  5

  6

  7

 40
1.0
 41
2.5
 42
1.0
 43
10.0
 44
1.0
 45
0.0
 46
0.0
 47
0.1
 48
0.1
140
3.5
141
0.0
142
0.0
143
0.0393701
144
1.0
145
0.0
146
0.71
147
1.5
 71
     0
 72
     0
 73
     0
 74
     0
 75
     1
 76
     1
 77
     3
 78
     8
170
     0
171
     2
172
     1
173
     0
174
     0
175
     0
176
   256
177
   256
178
     4
  0
DIMSTYLE
  2
AM_JIS$SH
 70
     0
  3

  4
"
  5

  6

  7

 40
1.0
 41
2.5
 42
1.0
 43
10.0
 44
1.0
 45
0.0
 46
0.0
 47
0.1
 48
0.1
140
3.5
141
0.0
142
0.0
143
0.0393701
144
1.0
145
0.0
146
0.71
147
1.5
 71
     0
 72
     0
 73
     0
 74
     0
 75
     1
 76
     0
 77
     3
 78
     8
170
     0
171
     2
172
     1
173
     1
174
     0
175
     0
176
   256
177
   256
178
     4
  0
DIMSTYLE
  2
AM_ANSI
 70
     0
  3

  4
mm
  5

  6

  7

 40
1.0
 41
0.1
 42
0.05
 43
0.5
 44
0.1
 45
0.0
 46
0.0
 47
0.1
 48
0.1
140
0.12
141
0.0
142
0.0
143
25.399999999999999
144
1.0
145
0.0
146
0.71
147
0.06
 71
     0
 72
     0
 73
     1
 74
     1
 75
     0
 76
     0
 77
     0
 78
     7
170
     0
171
     2
172
     0
173
     0
174
     0
175
     0
176
   256
177
   256
178
     2
  0
DIMSTYLE
  2
AM_ANSI$3
 70
     0
  3

  4
mm
  5

  6

  7

 40
1.0
 41
0.1
 42
0.05
 43
0.5
 44
0.1
 45
0.0
 46
0.0
 47
0.1
 48
0.1
140
0.12
141
0.0
142
0.0
143
25.399999999999999
144
1.0
145
0.0
146
0.71
147
0.06
 71
     0
 72
     0
 73
     1
 74
     1
 75
     0
 76
     0
 77
     0
 78
     7
170
     0
171
     2
172
     0
173
     0
174
     0
175
     0
176
   256
177
   256
178
     2
  0
DIMSTYLE
  2
AM_ANSI$4
 70
     0
  3

  4
mm
  5

  6

  7

 40
1.0
 41
0.1
 42
0.05
 43
0.5
 44
0.1
 45
0.0
 46
0.0
 47
0.1
 48
0.1
140
0.12
141
0.0
142
0.0
143
25.399999999999999
144
1.0
145
0.0
146
0.71
147
0.06
 71
     0
 72
     0
 73
     1
 74
     1
 75
     0
 76
     0
 77
     0
 78
     7
170
     0
171
     2
172
     0
173
     0
174
     0
175
     0
176
   256
177
   256
178
     2
  0
DIMSTYLE
  2
AM_ANSI$7
 70
     0
  3

  4
mm
  5

  6

  7

 40
1.0
 41
0.1
 42
0.05
 43
0.5
 44
0.1
 45
0.0
 46
0.0
 47
0.1
 48
0.1
140
0.24
141
0.0
142
0.0
143
25.399999999999999
144
1.0
145
0.0
146
0.71
147
0.06
 71
     0
 72
     0
 73
     1
 74
     1
 75
     0
 76
     0
 77
     0
 78
     7
170
     0
171
     2
172
     0
173
     0
174
     0
175
     0
176
   256
177
   256
178
     2
  0
DIMSTYLE
  2
AM_ANSI$SF
 70
     0
  3

  4
mm
  5

  6

  7

 40
1.0
 41
0.1
 42
0.05
 43
0.5
 44
0.1
 45
0.0
 46
0.0
 47
0.1
 48
0.1
140
0.12
141
0.0
142
0.0
143
25.399999999999999
144
1.0
145
0.0
146
0.71
147
0.06
 71
     0
 72
     0
 73
     1
 74
     1
 75
     1
 76
     1
 77
     0
 78
     7
170
     0
171
     2
172
     0
173
     0
174
     0
175
     0
176
   256
177
   256
178
     2
  0
DIMSTYLE
  2
AM_ANSI$SH
 70
     0
  3

  4
mm
  5

  6

  7

 40
1.0
 41
0.1
 42
0.05
 43
0.5
 44
0.1
 45
0.0
 46
0.0
 47
0.1
 48
0.1
140
0.12
141
0.0
142
0.0
143
25.399999999999999
144
1.0
145
0.0
146
0.71
147
0.06
 71
     0
 72
     0
 73
     1
 74
     1
 75
     1
 76
     1
 77
     0
 78
     7
170
     0
171
     2
172
     0
173
     1
174
     0
175
     0
176
   256
177
   256
178
     2
  0
ENDTAB
  0
ENDSEC
  0
SECTION
  2
BLOCKS
  0
BLOCK
  8
0
  2
$MODEL_SPACE
 70
     0
 10
0.0
 20
0.0
 30
0.0
  3
$MODEL_SPACE
  1

  0
ENDBLK
  5
2CE9
  8
0
  0
BLOCK
 67
     1
  8
0
  2
$PAPER_SPACE
 70
     0
 10
0.0
 20
0.0
 30
0.0
  3
$PAPER_SPACE
  1

  0
ENDBLK
  5
2CE5
 67
     1
  8
0
  0
BLOCK
  8
0
  2
GENAXEH
 70
     0
 10
0.0
 20
0.0
 30
0.0
  3
GENAXEH
  1

  0
LINE
  5
2AE3
  8
0
 10
-1.0
 20
0.0
 30
0.0
 11
1.0
 21
0.0
 31
0.0
  0
ENDBLK
  5
2AE4
  8
0
  0
BLOCK
  8
0
  2
_OPEN30
 70
     0
 10
0.0
 20
0.0
 30
0.0
  3
_OPEN30
  1

  0
LINE
  5
2AE7
  8
0
 62
     0
 10
-1.0
 20
0.26794919
 30
0.0
 11
0.0
 21
0.0
 31
0.0
  0
LINE
  5
2AE8
  8
0
 62
     0
 10
0.0
 20
0.0
 30
0.0
 11
-1.0
 21
-0.26794919
 31
0.0
  0
LINE
  5
2AE9
  8
0
 62
     0
 10
0.0
 20
0.0
 30
0.0
 11
-1.0
 21
0.0
 31
0.0
  0
ENDBLK
  5
2AEA
  8
0
  0
BLOCK
  8
0
  2
_NONE
 70
     0
 10
0.0
 20
0.0
 30
0.0
  3
_NONE
  1

  0
ENDBLK
  5
2AED
  8
0
  0
BLOCK
  8
0
  2
_ACMFILLEDHALF
 70
     0
 10
0.0
 20
0.0
 30
0.0
  3
_ACMFILLEDHALF
  1

  0
TRACE
  5
2DDD
  8
AM_0
 62
     0
 10
-0.8
 20
0.0
 30
0.0
 11
-1.0
 21
0.166666666
 31
0.0
 12
0.0
 22
0.0
 32
0.0
 13
0.0
 23
0.0
 33
0.0
  0
LINE
  5
2DDE
  8
AM_0
 62
     0
 10
-1.0
 20
0.0
 30
0.0
 11
-0.8
 21
0.0
 31
0.0
  0
ENDBLK
  5
2DDC
  8
0
  0
ENDSEC
  0
SECTION
  2
ENTITIES
  0
ARC
  5
2AEE
  8
AM_0
 10
316.79046928797368
 20
281.91722521392649
 30
0.0
 40
24.832211399999991
 50
349.38167999999979
 51
47.544066000000022
  0
LINE
  5
2AEF
  8
AM_0
 10
352.62270928797358
 20
258.8671932139265
 30
0.0
 11
352.62270928797358
 21
351.36720421392641
 31
0.0
  0
LINE
  5
2AF0
  8
AM_0
 10
346.62270928797369
 20
188.3672052139265
 30
0.0
 11
346.62270928797369
 21
329.0395242139266
 31
0.0
  0
LINE
  5
2AF1
  8
AM_0
 10
342.62265928797382
 20
234.9568512139264
 30
0.0
 11
342.62265928797382
 21
309.99243421392651
 31
0.0
  0
LINE
  5
2AF2
  8
AM_0
 10
261.40134928797391
 20
278.51512621392641
 30
0.0
 11
253.71213928797391
 21
267.60423721392641
 31
0.0
  0
LINE
  5
2AF3
  8
AM_0
 10
263.62266928797402
 20
308.52567421392661
 30
0.0
 11
263.62266928797402
 21
157.0874802139266
 31
0.0
  0
LINE
  5
2AF4
  8
AM_0
 10
277.62273928797367
 20
316.66719421392651
 30
0.0
 11
277.62273928797367
 21
154.66720621392659
 31
0.0
  0
LINE
  5
2AF5
  8
AM_0
 10
356.62266928797408
 20
343.86720421392641
 30
0.0
 11
356.62266928797408
 21
173.86722121392651
 31
0.0
  0
LINE
  5
2AF6
  8
AM_0
 10
224.1227392879739
 20
290.90583056796117
 30
0.0
 11
224.12273928797481
 21
180.42858785989171
 31
0.0
  0
LINE
  5
2AF7
  8
AM_0
 10
222.65827319390661
 20
284.20274311985918
 30
0.0
 11
202.0516714761086
 21
263.59614140206082
 31
0.0
  0
LINE
  5
2AF8
  8
AM_0
 10
234.1227392879737
 20
179.1672092139265
 30
0.0
 11
234.1227392879737
 21
292.16720921392641
 31
0.0
  0
LINE
  5
2AF9
  8
AM_0
 10
149.62273928797379
 20
243.1672092139265
 30
0.0
 11
167.6227392879739
 21
243.1672092139265
 31
0.0
  0
LINE
  5
2AFA
  8
AM_0
 10
149.62273928797379
 20
241.6672092139265
 30
0.0
 11
174.62273928797379
 21
241.6672092139265
 31
0.0
  0
LINE
  5
2AFB
  8
AM_0
 10
149.62273928797379
 20
229.66720921392661
 30
0.0
 11
174.62273928797379
 21
229.66720921392661
 31
0.0
  0
LINE
  5
2AFC
  8
ﾁｭｳｼﾝｾﾝ
 10
142.7111514719235
 20
235.66720921392661
 30
0.0
 11
251.5305840434165
 21
235.66720921392661
 31
0.0
  0
LINE
  5
2AFD
  8
AM_0
 10
149.62273928797379
 20
243.1672092139265
 30
0.0
 11
149.62273928797379
 21
229.66720921392661
 31
0.0
  0
LINE
  5
2AFE
  8
ﾁｭｳｼﾝｾﾝ
 10
247.70408608903
 20
258.8671932139265
 30
0.0
 11
403.57044928797359
 21
258.8671932139265
 31
0.0
  0
LINE
  5
2AFF
  8
AM_0
 10
277.62273928797367
 20
169.55699221392661
 30
0.0
 11
342.62265928797382
 21
169.55699221392661
 31
0.0
  0
LINE
  5
2B00
  8
AM_0
 10
277.62267928797388
 20
154.66722121392661
 30
0.0
 11
320.37657928797393
 21
153.17421121392661
 31
0.0
  0
ARC
  5
2B01
  8
AM_0
 10
259.76646928797368
 20
191.66722321392641
 30
0.0
 40
2.00000007
 50
270.0
 51
35.173271
  0
LINE
  5
2B02
  8
AM_0
 10
270.62265928797387
 20
266.81642521392661
 30
0.0
 11
270.62265928797387
 21
176.12323321392651
 31
0.0
  0
LINE
  5
2B03
  8
AM_0
 10
222.65827319390661
 20
187.1316753079937
 30
0.0
 11
202.0516714761086
 21
207.73827702579209
 31
0.0
  0
LINE
  5
2B04
  8
AM_0
 10
225.09375609469049
 20
179.42900796088051
 30
0.0
 11
234.1227392879737
 21
179.1672092139265
 31
0.0
  0
ARC
  5
2B05
  8
AM_0
 10
225.1227392879739
 20
180.42858785989171
 30
0.0
 40
1.0
 50
180.0
 51
268.33915276702243
1001
GENIUS_GENOBJ-N-FIL_13
1002
{
1000
OWNER
1000
GEN
1002
}
1001
GENIUS_GENODEF_13
1002
{
1000
HIER
1070
     0
1002
}
1002
{
1000
MANEDIT
1070
     0
1002
}
1002
{
1000
NOSEL
1070
     0
1002
}
1002
{
1000
BEHIND
1070
     0
1002
}
1002
{
1000
OTHER
1070
     0
1002
}
1002
{
1000
REACTOR
1002
}
  0
ARC
  5
2B06
  8
AM_0
 10
219.1227392879737
 20
183.59614140206111
 30
0.0
 40
5.0
 50
0.0
 51
45.0
1001
GENIUS_GENODEF_13
1002
{
1000
HIER
1070
     0
1002
}
1002
{
1000
MANEDIT
1070
     0
1002
}
1002
{
1000
NOSEL
1070
     0
1002
}
1002
{
1000
BEHIND
1070
     0
1002
}
1002
{
1000
OTHER
1070
     0
1002
}
1002
{
1000
REACTOR
1002
}
1001
GENIUS_GENOBJ-N-FIL_13
1002
{
1000
OWNER
1000
GEN
1002
}
  0
LINE
  5
2B07
  8
AM_0
 10
255.0309992879738
 20
177.87651121392651
 30
0.0
 11
261.8365892879736
 21
172.16592721392641
 31
0.0
  0
LINE
  5
2B08
  8
AM_0
 10
234.1227392879737
 20
189.66722221392641
 30
0.0
 11
259.76646928797368
 21
189.66722221392641
 31
0.0
  0
LINE
  5
2B09
  8
AM_0
 10
234.1226792879738
 20
179.66722321392649
 30
0.0
 11
251.99154928797381
 21
179.04322921392651
 31
0.0
  0
LINE
  5
2B0A
  8
AM_0
 10
253.71213928797391
 20
178.9831422139265
 30
0.0
 11
253.71213928797391
 21
189.66722221392641
 31
0.0
  0
ARC
  5
2B0B
  8
AM_0
 10
251.81706928797379
 20
174.04626721392651
 30
0.0
 40
5.0000001000000003
 50
50.0
 51
88.0
  0
ARC
  5
2B0C
  8
AM_0
 10
258.62265928797387
 20
168.33568021392651
 30
0.0
 40
5.0000001000000003
 50
0.0
 51
50.0
  0
LINE
  5
2B0D
  8
AM_0
 10
277.62267928797388
 20
154.66722121392661
 30
0.0
 11
265.55283928797388
 21
155.08870021392659
 31
0.0
  0
ARC
  5
2B0E
  8
AM_0
 10
265.62273928797367
 20
157.0874802139266
 30
0.0
 40
2.00000007
 50
179.99998999999991
 51
268.00000999999992
  0
LINE
  5
2B0F
  8
AM_0
 10
265.62273928797367
 20
174.12323221392651
 30
0.0
 11
268.6227392879739
 21
174.12323221392651
 31
0.0
  0
ARC
  5
2B10
  8
AM_0
 10
265.62273928797367
 20
172.12324621392659
 30
0.0
 40
2.00000007
 50
90.000003000000007
 51
180.00001
  0
ARC
  5
2B11
  8
AM_0
 10
268.6227392879739
 20
176.12323321392651
 30
0.0
 40
2.00000007
 50
270.0
 51
0.0
  0
LINE
  5
2B12
  8
AM_0
 10
199.1227392879737
 20
260.66720921392641
 30
0.0
 11
199.1227392879737
 21
210.6672092139263
 31
0.0
  0
LINE
  5
2B13
  8
AM_0
 10
176.62273928797379
 20
249.8387820891804
 30
0.0
 11
176.62273928797379
 21
221.49563633867271
 31
0.0
  0
LINE
  5
2B14
  8
AM_0
 10
178.62273928797379
 20
212.6672092139265
 30
0.0
 11
178.62273928797379
 21
258.66720921392653
 31
0.0
  0
LINE
  5
2B15
  8
AM_0
 10
174.62273928797379
 20
243.1672092139265
 30
0.0
 11
174.62273928797379
 21
228.16720158453199
 31
0.0
  0
LINE
  5
2B16
  8
AM_0
 10
180.6227392879739
 20
210.6672092139265
 30
0.0
 11
194.98060366424281
 21
210.6672092139265
 31
0.0
  0
ARC
  5
2B17
  8
AM_0
 10
180.6227392879739
 20
212.6672092139265
 30
0.0
 40
2.0
 50
180.0
 51
270.0
1001
GENIUS_GENODEF_13
1002
{
1000
HIER
1070
     0
1002
}
1002
{
1000
MANEDIT
1070
     0
1002
}
1002
{
1000
NOSEL
1070
     0
1002
}
1002
{
1000
BEHIND
1070
     0
1002
}
1002
{
1000
OTHER
1070
     0
1002
}
1002
{
1000
REACTOR
1002
}
1001
GENIUS_GENOBJ-N-FIL_13
1002
{
1000
OWNER
1000
GEN
1002
}
  0
ARC
  5
2B18
  8
AM_0
 10
178.62273928797379
 20
221.49563633867271
 30
0.0
 40
2.0
 50
180.0
 51
225.0
1001
GENIUS_GENODEF_13
1002
{
1000
HIER
1070
     0
1002
}
1002
{
1000
MANEDIT
1070
     0
1002
}
1002
{
1000
NOSEL
1070
     0
1002
}
1002
{
1000
BEHIND
1070
     0
1002
}
1002
{
1000
OTHER
1070
     0
1002
}
1002
{
1000
REACTOR
1002
}
1001
GENIUS_GENOBJ-N-FIL_13
1002
{
1000
OWNER
1000
GEN
1002
}
  0
LINE
  5
2B19
  8
AM_0
 10
174.62273928797379
 20
228.16720158453199
 30
0.0
 11
176.62273928797379
 21
228.16720158453199
 31
0.0
  0
ARC
  5
2B1A
  8
AM_0
 10
176.62273928797379
 20
217.8387820891804
 30
0.0
 40
2.0
 50
0.0
 51
45.0
1001
GENIUS_GENODEF_13
1002
{
1000
HIER
1070
     0
1002
}
1002
{
1000
MANEDIT
1070
     0
1002
}
1002
{
1000
NOSEL
1070
     0
1002
}
1002
{
1000
BEHIND
1070
     0
1002
}
1002
{
1000
OTHER
1070
     0
1002
}
1002
{
1000
REACTOR
1002
}
1001
GENIUS_GENOBJ-N-FIL_13
1002
{
1000
OWNER
1000
GEN
1002
}
  0
LINE
  5
2B1B
  8
AM_0
 10
177.20852572560091
 20
220.0814227762996
 30
0.0
 11
178.03695285034709
 21
219.2529956515535
 31
0.0
  0
ARC
  5
2B1C
  8
AM_0
 10
194.98060366424281
 20
200.6672092139265
 30
0.0
 40
10.0
 50
45.0
 51
90.0
1001
GENIUS_GENOBJ-N-FIL_13
1002
{
1000
OWNER
1000
GEN
1002
}
1001
GENIUS_GENODEF_13
1002
{
1000
HIER
1070
     0
1002
}
1002
{
1000
MANEDIT
1070
     0
1002
}
1002
{
1000
NOSEL
1070
     0
1002
}
1002
{
1000
BEHIND
1070
     0
1002
}
1002
{
1000
OTHER
1070
     0
1002
}
1002
{
1000
REACTOR
1002
}
  0
LINE
  5
2B1D
  8
AM_0
 10
180.6227392879739
 20
260.66720921392653
 30
0.0
 11
194.98060366424281
 21
260.66720921392653
 31
0.0
  0
ARC
  5
2B1E
  8
AM_0
 10
178.62273928797379
 20
249.8387820891804
 30
0.0
 40
2.0
 50
135.0
 51
180.0
1001
GENIUS_GENODEF_13
1002
{
1000
HIER
1070
     0
1002
}
1002
{
1000
MANEDIT
1070
     0
1002
}
1002
{
1000
NOSEL
1070
     0
1002
}
1002
{
1000
BEHIND
1070
     0
1002
}
1002
{
1000
OTHER
1070
     0
1002
}
1002
{
1000
REACTOR
1002
}
1001
GENIUS_GENOBJ-N-FIL_13
1002
{
1000
OWNER
1000
GEN
1002
}
  0
LINE
  5
2B1F
  8
AM_0
 10
167.6227392879739
 20
243.1672092139265
 30
0.0
 11
167.6227392879739
 21
241.6672092139265
 31
0.0
  0
LINE
  5
2B20
  8
AM_0
 10
174.62273928797379
 20
243.1672092139265
 30
0.0
 11
176.62273928797379
 21
243.1672092139265
 31
0.0
  0
LINE
  5
2B21
  8
AM_0
 10
177.20852572560091
 20
251.2529956515535
 30
0.0
 11
178.03695285034709
 21
252.08142277629941
 31
0.0
  0
ARC
  5
2B22
  8
AM_0
 10
176.62273928797379
 20
253.49563633867251
 30
0.0
 40
2.0
 50
315.0
 51
0.0
1001
GENIUS_GENODEF_13
1002
{
1000
HIER
1070
     0
1002
}
1002
{
1000
MANEDIT
1070
     0
1002
}
1002
{
1000
NOSEL
1070
     0
1002
}
1002
{
1000
BEHIND
1070
     0
1002
}
1002
{
1000
OTHER
1070
     0
1002
}
1002
{
1000
REACTOR
1002
}
1001
GENIUS_GENOBJ-N-FIL_13
1002
{
1000
OWNER
1000
GEN
1002
}
  0
ARC
  5
2B23
  8
AM_0
 10
180.6227392879739
 20
258.66720921392653
 30
0.0
 40
2.0
 50
90.0
 51
180.0
1001
GENIUS_GENODEF_13
1002
{
1000
HIER
1070
     0
1002
}
1002
{
1000
MANEDIT
1070
     0
1002
}
1002
{
1000
NOSEL
1070
     0
1002
}
1002
{
1000
BEHIND
1070
     0
1002
}
1002
{
1000
OTHER
1070
     0
1002
}
1002
{
1000
REACTOR
1002
}
1001
GENIUS_GENOBJ-N-FIL_13
1002
{
1000
OWNER
1000
GEN
1002
}
  0
ARC
  5
2B24
  8
AM_0
 10
194.98060366424281
 20
270.66720921392653
 30
0.0
 40
10.0
 50
270.0
 51
315.0
1001
GENIUS_GENODEF_13
1002
{
1000
HIER
1070
     0
1002
}
1002
{
1000
MANEDIT
1070
     0
1002
}
1002
{
1000
NOSEL
1070
     0
1002
}
1002
{
1000
BEHIND
1070
     0
1002
}
1002
{
1000
OTHER
1070
     0
1002
}
1002
{
1000
REACTOR
1002
}
1001
GENIUS_GENOBJ-N-FIL_13
1002
{
1000
OWNER
1000
GEN
1002
}
  0
LINE
  5
2B25
  8
AM_0
 10
253.71213928797391
 20
203.7301962139264
 30
0.0
 11
253.71213928797391
 21
267.60423721392641
 31
0.0
  0
LINE
  5
2B26
  8
AM_0
 10
253.71213928797391
 20
203.73022621392639
 30
0.0
 11
261.40128928797373
 21
192.8193222139264
 31
0.0
  0
LINE
  5
2B27
  8
AM_0
 10
234.1227392879737
 20
203.7301962139264
 30
0.0
 11
253.71213928797391
 21
203.7301962139264
 31
0.0
  0
LINE
  5
2B28
  8
AM_0
 10
234.1227392879737
 20
267.60423721392641
 30
0.0
 11
253.71213928797391
 21
267.60423721392641
 31
0.0
  0
LINE
  5
2B29
  8
AM_0
 10
263.62266928797402
 20
262.33928221392648
 30
0.0
 11
268.6227392879739
 21
262.33928221392648
 31
0.0
  0
ARC
  5
2B2A
  8
AM_0
 10
268.6227392879739
 20
260.33929921392638
 30
0.0
 40
2.00000007
 50
0.0
 51
90.000003000000007
  0
LINE
  5
2B2B
  8
AM_0
 10
265.62273928797367
 20
268.81639621392662
 30
0.0
 11
268.6227392879739
 21
268.81639621392662
 31
0.0
  0
ARC
  5
2B2C
  8
AM_0
 10
265.62273928797367
 20
270.8164272139266
 30
0.0
 40
2.00000007
 50
179.99998999999991
 51
270.0
  0
ARC
  5
2B2D
  8
AM_0
 10
268.6227392879739
 20
266.81642521392661
 30
0.0
 40
2.00000007
 50
0.0
 51
90.000003000000007
  0
LINE
  5
2B2E
  8
AM_0
 10
352.62270928797358
 20
166.36718821392651
 30
0.0
 11
352.62270928797358
 21
258.8671932139265
 31
0.0
  0
LINE
  5
2B2F
  8
AM_0
 10
342.62265928797382
 20
169.12457521392651
 30
0.0
 11
342.62265928797382
 21
204.4965702139265
 31
0.0
  0
ARC
  5
2B30
  8
AM_0
 10
302.62431928797361
 20
189.73109521392641
 30
0.0
 40
7.331659199999998
 50
90.000003000000007
 51
270.0
  0
LINE
  5
2B31
  8
AM_0
 10
302.62266928797402
 20
183.5824302139265
 30
0.0
 11
302.62266928797402
 21
195.9024222139264
 31
0.0
  0
LINE
  5
2B32
  8
AM_0
 10
320.37660928797402
 20
153.17419621392659
 30
0.0
 11
342.62265928797382
 21
166.0179762139264
 31
0.0
  0
LINE
  5
2B33
  8
AM_0
 10
302.62266928797402
 20
182.3994462139265
 30
0.0
 11
342.62265928797382
 21
182.3994462139265
 31
0.0
  0
ARC
  5
2B34
  8
AM_0
 10
345.6226592879737
 20
169.12457521392651
 30
0.0
 40
3.0
 50
179.99998999999991
 51
271.99998999999991
  0
LINE
  5
2B35
  8
AM_0
 10
342.62268928797369
 20
166.01799121392651
 30
0.0
 11
352.62273928797379
 21
166.36718821392651
 31
0.0
  0
LINE
  5
2B36
  8
AM_0
 10
352.62270928797358
 20
173.86722121392651
 30
0.0
 11
356.62266928797408
 21
173.86722121392651
 31
0.0
  0
ARC
  5
2B37
  8
AM_0
 10
343.62270928797358
 20
188.3672052139265
 30
0.0
 40
3.0
 50
270.0
 51
0.0
  0
LINE
  5
2B38
  8
AM_0
 10
356.62266928797408
 20
244.86720721392641
 30
0.0
 11
398.62266928797408
 21
244.86720721392641
 31
0.0
  0
LINE
  5
2B39
  8
AM_0
 10
356.62266928797408
 20
272.86720621392641
 30
0.0
 11
398.62266928797408
 21
272.86720621392641
 31
0.0
  0
ARC
  5
2B3A
  8
AM_0
 10
361.26795928797372
 20
249.6349692139265
 30
0.0
 40
24.832211399999991
 50
169.38167999999999
 51
218.79320999999999
  0
LINE
  5
2B3B
  8
AM_0
 10
302.62266928797402
 20
197.0627472139264
 30
0.0
 11
342.62265928797382
 21
197.0627472139264
 31
0.0
  0
ARC
  5
2B3C
  8
AM_0
 10
345.6226592879737
 20
204.4965702139265
 30
0.0
 40
3.0
 50
90.000003000000007
 51
180.00001
  0
ARC
  5
2B3D
  8
AM_0
 10
344.25168928797382
 20
235.95685321392651
 30
0.0
 40
3.0
 50
218.79321999999999
 51
270.0
  0
LINE
  5
2B3E
  8
AM_0
 10
344.25168928797382
 20
232.9568502139264
 30
0.0
 11
346.62270928797369
 21
232.9568502139264
 31
0.0
  0
LINE
  5
2B3F
  8
AM_0
 10
341.19744928797388
 20
277.34151121392648
 30
0.0
 11
336.86097928797381
 21
254.21071321392651
 31
0.0
  0
LINE
  5
2B40
  8
AM_0
 10
366.6226592879737
 20
275.86720621392641
 30
0.0
 11
398.62266928797408
 21
275.86720621392641
 31
0.0
  0
LINE
  5
2B41
  8
AM_0
 10
366.6226592879737
 20
275.86720621392641
 30
0.0
 11
366.6226592879737
 21
272.86720621392641
 31
0.0
  0
LINE
  5
2B42
  8
AM_0
 10
398.62266928797408
 20
275.86720621392641
 30
0.0
 11
398.62266928797408
 21
244.86720721392641
 31
0.0
  0
LINE
  5
2B43
  8
AM_0
 10
277.62267928797388
 20
316.6672242139266
 30
0.0
 11
313.01901928797372
 21
317.90328421392661
 31
0.0
  0
LINE
  5
2B44
  8
AM_0
 10
277.62273928797367
 20
281.91722521392649
 30
0.0
 11
339.56799928797381
 21
281.91722521392649
 31
0.0
  0
LINE
  5
2B45
  8
AM_0
 10
225.09375609469049
 20
291.90541046697251
 30
0.0
 11
234.1227392879737
 21
292.16720921392653
 31
0.0
  0
ARC
  5
2B46
  8
AM_0
 10
219.1227392879737
 20
287.738277025792
 30
0.0
 40
5.0
 50
315.0
 51
0.0
1001
GENIUS_GENODEF_13
1002
{
1000
HIER
1070
     0
1002
}
1002
{
1000
MANEDIT
1070
     0
1002
}
1002
{
1000
NOSEL
1070
     0
1002
}
1002
{
1000
BEHIND
1070
     0
1002
}
1002
{
1000
OTHER
1070
     0
1002
}
1002
{
1000
REACTOR
1002
}
1001
GENIUS_GENOBJ-N-FIL_13
1002
{
1000
OWNER
1000
GEN
1002
}
  0
ARC
  5
2B47
  8
AM_0
 10
225.1227392879739
 20
290.90583056796117
 30
0.0
 40
1.0
 50
91.660847232970866
 51
180.0
1001
GENIUS_GENOBJ-N-FIL_13
1002
{
1000
OWNER
1000
GEN
1002
}
1001
GENIUS_GENODEF_13
1002
{
1000
HIER
1070
     0
1002
}
1002
{
1000
MANEDIT
1070
     0
1002
}
1002
{
1000
NOSEL
1070
     0
1002
}
1002
{
1000
BEHIND
1070
     0
1002
}
1002
{
1000
OTHER
1070
     0
1002
}
1002
{
1000
REACTOR
1002
}
  0
LINE
  5
2B48
  8
AM_0
 10
255.0309992879738
 20
293.45793721392653
 30
0.0
 11
261.8365892879736
 21
299.16850921392648
 31
0.0
  0
ARC
  5
2B49
  8
AM_0
 10
259.76646928797368
 20
279.66722521392649
 30
0.0
 40
2.00000007
 50
324.82673
 51
90.000003000000007
  0
LINE
  5
2B4A
  8
AM_0
 10
234.1227392879737
 20
281.6671962139265
 30
0.0
 11
259.76646928797368
 21
281.6671962139265
 31
0.0
  0
LINE
  5
2B4B
  8
AM_0
 10
234.1226792879738
 20
291.6672252139266
 30
0.0
 11
251.99154928797381
 21
292.29121921392652
 31
0.0
  0
LINE
  5
2B4C
  8
AM_0
 10
253.71213928797391
 20
281.6671962139265
 30
0.0
 11
253.71213928797391
 21
292.35130921392653
 31
0.0
  0
ARC
  5
2B4D
  8
AM_0
 10
251.81706928797379
 20
297.28816621392662
 30
0.0
 40
5.0000001000000003
 50
272.0
 51
310.0
  0
ARC
  5
2B4E
  8
AM_0
 10
258.62265928797387
 20
302.99873821392652
 30
0.0
 40
5.0000001000000003
 50
310.0
 51
0.0
  0
LINE
  5
2B4F
  8
AM_0
 10
270.62265928797387
 20
314.49138421392661
 30
0.0
 11
270.62265928797387
 21
292.00130221392652
 31
0.0
  0
ARC
  5
2B50
  8
AM_0
 10
265.62273928797367
 20
288.00127021392638
 30
0.0
 40
2.00000007
 50
90.000003000000007
 51
180.00001
  0
LINE
  5
2B51
  8
AM_0
 10
265.62273928797367
 20
290.00130121392652
 30
0.0
 11
268.6227392879739
 21
290.00130121392652
 31
0.0
  0
ARC
  5
2B52
  8
AM_0
 10
268.6227392879739
 20
292.00130221392652
 30
0.0
 40
2.00000007
 50
270.0
 51
0.0
  0
LINE
  5
2B53
  8
AM_0
 10
272.55291928797391
 20
316.49016421392662
 30
0.0
 11
277.62267928797388
 21
316.6672242139266
 31
0.0
  0
ARC
  5
2B54
  8
AM_0
 10
266.62266928797402
 20
308.52567421392661
 30
0.0
 40
3.0
 50
91.999997999999948
 51
180.00001
  0
ARC
  5
2B55
  8
AM_0
 10
267.62265928797387
 20
314.56428421392661
 30
0.0
 40
3.0
 50
272.0
 51
0.0
  0
LINE
  5
2B56
  8
AM_0
 10
266.51799928797391
 20
311.52384421392662
 30
0.0
 11
267.72732928797387
 21
311.56608421392662
 31
0.0
  0
ARC
  5
2B57
  8
AM_0
 10
272.62266928797402
 20
314.49138421392661
 30
0.0
 40
2.00000007
 50
91.999997999999948
 51
180.00001
  0
LINE
  5
2B58
  8
AM_0
 10
270.62265928797387
 20
314.49138421392661
 30
0.0
 11
270.62265928797387
 21
314.56428421392661
 31
0.0
  0
LINE
  5
2B59
  8
AM_0
 10
342.62265928797382
 20
309.99243421392651
 30
0.0
 11
342.62265928797382
 21
349.08660421392648
 31
0.0
  0
LINE
  5
2B5A
  8
AM_0
 10
315.03558928797372
 20
318.78015421392661
 30
0.0
 11
342.62265928797382
 21
346.36722421392648
 31
0.0
  0
LINE
  5
2B5B
  8
AM_0
 10
314.20002928797368
 20
317.94447421392653
 30
0.0
 11
333.5527592879738
 21
300.23833321392652
 31
0.0
  0
ARC
  5
2B5C
  8
AM_0
 10
312.91428928797382
 20
320.90145421392663
 30
0.0
 40
3.0
 50
272.0
 51
315.0
  0
ARC
  5
2B5D
  8
AM_0
 10
345.6226592879737
 20
309.99243421392651
 30
0.0
 40
3.0
 50
179.99998999999991
 51
270.0
  0
LINE
  5
2B5E
  8
AM_0
 10
333.5528192879737
 20
300.23830321392649
 30
0.0
 11
333.5528192879737
 21
300.23830321392649
 31
0.0
  0
ARC
  5
2B5F
  8
AM_0
 10
343.62270928797358
 20
329.0395242139266
 30
0.0
 40
3.0
 50
0.0
 51
91.999997999999948
  0
ARC
  5
2B60
  8
AM_0
 10
344.62266928797402
 20
349.08660421392648
 30
0.0
 40
2.00000007
 50
91.999997999999948
 51
180.00001
  0
LINE
  5
2B61
  8
AM_0
 10
344.55291928797402
 20
351.08538421392649
 30
0.0
 11
352.62270928797358
 21
351.3671742139266
 31
0.0
  0
LINE
  5
2B62
  8
AM_0
 10
352.62270928797358
 20
343.86720421392641
 30
0.0
 11
356.62266928797408
 21
343.86720421392641
 31
0.0
  0
CIRCLE
  5
2B63
  8
AM_0
 10
581.5560172289504
 20
258.8671932139265
 30
0.0
 40
85.000001999999981
  0
ARC
  5
2B64
  8
AM_0
 10
581.5560172289504
 20
235.66720921392661
 30
0.0
 40
81.000003000000007
 50
24.588774999999998
 51
54.525830000000013
  0
CIRCLE
  5
2B65
  8
AM_0
 10
581.5560172289504
 20
258.8671932139265
 30
0.0
 40
80.000000999999983
  0
CIRCLE
  5
2B66
  8
AM_0
 10
581.5560172289504
 20
258.86722321392648
 30
0.0
 40
29.000001000000001
  0
ARC
  5
2B67
  8
AM_0
 10
581.5560172289504
 20
258.8671932139265
 30
0.0
 40
39.000011999999998
 50
143.21321
 51
180.00001
  0
ARC
  5
2B68
  8
AM_0
 10
581.5560172289504
 20
258.8671932139265
 30
0.0
 40
39.000011999999998
 50
0.0
 51
36.786791000000001
  0
LINE
  5
2B69
  8
ﾁｭｳｼﾝｾﾝ
 10
581.5560172289504
 20
149.3324742139265
 30
0.0
 11
581.5560172289504
 21
355.75859135505942
 31
0.0
  0
LINE
  5
2B6A
  8
AM_0
 10
674.05599822895033
 20
258.8671932139265
 30
0.0
 11
674.05599822895033
 21
288.86717821392648
 31
0.0
  0
LINE
  5
2B6B
  8
AM_0
 10
489.05600322895037
 20
258.8671932139265
 30
0.0
 11
489.05600322895037
 21
288.86717821392648
 31
0.0
  0
ARC
  5
2B6C
  8
AM_0
 10
656.67102522895027
 20
183.75217021392641
 30
0.0
 40
15.00000029999998
 50
273.0
 51
357.0
  0
ARC
  5
2B6D
  8
AM_0
 10
656.67102522895027
 20
183.75217021392641
 30
0.0
 40
15.00000029999998
 50
273.0
 51
357.0
  0
LINE
  5
2B6E
  8
AM_0
 10
674.05600722895031
 20
228.8672052139265
 30
0.0
 11
671.65048722895051
 21
182.9671182139264
 31
0.0
  0
LINE
  5
2B6F
  8
ﾁｭｳｼﾝｾﾝ
 10
484.02053972729311
 20
258.8671932139265
 30
0.0
 11
679.43728489312639
 21
258.8671932139265
 31
0.0
  0
ARC
  5
2B70
  8
AM_0
 10
537.55601622895051
 20
235.66720921392661
 30
0.0
 40
5.0000001000000003
 50
270.0
 51
0.0
  0
ARC
  5
2B71
  8
AM_0
 10
539.80601622895051
 20
163.3540962139266
 30
0.0
 40
8.0000000999999976
 50
156.73873999999981
 51
323.26127000000002
  0
LINE
  5
2B72
  8
AM_0
 10
551.55600222895055
 20
166.3672032139265
 30
0.0
 11
505.65593022895058
 21
168.77272321392661
 31
0.0
  0
ARC
  5
2B73
  8
ﾁｭｳｼﾝｾﾝ
 10
581.5560172289504
 20
258.8671932139265
 30
0.0
 40
107.5000109999999
 50
218.02724000000001
 51
233.24632000000011
  0
LINE
  5
2B74
  8
ﾁｭｳｼﾝｾﾝ
 10
516.79564122895033
 20
194.1068592139265
 30
0.0
 11
495.83432322895061
 21
173.14557121392659
 31
0.0
  0
LINE
  5
2B75
  8
AM_0
 10
489.05597322895051
 20
228.8672052139265
 30
0.0
 11
491.4614932289503
 21
182.9671182139264
 31
0.0
  0
CIRCLE
  5
2B76
  8
AM_0
 10
505.54203822895028
 20
182.8532292139264
 30
0.0
 40
6.0000002999999991
  0
ARC
  5
2B77
  8
AM_0
 10
506.4409942289505
 20
183.75217021392641
 30
0.0
 40
15.00000029999998
 50
183.00001
 51
267.0
  0
ARC
  5
2B78
  8
AM_0
 10
506.4409942289505
 20
183.75217021392641
 30
0.0
 40
15.00000029999998
 50
183.00001
 51
267.0
  0
LINE
  5
2B79
  8
AM_0
 10
489.05600322895037
 20
258.8671932139265
 30
0.0
 11
489.05600322895037
 21
228.86719021392639
 31
0.0
  0
LINE
  5
2B7A
  8
AM_0
 10
506.69105622895029
 20
230.6672082139265
 30
0.0
 11
537.55601622895051
 21
230.6672082139265
 31
0.0
  0
ARC
  5
2B7B
  8
AM_0
 10
581.5560172289504
 20
235.66720921392661
 30
0.0
 40
81.000003000000007
 50
270.0
 51
291.36619999999999
  0
LINE
  5
2B7C
  8
AM_0
 10
581.5560172289504
 20
166.3672032139265
 30
0.0
 11
611.55600522895065
 21
166.3672032139265
 31
0.0
  0
ARC
  5
2B7D
  8
AM_0
 10
581.5560172289504
 20
235.66720921392661
 30
0.0
 40
81.000003000000007
 50
248.63379999999989
 51
270.0
  0
LINE
  5
2B7E
  8
AM_0
 10
581.5560172289504
 20
166.3672032139265
 30
0.0
 11
551.55601722895062
 21
166.3672032139265
 31
0.0
  0
ARC
  5
2B7F
  8
AM_0
 10
550.22384922895048
 20
155.57791321392651
 30
0.0
 40
5.0000001000000003
 50
68.633797999999999
 51
143.26125999999991
  0
LINE
  5
2B80
  8
AM_0
 10
611.55600522895065
 20
166.3672032139265
 30
0.0
 11
657.45609222895052
 21
168.77272321392661
 31
0.0
  0
ARC
  5
2B81
  8
AM_0
 10
623.30598822895035
 20
163.3540962139266
 30
0.0
 40
8.0000000999999976
 50
216.73873999999989
 51
23.26125799999998
  0
ARC
  5
2B82
  8
AM_0
 10
612.88817322895045
 20
155.57791321392651
 30
0.0
 40
5.0000001000000003
 50
36.738737
 51
111.36621
  0
CIRCLE
  5
2B83
  8
AM_0
 10
657.56998122895038
 20
182.8532292139264
 30
0.0
 40
6.0000002999999991
  0
LINE
  5
2B84
  8
ﾁｭｳｼﾝｾﾝ
 10
546.55295022895052
 20
235.66720921392661
 30
0.0
 11
616.2029452289504
 21
235.66720921392661
 31
0.0
  0
ARC
  5
2B85
  8
AM_0
 10
581.5560172289504
 20
258.8671932139265
 30
0.0
 40
14.000001299999999
 50
106.6015399999999
 51
73.398452000000006
  0
LINE
  5
2B86
  8
AM_0
 10
542.55598722895024
 20
258.8671932139265
 30
0.0
 11
542.55598722895024
 21
235.66720921392661
 31
0.0
  0
CIRCLE
  5
2B87
  8
AM_5
 10
581.5560172289504
 20
258.8671932139265
 30
0.0
 40
4.000000199999997
  0
CIRCLE
  5
2B88
  8
AM_0
 10
581.5560172289504
 20
258.8671932139265
 30
0.0
 40
3.0
  0
POINT
  5
2B89
  8
AM_0
 10
581.5560172289504
 20
258.8671932139265
 30
0.0
  0
LINE
  5
2B8A
  8
AM_0
 10
577.55600322895032
 20
268.86720721392641
 30
0.0
 11
585.55600422895054
 21
268.86720721392641
 31
0.0
  0
LINE
  5
2B8B
  8
AM_0
 10
577.55600322895032
 20
275.86720621392641
 30
0.0
 11
585.55600422895054
 21
275.86720621392641
 31
0.0
  0
LINE
  5
2B8C
  8
AM_0
 10
577.55600322895032
 20
268.86720721392641
 30
0.0
 11
577.55600322895032
 21
275.86720621392641
 31
0.0
  0
LINE
  5
2B8D
  8
AM_0
 10
585.55600422895054
 20
268.86720721392641
 30
0.0
 11
585.55600422895054
 21
275.86720621392641
 31
0.0
  0
ARC
  5
2B8E
  8
AM_0
 10
581.5560172289504
 20
235.66720921392661
 30
0.0
 40
76.000001999999981
 50
358.60644999999982
 51
12.760202
  0
ARC
  5
2B8F
  8
AM_0
 10
625.55600322895032
 20
235.66720921392661
 30
0.0
 40
5.0000001000000003
 50
179.99998999999991
 51
270.0
  0
LINE
  5
2B90
  8
AM_0
 10
656.42095122895034
 20
230.6672082139265
 30
0.0
 11
625.55600322895032
 21
230.6672082139265
 31
0.0
  0
LINE
  5
2B91
  8
AM_0
 10
620.5560202289505
 20
258.8671932139265
 30
0.0
 11
620.5560202289505
 21
235.66720921392661
 31
0.0
  0
ARC
  5
2B92
  8
AM_0
 10
581.5560172289504
 20
258.8671932139265
 30
0.0
 40
74.400002999999998
 50
355.05457999999999
 51
8.1165493999999985
  0
LINE
  5
2B93
  8
AM_0
 10
674.05599822895033
 20
258.8671932139265
 30
0.0
 11
674.05599822895033
 21
228.86719021392639
 31
0.0
  0
ARC
  5
2B94
  8
AM_0
 10
656.67102522895027
 20
333.98223421392652
 30
0.0
 40
15.00000029999998
 50
3.0000000999999981
 51
86.999998999999988
  0
ARC
  5
2B95
  8
AM_0
 10
656.67102522895027
 20
333.98223421392652
 30
0.0
 40
15.00000029999998
 50
3.0000000999999981
 51
86.999998999999988
  0
LINE
  5
2B96
  8
AM_0
 10
674.05600722895031
 20
288.86720821392652
 30
0.0
 11
671.65048722895051
 21
334.76730421392648
 31
0.0
  0
LINE
  5
2B97
  8
AM_0
 10
551.55601722895062
 20
351.36720421392641
 30
0.0
 11
505.65593022895058
 21
348.96168421392639
 31
0.0
  0
LINE
  5
2B98
  8
AM_0
 10
554.28344922895053
 20
290.38240621392657
 30
0.0
 11
529.39567722895038
 21
315.27018421392648
 31
0.0
  0
LINE
  5
2B99
  8
AM_0
 10
550.04081922895045
 20
286.13976121392648
 30
0.0
 11
525.15303222895045
 21
311.02755421392652
 31
0.0
  0
LINE
  5
2B9A
  8
AM_0
 10
489.05600322895037
 20
288.86720821392652
 30
0.0
 11
491.46152322895028
 21
334.76730421392648
 31
0.0
  0
ARC
  5
2B9B
  8
AM_0
 10
523.03172322895057
 20
308.9062542139265
 30
0.0
 40
3.0
 50
45.00000099999999
 51
139.4691399999999
  0
ARC
  5
2B9C
  8
AM_0
 10
531.51698622895026
 20
317.39154421392652
 30
0.0
 40
3.0
 50
130.5308599999999
 51
225.0
  0
CIRCLE
  5
2B9D
  8
AM_0
 10
505.54203822895028
 20
334.88118421392647
 30
0.0
 40
6.0000002999999991
  0
ARC
  5
2B9E
  8
AM_0
 10
506.4409942289505
 20
333.98223421392652
 30
0.0
 40
15.00000029999998
 50
92.999999000000017
 51
176.99999
  0
ARC
  5
2B9F
  8
AM_0
 10
506.4409942289505
 20
333.98223421392652
 30
0.0
 40
15.00000029999998
 50
92.999999000000017
 51
176.99999
  0
LINE
  5
2BA0
  8
AM_0
 10
581.5560172289504
 20
351.36720421392641
 30
0.0
 11
611.55600522895065
 21
351.36720421392641
 31
0.0
  0
ARC
  5
2BA1
  8
AM_0
 10
606.70726422895007
 20
292.50374221392661
 30
0.0
 40
3.0
 50
233.21321
 51
315.0
  0
ARC
  5
2BA2
  8
AM_0
 10
581.5560172289504
 20
235.66720921392661
 30
0.0
 40
81.000003000000007
 50
58.860945000000001
 51
86.245803000000024
  0
LINE
  5
2BA3
  8
AM_0
 10
579.05600322895032
 20
319.48695421392642
 30
0.0
 11
579.05600322895032
 21
330.05505421392661
 31
0.0
  0
LINE
  5
2BA4
  8
AM_0
 10
584.05601922895039
 20
319.48695421392642
 30
0.0
 11
584.05601922895039
 21
330.05505421392661
 31
0.0
  0
ARC
  5
2BA5
  8
AM_0
 10
581.5560172289504
 20
258.8671932139265
 30
0.0
 40
39.000011999999998
 50
53.213208000000002
 51
126.78679
  0
ARC
  5
2BA6
  8
AM_0
 10
556.4047582289503
 20
292.50374221392661
 30
0.0
 40
3.0
 50
225.0
 51
306.78678999999988
  0
ARC
  5
2BA7
  8
AM_0
 10
547.91949822895049
 20
284.01845221392642
 30
0.0
 40
3.0
 50
323.21321
 51
45.00000099999999
  0
ARC
  5
2BA8
  8
AM_0
 10
581.5560172289504
 20
235.66718221392651
 30
0.0
 40
81.000003000000007
 50
93.754195000000877
 51
121.1390599999998
  0
ARC
  5
2BA9
  8
AM_0
 10
576.05600322895032
 20
319.48695421392642
 30
0.0
 40
3.0
 50
273.75420000000003
 51
0.0
  0
ARC
  5
2BAA
  8
AM_0
 10
587.05601922895028
 20
319.48695421392642
 30
0.0
 40
3.0
 50
180.00001
 51
266.24579999999992
  0
LINE
  5
2BAB
  8
AM_0
 10
581.5560172289504
 20
351.36720421392641
 30
0.0
 11
551.55601722895062
 21
351.36720421392641
 31
0.0
  0
ARC
  5
2BAC
  8
AM_0
 10
587.05601922895028
 20
330.05505421392661
 30
0.0
 40
3.0
 50
85.582086000000032
 51
180.00001
  0
ARC
  5
2BAD
  8
AM_0
 10
576.05600322895032
 20
330.05505421392661
 30
0.0
 40
3.0
 50
0.0
 51
94.417918999999983
  0
ARC
  5
2BAE
  8
AM_0
 10
640.08031122895045
 20
308.9062542139265
 30
0.0
 40
3.0
 50
40.530864999999999
 51
135.0
  0
LINE
  5
2BAF
  8
AM_0
 10
608.82855522895045
 20
290.38243621392638
 30
0.0
 11
633.71634522895033
 21
315.27021421392652
 31
0.0
  0
LINE
  5
2BB0
  8
AM_0
 10
613.07120322895048
 20
286.13979121392669
 30
0.0
 11
637.95899022895026
 21
311.02758421392662
 31
0.0
  0
ARC
  5
2BB1
  8
AM_0
 10
615.19252422895045
 20
284.01845221392642
 30
0.0
 40
3.0
 50
135.0
 51
216.78679
  0
ARC
  5
2BB2
  8
AM_0
 10
631.59502122895037
 20
317.39154421392652
 30
0.0
 40
3.0
 50
315.0
 51
49.469136999999989
  0
LINE
  5
2BB3
  8
AM_0
 10
611.55600522895065
 20
351.36720421392641
 30
0.0
 11
657.45609222895052
 21
348.96168421392639
 31
0.0
  0
ARC
  5
2BB4
  8
ﾁｭｳｼﾝｾﾝ
 10
581.5560172289504
 20
258.8671932139265
 30
0.0
 40
107.5000109999999
 50
38.027231999999991
 51
53.246320999999988
  0
LINE
  5
2BB5
  8
ﾁｭｳｼﾝｾﾝ
 10
648.11855022895031
 20
325.42977421392652
 30
0.0
 11
667.27762422895034
 21
344.58885421392648
 31
0.0
  0
CIRCLE
  5
2BB6
  8
AM_0
 10
657.56998122895038
 20
334.88118421392647
 30
0.0
 40
6.0000002999999991
  0
ARC
  5
2BB7
  8
AM_0
 10
581.5560172289504
 20
235.66720921392661
 30
0.0
 40
81.000003000000007
 50
125.4741699999998
 51
155.4112249999998
  0
ARC
  5
2BB8
  8
AM_0
 10
581.5560172289504
 20
258.8671932139265
 30
0.0
 40
74.400002999999998
 50
171.8834506
 51
184.94542000000001
  0
ARC
  5
2BB9
  8
AM_0
 10
581.5560172289504
 20
235.66720921392661
 30
0.0
 40
76.000001999999981
 50
167.23979800000001
 51
181.39355
  0
LINE
  5
2BBA
  8
AM_0
 10
234.1227392879737
 20
267.6046482139264
 30
0.0
 11
224.1227392879739
 21
267.6046482139264
 31
0.0
  0
LINE
  5
2BBB
  8
AM_0
 10
234.1227392879737
 20
281.66721421392651
 30
0.0
 11
224.1227392879739
 21
281.66721421392651
 31
0.0
  0
LINE
  5
2BBC
  8
AM_0
 10
234.1227392879737
 20
189.6672072139265
 30
0.0
 11
224.1227392879739
 21
189.6672072139265
 31
0.0
  0
LINE
  5
2BBD
  8
AM_0
 10
234.1227392879737
 20
203.7297702139264
 30
0.0
 11
224.1227392879739
 21
203.7297702139264
 31
0.0
  0
LINE
  5
2BBE
  8
AM_0
 10
176.622699287974
 20
513.41121112828114
 30
0.0
 11
176.622699287974
 21
485.06806537777351
 31
0.0
  0
LINE
  5
2BBF
  8
AM_0
 10
199.122699287974
 20
524.23963825302735
 30
0.0
 11
199.1226992879738
 21
474.23963825302712
 31
0.0
  0
LINE
  5
2BC0
  8
AM_0
 10
178.6226992879738
 20
476.23963825302729
 30
0.0
 11
178.62269928797409
 21
522.23963825302735
 31
0.0
  0
LINE
  5
2BC1
  8
AM_0
 10
224.12269928797389
 20
554.47825960706234
 30
0.0
 11
224.122699287975
 21
444.00101689899248
 31
0.0
  0
LINE
  5
2BC2
  8
AM_0
 10
180.622699287974
 20
474.23963825302718
 30
0.0
 11
194.98056366424279
 21
474.23963825302712
 31
0.0
  0
ARC
  5
2BC3
  8
AM_0
 10
180.622699287974
 20
476.23963825302729
 30
0.0
 40
2.0
 50
180.0
 51
270.0
1001
GENIUS_GENODEF_13
1002
{
1000
HIER
1070
     0
1002
}
1002
{
1000
MANEDIT
1070
     0
1002
}
1002
{
1000
NOSEL
1070
     0
1002
}
1002
{
1000
BEHIND
1070
     0
1002
}
1002
{
1000
OTHER
1070
     0
1002
}
1002
{
1000
REACTOR
1002
}
1001
GENIUS_GENOBJ-N-FIL_13
1002
{
1000
OWNER
1000
GEN
1002
}
  0
ARC
  5
2BC4
  8
AM_0
 10
178.622699287974
 20
485.06806537777351
 30
0.0
 40
2.0
 50
180.0
 51
225.0
1001
GENIUS_GENODEF_13
1002
{
1000
HIER
1070
     0
1002
}
1002
{
1000
MANEDIT
1070
     0
1002
}
1002
{
1000
NOSEL
1070
     0
1002
}
1002
{
1000
BEHIND
1070
     0
1002
}
1002
{
1000
OTHER
1070
     0
1002
}
1002
{
1000
REACTOR
1002
}
1001
GENIUS_GENOBJ-N-FIL_13
1002
{
1000
OWNER
1000
GEN
1002
}
  0
LINE
  5
2BC5
  8
AM_0
 10
177.20848572560089
 20
483.65385181540051
 30
0.0
 11
178.03691285034711
 21
482.8254246906543
 31
0.0
  0
ARC
  5
2BC6
  8
AM_0
 10
176.622699287974
 20
481.4112111282812
 30
0.0
 40
2.0
 50
0.0
 51
45.0
1001
GENIUS_GENODEF_13
1002
{
1000
HIER
1070
     0
1002
}
1002
{
1000
MANEDIT
1070
     0
1002
}
1002
{
1000
NOSEL
1070
     0
1002
}
1002
{
1000
BEHIND
1070
     0
1002
}
1002
{
1000
OTHER
1070
     0
1002
}
1002
{
1000
REACTOR
1002
}
1001
GENIUS_GENOBJ-N-FIL_13
1002
{
1000
OWNER
1000
GEN
1002
}
  0
ARC
  5
2BC7
  8
AM_0
 10
225.122699287974
 20
444.00101689899248
 30
0.0
 40
1.0
 50
180.0
 51
268.33915276702578
1001
GENIUS_GENOBJ-N-FIL_13
1002
{
1000
OWNER
1000
GEN
1002
}
1001
GENIUS_GENODEF_13
1002
{
1000
HIER
1070
     0
1002
}
1002
{
1000
MANEDIT
1070
     0
1002
}
1002
{
1000
NOSEL
1070
     0
1002
}
1002
{
1000
BEHIND
1070
     0
1002
}
1002
{
1000
OTHER
1070
     0
1002
}
1002
{
1000
REACTOR
1002
}
  0
LINE
  5
2BC8
  8
AM_0
 10
225.09371609469079
 20
443.00143699998142
 30
0.0
 11
234.122699287974
 21
442.73963825302741
 31
0.0
  0
LINE
  5
2BC9
  8
AM_0
 10
222.6582331939068
 20
450.70410434709459
 30
0.0
 11
202.0516314761085
 21
471.31070606489288
 31
0.0
  0
ARC
  5
2BCA
  8
AM_0
 10
194.98056366424279
 20
464.23963825302718
 30
0.0
 40
10.0
 50
45.0
 51
90.0
1001
GENIUS_GENOBJ-N-FIL_13
1002
{
1000
OWNER
1000
GEN
1002
}
1001
GENIUS_GENODEF_13
1002
{
1000
HIER
1070
     0
1002
}
1002
{
1000
MANEDIT
1070
     0
1002
}
1002
{
1000
NOSEL
1070
     0
1002
}
1002
{
1000
BEHIND
1070
     0
1002
}
1002
{
1000
OTHER
1070
     0
1002
}
1002
{
1000
REACTOR
1002
}
  0
LINE
  5
2BCB
  8
AM_0
 10
234.122699287974
 20
453.2396362530273
 30
0.0
 11
224.122699287974
 21
453.2396362530273
 31
0.0
  0
ARC
  5
2BCC
  8
AM_0
 10
219.122699287974
 20
447.16857044116159
 30
0.0
 40
5.0
 50
0.0
 51
45.0
1001
GENIUS_GENODEF_13
1002
{
1000
HIER
1070
     0
1002
}
1002
{
1000
MANEDIT
1070
     0
1002
}
1002
{
1000
NOSEL
1070
     0
1002
}
1002
{
1000
BEHIND
1070
     0
1002
}
1002
{
1000
OTHER
1070
     0
1002
}
1002
{
1000
REACTOR
1002
}
1001
GENIUS_GENOBJ-N-FIL_13
1002
{
1000
OWNER
1000
GEN
1002
}
  0
LINE
  5
2BCD
  8
AM_0
 10
234.122699287974
 20
467.3021992530272
 30
0.0
 11
224.122699287974
 21
467.3021992530272
 31
0.0
  0
LINE
  5
2BCE
  8
AM_0
 10
180.622699287974
 20
524.23963825302735
 30
0.0
 11
194.98056366424279
 21
524.23963825302735
 31
0.0
  0
LINE
  5
2BCF
  8
AM_0
 10
149.622699287974
 20
493.23963825302729
 30
0.0
 11
174.622699287974
 21
493.23963825302729
 31
0.0
  0
LINE
  5
2BD0
  8
AM_0
 10
149.622699287974
 20
505.23963825302741
 30
0.0
 11
174.622699287974
 21
505.23963825302741
 31
0.0
  0
LINE
  5
2BD1
  8
AM_0
 10
149.622699287974
 20
497.23963825302729
 30
0.0
 11
167.6226992879738
 21
497.23963825302729
 31
0.0
  0
LINE
  5
2BD2
  8
AM_0
 10
149.622699287974
 20
501.23963825302729
 30
0.0
 11
167.6226992879738
 21
501.23963825302729
 31
0.0
  0
LINE
  5
2BD3
  8
AM_0
 10
149.622699287974
 20
505.23963825302741
 30
0.0
 11
149.622699287974
 21
493.23963825302729
 31
0.0
  0
LINE
  5
2BD4
  8
AM_0
 10
167.62269928797389
 20
501.23963825302729
 30
0.0
 11
167.6226992879738
 21
497.23963825302729
 31
0.0
  0
ARC
  5
2BD5
  8
AM_0
 10
167.62269928797389
 20
499.23963825302718
 30
0.0
 40
1.9999999999998861
 50
270.0
 51
90.0
  0
LINE
  5
2BD6
  8
AM_0
 10
174.622699287974
 20
506.73963825302718
 30
0.0
 11
174.622699287974
 21
491.73963062363271
 31
0.0
  0
LINE
  5
2BD7
  8
AM_0
 10
174.622699287974
 20
491.73963062363271
 30
0.0
 11
176.622699287974
 21
491.73963062363271
 31
0.0
  0
LINE
  5
2BD8
  8
AM_0
 10
174.622699287974
 20
506.73963825302718
 30
0.0
 11
176.622699287974
 21
506.73963825302718
 31
0.0
  0
ARC
  5
2BD9
  8
AM_0
 10
176.622699287974
 20
517.06806537777345
 30
0.0
 40
2.0
 50
315.0
 51
0.0
1001
GENIUS_GENODEF_13
1002
{
1000
HIER
1070
     0
1002
}
1002
{
1000
MANEDIT
1070
     0
1002
}
1002
{
1000
NOSEL
1070
     0
1002
}
1002
{
1000
BEHIND
1070
     0
1002
}
1002
{
1000
OTHER
1070
     0
1002
}
1002
{
1000
REACTOR
1002
}
1001
GENIUS_GENOBJ-N-FIL_13
1002
{
1000
OWNER
1000
GEN
1002
}
  0
LINE
  5
2BDA
  8
AM_0
 10
177.20848572560089
 20
514.82542469065424
 30
0.0
 11
178.03691285034711
 21
515.65385181540034
 31
0.0
  0
ARC
  5
2BDB
  8
AM_0
 10
178.622699287974
 20
513.41121112828114
 30
0.0
 40
2.0
 50
135.0
 51
180.0
1001
GENIUS_GENODEF_13
1002
{
1000
HIER
1070
     0
1002
}
1002
{
1000
MANEDIT
1070
     0
1002
}
1002
{
1000
NOSEL
1070
     0
1002
}
1002
{
1000
BEHIND
1070
     0
1002
}
1002
{
1000
OTHER
1070
     0
1002
}
1002
{
1000
REACTOR
1002
}
1001
GENIUS_GENOBJ-N-FIL_13
1002
{
1000
OWNER
1000
GEN
1002
}
  0
ARC
  5
2BDC
  8
AM_0
 10
180.622699287974
 20
522.23963825302735
 30
0.0
 40
2.0
 50
90.0
 51
180.0
1001
GENIUS_GENODEF_13
1002
{
1000
HIER
1070
     0
1002
}
1002
{
1000
MANEDIT
1070
     0
1002
}
1002
{
1000
NOSEL
1070
     0
1002
}
1002
{
1000
BEHIND
1070
     0
1002
}
1002
{
1000
OTHER
1070
     0
1002
}
1002
{
1000
REACTOR
1002
}
1001
GENIUS_GENOBJ-N-FIL_13
1002
{
1000
OWNER
1000
GEN
1002
}
  0
LINE
  5
2BDD
  8
AM_0
 10
222.6582331939068
 20
547.77517215896023
 30
0.0
 11
202.0516314761085
 21
527.16857044116159
 31
0.0
  0
ARC
  5
2BDE
  8
AM_0
 10
194.98056366424279
 20
534.23963825302735
 30
0.0
 40
10.0
 50
270.0
 51
315.0
1001
GENIUS_GENODEF_13
1002
{
1000
HIER
1070
     0
1002
}
1002
{
1000
MANEDIT
1070
     0
1002
}
1002
{
1000
NOSEL
1070
     0
1002
}
1002
{
1000
BEHIND
1070
     0
1002
}
1002
{
1000
OTHER
1070
     0
1002
}
1002
{
1000
REACTOR
1002
}
1001
GENIUS_GENOBJ-N-FIL_13
1002
{
1000
OWNER
1000
GEN
1002
}
  0
LINE
  5
2BDF
  8
AM_0
 10
234.122699287974
 20
531.17707725302705
 30
0.0
 11
224.122699287974
 21
531.17707725302705
 31
0.0
  0
LINE
  5
2BE0
  8
AM_0
 10
234.122699287974
 20
545.23964325302745
 30
0.0
 11
224.122699287974
 21
545.23964325302745
 31
0.0
  0
ARC
  5
2BE1
  8
AM_0
 10
219.122699287974
 20
551.310706064893
 30
0.0
 40
5.0
 50
315.0
 51
0.0
1001
GENIUS_GENODEF_13
1002
{
1000
HIER
1070
     0
1002
}
1002
{
1000
MANEDIT
1070
     0
1002
}
1002
{
1000
NOSEL
1070
     0
1002
}
1002
{
1000
BEHIND
1070
     0
1002
}
1002
{
1000
OTHER
1070
     0
1002
}
1002
{
1000
REACTOR
1002
}
1001
GENIUS_GENOBJ-N-FIL_13
1002
{
1000
OWNER
1000
GEN
1002
}
  0
LINE
  5
2BE2
  8
AM_0
 10
225.09371609469079
 20
555.47783950607311
 30
0.0
 11
234.122699287974
 21
555.73963825302735
 31
0.0
  0
ARC
  5
2BE3
  8
AM_0
 10
225.122699287974
 20
554.47825960706234
 30
0.0
 40
1.0
 50
91.66084723297412
 51
180.0
1001
GENIUS_GENOBJ-N-FIL_13
1002
{
1000
OWNER
1000
GEN
1002
}
1001
GENIUS_GENODEF_13
1002
{
1000
HIER
1070
     0
1002
}
1002
{
1000
MANEDIT
1070
     0
1002
}
1002
{
1000
NOSEL
1070
     0
1002
}
1002
{
1000
BEHIND
1070
     0
1002
}
1002
{
1000
OTHER
1070
     0
1002
}
1002
{
1000
REACTOR
1002
}
  0
LINE
  5
2BE5
  8
ﾁｭｳｼﾝｾﾝ
 10
142.7111514719235
 20
499.23963825302718
 30
0.0
 11
403.32969928797399
 21
499.23963825302718
 31
0.0
  0
POLYLINE
  5
2BE6
  8
AM_0
 66
     1
 10
0.0
 20
0.0
 30
0.0
  0
VERTEX
  5
2BE7
  8
AM_0
 10
339.53575928797409
 20
583.65262825302727
 30
0.0
 42
0.081985852
  0
VERTEX
  5
2BE8
  8
AM_0
 10
317.41986928797388
 20
528.74094825302745
 30
0.0
 42
0.10914194
  0
VERTEX
  5
2BE9
  8
AM_0
 10
317.419959287974
 20
469.73793825302721
 30
0.0
 42
0.081985219
  0
VERTEX
  5
2BEA
  8
AM_0
 10
339.53575928797409
 20
414.82663825302723
 30
0.0
  0
SEQEND
  5
2BEB
  8
AM_0
  0
ARC
  5
2BEC
  8
AM_0
 10
366.62266928797402
 20
499.23960825302731
 30
0.0
 40
3.9999962
 50
90.000003000000945
 51
270.0
  0
LINE
  5
2BED
  8
AM_0
 10
366.62266928797402
 20
503.23960825302731
 30
0.0
 11
366.62266928797402
 21
495.23963825302729
 31
0.0
  0
LINE
  5
2BEE
  8
AM_0
 10
398.62266928797408
 20
513.23966825302739
 30
0.0
 11
398.62266928797408
 21
485.2396682530275
 31
0.0
  0
LINE
  5
2BEF
  8
AM_0
 10
352.622699287974
 20
406.73963825302718
 30
0.0
 11
352.622699287974
 21
591.73963825302746
 31
0.0
  0
LINE
  5
2BF0
  8
AM_0
 10
346.622699287974
 20
428.73963825302729
 30
0.0
 11
346.622699287974
 21
569.41193825302753
 31
0.0
  0
LINE
  5
2BF1
  8
AM_0
 10
342.62269928797389
 20
409.02024825302721
 30
0.0
 11
342.62269928797389
 21
589.45902825302755
 31
0.0
  0
LINE
  5
2BF2
  8
AM_0
 10
356.62272928797398
 20
584.23963825302735
 30
0.0
 11
356.62272928797398
 21
414.23963825302718
 31
0.0
  0
LINE
  5
2BF3
  8
AM_0
 10
234.122699287974
 20
442.73963825302741
 30
0.0
 11
234.122699287974
 21
555.73963825302735
 31
0.0
  0
LINE
  5
2BF4
  8
AM_0
 10
270.62266928797402
 20
428.14945825302732
 30
0.0
 11
270.62266928797402
 21
570.32981825302716
 31
0.0
  0
LINE
  5
2BF5
  8
AM_0
 10
263.62269928797389
 20
420.37464825302732
 30
0.0
 11
263.62269928797389
 21
578.1046282530275
 31
0.0
  0
LINE
  5
2BF6
  8
AM_0
 10
277.622699287974
 20
416.98868825302719
 30
0.0
 11
277.622699287974
 21
581.49058825302745
 31
0.0
  0
LINE
  5
2BF7
  8
AM_0
 10
253.712149287974
 20
467.30265825302729
 30
0.0
 11
253.712149287974
 21
531.17664825302745
 31
0.0
  0
LINE
  5
2BF8
  8
AM_0
 10
337.56739928797401
 20
414.8953682530273
 30
0.0
 11
277.622699287974
 21
416.98868825302719
 31
0.0
  0
ARC
  5
2BF9
  8
AM_0
 10
266.622699287974
 20
420.37464825302732
 30
0.0
 40
3.0
 50
180.00001000000091
 51
267.9999999999996
  0
LINE
  5
2BFA
  8
AM_0
 10
277.622699287974
 20
416.98868825302719
 30
0.0
 11
266.51798928797399
 21
417.3764782530273
 31
0.0
  0
ARC
  5
2BFB
  8
AM_0
 10
258.62266928797402
 20
431.90809825302722
 30
0.0
 40
5.0
 50
0.0
 51
49.999999999999922
  0
ARC
  5
2BFC
  8
AM_0
 10
259.766499287974
 20
455.23960825302743
 30
0.0
 40
2.0
 50
269.999989999999
 51
35.173260999998369
  0
LINE
  5
2BFD
  8
AM_0
 10
253.712149287974
 20
467.30259825302733
 30
0.0
 11
261.40132928797402
 21
456.39167825302752
 31
0.0
  0
LINE
  5
2BFE
  8
AM_0
 10
251.99156928797399
 20
442.6156482530273
 30
0.0
 11
234.122699287974
 21
443.23963825302729
 31
0.0
  0
LINE
  5
2BFF
  8
AM_0
 10
234.122699287974
 20
453.23963825302718
 30
0.0
 11
259.766499287974
 21
453.23963825302718
 31
0.0
  0
LINE
  5
2C00
  8
AM_0
 10
255.03098928797399
 20
441.4489282530273
 30
0.0
 11
261.83665928797387
 21
435.73829825302732
 31
0.0
  0
LINE
  5
2C01
  8
AM_0
 10
253.712149287974
 20
442.2456482530273
 30
0.0
 11
253.712149287974
 21
453.23963825302718
 31
0.0
  0
ARC
  5
2C02
  8
AM_0
 10
251.81706928797399
 20
437.61869825302722
 30
0.0
 40
5.0
 50
49.99999699999762
 51
87.999999999999659
  0
LINE
  5
2C03
  8
AM_0
 10
234.122699287974
 20
467.30265825302729
 30
0.0
 11
253.712149287974
 21
467.30265825302729
 31
0.0
  0
LINE
  5
2C04
  8
AM_0
 10
263.62269928797389
 20
439.93113825302743
 30
0.0
 11
270.62266928797402
 21
439.93113825302743
 31
0.0
  0
LINE
  5
2C05
  8
AM_0
 10
344.55290928797388
 20
407.02143825302721
 30
0.0
 11
352.62266928797402
 21
406.73963825302718
 31
0.0
  0
ARC
  5
2C06
  8
AM_0
 10
344.62272928797398
 20
409.02024825302721
 30
0.0
 40
2.0
 50
179.9999899999988
 51
268.00000999999861
  0
LINE
  5
2C07
  8
AM_0
 10
340.92845928797402
 20
413.43393825302718
 30
0.0
 11
342.62272928797398
 21
411.7396682530275
 31
0.0
  0
ARC
  5
2C08
  8
AM_0
 10
337.39289928797399
 20
409.8984182530275
 30
0.0
 40
5.0
 50
45.000000999999187
 51
87.999999999999659
  0
LINE
  5
2C09
  8
AM_0
 10
352.622699287974
 20
414.23963825302718
 30
0.0
 11
356.62272928797398
 21
414.23963825302718
 31
0.0
  0
LINE
  5
2C0A
  8
AM_0
 10
356.622699287974
 20
485.2396682530275
 30
0.0
 11
398.62266928797408
 21
485.2396682530275
 31
0.0
  0
ARC
  5
2C0B
  8
AM_0
 10
343.622699287974
 20
429.06733825302729
 30
0.0
 40
3.0
 50
267.9999999999996
 51
0.0
  0
ARC
  5
2C0C
  8
AM_0
 10
345.622699287974
 20
448.11439825302722
 30
0.0
 40
3.0
 50
90.000003000000945
 51
180.00001000000091
  0
LINE
  5
2C0D
  8
AM_0
 10
366.62266928797402
 20
495.23963825302729
 30
0.0
 11
398.62266928797408
 21
495.23963825302729
 31
0.0
  0
LINE
  5
2C0E
  8
AM_0
 10
337.56739928797401
 20
583.58387825302748
 30
0.0
 11
277.622699287974
 21
581.49058825302745
 31
0.0
  0
ARC
  5
2C0F
  8
AM_0
 10
258.62266928797402
 20
566.57117825302748
 30
0.0
 40
5.0
 50
310.0
 51
0.0
  0
ARC
  5
2C10
  8
AM_0
 10
259.766499287974
 20
543.23963825302735
 30
0.0
 40
2.0
 50
324.82673000000062
 51
90.000003000000945
  0
LINE
  5
2C11
  8
AM_0
 10
261.40132928797402
 20
542.08753825302745
 30
0.0
 11
253.71217928797401
 21
531.17664825302745
 31
0.0
  0
LINE
  5
2C12
  8
AM_0
 10
234.122699287974
 20
531.17664825302745
 30
0.0
 11
253.712149287974
 21
531.17664825302745
 31
0.0
  0
LINE
  5
2C13
  8
AM_0
 10
251.99153928797389
 20
555.86362825302751
 30
0.0
 11
234.122699287974
 21
555.23963825302735
 31
0.0
  0
LINE
  5
2C14
  8
AM_0
 10
234.122699287974
 20
545.23963825302735
 30
0.0
 11
259.766499287974
 21
545.23963825302735
 31
0.0
  0
ARC
  5
2C15
  8
AM_0
 10
251.81703928797401
 20
560.86057825302737
 30
0.0
 40
5.0
 50
272.0000000000004
 51
310.0
  0
LINE
  5
2C16
  8
AM_0
 10
253.712149287974
 20
545.23963825302735
 30
0.0
 11
253.712149287974
 21
556.23362825302729
 31
0.0
  0
LINE
  5
2C17
  8
AM_0
 10
255.03102928797401
 20
557.03034825302768
 30
0.0
 11
261.83662928797378
 21
562.74091825302708
 31
0.0
  0
LINE
  5
2C18
  8
AM_0
 10
263.62269928797389
 20
558.54813825302745
 30
0.0
 11
270.62266928797402
 21
558.54813825302745
 31
0.0
  0
LINE
  5
2C19
  8
AM_0
 10
277.62266928797402
 20
581.49058825302745
 30
0.0
 11
266.51798928797399
 21
581.10279825302746
 31
0.0
  0
ARC
  5
2C1A
  8
AM_0
 10
266.622699287974
 20
578.1046282530275
 30
0.0
 40
3.0
 50
91.999998000000545
 51
180.00001000000091
  0
LINE
  5
2C1B
  8
AM_0
 10
356.622699287974
 20
513.23966825302739
 30
0.0
 11
398.62266928797408
 21
513.23966825302739
 31
0.0
  0
ARC
  5
2C1C
  8
AM_0
 10
345.622699287974
 20
550.36487825302731
 30
0.0
 40
3.0
 50
179.9999899999988
 51
270.0
  0
ARC
  5
2C1D
  8
AM_0
 10
343.622699287974
 20
569.41193825302753
 30
0.0
 40
3.0
 50
0.0
 51
91.999998000000545
  0
LINE
  5
2C1E
  8
AM_0
 10
366.62266928797402
 20
503.23960825302731
 30
0.0
 11
398.62266928797408
 21
503.23960825302731
 31
0.0
  0
LINE
  5
2C1F
  8
AM_0
 10
344.55293928797408
 20
591.45780825302745
 30
0.0
 11
352.622699287974
 21
591.73960825302731
 31
0.0
  0
LINE
  5
2C20
  8
AM_0
 10
340.92845928797402
 20
585.04529825302745
 30
0.0
 11
342.62272928797398
 21
586.73960825302731
 31
0.0
  0
ARC
  5
2C21
  8
AM_0
 10
337.39289928797399
 20
588.58085825302715
 30
0.0
 40
5.0
 50
272.0000000000004
 51
315.0
  0
ARC
  5
2C22
  8
AM_0
 10
344.62272928797398
 20
589.45902825302755
 30
0.0
 40
2.0
 50
91.999998000000545
 51
180.00001000000091
  0
LINE
  5
2C23
  8
AM_0
 10
352.622699287974
 20
584.23963825302735
 30
0.0
 11
356.62272928797398
 21
584.23963825302735
 31
0.0
  0
ARC
  5
2C24
  8
ﾁｭｳｼﾝｾﾝ
 10
581.5560172289504
 20
258.8671932139265
 30
0.0
 40
107.5000109999999
 50
126.75367899999991
 51
141.972768
  0
LINE
  5
2C25
  8
ﾁｭｳｼﾝｾﾝ
 10
514.99348422895082
 20
325.42977421392652
 30
0.0
 11
495.83441022895062
 21
344.58885421392648
 31
0.0
  0
ARC
  5
2C26
  8
ﾁｭｳｼﾝｾﾝ
 10
581.5560172289504
 20
258.8671932139265
 30
0.0
 40
107.5000109999999
 50
306.75367999999992
 51
321.97275999999999
  0
LINE
  5
2C27
  8
ﾁｭｳｼﾝｾﾝ
 10
646.31639322895035
 20
194.1068592139265
 30
0.0
 11
667.27771122895069
 21
173.14557121392659
 31
0.0
  0
TEXT
  5
2E04
  8
AM_0
 10
469.41114046513189
 20
511.80956885296638
 30
0.0
 40
10.0
  1
VX02-120GF~VX02-200GF
  0
ENDSEC
  0
EOF
