  0
SECTION
  2
HEADER
  9
$ACADVER
  1
AC1009
  9
$INSBASE
 10
0.0
 20
0.0
 30
0.0
  9
$EXTMIN
 10
271.92810421451901
 20
285.92911015256459
 30
-0.0000000000112498
  9
$EXTMAX
 10
1049.098094002806
 20
851.84517113590312
 30
0.0000000000002956
  9
$LIMMIN
 10
0.0
 20
0.0
  9
$LIMMAX
 10
1422.5
 20
925.0
  9
$ORTHOMODE
 70
     0
  9
$REGENMODE
 70
     1
  9
$FILLMODE
 70
     1
  9
$QTEXTMODE
 70
     0
  9
$MIRRTEXT
 70
     1
  9
$DRAGMODE
 70
     2
  9
$LTSCALE
 40
5.0
  9
$OSMODE
 70
   551
  9
$ATTMODE
 70
     1
  9
$TEXTSIZE
 40
2.5
  9
$TRACEWID
 40
1.0
  9
$TEXTSTYLE
  7
STANDARD
  9
$CLAYER
  8
AM_0
  9
$CELTYPE
  6
BYLAYER
  9
$CECOLOR
 62
   256
  9
$DIMSCALE
 40
5.0
  9
$DIMASZ
 40
2.5
  9
$DIMEXO
 40
1.0
  9
$DIMDLI
 40
8.0
  9
$DIMRND
 40
0.0
  9
$DIMDLE
 40
0.0
  9
$DIMEXE
 40
0.6
  9
$DIMTP
 40
0.1
  9
$DIMTM
 40
0.1
  9
$DIMTXT
 40
2.5
  9
$DIMCEN
 40
0.0
  9
$DIMTSZ
 40
0.0
  9
$DIMTOL
 70
     0
  9
$DIMLIM
 70
     0
  9
$DIMTIH
 70
     0
  9
$DIMTOH
 70
     0
  9
$DIMSE1
 70
     0
  9
$DIMSE2
 70
     0
  9
$DIMTAD
 70
     1
  9
$DIMZIN
 70
     8
  9
$DIMBLK
  1

  9
$DIMASO
 70
     1
  9
$DIMSHO
 70
     1
  9
$DIMPOST
  1

  9
$DIMAPOST
  1
"
  9
$DIMALT
 70
     0
  9
$DIMALTD
 70
     2
  9
$DIMALTF
 40
0.0393701
  9
$DIMLFAC
 40
1.0
  9
$DIMTOFL
 70
     1
  9
$DIMTVP
 40
0.0
  9
$DIMTIX
 70
     0
  9
$DIMSOXD
 70
     0
  9
$DIMSAH
 70
     0
  9
$DIMBLK1
  1

  9
$DIMBLK2
  1

  9
$DIMSTYLE
  2
AM_ISO
  9
$DIMCLRD
 70
   256
  9
$DIMCLRE
 70
   256
  9
$DIMCLRT
 70
     4
  9
$DIMTFAC
 40
0.71
  9
$DIMGAP
 40
0.8
  9
$LUNITS
 70
     2
  9
$LUPREC
 70
     2
  9
$SKETCHINC
 40
1.0
  9
$FILLETRAD
 40
25.0
  9
$AUNITS
 70
     0
  9
$AUPREC
 70
     0
  9
$MENU
  1
.
  9
$ELEVATION
 40
0.0
  9
$PELEVATION
 40
0.0
  9
$THICKNESS
 40
0.0
  9
$LIMCHECK
 70
     0
  9
$BLIPMODE
 70
     0
  9
$CHAMFERA
 40
10.0
  9
$CHAMFERB
 40
5.0
  9
$SKPOLY
 70
     0
  9
$TDCREATE
 40
2452065.7659250121
  9
$TDUPDATE
 40
2458541.4398279982
  9
$TDINDWG
 40
0.0733886227
  9
$TDUSRTIMER
 40
0.0733885995
  9
$USRTIMER
 70
     1
  9
$ANGBASE
 50
0.0
  9
$ANGDIR
 70
     0
  9
$PDMODE
 70
     0
  9
$PDSIZE
 40
0.0
  9
$PLINEWID
 40
0.0
  9
$COORDS
 70
     1
  9
$SPLFRAME
 70
     0
  9
$SPLINETYPE
 70
     6
  9
$SPLINESEGS
 70
     8
  9
$ATTDIA
 70
     1
  9
$ATTREQ
 70
     1
  9
$HANDLING
 70
     1
  9
$HANDSEED
  5
2F78
  9
$SURFTAB1
 70
     6
  9
$SURFTAB2
 70
     6
  9
$SURFTYPE
 70
     6
  9
$SURFU
 70
     6
  9
$SURFV
 70
     6
  9
$UCSNAME
  2

  9
$UCSORG
 10
0.0
 20
0.0
 30
0.0
  9
$UCSXDIR
 10
1.0
 20
0.0
 30
0.0
  9
$UCSYDIR
 10
0.0
 20
1.0
 30
0.0
  9
$PUCSNAME
  2

  9
$PUCSORG
 10
0.0
 20
0.0
 30
0.0
  9
$PUCSXDIR
 10
1.0
 20
0.0
 30
0.0
  9
$PUCSYDIR
 10
0.0
 20
1.0
 30
0.0
  9
$USERI1
 70
     0
  9
$USERI2
 70
     0
  9
$USERI3
 70
     0
  9
$USERI4
 70
     0
  9
$USERI5
 70
     0
  9
$USERR1
 40
0.0
  9
$USERR2
 40
0.0
  9
$USERR3
 40
0.0
  9
$USERR4
 40
0.0
  9
$USERR5
 40
0.0
  9
$WORLDVIEW
 70
     1
  9
$SHADEDGE
 70
     3
  9
$SHADEDIF
 70
    70
  9
$TILEMODE
 70
     1
  9
$MAXACTVP
 70
    64
  9
$PLIMCHECK
 70
     0
  9
$PEXTMIN
 10
1.0000000000000000E+020
 20
1.0000000000000000E+020
 30
1.0000000000000000E+020
  9
$PEXTMAX
 10
-1.0000000000000000E+020
 20
-1.0000000000000000E+020
 30
-1.0000000000000000E+020
  9
$PLIMMIN
 10
0.0
 20
0.0
  9
$PLIMMAX
 10
420.0
 20
297.0
  9
$UNITMODE
 70
     0
  9
$VISRETAIN
 70
     1
  9
$PLINEGEN
 70
     0
  9
$PSLTSCALE
 70
     1
  0
ENDSEC
  0
SECTION
  2
TABLES
  0
TABLE
  2
VPORT
 70
     1
  0
VPORT
  2
*ACTIVE
 70
     0
 10
0.0
 20
0.0
 11
1.0
 21
1.0
 12
660.51309910866269
 22
568.8871406442338
 13
0.0
 23
0.0
 14
12.5
 24
12.5
 15
50.0
 25
50.0
 16
0.0
 26
0.0
 36
1.0
 17
0.0
 27
0.0
 37
0.0
 40
569.80106826697693
 41
1.7571592210767459
 42
50.0
 43
0.0
 44
0.0
 50
0.0
 51
0.0
 71
     0
 72
   100
 73
     1
 74
     3
 75
     0
 76
     0
 77
     0
 78
     0
  0
ENDTAB
  0
TABLE
  2
LTYPE
 70
    26
  0
LTYPE
  2
CONTINUOUS
 70
     0
  3
Solid line
 72
    65
 73
     0
 40
0.0
  0
LTYPE
  2
AM_ISO02W050
 70
     0
  3
__ __ __ __ __ __ __ __ __ __ __ __ __ __ __
 72
    65
 73
     2
 40
7.5
 49
6.0
 49
-1.5
  0
LTYPE
  2
AM_ISO08W050
 70
     0
  3
____ . ____ . ____ . ____ . ____ . ____ . ____
 72
    65
 73
     4
 40
18.0
 49
12.0
 49
-1.5
 49
3.0
 49
-1.5
  0
LTYPE
  2
AM_ISO09W050
 70
     0
  3
_____ . . _____ . . _____ . . ____ .. ____
 72
    65
 73
     6
 40
22.5
 49
12.0
 49
-1.5
 49
3.0
 49
-1.5
 49
3.0
 49
-1.5
  0
LTYPE
  2
AMCONSTR
 70
     0
  3
_______________________
 72
    65
 73
     2
 40
9999.0
 49
9999.0
 49
0.0
  0
LTYPE
  2
AM_ISO08W050X2
 70
     0
  3
__ . __ . __ . __ . __ . __
 72
    65
 73
     4
 40
9.0
 49
6.0
 49
-0.75
 49
1.5
 49
-0.75
  0
LTYPE
  2
AM_ISO02W050X2
 70
     0
  3
 _ _ _ _ _ _ _ _ _ _ _ _
 72
    65
 73
     2
 40
3.75
 49
3.0
 49
-0.75
  0
LTYPE
  2
AMZIGZAG
 70
     0
  3
/\/-/\/-/\/-/\/-/\/-/\/
 72
    65
 73
     2
 40
11.000099999999991
 49
0.0001
 49
-11.0
  0
LTYPE
  2
ACISOWELD
 70
     0
  3
_ _ _ _ _
 72
    65
 73
     2
 40
2.0
 49
2.0
 49
-1.0
  0
LTYPE
  2
ACISOTGB
 70
     0
  3
__ . . __ . .
 72
    65
 73
     6
 40
9.0
 49
4.0
 49
-1.0
 49
1.0
 49
-1.0
 49
1.0
 49
-1.0
  0
LTYPE
  2
ACISOTGL
 70
     0
  3
_ _ _ _ _
 72
    65
 73
     2
 40
3.0
 49
2.0
 49
-1.0
  0
LTYPE
  2
CENTER
 70
     0
  3
__ . __
 72
    65
 73
     4
 40
7.0
 49
4.0
 49
-1.0
 49
1.0
 49
-1.0
  0
LTYPE
  2
PHANTOM2
 70
     0
  3
Phantom (.5x) ___ _ _ ___ _ _ ___ _ _ ___ _ _
 72
    65
 73
     6
 40
31.75
 49
15.875
 49
-3.174999999999998
 49
3.174999999999998
 49
-3.174999999999998
 49
3.174999999999998
 49
-3.174999999999998
  0
LTYPE
  2
ACANSTGBM
 70
     0
  3
__ . . __ . .
 72
    65
 73
     6
 40
9.0
 49
4.0
 49
-1.0
 49
1.0
 49
-1.0
 49
1.0
 49
-1.0
  0
LTYPE
  2
ACANSTGLM
 70
     0
  3
_ _ _ _ _
 72
    65
 73
     2
 40
3.0
 49
2.0
 49
-1.0
  0
LTYPE
  2
GEN7
 70
     0
  3
____ . ____ . ____ . ____ . ____ . ____ . ____
 72
    65
 73
     4
 40
14.25
 49
9.75
 49
-1.5
 49
1.5
 49
-1.5
  0
LTYPE
  2
GEN7A
 70
     0
  3
__ . __ . __
 72
    65
 73
     4
 40
7.375
 49
4.75
 49
-0.875
 49
0.875
 49
-0.875
  0
LTYPE
  2
ACJISTGB
 70
     0
  3
__ . . __ . .
 72
    65
 73
     6
 40
9.0
 49
4.0
 49
-1.0
 49
1.0
 49
-1.0
 49
1.0
 49
-1.0
  0
LTYPE
  2
ACJISTGL
 70
     0
  3
_ _ _ _ _
 72
    65
 73
     2
 40
3.0
 49
2.0
 49
-1.0
  0
LTYPE
  2
HIDDEN
 70
     0
  3
Hidden __ __ __ __ __ __ __ __ __ __ __ __ __ _
 72
    65
 73
     2
 40
0.375
 49
0.25
 49
-0.125
  0
LTYPE
  2
CENTER2
 70
     0
  3
Center (.5x) ___ _ ___ _ ___ _ ___ _ ___ _ ___
 72
    65
 73
     4
 40
1.125
 49
0.75
 49
-0.125
 49
0.125
 49
-0.125
  0
LTYPE
  2
HIDDEN2
 70
     0
  3
Hidden (.5x) _ _ _ _ _ _ _ _ _ _ _ _ _ _ _ _ _
 72
    65
 73
     2
 40
0.1875
 49
0.125
 49
-0.0625
  0
LTYPE
  2
AMZIGZAG2
 70
     0
  3
/\/-/\/-/\/-/\/-/\/-/\/
 72
    65
 73
     2
 40
0.4401
 49
0.0001
 49
-0.4400000000000002
  0
LTYPE
  2
ACANSTGB
 70
     0
  3
__ . . __ . .
 72
    65
 73
     6
 40
0.35433070866
 49
0.15748031496
 49
-0.03937007874
 49
0.03937007874
 49
-0.03937007874
 49
0.03937007874
 49
-0.03937007874
  0
LTYPE
  2
ACANSTGL
 70
     0
  3
_ _ _ _ _
 72
    65
 73
     2
 40
0.11811023622
 49
0.07874015748
 49
-0.03937007874
  0
ENDTAB
  0
TABLE
  2
LAYER
 70
     6
  0
LAYER
  2
0
 70
     0
 62
     7
  6
CONTINUOUS
  0
LAYER
  2
AM_0
 70
     0
 62
     7
  6
CONTINUOUS
  0
LAYER
  2
AM_5
 70
     0
 62
     2
  6
CONTINUOUS
  0
LAYER
  2
DEFPOINTS
 70
     0
 62
     7
  6
CONTINUOUS
  0
LAYER
  2
ﾁｭｳｼﾝｾﾝ
 70
     0
 62
     1
  6
GEN7
  0
LAYER
  2
ﾁｭｳｼﾝｾﾝ1
 70
     0
 62
     1
  6
GEN7A
  0
ENDTAB
  0
TABLE
  2
STYLE
 70
     9
  0
STYLE
  2
STANDARD
 70
     0
 40
0.0
 41
0.8299999999999999
 50
0.0
 71
     0
 42
2.5
  3
txt.shx
  4
bigfont.shx
  0
STYLE
  2
ANNOTATIVE
 70
     0
 40
0.0
 41
1.0
 50
0.0
 71
     0
 42
0.2
  3
txt
  4

  0
STYLE
  2

 70
     1
 40
0.0
 41
1.0
 50
0.0
 71
     0
 42
2.5
  3
ltypeshp.shx
  4

  0
STYLE
  2
ACISOTS
 70
     0
 40
1.0
 41
1.0
 50
0.0
 71
     0
 42
2.5
  3
isocp.shx
  4
extfont.shx
  0
STYLE
  2
ACISOGDT
 70
     0
 40
0.0
 41
1.0
 50
0.0
 71
     0
 42
2.5
  3
amgdt.shx
  4

  0
STYLE
  2
ACANSTS
 70
     0
 40
1.0
 41
1.0
 50
0.0
 71
     0
 42
2.5
  3
romans.shx
  4
bigfont.shx
  0
STYLE
  2
ACANSGDT
 70
     0
 40
0.0
 41
1.0
 50
0.0
 71
     0
 42
2.5
  3
amgdt.shx
  4

  0
STYLE
  2
ACJISTS
 70
     0
 40
1.0
 41
1.0
 50
0.0
 71
     0
 42
2.5
  3
isocp.shx
  4
bigfont.shx
  0
STYLE
  2
ACJISGDT
 70
     0
 40
0.0
 41
1.0
 50
0.0
 71
     0
 42
2.5
  3
amgdt.shx
  4

  0
ENDTAB
  0
TABLE
  2
VIEW
 70
     6
  0
VIEW
  2
AM_VIEW1
 70
     0
 40
462.5
 10
416.07965009208078
 20
693.75
 41
832.15930018416213
 11
0.0
 21
0.0
 31
1.0
 12
0.0
 22
0.0
 32
0.0
 42
50.0
 43
0.0
 44
0.0
 50
0.0
 71
     0
  0
VIEW
  2
AM_VIEW2
 70
     0
 40
462.5
 10
1006.420349907918
 20
693.75
 41
832.15930018416213
 11
0.0
 21
0.0
 31
1.0
 12
0.0
 22
0.0
 32
0.0
 42
50.0
 43
0.0
 44
0.0
 50
0.0
 71
     0
  0
VIEW
  2
AM_VIEW3
 70
     0
 40
462.5
 10
416.07965009208078
 20
231.25
 41
832.15930018416213
 11
0.0
 21
0.0
 31
1.0
 12
0.0
 22
0.0
 32
0.0
 42
50.0
 43
0.0
 44
0.0
 50
0.0
 71
     0
  0
VIEW
  2
AM_VIEW4
 70
     0
 40
462.5
 10
1006.420349907918
 20
231.25
 41
832.15930018416213
 11
0.0
 21
0.0
 31
1.0
 12
0.0
 22
0.0
 32
0.0
 42
50.0
 43
0.0
 44
0.0
 50
0.0
 71
     0
  0
VIEW
  2
AM_VIEW5
 70
     0
 40
462.5
 10
711.24999999999966
 20
462.5
 41
832.15930018416179
 11
0.0
 21
0.0
 31
1.0
 12
0.0
 22
0.0
 32
0.0
 42
50.0
 43
0.0
 44
0.0
 50
0.0
 71
     0
  0
VIEW
  2
AM_VIEW6
 70
     0
 40
924.99075000000005
 10
711.24999999999966
 20
462.5
 41
1664.3019571823199
 11
0.0
 21
0.0
 31
1.0
 12
0.0
 22
0.0
 32
0.0
 42
50.0
 43
0.0
 44
0.0
 50
0.0
 71
     0
  0
ENDTAB
  0
TABLE
  2
UCS
 70
     0
  0
ENDTAB
  0
TABLE
  2
APPID
 70
    95
  0
APPID
  2
ACAD
 70
     0
  0
APPID
  2
ACADANNOTATIVE
 70
     0
  0
APPID
  2
MCAD_NO_VIS
 70
     0
  0
APPID
  2
ACAD_TEMP_GRAPHIC
 70
     0
  0
APPID
  2
ACATTRIBSERVICES
 70
     0
  0
APPID
  2
GENIUS_GENREC_14
 70
     0
  0
APPID
  2
GENIUS_GENOBJ-N-REC_13
 70
     0
  0
APPID
  2
GENIUS_GENODEF_13
 70
     0
  0
APPID
  2
GENIUS_GENOLIS_13
 70
     0
  0
APPID
  2
GENIUS_GENOBJ-N-TIT_13
 70
     0
  0
APPID
  2
GENIUS_GENOENT_13
 70
     0
  0
APPID
  2
GENIUS_GENTITLE_13
 70
     0
  0
APPID
  2
GENIUS_GENOREF_13
 70
     0
  0
APPID
  2
GENIUS_GENSCREG_15
 70
     0
  0
APPID
  2
GENIUS_GENOBJ-N-SDF_13
 70
     0
  0
APPID
  2
GENIUS_GENFIL_13
 70
     0
  0
APPID
  2
GENIUS_GENOBJ-N-CHA_13
 70
     0
  0
APPID
  2
GENIUS_GENDTOL_13
 70
     0
  0
APPID
  2
GENIUS_GENOBJ-N-FIL_13
 70
     0
  0
APPID
  2
AD_DRAW
 70
     0
  0
APPID
  2
DESIGNERASSEMBLIES
 70
     0
  0
APPID
  2
ASURF_PCURVE_APPNAME
 70
     0
  0
APPID
  2
GENIUS_GE3SECT_13
 70
     0
  0
APPID
  2
GENIUS_GENCFG_13
 70
     0
  0
APPID
  2
GENIUS_GE3CFG0_13
 70
     0
  0
APPID
  2
GENIUS_GENCFG0_13
 70
     0
  0
APPID
  2
GENIUS_GENCFG1_13
 70
     0
  0
APPID
  2
GENIUS_GENCFG2_13
 70
     0
  0
APPID
  2
GENIUS_GENCFG3_13
 70
     0
  0
APPID
  2
GENIUS_GENCFG4_13
 70
     0
  0
APPID
  2
GENIUS_GEVCFG0_13
 70
     0
  0
APPID
  2
GENIUS_GENHINW_13
 70
     0
  0
APPID
  2
GENIUS_FIRSTVISTXT_14
 70
     0
  0
APPID
  2
GENIUS_GENOBJ-N-LEADER_13
 70
     0
  0
APPID
  2
GEV_VCCNULL_SWITCH_OFF
 70
     0
  0
APPID
  2
GENIUS_GEFCFG0_13
 70
     0
  0
APPID
  2
GENIUS_GENZVEED_13
 70
     0
  0
APPID
  2
GENIUS_GENSCREG_13
 70
     0
  0
APPID
  2
GENIUS_DUMCFG0_13
 70
     0
  0
APPID
  2
GEVID936201362
 70
     0
  0
APPID
  2
GEVDC
 70
     0
  0
APPID
  2
GEVCON
 70
     0
  0
APPID
  2
VCC
 70
     0
  0
APPID
  2
GEVPT
 70
     0
  0
APPID
  2
GEVIT
 70
     0
  0
APPID
  2
GENBH
 70
     0
  0
APPID
  2
GEVMK
 70
     0
  0
APPID
  2
GENIUS_GENBH_13
 70
     0
  0
APPID
  2
GENIUS_GENOBJ-NBEHI-BHF_13
 70
     0
  0
APPID
  2
GENIUS_GENOBJ-NBEHI-BHB_13
 70
     0
  0
APPID
  2
GENIUS_GENOBJ-F-DESC_13
 70
     0
  0
APPID
  2
GENIUS_GEFDESC_14
 70
     0
  0
APPID
  2
GENIUS_GENOBJ-F-PART_13
 70
     0
  0
APPID
  2
GENIUS_GEFSTDP_13
 70
     0
  0
APPID
  2
GENIUS_GEFPARTINS_13
 70
     0
  0
APPID
  2
GENIUS_GENTRA_14
 70
     0
  0
APPID
  2
GENIUS_GENINF13_13
 70
     0
  0
APPID
  2
GENIUS_GENOBJ-N-INFOPT_13
 70
     0
  0
APPID
  2
GENIUS_GENOBJ-N-RSSYM_13
 70
     0
  0
APPID
  2
GENIUS_GENSYMENT_13
 70
     0
  0
APPID
  2
GENIUS_GENSCSYM_13
 70
     0
  0
APPID
  2
GENIUS_GEFINFNAM_13
 70
     0
  0
APPID
  2
GENIUS_GENOBJ-N-CEN_13
 70
     0
  0
APPID
  2
GENIUS_GENOBJ-N-CRS_13
 70
     0
  0
APPID
  2
GENIUS_GENOBJ-N-CRC_13
 70
     0
  0
APPID
  2
GENIUS_GENCRC_14
 70
     0
  0
APPID
  2
GEVID942827039
 70
     0
  0
APPID
  2
GEVID942827040
 70
     0
  0
APPID
  2
GEVID942827041
 70
     0
  0
APPID
  2
GENIUS_GENOBJ-F-SCPASSM_13
 70
     0
  0
APPID
  2
GENIUS_GENDIMSH_14
 70
     0
  0
APPID
  2
GEVID942827042
 70
     0
  0
APPID
  2
GEVID946020473
 70
     0
  0
APPID
  2
GEVID946020474
 70
     0
  0
APPID
  2
GEVID946020475
 70
     0
  0
APPID
  2
GENIUS_GENOBJ-N-HTC_13
 70
     0
  0
APPID
  2
GENIUS_GENHATCH_13
 70
     0
  0
APPID
  2
GEVID948854295
 70
     0
  0
APPID
  2
GEVID939402019
 70
     0
  0
APPID
  2
GEVID952919491
 70
     0
  0
APPID
  2
GEVID952919492
 70
     0
  0
APPID
  2
GENIUS_GEFWELD_13
 70
     0
  0
APPID
  2
GENIUS_GENOBJ-F-WELS_13
 70
     0
  0
APPID
  2
GEVID952919493
 70
     0
  0
APPID
  2
GENIUS_GENOBJ-N-RSBK_13
 70
     0
  0
APPID
  2
GENIUS_GENOBJ-N-LIB_13
 70
     0
  0
APPID
  2
GENIUS_GENSCALE_13
 70
     0
  0
APPID
  2
GEVID986376691
 70
     0
  0
APPID
  2
DCO15
 70
     0
  0
APPID
  2
ACAD_DSTYLE_DIMBREAK
 70
     0
  0
APPID
  2
ACAD_DSTYLE_DIMJAG
 70
     0
  0
APPID
  2
ACAD_NAV_VCDISPLAY
 70
     0
  0
APPID
  2
ACADANNOPO
 70
     0
  0
APPID
  2
ACAD_EXEMPT_FROM_CAD_STANDARDS
 70
     0
  0
APPID
  2
ACAD_MLEADERVER
 70
     0
  0
ENDTAB
  0
TABLE
  2
DIMSTYLE
 70
    22
  0
DIMSTYLE
  2
STANDARD
 70
     0
  3

  4

  5

  6

  7

 40
1.0
 41
0.18
 42
0.0625
 43
0.38
 44
0.18
 45
0.0
 46
0.0
 47
0.0
 48
0.0
140
0.18
141
0.09
142
0.0
143
25.399999999999999
144
1.0
145
0.0
146
1.0
147
0.09
 71
     0
 72
     0
 73
     1
 74
     1
 75
     0
 76
     0
 77
     0
 78
     0
170
     0
171
     2
172
     0
173
     0
174
     0
175
     0
176
     0
177
     0
178
     0
  0
DIMSTYLE
  2
ANNOTATIVE
 70
     0
  3

  4

  5

  6

  7

 40
1.0
 41
0.18
 42
0.0625
 43
0.38
 44
0.18
 45
0.0
 46
0.0
 47
0.0
 48
0.0
140
0.18
141
0.09
142
0.0
143
25.399999999999999
144
1.0
145
0.0
146
1.0
147
0.09
 71
     0
 72
     0
 73
     1
 74
     1
 75
     0
 76
     0
 77
     0
 78
     0
170
     0
171
     2
172
     0
173
     0
174
     0
175
     0
176
     0
177
     0
178
     0
  0
DIMSTYLE
  2
AM_ISO
 70
     0
  3

  4
"
  5

  6

  7

 40
1.0
 41
2.5
 42
1.0
 43
8.0
 44
0.6
 45
0.0
 46
0.0
 47
0.1
 48
0.1
140
2.5
141
0.0
142
0.0
143
0.0393701
144
1.0
145
0.0
146
0.71
147
0.8
 71
     0
 72
     0
 73
     0
 74
     0
 75
     0
 76
     0
 77
     1
 78
     8
170
     0
171
     2
172
     1
173
     0
174
     0
175
     0
176
   256
177
   256
178
     4
  0
DIMSTYLE
  2
AM_ISO$3
 70
     0
  3

  4
"
  5

  6

  7

 40
1.0
 41
2.5
 42
1.0
 43
8.0
 44
0.6
 45
0.0
 46
0.0
 47
0.1
 48
0.1
140
2.5
141
0.0
142
0.0
143
0.0393701
144
1.0
145
0.0
146
0.71
147
0.8
 71
     0
 72
     0
 73
     0
 74
     1
 75
     0
 76
     0
 77
     1
 78
     8
170
     0
171
     2
172
     0
173
     0
174
     0
175
     0
176
   256
177
   256
178
     4
  0
DIMSTYLE
  2
AM_ISO$4
 70
     0
  3

  4
"
  5

  6

  7

 40
1.0
 41
2.5
 42
1.0
 43
8.0
 44
0.6
 45
0.0
 46
0.0
 47
0.1
 48
0.1
140
2.5
141
0.0
142
0.0
143
0.0393701
144
1.0
145
0.0
146
0.71
147
0.8
 71
     0
 72
     0
 73
     0
 74
     1
 75
     0
 76
     0
 77
     1
 78
     8
170
     0
171
     2
172
     0
173
     0
174
     0
175
     0
176
   256
177
   256
178
     4
  0
DIMSTYLE
  2
AM_ISO$6
 70
     0
  3

  4
"
  5

  6

  7

 40
1.0
 41
2.5
 42
1.0
 43
8.0
 44
0.6
 45
0.0
 46
0.0
 47
0.1
 48
0.1
140
2.5
141
0.0
142
0.0
143
0.0393701
144
1.0
145
0.0
146
0.71
147
0.8
 71
     0
 72
     0
 73
     0
 74
     0
 75
     0
 76
     0
 77
     0
 78
     8
170
     0
171
     2
172
     1
173
     0
174
     0
175
     0
176
   256
177
   256
178
     4
  0
DIMSTYLE
  2
AM_ISO$7
 70
     0
  3

  4
"
  5

  6

  7

 40
1.0
 41
2.5
 42
1.0
 43
8.0
 44
0.6
 45
0.0
 46
0.0
 47
0.1
 48
0.1
140
2.5
141
0.0
142
0.0
143
0.0393701
144
1.0
145
0.0
146
0.71
147
0.8
 71
     0
 72
     0
 73
     0
 74
     0
 75
     0
 76
     0
 77
     1
 78
     8
170
     0
171
     2
172
     1
173
     0
174
     0
175
     0
176
   256
177
   256
178
     4
  0
DIMSTYLE
  2
AM_ISO$SF
 70
     0
  3

  4
"
  5

  6

  7

 40
1.0
 41
2.5
 42
1.0
 43
10.0
 44
1.0
 45
0.0
 46
0.0
 47
0.1
 48
0.1
140
3.5
141
0.0
142
0.0
143
0.0393701
144
1.0
145
0.0
146
0.71
147
1.5
 71
     0
 72
     0
 73
     0
 74
     0
 75
     1
 76
     1
 77
     1
 78
     8
170
     0
171
     2
172
     1
173
     0
174
     0
175
     0
176
   256
177
   256
178
     2
  0
DIMSTYLE
  2
AM_ISO$SH
 70
     0
  3

  4
"
  5

  6

  7

 40
1.0
 41
2.5
 42
1.0
 43
10.0
 44
1.0
 45
0.0
 46
0.0
 47
0.1
 48
0.1
140
3.5
141
0.0
142
0.0
143
0.0393701
144
2.0
145
0.0
146
0.71
147
1.5
 71
     0
 72
     0
 73
     0
 74
     0
 75
     1
 76
     1
 77
     1
 78
     8
170
     0
171
     2
172
     1
173
     1
174
     0
175
     0
176
   256
177
   256
178
     2
  0
DIMSTYLE
  2
AM_JIS
 70
     0
  3

  4
"
  5

  6

  7

 40
1.0
 41
2.5
 42
1.0
 43
7.0
 44
1.0
 45
0.0
 46
0.0
 47
0.1
 48
0.1000000001
140
2.5
141
0.0
142
0.0
143
0.0393701
144
1.0
145
0.0
146
0.71
147
1.0
 71
     0
 72
     0
 73
     0
 74
     0
 75
     0
 76
     0
 77
     3
 78
     8
170
     0
171
     2
172
     1
173
     0
174
     0
175
     0
176
   256
177
   256
178
     4
  0
DIMSTYLE
  2
AM_JIS$3
 70
     0
  3

  4
"
  5

  6

  7

 40
1.0
 41
2.5
 42
1.0
 43
7.0
 44
1.0
 45
0.0
 46
0.0
 47
0.1
 48
0.1000000001
140
2.5
141
0.0
142
0.0
143
0.0393701
144
1.0
145
0.0
146
0.71
147
1.0
 71
     0
 72
     0
 73
     0
 74
     1
 75
     0
 76
     0
 77
     3
 78
     8
170
     0
171
     2
172
     0
173
     0
174
     0
175
     0
176
   256
177
   256
178
     4
  0
DIMSTYLE
  2
AM_JIS$4
 70
     0
  3

  4
"
  5

  6

  7

 40
1.0
 41
2.5
 42
1.0
 43
7.0
 44
1.0
 45
0.0
 46
0.0
 47
0.1
 48
0.1000000001
140
2.5
141
0.0
142
0.0
143
0.0393701
144
1.0
145
0.0
146
0.71
147
1.0
 71
     0
 72
     0
 73
     0
 74
     0
 75
     0
 76
     0
 77
     3
 78
     8
170
     0
171
     2
172
     0
173
     0
174
     0
175
     0
176
   256
177
   256
178
     4
  0
DIMSTYLE
  2
AM_JIS$6
 70
     0
  3

  4
"
  5

  6

  7

 40
1.0
 41
2.5
 42
1.0
 43
7.0
 44
1.0
 45
0.0
 46
0.0
 47
0.1
 48
0.1000000001
140
2.5
141
0.0
142
0.0
143
0.0393701
144
1.0
145
0.0
146
0.71
147
1.0
 71
     0
 72
     0
 73
     0
 74
     0
 75
     0
 76
     0
 77
     0
 78
     8
170
     0
171
     2
172
     1
173
     0
174
     0
175
     0
176
   256
177
   256
178
     4
  0
DIMSTYLE
  2
AM_JIS$7
 70
     0
  3

  4
"
  5

  6

  7

 40
1.0
 41
2.5
 42
1.0
 43
7.0
 44
1.0
 45
0.0
 46
0.0
 47
0.1
 48
0.1000000001
140
2.5
141
0.0
142
0.0
143
0.0393701
144
1.0
145
0.0
146
0.71
147
1.0
 71
     0
 72
     0
 73
     0
 74
     0
 75
     0
 76
     0
 77
     3
 78
     8
170
     0
171
     2
172
     1
173
     0
174
     0
175
     0
176
   256
177
   256
178
     4
  0
DIMSTYLE
  2
AM_JIS$SF
 70
     0
  3

  4
"
  5

  6

  7

 40
1.0
 41
2.5
 42
1.0
 43
10.0
 44
1.0
 45
0.0
 46
0.0
 47
0.1
 48
0.1
140
3.5
141
0.0
142
0.0
143
0.0393701
144
1.0
145
0.0
146
0.71
147
1.5
 71
     0
 72
     0
 73
     0
 74
     0
 75
     1
 76
     1
 77
     3
 78
     8
170
     0
171
     2
172
     1
173
     0
174
     0
175
     0
176
   256
177
   256
178
     4
  0
DIMSTYLE
  2
AM_JIS$SH
 70
     0
  3

  4
"
  5

  6

  7

 40
1.0
 41
2.5
 42
1.0
 43
10.0
 44
1.0
 45
0.0
 46
0.0
 47
0.1
 48
0.1
140
3.5
141
0.0
142
0.0
143
0.0393701
144
1.0
145
0.0
146
0.71
147
1.5
 71
     0
 72
     0
 73
     0
 74
     0
 75
     1
 76
     0
 77
     3
 78
     8
170
     0
171
     2
172
     1
173
     1
174
     0
175
     0
176
   256
177
   256
178
     4
  0
DIMSTYLE
  2
AM_ANSI
 70
     0
  3

  4
mm
  5

  6

  7

 40
1.0
 41
0.1
 42
0.05
 43
0.5
 44
0.1
 45
0.0
 46
0.0
 47
0.1
 48
0.1
140
0.12
141
0.0
142
0.0
143
25.399999999999999
144
1.0
145
0.0
146
0.71
147
0.06
 71
     0
 72
     0
 73
     1
 74
     1
 75
     0
 76
     0
 77
     0
 78
     7
170
     0
171
     2
172
     0
173
     0
174
     0
175
     0
176
   256
177
   256
178
     2
  0
DIMSTYLE
  2
AM_ANSI$3
 70
     0
  3

  4
mm
  5

  6

  7

 40
1.0
 41
0.1
 42
0.05
 43
0.5
 44
0.1
 45
0.0
 46
0.0
 47
0.1
 48
0.1
140
0.12
141
0.0
142
0.0
143
25.399999999999999
144
1.0
145
0.0
146
0.71
147
0.06
 71
     0
 72
     0
 73
     1
 74
     1
 75
     0
 76
     0
 77
     0
 78
     7
170
     0
171
     2
172
     0
173
     0
174
     0
175
     0
176
   256
177
   256
178
     2
  0
DIMSTYLE
  2
AM_ANSI$4
 70
     0
  3

  4
mm
  5

  6

  7

 40
1.0
 41
0.1
 42
0.05
 43
0.5
 44
0.1
 45
0.0
 46
0.0
 47
0.1
 48
0.1
140
0.12
141
0.0
142
0.0
143
25.399999999999999
144
1.0
145
0.0
146
0.71
147
0.06
 71
     0
 72
     0
 73
     1
 74
     1
 75
     0
 76
     0
 77
     0
 78
     7
170
     0
171
     2
172
     0
173
     0
174
     0
175
     0
176
   256
177
   256
178
     2
  0
DIMSTYLE
  2
AM_ANSI$7
 70
     0
  3

  4
mm
  5

  6

  7

 40
1.0
 41
0.1
 42
0.05
 43
0.5
 44
0.1
 45
0.0
 46
0.0
 47
0.1
 48
0.1
140
0.24
141
0.0
142
0.0
143
25.399999999999999
144
1.0
145
0.0
146
0.71
147
0.06
 71
     0
 72
     0
 73
     1
 74
     1
 75
     0
 76
     0
 77
     0
 78
     7
170
     0
171
     2
172
     0
173
     0
174
     0
175
     0
176
   256
177
   256
178
     2
  0
DIMSTYLE
  2
AM_ANSI$SF
 70
     0
  3

  4
mm
  5

  6

  7

 40
1.0
 41
0.1
 42
0.05
 43
0.5
 44
0.1
 45
0.0
 46
0.0
 47
0.1
 48
0.1
140
0.12
141
0.0
142
0.0
143
25.399999999999999
144
1.0
145
0.0
146
0.71
147
0.06
 71
     0
 72
     0
 73
     1
 74
     1
 75
     1
 76
     1
 77
     0
 78
     7
170
     0
171
     2
172
     0
173
     0
174
     0
175
     0
176
   256
177
   256
178
     2
  0
DIMSTYLE
  2
AM_ANSI$SH
 70
     0
  3

  4
mm
  5

  6

  7

 40
1.0
 41
0.1
 42
0.05
 43
0.5
 44
0.1
 45
0.0
 46
0.0
 47
0.1
 48
0.1
140
0.12
141
0.0
142
0.0
143
25.399999999999999
144
1.0
145
0.0
146
0.71
147
0.06
 71
     0
 72
     0
 73
     1
 74
     1
 75
     1
 76
     1
 77
     0
 78
     7
170
     0
171
     2
172
     0
173
     1
174
     0
175
     0
176
   256
177
   256
178
     2
  0
ENDTAB
  0
ENDSEC
  0
SECTION
  2
BLOCKS
  0
BLOCK
  8
0
  2
$MODEL_SPACE
 70
     0
 10
0.0
 20
0.0
 30
0.0
  3
$MODEL_SPACE
  1

  0
ENDBLK
  5
2DEC
  8
0
  0
BLOCK
 67
     1
  8
0
  2
$PAPER_SPACE
 70
     0
 10
0.0
 20
0.0
 30
0.0
  3
$PAPER_SPACE
  1

  0
ENDBLK
  5
2DE8
 67
     1
  8
0
  0
BLOCK
  8
0
  2
GENAXEH
 70
     0
 10
0.0
 20
0.0
 30
0.0
  3
GENAXEH
  1

  0
LINE
  5
2B88
  8
0
 10
-1.0
 20
0.0
 30
0.0
 11
1.0
 21
0.0
 31
0.0
  0
ENDBLK
  5
2B89
  8
0
  0
BLOCK
  8
0
  2
_OPEN30
 70
     0
 10
0.0
 20
0.0
 30
0.0
  3
_OPEN30
  1

  0
LINE
  5
2B8C
  8
0
 62
     0
 10
-1.0
 20
0.26794919
 30
0.0
 11
0.0
 21
0.0
 31
0.0
  0
LINE
  5
2B8D
  8
0
 62
     0
 10
0.0
 20
0.0
 30
0.0
 11
-1.0
 21
-0.26794919
 31
0.0
  0
LINE
  5
2B8E
  8
0
 62
     0
 10
0.0
 20
0.0
 30
0.0
 11
-1.0
 21
0.0
 31
0.0
  0
ENDBLK
  5
2B8F
  8
0
  0
BLOCK
  8
0
  2
_NONE
 70
     0
 10
0.0
 20
0.0
 30
0.0
  3
_NONE
  1

  0
ENDBLK
  5
2B92
  8
0
  0
BLOCK
  8
0
  2
_ACMFILLEDHALF
 70
     0
 10
0.0
 20
0.0
 30
0.0
  3
_ACMFILLEDHALF
  1

  0
TRACE
  5
2EE2
  8
AM_0
 62
     0
 10
-0.8
 20
0.0
 30
0.0
 11
-1.0
 21
0.166666666
 31
0.0
 12
0.0
 22
0.0
 32
0.0
 13
0.0
 23
0.0
 33
0.0
  0
LINE
  5
2EE3
  8
AM_0
 62
     0
 10
-1.0
 20
0.0
 30
0.0
 11
-0.8
 21
0.0
 31
0.0
  0
ENDBLK
  5
2EE1
  8
0
  0
ENDSEC
  0
SECTION
  2
ENTITIES
  0
ARC
  5
2B93
  8
AM_0
 10
433.89949031808311
 20
460.4916116361585
 30
0.0
 40
4.000000199999997
 50
91.999997999999948
 51
180.93198000000001
  0
LINE
  5
2B94
  8
AM_0
 10
439.89949031808311
 20
316.70357663615829
 30
0.0
 11
439.89949031808311
 21
464.70355163615818
 31
0.0
  0
LINE
  5
2B95
  8
AM_0
 10
601.39951031808312
 20
418.70356463615832
 30
0.0
 11
601.39951031808312
 21
509.30329163615852
 31
0.0
  0
LINE
  5
2B96
  8
AM_0
 10
609.39949031808305
 20
418.70356463615832
 30
0.0
 11
609.39949031808305
 21
536.20360163615828
 31
0.0
  0
LINE
  5
2B97
  8
AM_0
 10
594.39949031808305
 20
389.93932763615851
 30
0.0
 11
594.39949031808305
 21
477.61432163615842
 31
0.0
  0
LINE
  5
2B98
  8
AM_0
 10
582.28735031808276
 20
467.74060163615849
 30
0.0
 11
577.86664031808311
 21
425.13673163615852
 31
0.0
  0
LINE
  5
2B99
  8
AM_0
 10
613.39951031808312
 20
313.70357663615829
 30
0.0
 11
613.39951031808312
 21
523.70359163615865
 31
0.0
  0
LINE
  5
2B9A
  8
AM_0
 10
474.39949031808322
 20
481.72762163615829
 30
0.0
 11
474.39949031808322
 21
299.6801396361584
 31
0.0
  0
LINE
  5
2B9B
  8
AM_0
 10
496.39951031808312
 20
490.20355163615852
 30
0.0
 11
496.39951031808312
 21
291.20357663615829
 31
0.0
  0
LINE
  5
2B9C
  8
ﾁｭｳｼﾝｾﾝ
 10
674.51782031808295
 20
418.70356463615832
 30
0.0
 11
451.84915031808282
 21
418.70356463615832
 31
0.0
  0
LINE
  5
2B9D
  8
AM_0
 10
474.39949031808322
 20
330.3233276361583
 30
0.0
 11
592.66300031808305
 21
330.3233276361583
 31
0.0
  0
LINE
  5
2B9E
  8
AM_0
 10
488.32975031808309
 20
291.48537563615832
 30
0.0
 11
496.39951031808312
 21
291.20357663615829
 31
0.0
  0
LINE
  5
2B9F
  8
AM_0
 10
474.39949031808322
 20
310.28579063615848
 30
0.0
 11
592.66300031808305
 21
310.28579063615848
 31
0.0
  0
LINE
  5
2BA0
  8
AM_0
 10
355.89948031808302
 20
417.9421999901931
 30
0.0
 11
355.89948031808382
 21
307.46495728212369
 31
0.0
  0
LINE
  5
2BA1
  8
AM_0
 10
354.43501422401567
 20
314.16804473022569
 30
0.0
 11
333.82841250621772
 21
334.77464644802387
 31
0.0
  0
ARC
  5
2BA2
  8
AM_0
 10
433.89949031808311
 20
320.91553763615832
 30
0.0
 40
4.000000199999997
 50
211.07233999999991
 51
268.0
  0
LINE
  5
2BA3
  8
AM_0
 10
385.89949031808288
 20
341.20803263615829
 30
0.0
 11
385.89949031808288
 21
310.76474963615851
 31
0.0
  0
LINE
  5
2BA4
  8
AM_0
 10
365.89948031808308
 20
306.20357663615829
 30
0.0
 11
365.89948031808308
 21
419.2035956361583
 31
0.0
  0
LINE
  5
2BA5
  8
AM_0
 10
365.89948031808302
 20
316.70357663615829
 30
0.0
 11
385.89949031808288
 21
316.70357663615829
 31
0.0
  0
LINE
  5
2BA6
  8
AM_0
 10
365.89948031808308
 20
306.20357663615829
 30
0.0
 11
382.03909031808303
 21
306.76718963615832
 31
0.0
  0
LINE
  5
2BA7
  8
AM_0
 10
356.87049712479973
 20
306.4653773831123
 30
0.0
 11
365.89948031808308
 21
306.20357863615851
 31
0.0
  0
ARC
  5
2BA8
  8
AM_0
 10
356.89948031808302
 20
307.46495728212369
 30
0.0
 40
1.0
 50
180.0
 51
268.3391527670226
1001
GENIUS_GENOBJ-N-FIL_13
1002
{
1000
OWNER
1000
GEN
1002
}
1001
GENIUS_GENODEF_13
1002
{
1000
HIER
1070
     0
1002
}
1002
{
1000
MANEDIT
1070
     0
1002
}
1002
{
1000
NOSEL
1070
     0
1002
}
1002
{
1000
BEHIND
1070
     0
1002
}
1002
{
1000
OTHER
1070
     0
1002
}
1002
{
1000
REACTOR
1002
}
  0
ARC
  5
2BA9
  8
AM_0
 10
350.89948031808302
 20
310.63251082429281
 30
0.0
 40
5.0
 50
0.0
 51
45.000000000004363
1001
GENIUS_GENODEF_13
1002
{
1000
HIER
1070
     0
1002
}
1002
{
1000
MANEDIT
1070
     0
1002
}
1002
{
1000
NOSEL
1070
     0
1002
}
1002
{
1000
BEHIND
1070
     0
1002
}
1002
{
1000
OTHER
1070
     0
1002
}
1002
{
1000
REACTOR
1002
}
1001
GENIUS_GENOBJ-N-FIL_13
1002
{
1000
OWNER
1000
GEN
1002
}
  0
ARC
  5
2BAA
  8
AM_0
 10
381.89950031808303
 20
310.76474963615851
 30
0.0
 40
4.000000199999997
 50
272.0
 51
0.0
  0
LINE
  5
2BAB
  8
AM_0
 10
439.89949031808311
 20
317.20357763615851
 30
0.0
 11
471.96925031808303
 21
316.08367163615839
 31
0.0
  0
LINE
  5
2BAC
  8
AM_0
 10
433.75990031808283
 20
316.91797763615841
 30
0.0
 11
439.89949031808311
 21
316.70357663615829
 31
0.0
  0
LINE
  5
2BAD
  8
AM_0
 10
486.39949031808311
 20
310.28579063615848
 30
0.0
 11
486.39949031808311
 21
293.4841556361585
 31
0.0
  0
ARC
  5
2BAE
  8
AM_0
 10
477.39949031808311
 20
299.6801396361584
 30
0.0
 40
3.0
 50
179.99998999999991
 51
268.00000999999992
  0
ARC
  5
2BAF
  8
AM_0
 10
484.39951031808312
 20
294.43204463615831
 30
0.0
 40
2.00000007
 50
0.0
 51
88.0
  0
ARC
  5
2BB0
  8
AM_0
 10
488.39950031808303
 20
293.4841556361585
 30
0.0
 40
2.00000007
 50
179.99998999999991
 51
268.00000999999992
  0
LINE
  5
2BB1
  8
AM_0
 10
477.29482031808288
 20
296.6813606361585
 30
0.0
 11
484.46932031808302
 21
296.43082463615838
 31
0.0
  0
ARC
  5
2BB2
  8
AM_0
 10
471.39949031808311
 20
313.10175563615837
 30
0.0
 40
3.0
 50
0.0
 51
88.0
  0
LINE
  5
2BB3
  8
ﾁｭｳｼﾝｾﾝ
 10
468.76150031808288
 20
362.7035786361584
 30
0.0
 11
271.99844838152768
 21
362.7035786361584
 31
0.0
  0
LINE
  5
2BB4
  8
AM_0
 10
365.89948031808308
 20
419.2035956361583
 30
0.0
 11
384.07972031808288
 21
419.83845263615848
 31
0.0
  0
LINE
  5
2BB5
  8
AM_0
 10
365.89948031808308
 20
395.50942763615848
 30
0.0
 11
405.05104031808298
 21
395.50942763615848
 31
0.0
  0
LINE
  5
2BB6
  8
AM_0
 10
365.89948031808308
 20
408.7035956361583
 30
0.0
 11
411.00253031808307
 21
408.7035956361583
 31
0.0
  0
LINE
  5
2BB7
  8
AM_0
 10
365.89948031808302
 20
329.89774463615851
 30
0.0
 11
385.89949031808288
 21
329.89774463615851
 31
0.0
  0
ARC
  5
2BB8
  8
AM_0
 10
326.75734469435201
 20
397.7035786361584
 30
0.0
 40
10.0
 50
270.0
 51
314.99999999999562
1001
GENIUS_GENODEF_13
1002
{
1000
HIER
1070
     0
1002
}
1002
{
1000
MANEDIT
1070
     0
1002
}
1002
{
1000
NOSEL
1070
     0
1002
}
1002
{
1000
BEHIND
1070
     0
1002
}
1002
{
1000
OTHER
1070
     0
1002
}
1002
{
1000
REACTOR
1002
}
1001
GENIUS_GENOBJ-N-FIL_13
1002
{
1000
OWNER
1000
GEN
1002
}
  0
LINE
  5
2BB9
  8
AM_0
 10
312.39948031808308
 20
387.7035786361584
 30
0.0
 11
326.75734469435201
 21
387.7035786361584
 31
0.0
  0
LINE
  5
2BBA
  8
AM_0
 10
312.39948031808308
 20
337.7035786361584
 30
0.0
 11
326.75734469435201
 21
337.7035786361584
 31
0.0
  0
LINE
  5
2BBB
  8
AM_0
 10
308.39948031808308
 20
376.87515151141213
 30
0.0
 11
308.39948031808308
 21
348.53200576090461
 31
0.0
  0
LINE
  5
2BBC
  8
AM_0
 10
310.39948031808308
 20
339.7035786361584
 30
0.0
 11
310.39948031808308
 21
385.70357863615823
 31
0.0
  0
ARC
  5
2BBD
  8
AM_0
 10
310.39948031808308
 20
348.53200576090461
 30
0.0
 40
2.0
 50
180.0
 51
225.00000000000421
1001
GENIUS_GENODEF_13
1002
{
1000
HIER
1070
     0
1002
}
1002
{
1000
MANEDIT
1070
     0
1002
}
1002
{
1000
NOSEL
1070
     0
1002
}
1002
{
1000
BEHIND
1070
     0
1002
}
1002
{
1000
OTHER
1070
     0
1002
}
1002
{
1000
REACTOR
1002
}
1001
GENIUS_GENOBJ-N-FIL_13
1002
{
1000
OWNER
1000
GEN
1002
}
  0
LINE
  5
2BBE
  8
AM_0
 10
308.9852667557102
 20
347.1177921985315
 30
0.0
 11
309.81369388045641
 21
346.2893650737854
 31
0.0
  0
ARC
  5
2BBF
  8
AM_0
 10
312.39948031808308
 20
339.7035786361584
 30
0.0
 40
2.0
 50
180.0
 51
270.0
1001
GENIUS_GENODEF_13
1002
{
1000
HIER
1070
     0
1002
}
1002
{
1000
MANEDIT
1070
     0
1002
}
1002
{
1000
NOSEL
1070
     0
1002
}
1002
{
1000
BEHIND
1070
     0
1002
}
1002
{
1000
OTHER
1070
     0
1002
}
1002
{
1000
REACTOR
1002
}
1001
GENIUS_GENOBJ-N-FIL_13
1002
{
1000
OWNER
1000
GEN
1002
}
  0
ARC
  5
2BC0
  8
AM_0
 10
308.39948031808308
 20
344.8751515114123
 30
0.0
 40
2.0
 50
0.0
 51
45.000000000004363
1001
GENIUS_GENODEF_13
1002
{
1000
HIER
1070
     0
1002
}
1002
{
1000
MANEDIT
1070
     0
1002
}
1002
{
1000
NOSEL
1070
     0
1002
}
1002
{
1000
BEHIND
1070
     0
1002
}
1002
{
1000
OTHER
1070
     0
1002
}
1002
{
1000
REACTOR
1002
}
1001
GENIUS_GENOBJ-N-FIL_13
1002
{
1000
OWNER
1000
GEN
1002
}
  0
LINE
  5
2BC1
  8
AM_0
 10
281.39948031808302
 20
370.20357863615851
 30
0.0
 11
299.39948031808308
 21
370.20357863615851
 31
0.0
  0
LINE
  5
2BC2
  8
AM_0
 10
281.39948031808302
 20
368.70357863615851
 30
0.0
 11
306.39948031808308
 21
368.70357863615851
 31
0.0
  0
LINE
  5
2BC3
  8
AM_0
 10
281.39948031808302
 20
356.70357863615851
 30
0.0
 11
306.39948031808308
 21
356.70357863615851
 31
0.0
  0
LINE
  5
2BC4
  8
AM_0
 10
281.39948031808302
 20
370.20357863615851
 30
0.0
 11
281.39948031808302
 21
356.70357863615851
 31
0.0
  0
LINE
  5
2BC5
  8
AM_0
 10
306.39948031808308
 20
355.20357100676392
 30
0.0
 11
308.39948031808308
 21
355.20357100676392
 31
0.0
  0
LINE
  5
2BC6
  8
AM_0
 10
306.39948031808308
 20
370.20357863615851
 30
0.0
 11
308.39948031808308
 21
370.20357863615851
 31
0.0
  0
LINE
  5
2BC7
  8
AM_0
 10
306.39948031808308
 20
370.20357863615851
 30
0.0
 11
306.39948031808308
 21
355.20357100676392
 31
0.0
  0
LINE
  5
2BC8
  8
AM_0
 10
299.39948031808308
 20
370.20357863615851
 30
0.0
 11
299.39948031808308
 21
368.70357863615851
 31
0.0
  0
ARC
  5
2BC9
  8
AM_0
 10
310.39948031808308
 20
376.87515151141213
 30
0.0
 40
2.0
 50
134.99999999999551
 51
180.0
1001
GENIUS_GENODEF_13
1002
{
1000
HIER
1070
     0
1002
}
1002
{
1000
MANEDIT
1070
     0
1002
}
1002
{
1000
NOSEL
1070
     0
1002
}
1002
{
1000
BEHIND
1070
     0
1002
}
1002
{
1000
OTHER
1070
     0
1002
}
1002
{
1000
REACTOR
1002
}
1001
GENIUS_GENOBJ-N-FIL_13
1002
{
1000
OWNER
1000
GEN
1002
}
  0
LINE
  5
2BCA
  8
AM_0
 10
308.9852667557102
 20
378.2893650737854
 30
0.0
 11
309.81369388045641
 21
379.11779219853128
 31
0.0
  0
ARC
  5
2BCB
  8
AM_0
 10
308.39948031808308
 20
380.53200576090438
 30
0.0
 40
2.0
 50
314.99999999999562
 51
0.0
1001
GENIUS_GENODEF_13
1002
{
1000
HIER
1070
     0
1002
}
1002
{
1000
MANEDIT
1070
     0
1002
}
1002
{
1000
NOSEL
1070
     0
1002
}
1002
{
1000
BEHIND
1070
     0
1002
}
1002
{
1000
OTHER
1070
     0
1002
}
1002
{
1000
REACTOR
1002
}
1001
GENIUS_GENOBJ-N-FIL_13
1002
{
1000
OWNER
1000
GEN
1002
}
  0
ARC
  5
2BCC
  8
AM_0
 10
312.39948031808308
 20
385.70357863615823
 30
0.0
 40
2.0
 50
90.0
 51
180.0
1001
GENIUS_GENODEF_13
1002
{
1000
HIER
1070
     0
1002
}
1002
{
1000
MANEDIT
1070
     0
1002
}
1002
{
1000
NOSEL
1070
     0
1002
}
1002
{
1000
BEHIND
1070
     0
1002
}
1002
{
1000
OTHER
1070
     0
1002
}
1002
{
1000
REACTOR
1002
}
1001
GENIUS_GENOBJ-N-FIL_13
1002
{
1000
OWNER
1000
GEN
1002
}
  0
LINE
  5
2BCD
  8
AM_0
 10
330.89948031808308
 20
387.70357863615823
 30
0.0
 11
330.89948031808308
 21
337.70357863615828
 31
0.0
  0
ARC
  5
2BCE
  8
AM_0
 10
326.75734469435201
 20
327.70357863615828
 30
0.0
 40
10.0
 50
45.000000000004363
 51
90.0
1001
GENIUS_GENOBJ-N-FIL_13
1002
{
1000
OWNER
1000
GEN
1002
}
1001
GENIUS_GENODEF_13
1002
{
1000
HIER
1070
     0
1002
}
1002
{
1000
MANEDIT
1070
     0
1002
}
1002
{
1000
NOSEL
1070
     0
1002
}
1002
{
1000
BEHIND
1070
     0
1002
}
1002
{
1000
OTHER
1070
     0
1002
}
1002
{
1000
REACTOR
1002
}
  0
LINE
  5
2BCF
  8
AM_0
 10
354.43501422401567
 20
411.23911254209111
 30
0.0
 11
333.82841250621772
 21
390.63251082429281
 31
0.0
  0
LINE
  5
2BD0
  8
AM_0
 10
356.87049712479973
 20
418.94177988920421
 30
0.0
 11
365.89948031808308
 21
419.2035786361584
 31
0.0
  0
ARC
  5
2BD1
  8
AM_0
 10
350.89948031808302
 20
414.77464644802387
 30
0.0
 40
5.0
 50
314.99999999999562
 51
0.0
1001
GENIUS_GENODEF_13
1002
{
1000
HIER
1070
     0
1002
}
1002
{
1000
MANEDIT
1070
     0
1002
}
1002
{
1000
NOSEL
1070
     0
1002
}
1002
{
1000
BEHIND
1070
     0
1002
}
1002
{
1000
OTHER
1070
     0
1002
}
1002
{
1000
REACTOR
1002
}
1001
GENIUS_GENOBJ-N-FIL_13
1002
{
1000
OWNER
1000
GEN
1002
}
  0
ARC
  5
2BD2
  8
AM_0
 10
356.89948031808302
 20
417.9421999901931
 30
0.0
 40
1.0
 50
91.660847232964372
 51
180.0
1001
GENIUS_GENOBJ-N-FIL_13
1002
{
1000
OWNER
1000
GEN
1002
}
1001
GENIUS_GENODEF_13
1002
{
1000
HIER
1070
     0
1002
}
1002
{
1000
MANEDIT
1070
     0
1002
}
1002
{
1000
NOSEL
1070
     0
1002
}
1002
{
1000
BEHIND
1070
     0
1002
}
1002
{
1000
OTHER
1070
     0
1002
}
1002
{
1000
REACTOR
1002
}
  0
LINE
  5
2BD3
  8
AM_0
 10
486.39949031808311
 20
330.3233276361583
 30
0.0
 11
486.39949031808311
 21
455.0356916361585
 31
0.0
  0
LINE
  5
2BD4
  8
AM_0
 10
405.05104031808298
 20
395.50940963615852
 30
0.0
 11
429.89950031808303
 21
351.1366076361586
 31
0.0
  0
LINE
  5
2BD5
  8
AM_0
 10
429.89950031808303
 20
319.59110363615849
 30
0.0
 11
429.89950031808303
 21
460.26949163615848
 31
0.0
  0
LINE
  5
2BD6
  8
AM_0
 10
429.89950031808303
 20
329.12493263615841
 30
0.0
 11
474.39949031808322
 21
329.12493263615841
 31
0.0
  0
LINE
  5
2BD7
  8
AM_0
 10
429.89950031808303
 20
351.22890863615839
 30
0.0
 11
474.39949031808322
 21
351.22890863615839
 31
0.0
  0
LINE
  5
2BD8
  8
AM_0
 10
390.89950031808303
 20
346.20804863615848
 30
0.0
 11
429.89950031808303
 21
346.20804863615848
 31
0.0
  0
LINE
  5
2BD9
  8
AM_0
 10
390.03907031808302
 20
322.0813856361583
 30
0.0
 11
427.18696031808298
 21
320.78414363615832
 31
0.0
  0
ARC
  5
2BDA
  8
AM_0
 10
389.89951031808312
 20
318.08381063615838
 30
0.0
 40
4.000000199999997
 50
88.0
 51
180.00001
  0
ARC
  5
2BDB
  8
AM_0
 10
390.89950031808303
 20
341.20803263615829
 30
0.0
 40
5.0000001000000003
 50
90.000003000000007
 51
180.00001
  0
ARC
  5
2BDC
  8
AM_0
 10
427.04737031808293
 20
316.78656863615851
 30
0.0
 40
4.000000199999997
 50
31.072340999999991
 51
88.0
  0
LINE
  5
2BDD
  8
AM_0
 10
429.89950031808303
 20
452.2822316361582
 30
0.0
 11
474.39949031808322
 21
452.2822316361582
 31
0.0
  0
LINE
  5
2BDE
  8
AM_0
 10
429.89950031808303
 20
430.17826463615842
 30
0.0
 11
474.39949031808322
 21
430.17826463615842
 31
0.0
  0
LINE
  5
2BDF
  8
AM_0
 10
388.89949031808288
 20
450.80650163615849
 30
0.0
 11
388.89949031808288
 21
424.1602616361584
 31
0.0
  0
LINE
  5
2BE0
  8
AM_0
 10
392.40016031808318
 20
421.20423563615839
 30
0.0
 11
427.31632031808277
 21
456.12034163615851
 31
0.0
  0
LINE
  5
2BE1
  8
AM_0
 10
405.05104031808298
 20
395.50942763615848
 30
0.0
 11
413.12386031808308
 21
403.58227163615823
 31
0.0
  0
LINE
  5
2BE2
  8
AM_0
 10
391.28602031808299
 20
420.09010163615829
 30
0.0
 11
397.66237031808288
 21
408.70356563615832
 31
0.0
  0
ARC
  5
2BE3
  8
AM_0
 10
389.57173031808298
 20
424.03266563615853
 30
0.0
 40
4.000000199999997
 50
272.0
 51
315.0
  0
ARC
  5
2BE4
  8
AM_0
 10
385.89949031808288
 20
424.1602616361584
 30
0.0
 40
3.0
 50
309.62979000000001
 51
0.0
  0
ARC
  5
2BE5
  8
AM_0
 10
383.94013031808311
 20
423.83600963615851
 30
0.0
 40
4.000000199999997
 50
272.0
 51
309.62979000000001
  0
LINE
  5
2BE6
  8
AM_0
 10
387.81295031808293
 20
421.84968263615849
 30
0.0
 11
386.4914203180831
 21
420.7552616361582
 31
0.0
  0
LINE
  5
2BE7
  8
AM_0
 10
384.07972031808288
 20
419.83845263615848
 30
0.0
 11
389.71132031808293
 21
420.03510863615838
 31
0.0
  0
ARC
  5
2BE8
  8
AM_0
 10
411.00253031808307
 20
405.70359563615818
 30
0.0
 40
3.0
 50
315.0
 51
90.000003000000007
  0
LINE
  5
2BE9
  8
AM_0
 10
391.79482031808311
 20
453.8047016361582
 30
0.0
 11
424.62745031808288
 21
454.9512416361585
 31
0.0
  0
ARC
  5
2BEA
  8
AM_0
 10
391.89949031808288
 20
450.80650163615849
 30
0.0
 40
3.0
 50
91.999997999999948
 51
180.00001
  0
ARC
  5
2BEB
  8
AM_0
 10
425.90053031808287
 20
460.36150163615849
 30
0.0
 40
4.000000199999997
 50
315.0
 51
0.9319899799999999
  0
ARC
  5
2BEC
  8
AM_0
 10
424.48789031808309
 20
458.94880163615829
 30
0.0
 40
4.000000199999997
 50
272.0
 51
315.0
  0
LINE
  5
2BED
  8
AM_0
 10
427.31632031808277
 20
456.12034163615851
 30
0.0
 11
428.72896031808301
 21
457.53307163615852
 31
0.0
  0
ARC
  5
2BEE
  8
AM_0
 10
476.39950031808303
 20
459.03565163615849
 30
0.0
 40
2.00000007
 50
179.99998999999991
 51
270.0
  0
ARC
  5
2BEF
  8
AM_0
 10
484.39951031808312
 20
455.0356916361585
 30
0.0
 40
2.00000007
 50
0.0
 51
90.000003000000007
  0
LINE
  5
2BF0
  8
AM_0
 10
475.87807031808302
 20
448.08625463615851
 30
0.0
 11
484.82857031808282
 21
448.08625463615851
 31
0.0
  0
LINE
  5
2BF1
  8
AM_0
 10
476.39950031808303
 20
457.0356716361585
 30
0.0
 11
484.39951031808312
 21
457.0356716361585
 31
0.0
  0
LINE
  5
2BF2
  8
AM_0
 10
609.39949031808305
 20
301.2035756361584
 30
0.0
 11
609.39949031808305
 21
418.70356463615832
 31
0.0
  0
LINE
  5
2BF3
  8
AM_0
 10
594.39949031808305
 20
303.7863566361583
 30
0.0
 11
594.39949031808305
 21
354.01430663615861
 31
0.0
  0
LINE
  5
2BF4
  8
AM_0
 10
581.63644031808292
 20
288.97156463615829
 30
0.0
 11
602.39950031808291
 21
300.9591146361584
 31
0.0
  0
LINE
  5
2BF5
  8
AM_0
 10
597.50419031808315
 20
300.7881866361584
 30
0.0
 11
609.39952031808286
 21
301.2035756361584
 31
0.0
  0
LINE
  5
2BF6
  8
AM_0
 10
496.39951031808312
 20
291.20357663615829
 30
0.0
 11
581.63644031808292
 21
288.97156463615829
 31
0.0
  0
ARC
  5
2BF7
  8
AM_0
 10
597.39949031808305
 20
303.7863566361583
 30
0.0
 40
3.0
 50
179.99998999999991
 51
271.99998999999991
  0
LINE
  5
2BF8
  8
AM_0
 10
609.39949031808305
 20
313.70357663615829
 30
0.0
 11
613.39951031808312
 21
313.70357663615829
 31
0.0
  0
LINE
  5
2BF9
  8
AM_0
 10
597.39949031808305
 20
386.93932763615851
 30
0.0
 11
601.39951031808312
 21
386.93932763615851
 31
0.0
  0
LINE
  5
2BFA
  8
AM_0
 10
597.39949031808305
 20
357.01430663615838
 30
0.0
 11
601.39951031808312
 21
357.01430663615838
 31
0.0
  0
ARC
  5
2BFB
  8
AM_0
 10
598.39951031808312
 20
327.33559463615842
 30
0.0
 40
3.0
 50
272.0
 51
0.0
  0
ARC
  5
2BFC
  8
AM_0
 10
617.65297031808291
 20
421.00834463615848
 30
0.0
 40
40.000001999999981
 50
174.07597999999999
 51
234.45533999999989
  0
ARC
  5
2BFD
  8
AM_0
 10
597.39949031808305
 20
354.01430663615861
 30
0.0
 40
3.0
 50
90.000003000000007
 51
180.00001
  0
LINE
  5
2BFE
  8
AM_0
 10
596.68405031808311
 20
324.27387563615849
 30
0.0
 11
598.50421031808298
 21
324.3374426361583
 31
0.0
  0
ARC
  5
2BFF
  8
AM_0
 10
597.39949031808305
 20
389.93932763615851
 30
0.0
 40
3.0
 50
179.99998999999991
 51
270.0
  0
LINE
  5
2C00
  8
AM_0
 10
496.39951031808312
 20
420.88892963615848
 30
0.0
 11
496.40110031808291
 21
420.88892963615848
 31
0.0
  0
LINE
  5
2C01
  8
AM_0
 10
601.39951031808312
 20
327.33559463615842
 30
0.0
 11
601.39951031808312
 21
418.70356463615832
 31
0.0
  0
LINE
  5
2C02
  8
AM_0
 10
671.39950031808291
 20
434.70356363615821
 30
0.0
 11
613.39951031808312
 21
434.70356363615821
 31
0.0
  0
LINE
  5
2C03
  8
AM_0
 10
671.39950031808291
 20
437.70356363615838
 30
0.0
 11
626.3994703180831
 21
437.70356363615838
 31
0.0
  0
LINE
  5
2C04
  8
AM_0
 10
671.39950031808291
 20
402.70359563615852
 30
0.0
 11
613.39951031808312
 21
402.70359563615852
 31
0.0
  0
LINE
  5
2C05
  8
AM_0
 10
626.3994703180831
 20
434.70356363615821
 30
0.0
 11
626.3994703180831
 21
437.70356363615838
 31
0.0
  0
LINE
  5
2C06
  8
AM_0
 10
671.39950031808291
 20
402.70359563615852
 30
0.0
 11
671.39950031808291
 21
437.70356363615838
 31
0.0
  0
LINE
  5
2C07
  8
AM_0
 10
488.32975031808309
 20
489.92176163615852
 30
0.0
 11
496.39951031808312
 21
490.20355163615852
 31
0.0
  0
LINE
  5
2C08
  8
AM_0
 10
474.39949031808322
 20
469.90801163615822
 30
0.0
 11
581.39296031808306
 21
469.90801163615822
 31
0.0
  0
LINE
  5
2C09
  8
AM_0
 10
439.89949031808311
 20
464.20357163615847
 30
0.0
 11
471.50416031808288
 21
465.30724163615849
 31
0.0
  0
LINE
  5
2C0A
  8
AM_0
 10
433.75990031808283
 20
464.48917163615852
 30
0.0
 11
439.89949031808311
 21
464.70355163615818
 31
0.0
  0
LINE
  5
2C0B
  8
AM_0
 10
486.39949031808311
 20
476.00620163615849
 30
0.0
 11
486.39949031808311
 21
487.92298163615851
 31
0.0
  0
ARC
  5
2C0C
  8
AM_0
 10
476.39950031808303
 20
472.00624163615822
 30
0.0
 40
2.00000007
 50
90.000003000000007
 51
180.00001
  0
ARC
  5
2C0D
  8
AM_0
 10
471.39949031808311
 20
468.30544163615832
 30
0.0
 40
3.0
 50
272.0
 51
0.0
  0
ARC
  5
2C0E
  8
AM_0
 10
484.39951031808312
 20
476.00620163615849
 30
0.0
 40
2.00000007
 50
270.0
 51
0.0
  0
LINE
  5
2C0F
  8
AM_0
 10
476.39950031808303
 20
474.0062516361582
 30
0.0
 11
484.39951031808312
 21
474.0062516361582
 31
0.0
  0
ARC
  5
2C10
  8
AM_0
 10
477.39949031808311
 20
481.72762163615829
 30
0.0
 40
3.0
 50
91.999997999999948
 51
180.00001
  0
ARC
  5
2C11
  8
AM_0
 10
484.39951031808312
 20
486.97513163615849
 30
0.0
 40
2.00000007
 50
272.0
 51
0.0
  0
ARC
  5
2C12
  8
AM_0
 10
488.39950031808303
 20
487.92298163615851
 30
0.0
 40
2.00000007
 50
91.999997999999948
 51
180.00001
  0
LINE
  5
2C13
  8
AM_0
 10
477.29482031808288
 20
484.72582163615817
 30
0.0
 11
484.46932031808302
 21
484.97632163615839
 31
0.0
  0
LINE
  5
2C14
  8
AM_0
 10
597.29479031808307
 20
535.78087163615851
 30
0.0
 11
609.39952031808286
 21
536.20357163615824
 31
0.0
  0
ARC
  5
2C15
  8
AM_0
 10
598.39951031808312
 20
509.30329163615852
 30
0.0
 40
3.0
 50
0.0
 51
91.999997999999948
  0
LINE
  5
2C16
  8
AM_0
 10
597.39949031808305
 20
474.61432163615819
 30
0.0
 11
601.39951031808312
 21
474.61432163615819
 31
0.0
  0
ARC
  5
2C17
  8
AM_0
 10
597.39949031808305
 20
532.78270163615832
 30
0.0
 40
3.0
 50
91.999997999999948
 51
180.00001
  0
LINE
  5
2C18
  8
AM_0
 10
496.39951031808312
 20
490.20361163615848
 30
0.0
 11
555.50536031808304
 21
491.75134163615832
 31
0.0
  0
LINE
  5
2C19
  8
AM_0
 10
594.39949031808305
 20
477.61432163615842
 30
0.0
 11
594.39949031808305
 21
532.78270163615832
 31
0.0
  0
LINE
  5
2C1A
  8
AM_0
 10
558.91000031808301
 20
493.2140516361585
 30
0.0
 11
594.39949031808305
 21
528.70357163615824
 31
0.0
  0
ARC
  5
2C1B
  8
AM_0
 10
561.39949031808305
 20
469.90801163615822
 30
0.0
 40
21.000000600000011
 50
354.07597999999979
 51
80.875524999999996
  0
LINE
  5
2C1C
  8
AM_0
 10
557.49949031808285
 20
491.80354163615829
 30
0.0
 11
564.72967031808275
 21
490.64230163615849
 31
0.0
  0
ARC
  5
2C1D
  8
AM_0
 10
555.37447031808301
 20
496.74958163615838
 30
0.0
 40
5.0000001000000003
 50
271.49999999999972
 51
315.0
  0
ARC
  5
2C1E
  8
AM_0
 10
597.39949031808305
 20
477.61432163615842
 30
0.0
 40
3.0
 50
179.99998999999991
 51
270.0
  0
LINE
  5
2C1F
  8
AM_0
 10
598.114930318083
 20
512.29522163615832
 30
0.0
 11
598.29484031808329
 21
512.30146163615825
 31
0.0
  0
LINE
  5
2C20
  8
AM_0
 10
609.39949031808305
 20
523.70359163615865
 30
0.0
 11
613.39951031808312
 21
523.70359163615865
 31
0.0
  0
LINE
  5
2C21
  8
ﾁｭｳｼﾝｾﾝ
 10
895.23235307736411
 20
285.9328376361583
 30
0.0
 11
895.23235307736411
 21
541.80097163615835
 31
0.0
  0
ARC
  5
2C22
  8
AM_0
 10
895.23235307736411
 20
390.70359263615831
 30
0.0
 40
99.500004000000004
 50
125.86368999999991
 51
150.26975999999991
  0
ARC
  5
2C23
  8
AM_0
 10
895.23235307736411
 20
418.70356463615832
 30
0.0
 40
48.0
 50
54.77685000000001
 51
125.22314
  0
ARC
  5
2C24
  8
AM_0
 10
895.23235307736411
 20
390.70359263615831
 30
0.0
 40
99.500004000000004
 50
29.730242999999991
 51
54.136312000000011
  0
CIRCLE
  5
2C25
  8
AM_0
 10
895.23235307736411
 20
418.70356463615832
 30
0.0
 40
99.000003000000021
  0
CIRCLE
  5
2C26
  8
AM_0
 10
895.23235307736411
 20
418.70356463615832
 30
0.0
 40
105.00000299999979
  0
LINE
  5
2C27
  8
AM_0
 10
861.12840707736416
 20
458.46439163615821
 30
0.0
 11
831.89809007736415
 21
487.69471163615822
 31
0.0
  0
LINE
  5
2C28
  8
AM_0
 10
777.73236407736431
 20
448.70356463615832
 30
0.0
 11
781.14721907736418
 21
513.86287163615839
 31
0.0
  0
LINE
  5
2C29
  8
AM_0
 10
1012.732363077364
 20
448.70359463615853
 30
0.0
 11
1009.317508077364
 21
513.86287163615839
 31
0.0
  0
LINE
  5
2C2A
  8
AM_0
 10
855.47154707736422
 20
452.80753163615839
 30
0.0
 11
826.24123007736409
 21
482.03785163615839
 31
0.0
  0
LINE
  5
2C2B
  8
AM_0
 10
929.3362960773643
 20
458.46439163615821
 30
0.0
 11
958.56659807736423
 21
487.69468163615829
 31
0.0
  0
LINE
  5
2C2C
  8
AM_0
 10
934.99315607736435
 20
452.80753163615839
 30
0.0
 11
964.22346707736415
 21
482.03782163615818
 31
0.0
  0
LINE
  5
2C2D
  8
ﾁｭｳｼﾝｾﾝ
 10
772.5646750773642
 20
418.70356463615832
 30
0.0
 11
1017.042097077364
 21
418.70356463615832
 31
0.0
  0
LINE
  5
2C2E
  8
AM_0
 10
865.23235007736423
 20
301.20357563615818
 30
0.0
 11
800.07306407736405
 21
304.61843363615839
 31
0.0
  0
LINE
  5
2C2F
  8
AM_0
 10
842.23236707736407
 20
375.70359263615831
 30
0.0
 11
809.25562007736414
 21
375.70359263615831
 31
0.0
  0
LINE
  5
2C30
  8
ﾁｭｳｼﾝｾﾝ1
 10
807.48376835788395
 20
330.95499491667789
 30
0.0
 11
791.24613933196974
 21
314.71736589076397
 31
0.0
  0
ARC
  5
2C31
  8
ﾁｭｳｼﾝｾﾝ1
 10
895.23235307736695
 20
418.70356463616082
 30
0.0
 40
135.00000300000349
 50
218.36839000000009
 51
231.48492832670689
  0
ARC
  5
2C32
  8
AM_0
 10
801.11981507736425
 20
324.59102663615818
 30
0.0
 40
20.000000700000001
 50
183.00001
 51
267.0
  0
CIRCLE
  5
2C33
  8
AM_0
 10
799.77292307736423
 20
323.2441646361583
 30
0.0
 40
7.5000002999999982
  0
LINE
  5
2C34
  8
AM_0
 10
777.73236407736431
 20
418.70356463615832
 30
0.0
 11
777.73236407736431
 21
388.70357963615839
 31
0.0
  0
ARC
  5
2C35
  8
AM_0
 10
895.23235307736411
 20
390.70359263615831
 30
0.0
 40
93.500003999999976
 50
162.14678999999981
 51
183.00788
  0
LINE
  5
2C36
  8
AM_0
 10
777.73236407736431
 20
388.70357963615839
 30
0.0
 11
781.14718907736415
 21
323.5443056361583
 31
0.0
  0
ARC
  5
2C37
  8
AM_0
 10
809.25562007736414
 20
380.7035786361584
 30
0.0
 40
5.0000001000000003
 50
203.8444699999998
 51
270.0
  0
LINE
  5
2C38
  8
AM_0
 10
777.73236407736431
 20
418.70356463615832
 30
0.0
 11
777.73236407736431
 21
448.70356463615832
 31
0.0
  0
ARC
  5
2C39
  8
AM_0
 10
895.23235307736411
 20
418.70356463615832
 30
0.0
 40
89.000003999999961
 50
166.12423000000001
 51
179.57176999999999
  0
CIRCLE
  5
2C3A
  8
AM_0
 10
990.69178307736445
 20
323.2441646361583
 30
0.0
 40
7.5000002999999982
  0
ARC
  5
2C3B
  8
AM_0
 10
989.34491807736447
 20
324.59102663615818
 30
0.0
 40
20.000000700000001
 50
273.0
 51
357.0
  0
LINE
  5
2C3C
  8
AM_0
 10
925.23235307736422
 20
301.20357563615818
 30
0.0
 11
990.39164207736405
 21
304.61843363615839
 31
0.0
  0
LINE
  5
2C3D
  8
AM_0
 10
895.23235307736411
 20
301.20357563615818
 30
0.0
 11
865.23235007736423
 21
301.20357563615818
 31
0.0
  0
ARC
  5
2C3E
  8
AM_0
 10
895.23235307736411
 20
390.70359263615831
 30
0.0
 40
99.500004000000004
 50
242.88566
 51
297.11435
  0
LINE
  5
2C3F
  8
AM_0
 10
895.23235307736411
 20
301.20357563615818
 30
0.0
 11
925.23235307736422
 21
301.20357563615818
 31
0.0
  0
ARC
  5
2C40
  8
AM_0
 10
895.23235307736411
 20
418.70356463615832
 30
0.0
 40
48.0
 50
0.0
 51
35.223151999999992
  0
ARC
  5
2C41
  8
AM_0
 10
948.2323630773642
 20
380.7035786361584
 30
0.0
 40
5.0000001000000003
 50
179.99998999999991
 51
270.0
  0
LINE
  5
2C42
  8
AM_0
 10
847.23235007736423
 20
418.70356463615832
 30
0.0
 11
847.23235007736423
 21
380.7035786361584
 31
0.0
  0
CIRCLE
  5
2C43
  8
AM_0
 10
895.23235307736411
 20
418.70356463615832
 30
0.0
 40
29.000001000000001
  0
ARC
  5
2C44
  8
AM_0
 10
842.23236707736407
 20
380.7035786361584
 30
0.0
 40
5.0000001000000003
 50
270.0
 51
0.0
  0
ARC
  5
2C45
  8
AM_0
 10
895.23235307736411
 20
418.70356463615832
 30
0.0
 40
16.000000499999999
 50
108.20996
 51
71.790052000000003
  0
ARC
  5
2C46
  8
AM_0
 10
895.23235307736411
 20
418.70356463615832
 30
0.0
 40
16.000000499999999
 50
108.20996
 51
71.790052000000003
  0
ARC
  5
2C47
  8
AM_0
 10
895.23235307736411
 20
418.70356463615832
 30
0.0
 40
48.0
 50
144.77683999999991
 51
180.00001
  0
ARC
  5
2C48
  8
AM_0
 10
851.93601107736436
 20
449.27198663615832
 30
0.0
 40
5.0000001000000003
 50
324.77685000000002
 51
45.00000099999999
  0
ARC
  5
2C49
  8
AM_0
 10
864.66394607736413
 20
461.99992163615832
 30
0.0
 40
5.0000001000000003
 50
225.0
 51
305.22314999999992
  0
CIRCLE
  5
2C4A
  8
AM_0
 10
895.23235307736411
 20
418.70356463615832
 30
0.0
 40
2.75000007
  0
CIRCLE
  5
2C4B
  8
AM_5
 10
895.23235307736411
 20
418.70356463615832
 30
0.0
 40
4.000000199999997
  0
CIRCLE
  5
2C4C
  8
AM_0
 10
895.23235307736411
 20
418.70356463615832
 30
0.0
 40
2.75000007
  0
CIRCLE
  5
2C4D
  8
AM_0
 10
895.23235307736411
 20
418.70356463615832
 30
0.0
 40
2.75000007
  0
LINE
  5
2C4E
  8
AM_0
 10
900.23236907736407
 20
429.70359563615818
 30
0.0
 11
900.23236907736407
 21
437.70356363615838
 31
0.0
  0
LINE
  5
2C4F
  8
AM_0
 10
890.23235207736434
 20
429.70359563615818
 30
0.0
 11
890.23235207736434
 21
437.70356363615838
 31
0.0
  0
LINE
  5
2C50
  8
AM_0
 10
890.23235207736434
 20
437.70356363615838
 30
0.0
 11
900.23236907736407
 21
437.70356363615838
 31
0.0
  0
LINE
  5
2C51
  8
AM_0
 10
890.23235207736434
 20
429.70359563615818
 30
0.0
 11
900.23236907736407
 21
429.70359563615818
 31
0.0
  0
ARC
  5
2C52
  8
AM_0
 10
925.80077507736405
 20
461.99992163615832
 30
0.0
 40
5.0000001000000003
 50
234.77686
 51
315.0
  0
ARC
  5
2C53
  8
AM_0
 10
938.52869507736455
 20
449.27198663615832
 30
0.0
 40
5.0000001000000003
 50
135.0
 51
215.22315
  0
ARC
  5
2C54
  8
AM_0
 10
895.23235307736411
 20
390.70359263615831
 30
0.0
 40
93.500003999999976
 50
356.99212
 51
17.853213
  0
LINE
  5
2C55
  8
AM_0
 10
1012.732360077364
 20
418.70356463615832
 30
0.0
 11
1012.732360077364
 21
388.70357963615839
 31
0.0
  0
LINE
  5
2C56
  8
AM_0
 10
943.23235307736422
 20
418.70356463615832
 30
0.0
 11
943.23235307736422
 21
380.7035786361584
 31
0.0
  0
LINE
  5
2C57
  8
AM_0
 10
948.2323630773642
 20
375.70359263615831
 30
0.0
 11
981.20910107736404
 21
375.70359263615831
 31
0.0
  0
ARC
  5
2C58
  8
AM_0
 10
981.20910107736404
 20
380.7035786361584
 30
0.0
 40
5.0000001000000003
 50
270.0
 51
336.15553
  0
LINE
  5
2C59
  8
AM_0
 10
1012.732363077364
 20
388.70357963615839
 30
0.0
 11
1009.317508077364
 21
323.5443056361583
 31
0.0
  0
ARC
  5
2C5A
  8
AM_0
 10
895.23235307736411
 20
418.70356463615832
 30
0.0
 40
89.000003999999961
 50
0.42822786
 51
13.875764
  0
LINE
  5
2C5B
  8
AM_0
 10
1012.732360077364
 20
418.70356463615832
 30
0.0
 11
1012.732360077364
 21
448.70356463615832
 31
0.0
  0
ARC
  5
2C5C
  8
AM_0
 10
835.43362907736412
 20
491.23024163615821
 30
0.0
 40
5.0000001000000003
 50
129.5058199999998
 51
225.0
  0
LINE
  5
2C5D
  8
AM_0
 10
865.23236807736419
 20
536.20357163615824
 30
0.0
 11
800.0730940773642
 21
532.78870163615852
 31
0.0
  0
ARC
  5
2C5E
  8
AM_0
 10
801.11981507736425
 20
512.81614163615825
 30
0.0
 40
20.000000700000001
 50
92.999999000000017
 51
176.99999
  0
ARC
  5
2C5F
  8
AM_0
 10
822.70572407736415
 20
478.50229163615819
 30
0.0
 40
5.0000001000000003
 50
45.00000099999999
 51
140.49418
  0
CIRCLE
  5
2C60
  8
AM_0
 10
799.77292307736423
 20
514.16302163615831
 30
0.0
 40
7.5000002999999982
  0
LINE
  5
2C61
  8
AM_0
 10
925.23235307736422
 20
536.20357163615824
 30
0.0
 11
990.3916330773643
 21
532.78873163615845
 31
0.0
  0
ARC
  5
2C62
  8
AM_0
 10
895.23235307736411
 20
390.70359263615831
 30
0.0
 40
99.500004000000004
 50
58.838493999999997
 51
86.644180000000006
  0
ARC
  5
2C63
  8
AM_0
 10
895.23235307736365
 20
390.70359263615831
 30
0.0
 40
99.500004000000004
 50
93.355817999997413
 51
121.1614999999983
  0
LINE
  5
2C64
  8
AM_0
 10
892.23235307736422
 20
499.21831163615838
 30
0.0
 11
892.23235307736422
 21
493.02781163615822
 31
0.0
  0
LINE
  5
2C65
  8
AM_0
 10
898.23235307736422
 20
499.21831163615838
 30
0.0
 11
898.23235307736422
 21
493.02781163615822
 31
0.0
  0
ARC
  5
2C66
  8
AM_0
 10
901.23235307736422
 20
493.02781163615822
 30
0.0
 40
3.0
 50
179.99998999999991
 51
266.64418999999992
  0
ARC
  5
2C67
  8
AM_0
 10
889.23235307736434
 20
493.02781163615822
 30
0.0
 40
3.0
 50
273.35581999999999
 51
0.0
  0
ARC
  5
2C68
  8
AM_0
 10
901.23235307736422
 20
499.21831163615838
 30
0.0
 40
3.0
 50
90.000003000000007
 51
180.00001
  0
ARC
  5
2C69
  8
AM_0
 10
889.23235307736434
 20
499.21831163615838
 30
0.0
 40
3.0
 50
0.0
 51
90.000003000000007
  0
LINE
  5
2C6A
  8
AM_0
 10
895.23235307736411
 20
536.20360163615828
 30
0.0
 11
865.23235007736423
 21
536.20360163615828
 31
0.0
  0
LINE
  5
2C6B
  8
AM_0
 10
895.23235307736411
 20
536.20360163615828
 30
0.0
 11
925.23235307736422
 21
536.20360163615828
 31
0.0
  0
ARC
  5
2C6C
  8
AM_0
 10
989.34491807736447
 20
512.81614163615825
 30
0.0
 40
20.000000700000001
 50
3.0000000999999981
 51
86.999998999999988
  0
ARC
  5
2C6D
  8
ﾁｭｳｼﾝｾﾝ1
 10
895.23235307736411
 20
418.70356463615832
 30
0.0
 40
135.00000299999991
 50
38.36839299999999
 51
52.256346000000022
  0
LINE
  5
2C6E
  8
ﾁｭｳｼﾝｾﾝ1
 10
981.45430756883854
 20
504.9255305896499
 30
0.0
 11
999.93585241961125
 21
523.40710160400295
 31
0.0
  0
ARC
  5
2C6F
  8
AM_0
 10
967.7590030773639
 20
478.50229163615819
 30
0.0
 40
5.0000001000000003
 50
39.505817999999998
 51
135.0
  0
ARC
  5
2C70
  8
AM_0
 10
955.03107407736422
 20
491.23024163615821
 30
0.0
 40
5.0000001000000003
 50
315.0
 51
50.494182000000002
  0
CIRCLE
  5
2C71
  8
AM_0
 10
990.69178307736445
 20
514.16302163615831
 30
0.0
 40
7.5000002999999982
  0
LINE
  5
2C72
  8
AM_0
 10
365.89948031808302
 20
394.64101763615849
 30
0.0
 11
355.89948031808302
 21
394.64101763615849
 31
0.0
  0
LINE
  5
2C73
  8
AM_0
 10
365.89948031808302
 20
408.70358363615821
 30
0.0
 11
355.89948031808302
 21
408.70358363615821
 31
0.0
  0
LINE
  5
2C74
  8
AM_0
 10
365.89948031808308
 20
316.70357663615818
 30
0.0
 11
355.89948031808302
 21
316.70357663615818
 31
0.0
  0
LINE
  5
2C75
  8
AM_0
 10
365.89948031808302
 20
330.7661396361583
 30
0.0
 11
355.89948031808302
 21
330.7661396361583
 31
0.0
  0
LINE
  5
2C76
  8
AM_0
 10
308.39941031808308
 20
748.45716060586278
 30
0.0
 11
308.39941031808308
 21
720.11401485535521
 31
0.0
  0
LINE
  5
2C77
  8
AM_0
 10
330.89941031808308
 20
759.285587730609
 30
0.0
 11
330.89941031808308
 21
709.285587730609
 31
0.0
  0
LINE
  5
2C78
  8
AM_0
 10
310.3994103180828
 20
711.28558773060911
 30
0.0
 11
310.39941031808308
 21
757.28558773060934
 31
0.0
  0
LINE
  5
2C79
  8
AM_0
 10
355.89941031808303
 20
789.52420908464421
 30
0.0
 11
355.89941031808399
 21
679.04696637657435
 31
0.0
  0
LINE
  5
2C7A
  8
AM_0
 10
312.39941031808308
 20
709.28558773060934
 30
0.0
 11
326.75727469435202
 21
709.28558773060911
 31
0.0
  0
ARC
  5
2C7B
  8
AM_0
 10
312.39941031808308
 20
711.28558773060934
 30
0.0
 40
2.0
 50
180.0
 51
270.0
1001
GENIUS_GENODEF_13
1002
{
1000
HIER
1070
     0
1002
}
1002
{
1000
MANEDIT
1070
     0
1002
}
1002
{
1000
NOSEL
1070
     0
1002
}
1002
{
1000
BEHIND
1070
     0
1002
}
1002
{
1000
OTHER
1070
     0
1002
}
1002
{
1000
REACTOR
1002
}
1001
GENIUS_GENOBJ-N-FIL_13
1002
{
1000
OWNER
1000
GEN
1002
}
  0
ARC
  5
2C7C
  8
AM_0
 10
310.39941031808308
 20
720.11401485535521
 30
0.0
 40
2.0
 50
180.0
 51
225.0
1001
GENIUS_GENODEF_13
1002
{
1000
HIER
1070
     0
1002
}
1002
{
1000
MANEDIT
1070
     0
1002
}
1002
{
1000
NOSEL
1070
     0
1002
}
1002
{
1000
BEHIND
1070
     0
1002
}
1002
{
1000
OTHER
1070
     0
1002
}
1002
{
1000
REACTOR
1002
}
1001
GENIUS_GENOBJ-N-FIL_13
1002
{
1000
OWNER
1000
GEN
1002
}
  0
LINE
  5
2C7D
  8
AM_0
 10
308.98519675570998
 20
718.69980129298222
 30
0.0
 11
309.81362388045602
 21
717.87137416823589
 31
0.0
  0
ARC
  5
2C7E
  8
AM_0
 10
308.39941031808308
 20
716.45716060586301
 30
0.0
 40
2.0
 50
0.0
 51
45.0
1001
GENIUS_GENODEF_13
1002
{
1000
HIER
1070
     0
1002
}
1002
{
1000
MANEDIT
1070
     0
1002
}
1002
{
1000
NOSEL
1070
     0
1002
}
1002
{
1000
BEHIND
1070
     0
1002
}
1002
{
1000
OTHER
1070
     0
1002
}
1002
{
1000
REACTOR
1002
}
1001
GENIUS_GENOBJ-N-FIL_13
1002
{
1000
OWNER
1000
GEN
1002
}
  0
ARC
  5
2C7F
  8
AM_0
 10
356.89941031808303
 20
679.04696637657435
 30
0.0
 40
1.0
 50
180.0
 51
268.33915276702578
1001
GENIUS_GENOBJ-N-FIL_13
1002
{
1000
OWNER
1000
GEN
1002
}
1001
GENIUS_GENODEF_13
1002
{
1000
HIER
1070
     0
1002
}
1002
{
1000
MANEDIT
1070
     0
1002
}
1002
{
1000
NOSEL
1070
     0
1002
}
1002
{
1000
BEHIND
1070
     0
1002
}
1002
{
1000
OTHER
1070
     0
1002
}
1002
{
1000
REACTOR
1002
}
  0
LINE
  5
2C80
  8
AM_0
 10
356.8704271247999
 20
678.04738647756312
 30
0.0
 11
365.89941031808303
 21
677.78558773060934
 31
0.0
  0
LINE
  5
2C81
  8
AM_0
 10
354.43494422401568
 20
685.75005382467634
 30
0.0
 11
333.82834250621761
 21
706.35665554247475
 31
0.0
  0
ARC
  5
2C82
  8
AM_0
 10
326.75727469435202
 20
699.28558773060911
 30
0.0
 40
10.0
 50
45.0
 51
90.0
1001
GENIUS_GENOBJ-N-FIL_13
1002
{
1000
OWNER
1000
GEN
1002
}
1001
GENIUS_GENODEF_13
1002
{
1000
HIER
1070
     0
1002
}
1002
{
1000
MANEDIT
1070
     0
1002
}
1002
{
1000
NOSEL
1070
     0
1002
}
1002
{
1000
BEHIND
1070
     0
1002
}
1002
{
1000
OTHER
1070
     0
1002
}
1002
{
1000
REACTOR
1002
}
  0
LINE
  5
2C83
  8
AM_0
 10
365.89941031808308
 20
688.28558573060911
 30
0.0
 11
355.8994103180832
 21
688.28558573060911
 31
0.0
  0
ARC
  5
2C84
  8
AM_0
 10
350.89941031808303
 20
682.21451991874358
 30
0.0
 40
5.0
 50
0.0
 51
45.0
1001
GENIUS_GENODEF_13
1002
{
1000
HIER
1070
     0
1002
}
1002
{
1000
MANEDIT
1070
     0
1002
}
1002
{
1000
NOSEL
1070
     0
1002
}
1002
{
1000
BEHIND
1070
     0
1002
}
1002
{
1000
OTHER
1070
     0
1002
}
1002
{
1000
REACTOR
1002
}
1001
GENIUS_GENOBJ-N-FIL_13
1002
{
1000
OWNER
1000
GEN
1002
}
  0
LINE
  5
2C85
  8
AM_0
 10
365.89941031808303
 20
702.34814873060895
 30
0.0
 11
355.89941031808303
 21
702.34814873060895
 31
0.0
  0
LINE
  5
2C86
  8
AM_0
 10
312.39941031808308
 20
759.28558773060934
 30
0.0
 11
326.75727469435202
 21
759.28558773060934
 31
0.0
  0
LINE
  5
2C87
  8
AM_0
 10
281.39941031808303
 20
728.28558773060934
 30
0.0
 11
306.39941031808308
 21
728.28558773060934
 31
0.0
  0
LINE
  5
2C88
  8
AM_0
 10
281.39941031808303
 20
740.28558773060934
 30
0.0
 11
306.39941031808308
 21
740.28558773060934
 31
0.0
  0
LINE
  5
2C89
  8
AM_0
 10
281.39941031808303
 20
732.28558773060934
 30
0.0
 11
299.39941031808308
 21
732.28558773060934
 31
0.0
  0
LINE
  5
2C8A
  8
AM_0
 10
281.39941031808303
 20
736.28558773060934
 30
0.0
 11
299.39941031808308
 21
736.28558773060911
 31
0.0
  0
LINE
  5
2C8B
  8
AM_0
 10
281.39941031808303
 20
740.28558773060934
 30
0.0
 11
281.39941031808303
 21
728.28558773060934
 31
0.0
  0
LINE
  5
2C8C
  8
AM_0
 10
299.39941031808308
 20
736.28558773060888
 30
0.0
 11
299.39941031808308
 21
732.28558773060934
 31
0.0
  0
ARC
  5
2C8D
  8
AM_0
 10
299.39941031808308
 20
734.28558773060934
 30
0.0
 40
1.9999999999998861
 50
270.0
 51
90.0
  0
LINE
  5
2C8E
  8
AM_0
 10
306.39941031808308
 20
741.78558773060934
 30
0.0
 11
306.39941031808308
 21
726.7855801012148
 31
0.0
  0
LINE
  5
2C8F
  8
AM_0
 10
306.39941031808308
 20
726.7855801012148
 30
0.0
 11
308.39941031808308
 21
726.7855801012148
 31
0.0
  0
LINE
  5
2C90
  8
AM_0
 10
306.39941031808308
 20
741.78558773060934
 30
0.0
 11
308.39941031808308
 21
741.78558773060934
 31
0.0
  0
ARC
  5
2C91
  8
AM_0
 10
308.39941031808308
 20
752.11401485535521
 30
0.0
 40
2.0
 50
315.0
 51
0.0
1001
GENIUS_GENODEF_13
1002
{
1000
HIER
1070
     0
1002
}
1002
{
1000
MANEDIT
1070
     0
1002
}
1002
{
1000
NOSEL
1070
     0
1002
}
1002
{
1000
BEHIND
1070
     0
1002
}
1002
{
1000
OTHER
1070
     0
1002
}
1002
{
1000
REACTOR
1002
}
1001
GENIUS_GENOBJ-N-FIL_13
1002
{
1000
OWNER
1000
GEN
1002
}
  0
LINE
  5
2C92
  8
AM_0
 10
308.98519675570998
 20
749.87137416823612
 30
0.0
 11
309.81362388045602
 21
750.6998012929821
 31
0.0
  0
ARC
  5
2C93
  8
AM_0
 10
310.39941031808308
 20
748.45716060586278
 30
0.0
 40
2.0
 50
135.0
 51
180.0
1001
GENIUS_GENODEF_13
1002
{
1000
HIER
1070
     0
1002
}
1002
{
1000
MANEDIT
1070
     0
1002
}
1002
{
1000
NOSEL
1070
     0
1002
}
1002
{
1000
BEHIND
1070
     0
1002
}
1002
{
1000
OTHER
1070
     0
1002
}
1002
{
1000
REACTOR
1002
}
1001
GENIUS_GENOBJ-N-FIL_13
1002
{
1000
OWNER
1000
GEN
1002
}
  0
ARC
  5
2C94
  8
AM_0
 10
312.39941031808308
 20
757.28558773060934
 30
0.0
 40
2.0
 50
90.0
 51
180.0
1001
GENIUS_GENODEF_13
1002
{
1000
HIER
1070
     0
1002
}
1002
{
1000
MANEDIT
1070
     0
1002
}
1002
{
1000
NOSEL
1070
     0
1002
}
1002
{
1000
BEHIND
1070
     0
1002
}
1002
{
1000
OTHER
1070
     0
1002
}
1002
{
1000
REACTOR
1002
}
1001
GENIUS_GENOBJ-N-FIL_13
1002
{
1000
OWNER
1000
GEN
1002
}
  0
LINE
  5
2C95
  8
AM_0
 10
354.43494422401568
 20
782.82112163654165
 30
0.0
 11
333.82834250621761
 21
762.21451991874358
 31
0.0
  0
ARC
  5
2C96
  8
AM_0
 10
326.75727469435202
 20
769.28558773060934
 30
0.0
 40
10.0
 50
270.0
 51
315.0
1001
GENIUS_GENODEF_13
1002
{
1000
HIER
1070
     0
1002
}
1002
{
1000
MANEDIT
1070
     0
1002
}
1002
{
1000
NOSEL
1070
     0
1002
}
1002
{
1000
BEHIND
1070
     0
1002
}
1002
{
1000
OTHER
1070
     0
1002
}
1002
{
1000
REACTOR
1002
}
1001
GENIUS_GENOBJ-N-FIL_13
1002
{
1000
OWNER
1000
GEN
1002
}
  0
LINE
  5
2C97
  8
AM_0
 10
365.89941031808303
 20
766.22302673060915
 30
0.0
 11
355.89941031808303
 21
766.22302673060915
 31
0.0
  0
LINE
  5
2C98
  8
AM_0
 10
365.89941031808303
 20
780.2855927306091
 30
0.0
 11
355.89941031808303
 21
780.2855927306091
 31
0.0
  0
ARC
  5
2C99
  8
AM_0
 10
350.89941031808303
 20
786.35665554247475
 30
0.0
 40
5.0
 50
315.0
 51
0.0
1001
GENIUS_GENODEF_13
1002
{
1000
HIER
1070
     0
1002
}
1002
{
1000
MANEDIT
1070
     0
1002
}
1002
{
1000
NOSEL
1070
     0
1002
}
1002
{
1000
BEHIND
1070
     0
1002
}
1002
{
1000
OTHER
1070
     0
1002
}
1002
{
1000
REACTOR
1002
}
1001
GENIUS_GENOBJ-N-FIL_13
1002
{
1000
OWNER
1000
GEN
1002
}
  0
LINE
  5
2C9A
  8
AM_0
 10
356.8704271247999
 20
790.52378898365475
 30
0.0
 11
365.89941031808303
 21
790.78558773060934
 31
0.0
  0
ARC
  5
2C9B
  8
AM_0
 10
356.89941031808303
 20
789.52420908464421
 30
0.0
 40
1.0
 50
91.66084723297412
 51
180.0
1001
GENIUS_GENOBJ-N-FIL_13
1002
{
1000
OWNER
1000
GEN
1002
}
1001
GENIUS_GENODEF_13
1002
{
1000
HIER
1070
     0
1002
}
1002
{
1000
MANEDIT
1070
     0
1002
}
1002
{
1000
NOSEL
1070
     0
1002
}
1002
{
1000
BEHIND
1070
     0
1002
}
1002
{
1000
OTHER
1070
     0
1002
}
1002
{
1000
REACTOR
1002
}
  0
LINE
  5
2C9D
  8
AM_0
 10
626.39947031808299
 20
729.28560273060918
 30
0.0
 11
671.39950031808291
 21
729.28560273060918
 31
0.0
  0
LINE
  5
2C9E
  8
AM_0
 10
626.39947031808299
 20
739.28557273060915
 30
0.0
 11
671.39950031808291
 21
739.28557273060915
 31
0.0
  0
LINE
  5
2C9F
  8
AM_0
 10
671.39950031808291
 20
718.28563273060934
 30
0.0
 11
613.39947031808299
 21
718.28563273060934
 31
0.0
  0
LINE
  5
2CA0
  8
AM_0
 10
671.39950031808291
 20
750.28563273060911
 30
0.0
 11
613.39947031808299
 21
750.28563273060911
 31
0.0
  0
LINE
  5
2CA1
  8
ﾁｭｳｼﾝｾﾝ
 10
271.99844838152768
 20
734.28560273060896
 30
0.0
 11
679.31228031808268
 21
734.28560273060896
 31
0.0
  0
LINE
  5
2CA2
  8
AM_0
 10
365.89941031808303
 20
702.34566273060898
 30
0.0
 11
401.99182031808289
 21
702.34566273060898
 31
0.0
  0
LINE
  5
2CA3
  8
AM_0
 10
365.89941031808303
 20
766.22551273060913
 30
0.0
 11
401.99182031808289
 21
766.22551273060913
 31
0.0
  0
LINE
  5
2CA4
  8
AM_0
 10
365.89941031808303
 20
688.28560273060896
 30
0.0
 11
407.24218031808277
 21
688.28560273060896
 31
0.0
  0
LINE
  5
2CA5
  8
AM_0
 10
365.89947031808288
 20
790.78563273060934
 30
0.0
 11
418.33081031808302
 21
792.6165627306093
 31
0.0
  0
LINE
  5
2CA6
  8
AM_0
 10
418.33075031808278
 20
675.95467273060933
 30
0.0
 11
365.89947031808288
 21
677.7856027306093
 31
0.0
  0
LINE
  5
2CA7
  8
AM_0
 10
365.89941031808303
 20
780.28563273060934
 30
0.0
 11
407.24218031808277
 21
780.28563273060934
 31
0.0
  0
LINE
  5
2CA8
  8
AM_0
 10
365.89941031808303
 20
677.7856027306093
 30
0.0
 11
365.89941031808303
 21
790.78557273060915
 31
0.0
  0
POLYLINE
  5
2CA9
  8
AM_0
 66
     1
 10
0.0
 20
0.0
 30
0.0
  0
VERTEX
  5
2CAA
  8
AM_0
 10
587.06558031808299
 20
836.9517027306091
 30
0.0
 42
0.079826744
  0
VERTEX
  5
2CAB
  8
AM_0
 10
561.22375031808281
 20
770.04526273060924
 30
0.0
 42
0.10414854
  0
VERTEX
  5
2CAC
  8
AM_0
 10
561.22382031808286
 20
698.52556273060895
 30
0.0
 42
0.079826277
  0
VERTEX
  5
2CAD
  8
AM_0
 10
587.06558031808299
 20
631.61946273060914
 30
0.0
  0
SEQEND
  5
2CAE
  8
AM_0
  0
ARC
  5
2CAF
  8
AM_0
 10
626.39947031808299
 20
734.28560273060896
 30
0.0
 40
5.0
 50
90.00000299999769
 51
270.0
  0
LINE
  5
2CB0
  8
AM_0
 10
626.39947031808299
 20
739.28557273060915
 30
0.0
 11
626.39947031808299
 21
729.28560273060918
 31
0.0
  0
LINE
  5
2CB1
  8
AM_0
 10
594.39947031808299
 20
620.20647273060933
 30
0.0
 11
594.39947031808299
 21
848.36473273060915
 31
0.0
  0
LINE
  5
2CB2
  8
AM_0
 10
601.39947031808299
 20
643.68587273060893
 30
0.0
 11
601.39947031808299
 21
824.88536273060913
 31
0.0
  0
LINE
  5
2CB3
  8
AM_0
 10
609.39947031808299
 20
616.78560273060918
 30
0.0
 11
609.39947031808299
 21
851.78563273060911
 31
0.0
  0
LINE
  5
2CB4
  8
AM_0
 10
613.39947031808299
 20
629.28557273060915
 30
0.0
 11
613.39947031808299
 21
839.28563273060911
 31
0.0
  0
LINE
  5
2CB5
  8
AM_0
 10
426.20215031808289
 20
723.51713273060932
 30
0.0
 11
426.20215031808289
 21
745.51762273060911
 31
0.0
  0
LINE
  5
2CB6
  8
AM_0
 10
388.89941031808303
 20
724.2856027306093
 30
0.0
 11
388.89941031808303
 21
744.28557273060915
 31
0.0
  0
LINE
  5
2CB7
  8
AM_0
 10
429.89941031808303
 20
664.99754273060933
 30
0.0
 11
429.89941031808303
 21
803.57359273060899
 31
0.0
  0
LINE
  5
2CB8
  8
AM_0
 10
496.39941031808303
 20
634.7856027306093
 30
0.0
 11
496.39941031808303
 21
833.78557273060915
 31
0.0
  0
LINE
  5
2CB9
  8
AM_0
 10
474.39941031808303
 20
643.36449273060873
 30
0.0
 11
474.39941031808303
 21
825.2067127306093
 31
0.0
  0
LINE
  5
2CBA
  8
AM_0
 10
439.89947031808299
 20
660.78560273060873
 30
0.0
 11
439.89947031808299
 21
807.78557273060915
 31
0.0
  0
LINE
  5
2CBB
  8
AM_0
 10
486.39941031808303
 20
669.21339273060914
 30
0.0
 11
486.39941031808303
 21
799.35783273060918
 31
0.0
  0
LINE
  5
2CBC
  8
AM_0
 10
496.39947031808282
 20
634.78563273060934
 30
0.0
 11
585.09723031808312
 21
631.68822273060914
 31
0.0
  0
ARC
  5
2CBD
  8
AM_0
 10
489.39941031808308
 20
638.03187273060894
 30
0.0
 40
3.0
 50
180.00001000000091
 51
268.00000000000261
  0
LINE
  5
2CBE
  8
AM_0
 10
489.2947403180828
 20
635.03368273060914
 30
0.0
 11
496.39935031808272
 21
634.7856027306093
 31
0.0
  0
LINE
  5
2CBF
  8
AM_0
 10
429.89941031808303
 20
672.70695273060915
 30
0.0
 11
474.39941031808303
 21
672.70695273060915
 31
0.0
  0
LINE
  5
2CC0
  8
AM_0
 10
429.89941031808303
 20
694.81093273060924
 30
0.0
 11
474.39941031808303
 21
694.81093273060924
 31
0.0
  0
LINE
  5
2CC1
  8
AM_0
 10
433.75982031808297
 20
660.9999827306093
 30
0.0
 11
471.96924031808283
 21
659.66566273060926
 31
0.0
  0
POLYLINE
  5
2CC2
  8
AM_0
 66
     1
 10
0.0
 20
0.0
 30
0.0
  0
VERTEX
  5
2CC3
  8
AM_0
 10
409.01921031808303
 20
688.86748273060925
 30
0.0
 42
0.011693549
  0
VERTEX
  5
2CC4
  8
AM_0
 10
412.58209031808269
 20
684.37111273060896
 30
0.0
 42
0.011216814
  0
VERTEX
  5
2CC5
  8
AM_0
 10
416.34697031808298
 20
680.04235273060931
 30
0.0
 42
0.011000278
  0
VERTEX
  5
2CC6
  8
AM_0
 10
420.29907031808278
 20
675.88591273060933
 30
0.0
  0
SEQEND
  5
2CC7
  8
AM_0
  0
ARC
  5
2CC8
  8
AM_0
 10
433.89941031808303
 20
664.99754273060933
 30
0.0
 40
4.0
 50
180.00001000000091
 51
268.00000000000261
  0
ARC
  5
2CC9
  8
AM_0
 10
424.93689031808299
 20
664.17705273060926
 30
0.0
 40
5.0
 50
5.2307202000000732
 51
44.999998000001611
  0
LINE
  5
2CCA
  8
AM_0
 10
428.47247031808303
 20
667.71260273060898
 30
0.0
 11
421.69177031808277
 21
674.49324273060927
 31
0.0
  0
ARC
  5
2CCB
  8
AM_0
 10
418.15625031808293
 20
670.95769273060932
 30
0.0
 40
5.0
 50
44.999998000001611
 51
88.000000000002785
  0
LINE
  5
2CCC
  8
AM_0
 10
391.89941031808303
 20
721.28560273060884
 30
0.0
 11
423.20215031808289
 21
721.28560273060884
 31
0.0
  0
POLYLINE
  5
2CCD
  8
AM_0
 66
     1
 10
0.0
 20
0.0
 30
0.0
  0
VERTEX
  5
2CCE
  8
AM_0
 10
392.8690203180829
 20
721.28587273060884
 30
0.0
  0
VERTEX
  5
2CCF
  8
AM_0
 10
400.29628031808301
 20
702.34646273060923
 30
0.0
 42
-1.0
  0
SEQEND
  5
2CD0
  8
AM_0
  0
POLYLINE
  5
2CD1
  8
AM_0
 66
     1
 10
0.0
 20
0.0
 30
0.0
  0
VERTEX
  5
2CD2
  8
AM_0
 10
404.57749031808282
 20
700.8668227306091
 30
0.0
 42
0.0058779435
  0
VERTEX
  5
2CD3
  8
AM_0
 10
405.78711031808302
 20
698.86524273060934
 30
0.0
 42
0.0056588804
  0
VERTEX
  5
2CD4
  8
AM_0
 10
407.04258031808303
 20
696.89209273060931
 30
0.0
 42
0.0054619297
  0
VERTEX
  5
2CD5
  8
AM_0
 10
408.34162031808302
 20
694.94734273060919
 30
0.0
 42
0.0052861412
  0
VERTEX
  5
2CD6
  8
AM_0
 10
409.68215031808268
 20
693.03094273060924
 30
0.0
  0
SEQEND
  5
2CD7
  8
AM_0
  0
ARC
  5
2CD8
  8
AM_0
 10
407.24218031808277
 20
691.2856027306093
 30
0.0
 40
3.0
 50
270.0
 51
35.575756999997722
  0
ARC
  5
2CD9
  8
AM_0
 10
401.99182031808289
 20
699.34566273060932
 30
0.0
 40
3.0
 50
30.468076999999081
 51
90.00000299999769
  0
ARC
  5
2CDA
  8
AM_0
 10
391.89941031808303
 20
724.2856027306093
 30
0.0
 40
3.0
 50
180.00001000000091
 51
270.0
  0
ARC
  5
2CDB
  8
AM_0
 10
423.20215031808289
 20
718.28560273060884
 30
0.0
 40
3.0
 50
0.0
 51
90.00000299999769
  0
ARC
  5
2CDC
  8
AM_0
 10
477.39941031808308
 20
643.36449273060873
 30
0.0
 40
3.0
 50
180.00001000000091
 51
270.0
  0
ARC
  5
2CDD
  8
AM_0
 10
477.39941031808308
 20
654.39558273060925
 30
0.0
 40
3.0
 50
180.00001000000091
 51
270.0
  0
LINE
  5
2CDE
  8
AM_0
 10
474.39941031808303
 20
676.96803273060925
 30
0.0
 11
486.39941031808303
 21
676.96803273060925
 31
0.0
  0
LINE
  5
2CDF
  8
AM_0
 10
474.39941031808303
 20
666.21339273060926
 30
0.0
 11
483.39941031808303
 21
666.21339273060926
 31
0.0
  0
ARC
  5
2CE0
  8
AM_0
 10
471.39941031808303
 20
656.68376273060915
 30
0.0
 40
3.0
 50
0.0
 51
88.000000000002785
  0
ARC
  5
2CE1
  8
AM_0
 10
483.39941031808303
 20
648.39558273060925
 30
0.0
 40
3.0
 50
0.0
 51
90.00000299999769
  0
ARC
  5
2CE2
  8
AM_0
 10
483.43664031808288
 20
637.36449273060919
 30
0.0
 40
3.0
 50
6.3862994000021986
 51
90.00000299999769
  0
LINE
  5
2CE3
  8
AM_0
 10
477.39941031808308
 20
640.3644927306093
 30
0.0
 11
483.43664031808288
 21
640.3644927306093
 31
0.0
  0
LINE
  5
2CE4
  8
AM_0
 10
486.39941031808303
 20
638.03187273060894
 30
0.0
 11
486.39941031808303
 21
648.39558273060925
 31
0.0
  0
LINE
  5
2CE5
  8
AM_0
 10
477.39941031808308
 20
651.39558273060925
 30
0.0
 11
483.39941031808303
 21
651.39558273060925
 31
0.0
  0
ARC
  5
2CE6
  8
AM_0
 10
483.39941031808303
 20
669.21339273060914
 30
0.0
 40
3.0
 50
269.999989999999
 51
0.0000006832495047
  0
LINE
  5
2CE7
  8
AM_0
 10
597.29480031808293
 20
617.20830273060926
 30
0.0
 11
609.39947031808299
 21
616.78560273060918
 31
0.0
  0
LINE
  5
2CE8
  8
AM_0
 10
588.4582803180831
 20
630.22676273060915
 30
0.0
 11
594.39950031808291
 21
624.28554273060934
 31
0.0
  0
ARC
  5
2CE9
  8
AM_0
 10
584.92273031808293
 20
626.69124273060925
 30
0.0
 40
5.0
 50
45.000000999999187
 51
88.000000000002785
  0
ARC
  5
2CEA
  8
AM_0
 10
597.39947031808299
 20
620.20647273060933
 30
0.0
 40
3.0
 50
179.9999899999988
 51
268.00000999999861
  0
LINE
  5
2CEB
  8
AM_0
 10
609.39947031808299
 20
629.28557273060915
 30
0.0
 11
613.39947031808299
 21
629.28557273060915
 31
0.0
  0
ARC
  5
2CEC
  8
AM_0
 10
598.39947031808299
 20
643.68587273060893
 30
0.0
 40
3.0
 50
268.00000000000261
 51
0.0
  0
LINE
  5
2CED
  8
AM_0
 10
598.114930318083
 20
640.69398273060915
 30
0.0
 11
598.29477031808301
 21
640.68770273060932
 31
0.0
  0
ARC
  5
2CEE
  8
AM_0
 10
597.39947031808299
 20
675.37486273060927
 30
0.0
 40
3.0
 50
90.00000299999769
 51
180.00001000000091
  0
LINE
  5
2CEF
  8
AM_0
 10
597.39947031808299
 20
678.37486273060915
 30
0.0
 11
601.39947031808299
 21
678.37486273060915
 31
0.0
  0
LINE
  5
2CF0
  8
AM_0
 10
496.39947031808282
 20
833.78557273060915
 30
0.0
 11
585.09723031808312
 21
836.88298273060911
 31
0.0
  0
ARC
  5
2CF1
  8
AM_0
 10
489.39941031808308
 20
830.53935273060893
 30
0.0
 40
3.0
 50
91.999998000000545
 51
180.00001000000091
  0
LINE
  5
2CF2
  8
AM_0
 10
429.89941031808303
 20
795.86424273060925
 30
0.0
 11
474.39941031808303
 21
795.86424273060925
 31
0.0
  0
LINE
  5
2CF3
  8
AM_0
 10
429.89941031808303
 20
773.76030273060894
 30
0.0
 11
474.39941031808303
 21
773.76030273060894
 31
0.0
  0
LINE
  5
2CF4
  8
AM_0
 10
433.75988031808311
 20
807.57115273060924
 30
0.0
 11
471.50415031808268
 21
808.88927273060915
 31
0.0
  0
POLYLINE
  5
2CF5
  8
AM_0
 66
     1
 10
0.0
 20
0.0
 30
0.0
  0
VERTEX
  5
2CF6
  8
AM_0
 10
409.01921031808303
 20
779.70371273060914
 30
0.0
 42
-0.011693549
  0
VERTEX
  5
2CF7
  8
AM_0
 10
412.58209031808269
 20
784.20008273060932
 30
0.0
 42
-0.011216814
  0
VERTEX
  5
2CF8
  8
AM_0
 10
416.34697031808298
 20
788.52885273060895
 30
0.0
 42
-0.011000278
  0
VERTEX
  5
2CF9
  8
AM_0
 10
420.29907031808278
 20
792.68529273060915
 30
0.0
  0
SEQEND
  5
2CFA
  8
AM_0
  0
LINE
  5
2CFB
  8
AM_0
 10
391.89941031808303
 20
747.28557273060915
 30
0.0
 11
423.20215031808289
 21
747.28557273060915
 31
0.0
  0
POLYLINE
  5
2CFC
  8
AM_0
 66
     1
 10
0.0
 20
0.0
 30
0.0
  0
VERTEX
  5
2CFD
  8
AM_0
 10
392.8690203180829
 20
747.2853227306091
 30
0.0
  0
VERTEX
  5
2CFE
  8
AM_0
 10
400.29628031808301
 20
766.22474273060925
 30
0.0
 42
-1.0
  0
SEQEND
  5
2CFF
  8
AM_0
  0
ARC
  5
2D00
  8
AM_0
 10
391.89941031808303
 20
744.28557273060915
 30
0.0
 40
3.0
 50
90.00000299999769
 51
180.00001000000091
  0
POLYLINE
  5
2D01
  8
AM_0
 66
     1
 10
0.0
 20
0.0
 30
0.0
  0
VERTEX
  5
2D02
  8
AM_0
 10
404.57749031808282
 20
767.70437273060918
 30
0.0
 42
-0.0058779435
  0
VERTEX
  5
2D03
  8
AM_0
 10
405.78711031808302
 20
769.70595273060894
 30
0.0
 42
-0.0056588804
  0
VERTEX
  5
2D04
  8
AM_0
 10
407.04258031808303
 20
771.67910273060932
 30
0.0
 42
-0.0054619297
  0
VERTEX
  5
2D05
  8
AM_0
 10
408.34162031808302
 20
773.6238627306094
 30
0.0
 42
-0.0052861412
  0
VERTEX
  5
2D06
  8
AM_0
 10
409.68215031808268
 20
775.54026273060913
 30
0.0
  0
SEQEND
  5
2D07
  8
AM_0
  0
ARC
  5
2D08
  8
AM_0
 10
401.99182031808289
 20
769.22551273060913
 30
0.0
 40
3.0
 50
270.0
 51
329.53192000000121
  0
ARC
  5
2D09
  8
AM_0
 10
407.24218031808277
 20
777.28563273060934
 30
0.0
 40
3.0
 50
324.42424000000028
 51
90.00000299999769
  0
ARC
  5
2D0A
  8
AM_0
 10
423.20215031808289
 20
750.28557273060915
 30
0.0
 40
3.0
 50
270.0
 51
0.0
  0
ARC
  5
2D0B
  8
AM_0
 10
433.89941031808303
 20
803.57359273060899
 30
0.0
 40
4.0
 50
91.999998000000545
 51
180.00001000000091
  0
ARC
  5
2D0C
  8
AM_0
 10
424.93689031808299
 20
804.39415273060945
 30
0.0
 40
5.0
 50
315.0
 51
354.76905999999741
  0
LINE
  5
2D0D
  8
AM_0
 10
421.69183031808308
 20
794.07799273060914
 30
0.0
 11
428.47247031808303
 21
800.8586327306092
 31
0.0
  0
ARC
  5
2D0E
  8
AM_0
 10
418.15625031808293
 20
797.61351273060916
 30
0.0
 40
5.0
 50
271.9999999999971
 51
315.0
  0
ARC
  5
2D0F
  8
AM_0
 10
477.39941031808308
 20
825.2067127306093
 30
0.0
 40
3.0
 50
90.00000299999769
 51
180.00001000000091
  0
ARC
  5
2D10
  8
AM_0
 10
477.39941031808308
 20
814.1756427306093
 30
0.0
 40
3.0
 50
90.00000299999769
 51
180.00001000000091
  0
LINE
  5
2D11
  8
AM_0
 10
474.39941031808303
 20
802.35783273060929
 30
0.0
 11
483.39941031808303
 21
802.35783273060929
 31
0.0
  0
LINE
  5
2D12
  8
AM_0
 10
474.39941031808303
 20
791.60319273060895
 30
0.0
 11
486.39941031808303
 21
791.60319273060895
 31
0.0
  0
ARC
  5
2D13
  8
AM_0
 10
471.39941031808303
 20
811.88743273060913
 30
0.0
 40
3.0
 50
271.9999999999971
 51
0.0
  0
ARC
  5
2D14
  8
AM_0
 10
483.39941031808303
 20
799.35783273060918
 30
0.0
 40
3.0
 50
0.0
 51
90.00000299999769
  0
LINE
  5
2D15
  8
AM_0
 10
486.39941031808303
 20
830.53935273060893
 30
0.0
 11
486.39941031808303
 21
820.17564273060918
 31
0.0
  0
ARC
  5
2D16
  8
AM_0
 10
483.39941031808303
 20
820.17564273060918
 30
0.0
 40
3.0
 50
269.999989999999
 51
0.0000006832495047
  0
LINE
  5
2D17
  8
AM_0
 10
477.39941031808308
 20
817.17564273060918
 30
0.0
 11
483.39941031808303
 21
817.17564273060918
 31
0.0
  0
ARC
  5
2D18
  8
AM_0
 10
483.43664031808288
 20
831.2067127306093
 30
0.0
 40
3.0
 50
269.999989999999
 51
353.61369000000383
  0
LINE
  5
2D19
  8
AM_0
 10
477.39941031808308
 20
828.20671273060918
 30
0.0
 11
483.43664031808288
 21
828.20671273060918
 31
0.0
  0
LINE
  5
2D1A
  8
AM_0
 10
489.2947403180828
 20
833.53752273060934
 30
0.0
 11
496.39941031808303
 21
833.78563273060911
 31
0.0
  0
ARC
  5
2D1B
  8
AM_0
 10
597.39947031808299
 20
793.19633273060913
 30
0.0
 40
3.0
 50
179.9999899999988
 51
270.0
  0
LINE
  5
2D1C
  8
AM_0
 10
597.39947031808299
 20
790.19633273060913
 30
0.0
 11
601.39947031808299
 21
790.19633273060913
 31
0.0
  0
ARC
  5
2D1D
  8
AM_0
 10
598.39947031808299
 20
824.88536273060913
 30
0.0
 40
3.0
 50
0.0
 51
91.999998000000545
  0
LINE
  5
2D1E
  8
AM_0
 10
598.114930318083
 20
827.87718273060921
 30
0.0
 11
598.29474031808309
 21
827.88347273060901
 31
0.0
  0
LINE
  5
2D1F
  8
AM_0
 10
597.29477031808301
 20
851.36290273060911
 30
0.0
 11
609.39947031808299
 21
851.78557273060915
 31
0.0
  0
LINE
  5
2D20
  8
AM_0
 10
588.4582803180831
 20
838.34441273060929
 30
0.0
 11
594.39950031808291
 21
844.28563273060945
 31
0.0
  0
ARC
  5
2D21
  8
AM_0
 10
584.92273031808293
 20
841.87993273060874
 30
0.0
 40
5.0
 50
271.9999999999971
 51
315.0
  0
ARC
  5
2D22
  8
AM_0
 10
597.39947031808299
 20
848.36473273060915
 30
0.0
 40
3.0
 50
91.999998000000545
 51
180.00001000000091
  0
LINE
  5
2D23
  8
AM_0
 10
609.39947031808299
 20
839.28563273060911
 30
0.0
 11
613.39947031808299
 21
839.28563273060911
 31
0.0
  0
LINE
  5
2D24
  8
AM_0
 10
671.39950031808291
 20
718.28563273060934
 30
0.0
 11
671.39950031808291
 21
750.28563273060911
 31
0.0
  0
LINE
  5
2D25
  8
ﾁｭｳｼﾝｾﾝ
 10
835.17391200675092
 20
362.7035786361584
 30
0.0
 11
955.29079414797775
 21
362.7035786361584
 31
0.0
  0
LINE
  5
2D26
  8
ﾁｭｳｼﾝｾﾝ1
 10
981.45431903085546
 20
332.4816101446836
 30
0.0
 11
999.93589004520845
 21
314.00006529391152
 31
0.0
  0
ARC
  5
2D27
  8
ﾁｭｳｼﾝｾﾝ1
 10
895.23235307736434
 20
418.70356463615832
 30
0.0
 40
135.00000299999991
 50
308.36839299999991
 51
322.25634599999989
  0
ARC
  5
2D28
  8
ﾁｭｳｼﾝｾﾝ1
 10
895.23235307736638
 20
418.70356463615559
 30
0.0
 40
135.00000300000349
 50
128.36838999999981
 51
141.48492832670681
  0
LINE
  5
2D29
  8
ﾁｭｳｼﾝｾﾝ1
 10
807.48378335788379
 20
506.4521493556386
 30
0.0
 11
791.24615433196971
 21
522.68977838155286
 31
0.0
  0
TEXT
  5
2F09
  8
AM_0
 10
741.5361143684604
 20
770.45691356024929
 30
0.0
 40
15.0
  1
VX02-240GF~VX02-600GF
  0
ENDSEC
  0
EOF
