  0
SECTION
  2
HEADER
  9
$ACADVER
  1
AC1009
  9
$INSBASE
 10
0.0
 20
0.0
 30
0.0
  9
$EXTMIN
 10
231.012996439837
 20
240.1660304749382
 30
-0.0000000000112498
  9
$EXTMAX
 10
1099.5636778628259
 20
958.33893607784307
 30
0.0000000000002956
  9
$LIMMIN
 10
0.0
 20
0.0
  9
$LIMMAX
 10
1422.5
 20
925.0
  9
$ORTHOMODE
 70
     0
  9
$REGENMODE
 70
     1
  9
$FILLMODE
 70
     1
  9
$QTEXTMODE
 70
     0
  9
$MIRRTEXT
 70
     1
  9
$DRAGMODE
 70
     2
  9
$LTSCALE
 40
5.0
  9
$OSMODE
 70
   551
  9
$ATTMODE
 70
     1
  9
$TEXTSIZE
 40
2.5
  9
$TRACEWID
 40
1.0
  9
$TEXTSTYLE
  7
STANDARD
  9
$CLAYER
  8
AM_0
  9
$CELTYPE
  6
BYLAYER
  9
$CECOLOR
 62
   256
  9
$DIMSCALE
 40
5.0
  9
$DIMASZ
 40
2.5
  9
$DIMEXO
 40
1.0
  9
$DIMDLI
 40
8.0
  9
$DIMRND
 40
0.0
  9
$DIMDLE
 40
0.0
  9
$DIMEXE
 40
0.6
  9
$DIMTP
 40
0.1
  9
$DIMTM
 40
0.1
  9
$DIMTXT
 40
2.5
  9
$DIMCEN
 40
0.0
  9
$DIMTSZ
 40
0.0
  9
$DIMTOL
 70
     0
  9
$DIMLIM
 70
     0
  9
$DIMTIH
 70
     0
  9
$DIMTOH
 70
     0
  9
$DIMSE1
 70
     0
  9
$DIMSE2
 70
     0
  9
$DIMTAD
 70
     1
  9
$DIMZIN
 70
     8
  9
$DIMBLK
  1

  9
$DIMASO
 70
     1
  9
$DIMSHO
 70
     1
  9
$DIMPOST
  1

  9
$DIMAPOST
  1
"
  9
$DIMALT
 70
     0
  9
$DIMALTD
 70
     2
  9
$DIMALTF
 40
0.0393701
  9
$DIMLFAC
 40
1.0
  9
$DIMTOFL
 70
     1
  9
$DIMTVP
 40
0.0
  9
$DIMTIX
 70
     0
  9
$DIMSOXD
 70
     0
  9
$DIMSAH
 70
     0
  9
$DIMBLK1
  1

  9
$DIMBLK2
  1

  9
$DIMSTYLE
  2
AM_ISO
  9
$DIMCLRD
 70
   256
  9
$DIMCLRE
 70
   256
  9
$DIMCLRT
 70
     4
  9
$DIMTFAC
 40
0.71
  9
$DIMGAP
 40
0.8
  9
$LUNITS
 70
     2
  9
$LUPREC
 70
     2
  9
$SKETCHINC
 40
1.0
  9
$FILLETRAD
 40
25.0
  9
$AUNITS
 70
     0
  9
$AUPREC
 70
     0
  9
$MENU
  1
.
  9
$ELEVATION
 40
0.0
  9
$PELEVATION
 40
0.0
  9
$THICKNESS
 40
0.0
  9
$LIMCHECK
 70
     0
  9
$BLIPMODE
 70
     0
  9
$CHAMFERA
 40
10.0
  9
$CHAMFERB
 40
5.0
  9
$SKPOLY
 70
     0
  9
$TDCREATE
 40
2452065.7754935189
  9
$TDUPDATE
 40
2458541.4402119098
  9
$TDINDWG
 40
0.0801250463
  9
$TDUSRTIMER
 40
0.0801250347
  9
$USRTIMER
 70
     1
  9
$ANGBASE
 50
0.0
  9
$ANGDIR
 70
     0
  9
$PDMODE
 70
     0
  9
$PDSIZE
 40
0.0
  9
$PLINEWID
 40
0.0
  9
$COORDS
 70
     1
  9
$SPLFRAME
 70
     0
  9
$SPLINETYPE
 70
     6
  9
$SPLINESEGS
 70
     8
  9
$ATTDIA
 70
     1
  9
$ATTREQ
 70
     1
  9
$HANDLING
 70
     1
  9
$HANDSEED
  5
3110
  9
$SURFTAB1
 70
     6
  9
$SURFTAB2
 70
     6
  9
$SURFTYPE
 70
     6
  9
$SURFU
 70
     6
  9
$SURFV
 70
     6
  9
$UCSNAME
  2

  9
$UCSORG
 10
0.0
 20
0.0
 30
0.0
  9
$UCSXDIR
 10
1.0
 20
0.0
 30
0.0
  9
$UCSYDIR
 10
0.0
 20
1.0
 30
0.0
  9
$PUCSNAME
  2

  9
$PUCSORG
 10
0.0
 20
0.0
 30
0.0
  9
$PUCSXDIR
 10
1.0
 20
0.0
 30
0.0
  9
$PUCSYDIR
 10
0.0
 20
1.0
 30
0.0
  9
$USERI1
 70
     0
  9
$USERI2
 70
     0
  9
$USERI3
 70
     0
  9
$USERI4
 70
     0
  9
$USERI5
 70
     0
  9
$USERR1
 40
0.0
  9
$USERR2
 40
0.0
  9
$USERR3
 40
0.0
  9
$USERR4
 40
0.0
  9
$USERR5
 40
0.0
  9
$WORLDVIEW
 70
     1
  9
$SHADEDGE
 70
     3
  9
$SHADEDIF
 70
    70
  9
$TILEMODE
 70
     1
  9
$MAXACTVP
 70
    64
  9
$PLIMCHECK
 70
     0
  9
$PEXTMIN
 10
1.0000000000000000E+020
 20
1.0000000000000000E+020
 30
1.0000000000000000E+020
  9
$PEXTMAX
 10
-1.0000000000000000E+020
 20
-1.0000000000000000E+020
 30
-1.0000000000000000E+020
  9
$PLIMMIN
 10
0.0
 20
0.0
  9
$PLIMMAX
 10
420.0
 20
297.0
  9
$UNITMODE
 70
     0
  9
$VISRETAIN
 70
     1
  9
$PLINEGEN
 70
     0
  9
$PSLTSCALE
 70
     1
  0
ENDSEC
  0
SECTION
  2
TABLES
  0
TABLE
  2
VPORT
 70
     1
  0
VPORT
  2
*ACTIVE
 70
     0
 10
0.0
 20
0.0
 11
1.0
 21
1.0
 12
665.28833715133135
 22
599.25248327639065
 13
0.0
 23
0.0
 14
12.5
 24
12.5
 15
50.0
 25
50.0
 16
0.0
 26
0.0
 36
1.0
 17
0.0
 27
0.0
 37
0.0
 40
723.10315438278747
 41
1.7571592210767459
 42
50.0
 43
0.0
 44
0.0
 50
0.0
 51
0.0
 71
     0
 72
   100
 73
     1
 74
     3
 75
     0
 76
     0
 77
     0
 78
     0
  0
ENDTAB
  0
TABLE
  2
LTYPE
 70
    25
  0
LTYPE
  2
CONTINUOUS
 70
     0
  3
Solid line
 72
    65
 73
     0
 40
0.0
  0
LTYPE
  2
AM_ISO02W050
 70
     0
  3
__ __ __ __ __ __ __ __ __ __ __ __ __ __ __
 72
    65
 73
     2
 40
7.5
 49
6.0
 49
-1.5
  0
LTYPE
  2
AM_ISO08W050
 70
     0
  3
____ . ____ . ____ . ____ . ____ . ____ . ____
 72
    65
 73
     4
 40
18.0
 49
12.0
 49
-1.5
 49
3.0
 49
-1.5
  0
LTYPE
  2
AM_ISO09W050
 70
     0
  3
_____ . . _____ . . _____ . . ____ .. ____
 72
    65
 73
     6
 40
22.5
 49
12.0
 49
-1.5
 49
3.0
 49
-1.5
 49
3.0
 49
-1.5
  0
LTYPE
  2
AMCONSTR
 70
     0
  3
_______________________
 72
    65
 73
     2
 40
9999.0
 49
9999.0
 49
0.0
  0
LTYPE
  2
AM_ISO08W050X2
 70
     0
  3
__ . __ . __ . __ . __ . __
 72
    65
 73
     4
 40
9.0
 49
6.0
 49
-0.75
 49
1.5
 49
-0.75
  0
LTYPE
  2
AM_ISO02W050X2
 70
     0
  3
 _ _ _ _ _ _ _ _ _ _ _ _
 72
    65
 73
     2
 40
3.75
 49
3.0
 49
-0.75
  0
LTYPE
  2
AMZIGZAG
 70
     0
  3
/\/-/\/-/\/-/\/-/\/-/\/
 72
    65
 73
     2
 40
11.000099999999991
 49
0.0001
 49
-11.0
  0
LTYPE
  2
ACISOWELD
 70
     0
  3
_ _ _ _ _
 72
    65
 73
     2
 40
2.0
 49
2.0
 49
-1.0
  0
LTYPE
  2
ACISOTGB
 70
     0
  3
__ . . __ . .
 72
    65
 73
     6
 40
9.0
 49
4.0
 49
-1.0
 49
1.0
 49
-1.0
 49
1.0
 49
-1.0
  0
LTYPE
  2
ACISOTGL
 70
     0
  3
_ _ _ _ _
 72
    65
 73
     2
 40
3.0
 49
2.0
 49
-1.0
  0
LTYPE
  2
CENTER
 70
     0
  3
__ . __
 72
    65
 73
     4
 40
7.0
 49
4.0
 49
-1.0
 49
1.0
 49
-1.0
  0
LTYPE
  2
PHANTOM2
 70
     0
  3
Phantom (.5x) ___ _ _ ___ _ _ ___ _ _ ___ _ _
 72
    65
 73
     6
 40
31.75
 49
15.875
 49
-3.174999999999998
 49
3.174999999999998
 49
-3.174999999999998
 49
3.174999999999998
 49
-3.174999999999998
  0
LTYPE
  2
ACANSTGBM
 70
     0
  3
__ . . __ . .
 72
    65
 73
     6
 40
9.0
 49
4.0
 49
-1.0
 49
1.0
 49
-1.0
 49
1.0
 49
-1.0
  0
LTYPE
  2
ACANSTGLM
 70
     0
  3
_ _ _ _ _
 72
    65
 73
     2
 40
3.0
 49
2.0
 49
-1.0
  0
LTYPE
  2
GEN7
 70
     0
  3
____ . ____ . ____ . ____ . ____ . ____ . ____
 72
    65
 73
     4
 40
14.25
 49
9.75
 49
-1.5
 49
1.5
 49
-1.5
  0
LTYPE
  2
ACJISTGB
 70
     0
  3
__ . . __ . .
 72
    65
 73
     6
 40
9.0
 49
4.0
 49
-1.0
 49
1.0
 49
-1.0
 49
1.0
 49
-1.0
  0
LTYPE
  2
ACJISTGL
 70
     0
  3
_ _ _ _ _
 72
    65
 73
     2
 40
3.0
 49
2.0
 49
-1.0
  0
LTYPE
  2
HIDDEN
 70
     0
  3
Hidden __ __ __ __ __ __ __ __ __ __ __ __ __ _
 72
    65
 73
     2
 40
0.375
 49
0.25
 49
-0.125
  0
LTYPE
  2
CENTER2
 70
     0
  3
Center (.5x) ___ _ ___ _ ___ _ ___ _ ___ _ ___
 72
    65
 73
     4
 40
1.125
 49
0.75
 49
-0.125
 49
0.125
 49
-0.125
  0
LTYPE
  2
HIDDEN2
 70
     0
  3
Hidden (.5x) _ _ _ _ _ _ _ _ _ _ _ _ _ _ _ _ _
 72
    65
 73
     2
 40
0.1875
 49
0.125
 49
-0.0625
  0
LTYPE
  2
AMZIGZAG2
 70
     0
  3
/\/-/\/-/\/-/\/-/\/-/\/
 72
    65
 73
     2
 40
0.4401
 49
0.0001
 49
-0.4400000000000002
  0
LTYPE
  2
ACANSTGB
 70
     0
  3
__ . . __ . .
 72
    65
 73
     6
 40
0.35433070866
 49
0.15748031496
 49
-0.03937007874
 49
0.03937007874
 49
-0.03937007874
 49
0.03937007874
 49
-0.03937007874
  0
LTYPE
  2
ACANSTGL
 70
     0
  3
_ _ _ _ _
 72
    65
 73
     2
 40
0.11811023622
 49
0.07874015748
 49
-0.03937007874
  0
ENDTAB
  0
TABLE
  2
LAYER
 70
     5
  0
LAYER
  2
0
 70
     0
 62
     7
  6
CONTINUOUS
  0
LAYER
  2
AM_0
 70
     0
 62
     7
  6
CONTINUOUS
  0
LAYER
  2
AM_5
 70
     0
 62
     2
  6
CONTINUOUS
  0
LAYER
  2
DEFPOINTS
 70
     0
 62
     7
  6
CONTINUOUS
  0
LAYER
  2
ﾁｭｳｼﾝｾﾝ
 70
     0
 62
     1
  6
GEN7
  0
ENDTAB
  0
TABLE
  2
STYLE
 70
     9
  0
STYLE
  2
STANDARD
 70
     0
 40
0.0
 41
0.8299999999999999
 50
0.0
 71
     0
 42
2.5
  3
txt.shx
  4
bigfont.shx
  0
STYLE
  2
ANNOTATIVE
 70
     0
 40
0.0
 41
1.0
 50
0.0
 71
     0
 42
0.2
  3
txt
  4

  0
STYLE
  2

 70
     1
 40
0.0
 41
1.0
 50
0.0
 71
     0
 42
2.5
  3
ltypeshp.shx
  4

  0
STYLE
  2
ACISOTS
 70
     0
 40
1.0
 41
1.0
 50
0.0
 71
     0
 42
2.5
  3
isocp.shx
  4
extfont.shx
  0
STYLE
  2
ACISOGDT
 70
     0
 40
0.0
 41
1.0
 50
0.0
 71
     0
 42
2.5
  3
amgdt.shx
  4

  0
STYLE
  2
ACANSTS
 70
     0
 40
1.0
 41
1.0
 50
0.0
 71
     0
 42
2.5
  3
romans.shx
  4
bigfont.shx
  0
STYLE
  2
ACANSGDT
 70
     0
 40
0.0
 41
1.0
 50
0.0
 71
     0
 42
2.5
  3
amgdt.shx
  4

  0
STYLE
  2
ACJISTS
 70
     0
 40
1.0
 41
1.0
 50
0.0
 71
     0
 42
2.5
  3
isocp.shx
  4
bigfont.shx
  0
STYLE
  2
ACJISGDT
 70
     0
 40
0.0
 41
1.0
 50
0.0
 71
     0
 42
2.5
  3
amgdt.shx
  4

  0
ENDTAB
  0
TABLE
  2
VIEW
 70
     6
  0
VIEW
  2
AM_VIEW1
 70
     0
 40
462.5
 10
416.07965009208078
 20
693.75
 41
832.15930018416213
 11
0.0
 21
0.0
 31
1.0
 12
0.0
 22
0.0
 32
0.0
 42
50.0
 43
0.0
 44
0.0
 50
0.0
 71
     0
  0
VIEW
  2
AM_VIEW2
 70
     0
 40
462.5
 10
1006.420349907918
 20
693.75
 41
832.15930018416213
 11
0.0
 21
0.0
 31
1.0
 12
0.0
 22
0.0
 32
0.0
 42
50.0
 43
0.0
 44
0.0
 50
0.0
 71
     0
  0
VIEW
  2
AM_VIEW3
 70
     0
 40
462.5
 10
416.07965009208078
 20
231.25
 41
832.15930018416213
 11
0.0
 21
0.0
 31
1.0
 12
0.0
 22
0.0
 32
0.0
 42
50.0
 43
0.0
 44
0.0
 50
0.0
 71
     0
  0
VIEW
  2
AM_VIEW4
 70
     0
 40
462.5
 10
1006.420349907918
 20
231.25
 41
832.15930018416213
 11
0.0
 21
0.0
 31
1.0
 12
0.0
 22
0.0
 32
0.0
 42
50.0
 43
0.0
 44
0.0
 50
0.0
 71
     0
  0
VIEW
  2
AM_VIEW5
 70
     0
 40
462.5
 10
711.24999999999966
 20
462.5
 41
832.15930018416179
 11
0.0
 21
0.0
 31
1.0
 12
0.0
 22
0.0
 32
0.0
 42
50.0
 43
0.0
 44
0.0
 50
0.0
 71
     0
  0
VIEW
  2
AM_VIEW6
 70
     0
 40
924.99075000000005
 10
711.24999999999966
 20
462.5
 41
1664.3019571823199
 11
0.0
 21
0.0
 31
1.0
 12
0.0
 22
0.0
 32
0.0
 42
50.0
 43
0.0
 44
0.0
 50
0.0
 71
     0
  0
ENDTAB
  0
TABLE
  2
UCS
 70
     0
  0
ENDTAB
  0
TABLE
  2
APPID
 70
    95
  0
APPID
  2
ACAD
 70
     0
  0
APPID
  2
ACADANNOTATIVE
 70
     0
  0
APPID
  2
MCAD_NO_VIS
 70
     0
  0
APPID
  2
ACAD_TEMP_GRAPHIC
 70
     0
  0
APPID
  2
ACATTRIBSERVICES
 70
     0
  0
APPID
  2
GENIUS_GENREC_14
 70
     0
  0
APPID
  2
GENIUS_GENOBJ-N-REC_13
 70
     0
  0
APPID
  2
GENIUS_GENODEF_13
 70
     0
  0
APPID
  2
GENIUS_GENOLIS_13
 70
     0
  0
APPID
  2
GENIUS_GENOBJ-N-TIT_13
 70
     0
  0
APPID
  2
GENIUS_GENOENT_13
 70
     0
  0
APPID
  2
GENIUS_GENTITLE_13
 70
     0
  0
APPID
  2
GENIUS_GENOREF_13
 70
     0
  0
APPID
  2
GENIUS_GENSCREG_15
 70
     0
  0
APPID
  2
GENIUS_GENOBJ-N-SDF_13
 70
     0
  0
APPID
  2
GENIUS_GENFIL_13
 70
     0
  0
APPID
  2
GENIUS_GENOBJ-N-CHA_13
 70
     0
  0
APPID
  2
GENIUS_GENDTOL_13
 70
     0
  0
APPID
  2
GENIUS_GENOBJ-N-FIL_13
 70
     0
  0
APPID
  2
AD_DRAW
 70
     0
  0
APPID
  2
DESIGNERASSEMBLIES
 70
     0
  0
APPID
  2
ASURF_PCURVE_APPNAME
 70
     0
  0
APPID
  2
GENIUS_GE3SECT_13
 70
     0
  0
APPID
  2
GENIUS_GENCFG_13
 70
     0
  0
APPID
  2
GENIUS_GE3CFG0_13
 70
     0
  0
APPID
  2
GENIUS_GENCFG0_13
 70
     0
  0
APPID
  2
GENIUS_GENCFG1_13
 70
     0
  0
APPID
  2
GENIUS_GENCFG2_13
 70
     0
  0
APPID
  2
GENIUS_GENCFG3_13
 70
     0
  0
APPID
  2
GENIUS_GENCFG4_13
 70
     0
  0
APPID
  2
GENIUS_GEVCFG0_13
 70
     0
  0
APPID
  2
GENIUS_GENHINW_13
 70
     0
  0
APPID
  2
GENIUS_FIRSTVISTXT_14
 70
     0
  0
APPID
  2
GENIUS_GENOBJ-N-LEADER_13
 70
     0
  0
APPID
  2
GEV_VCCNULL_SWITCH_OFF
 70
     0
  0
APPID
  2
GENIUS_GEFCFG0_13
 70
     0
  0
APPID
  2
GENIUS_GENZVEED_13
 70
     0
  0
APPID
  2
GENIUS_GENSCREG_13
 70
     0
  0
APPID
  2
GENIUS_DUMCFG0_13
 70
     0
  0
APPID
  2
GEVID936201362
 70
     0
  0
APPID
  2
GEVDC
 70
     0
  0
APPID
  2
GEVCON
 70
     0
  0
APPID
  2
VCC
 70
     0
  0
APPID
  2
GEVPT
 70
     0
  0
APPID
  2
GEVIT
 70
     0
  0
APPID
  2
GENBH
 70
     0
  0
APPID
  2
GEVMK
 70
     0
  0
APPID
  2
GENIUS_GENBH_13
 70
     0
  0
APPID
  2
GENIUS_GENOBJ-NBEHI-BHF_13
 70
     0
  0
APPID
  2
GENIUS_GENOBJ-NBEHI-BHB_13
 70
     0
  0
APPID
  2
GENIUS_GENOBJ-F-DESC_13
 70
     0
  0
APPID
  2
GENIUS_GEFDESC_14
 70
     0
  0
APPID
  2
GENIUS_GENOBJ-F-PART_13
 70
     0
  0
APPID
  2
GENIUS_GEFSTDP_13
 70
     0
  0
APPID
  2
GENIUS_GEFPARTINS_13
 70
     0
  0
APPID
  2
GENIUS_GENTRA_14
 70
     0
  0
APPID
  2
GENIUS_GENINF13_13
 70
     0
  0
APPID
  2
GENIUS_GENOBJ-N-INFOPT_13
 70
     0
  0
APPID
  2
GENIUS_GENOBJ-N-RSSYM_13
 70
     0
  0
APPID
  2
GENIUS_GENSYMENT_13
 70
     0
  0
APPID
  2
GENIUS_GENSCSYM_13
 70
     0
  0
APPID
  2
GENIUS_GEFINFNAM_13
 70
     0
  0
APPID
  2
GENIUS_GENOBJ-N-CEN_13
 70
     0
  0
APPID
  2
GENIUS_GENOBJ-N-CRS_13
 70
     0
  0
APPID
  2
GENIUS_GENOBJ-N-CRC_13
 70
     0
  0
APPID
  2
GENIUS_GENCRC_14
 70
     0
  0
APPID
  2
GEVID942827039
 70
     0
  0
APPID
  2
GEVID942827040
 70
     0
  0
APPID
  2
GEVID942827041
 70
     0
  0
APPID
  2
GENIUS_GENOBJ-F-SCPASSM_13
 70
     0
  0
APPID
  2
GENIUS_GENDIMSH_14
 70
     0
  0
APPID
  2
GEVID942827042
 70
     0
  0
APPID
  2
GEVID946020473
 70
     0
  0
APPID
  2
GEVID946020474
 70
     0
  0
APPID
  2
GEVID946020475
 70
     0
  0
APPID
  2
GENIUS_GENOBJ-N-HTC_13
 70
     0
  0
APPID
  2
GENIUS_GENHATCH_13
 70
     0
  0
APPID
  2
GEVID948854295
 70
     0
  0
APPID
  2
GEVID939402019
 70
     0
  0
APPID
  2
GEVID952919491
 70
     0
  0
APPID
  2
GEVID952919492
 70
     0
  0
APPID
  2
GENIUS_GEFWELD_13
 70
     0
  0
APPID
  2
GENIUS_GENOBJ-F-WELS_13
 70
     0
  0
APPID
  2
GEVID952919493
 70
     0
  0
APPID
  2
GENIUS_GENOBJ-N-RSBK_13
 70
     0
  0
APPID
  2
GENIUS_GENOBJ-N-LIB_13
 70
     0
  0
APPID
  2
GENIUS_GENSCALE_13
 70
     0
  0
APPID
  2
GEVID986376691
 70
     0
  0
APPID
  2
DCO15
 70
     0
  0
APPID
  2
ACAD_DSTYLE_DIMBREAK
 70
     0
  0
APPID
  2
ACAD_DSTYLE_DIMJAG
 70
     0
  0
APPID
  2
ACAD_NAV_VCDISPLAY
 70
     0
  0
APPID
  2
ACADANNOPO
 70
     0
  0
APPID
  2
ACAD_EXEMPT_FROM_CAD_STANDARDS
 70
     0
  0
APPID
  2
ACAD_MLEADERVER
 70
     0
  0
ENDTAB
  0
TABLE
  2
DIMSTYLE
 70
    22
  0
DIMSTYLE
  2
STANDARD
 70
     0
  3

  4

  5

  6

  7

 40
1.0
 41
0.18
 42
0.0625
 43
0.38
 44
0.18
 45
0.0
 46
0.0
 47
0.0
 48
0.0
140
0.18
141
0.09
142
0.0
143
25.399999999999999
144
1.0
145
0.0
146
1.0
147
0.09
 71
     0
 72
     0
 73
     1
 74
     1
 75
     0
 76
     0
 77
     0
 78
     0
170
     0
171
     2
172
     0
173
     0
174
     0
175
     0
176
     0
177
     0
178
     0
  0
DIMSTYLE
  2
ANNOTATIVE
 70
     0
  3

  4

  5

  6

  7

 40
1.0
 41
0.18
 42
0.0625
 43
0.38
 44
0.18
 45
0.0
 46
0.0
 47
0.0
 48
0.0
140
0.18
141
0.09
142
0.0
143
25.399999999999999
144
1.0
145
0.0
146
1.0
147
0.09
 71
     0
 72
     0
 73
     1
 74
     1
 75
     0
 76
     0
 77
     0
 78
     0
170
     0
171
     2
172
     0
173
     0
174
     0
175
     0
176
     0
177
     0
178
     0
  0
DIMSTYLE
  2
AM_ISO
 70
     0
  3

  4
"
  5

  6

  7

 40
1.0
 41
2.5
 42
1.0
 43
8.0
 44
0.6
 45
0.0
 46
0.0
 47
0.1
 48
0.1
140
2.5
141
0.0
142
0.0
143
0.0393701
144
1.0
145
0.0
146
0.71
147
0.8
 71
     0
 72
     0
 73
     0
 74
     0
 75
     0
 76
     0
 77
     1
 78
     8
170
     0
171
     2
172
     1
173
     0
174
     0
175
     0
176
   256
177
   256
178
     4
  0
DIMSTYLE
  2
AM_ISO$3
 70
     0
  3

  4
"
  5

  6

  7

 40
1.0
 41
2.5
 42
1.0
 43
8.0
 44
0.6
 45
0.0
 46
0.0
 47
0.1
 48
0.1
140
2.5
141
0.0
142
0.0
143
0.0393701
144
1.0
145
0.0
146
0.71
147
0.8
 71
     0
 72
     0
 73
     0
 74
     1
 75
     0
 76
     0
 77
     1
 78
     8
170
     0
171
     2
172
     0
173
     0
174
     0
175
     0
176
   256
177
   256
178
     4
  0
DIMSTYLE
  2
AM_ISO$4
 70
     0
  3

  4
"
  5

  6

  7

 40
1.0
 41
2.5
 42
1.0
 43
8.0
 44
0.6
 45
0.0
 46
0.0
 47
0.1
 48
0.1
140
2.5
141
0.0
142
0.0
143
0.0393701
144
1.0
145
0.0
146
0.71
147
0.8
 71
     0
 72
     0
 73
     0
 74
     1
 75
     0
 76
     0
 77
     1
 78
     8
170
     0
171
     2
172
     0
173
     0
174
     0
175
     0
176
   256
177
   256
178
     4
  0
DIMSTYLE
  2
AM_ISO$6
 70
     0
  3

  4
"
  5

  6

  7

 40
1.0
 41
2.5
 42
1.0
 43
8.0
 44
0.6
 45
0.0
 46
0.0
 47
0.1
 48
0.1
140
2.5
141
0.0
142
0.0
143
0.0393701
144
1.0
145
0.0
146
0.71
147
0.8
 71
     0
 72
     0
 73
     0
 74
     0
 75
     0
 76
     0
 77
     0
 78
     8
170
     0
171
     2
172
     1
173
     0
174
     0
175
     0
176
   256
177
   256
178
     4
  0
DIMSTYLE
  2
AM_ISO$7
 70
     0
  3

  4
"
  5

  6

  7

 40
1.0
 41
2.5
 42
1.0
 43
8.0
 44
0.6
 45
0.0
 46
0.0
 47
0.1
 48
0.1
140
2.5
141
0.0
142
0.0
143
0.0393701
144
1.0
145
0.0
146
0.71
147
0.8
 71
     0
 72
     0
 73
     0
 74
     0
 75
     0
 76
     0
 77
     1
 78
     8
170
     0
171
     2
172
     1
173
     0
174
     0
175
     0
176
   256
177
   256
178
     4
  0
DIMSTYLE
  2
AM_ISO$SF
 70
     0
  3

  4
"
  5

  6

  7

 40
1.0
 41
2.5
 42
1.0
 43
10.0
 44
1.0
 45
0.0
 46
0.0
 47
0.1
 48
0.1
140
3.5
141
0.0
142
0.0
143
0.0393701
144
1.0
145
0.0
146
0.71
147
1.5
 71
     0
 72
     0
 73
     0
 74
     0
 75
     1
 76
     1
 77
     1
 78
     8
170
     0
171
     2
172
     1
173
     0
174
     0
175
     0
176
   256
177
   256
178
     2
  0
DIMSTYLE
  2
AM_ISO$SH
 70
     0
  3

  4
"
  5

  6

  7

 40
1.0
 41
2.5
 42
1.0
 43
10.0
 44
1.0
 45
0.0
 46
0.0
 47
0.1
 48
0.1
140
3.5
141
0.0
142
0.0
143
0.0393701
144
2.0
145
0.0
146
0.71
147
1.5
 71
     0
 72
     0
 73
     0
 74
     0
 75
     1
 76
     1
 77
     1
 78
     8
170
     0
171
     2
172
     1
173
     1
174
     0
175
     0
176
   256
177
   256
178
     2
  0
DIMSTYLE
  2
AM_JIS
 70
     0
  3

  4
"
  5

  6

  7

 40
1.0
 41
2.5
 42
1.0
 43
7.0
 44
1.0
 45
0.0
 46
0.0
 47
0.1
 48
0.1000000001
140
2.5
141
0.0
142
0.0
143
0.0393701
144
1.0
145
0.0
146
0.71
147
1.0
 71
     0
 72
     0
 73
     0
 74
     0
 75
     0
 76
     0
 77
     3
 78
     8
170
     0
171
     2
172
     1
173
     0
174
     0
175
     0
176
   256
177
   256
178
     4
  0
DIMSTYLE
  2
AM_JIS$3
 70
     0
  3

  4
"
  5

  6

  7

 40
1.0
 41
2.5
 42
1.0
 43
7.0
 44
1.0
 45
0.0
 46
0.0
 47
0.1
 48
0.1000000001
140
2.5
141
0.0
142
0.0
143
0.0393701
144
1.0
145
0.0
146
0.71
147
1.0
 71
     0
 72
     0
 73
     0
 74
     1
 75
     0
 76
     0
 77
     3
 78
     8
170
     0
171
     2
172
     0
173
     0
174
     0
175
     0
176
   256
177
   256
178
     4
  0
DIMSTYLE
  2
AM_JIS$4
 70
     0
  3

  4
"
  5

  6

  7

 40
1.0
 41
2.5
 42
1.0
 43
7.0
 44
1.0
 45
0.0
 46
0.0
 47
0.1
 48
0.1000000001
140
2.5
141
0.0
142
0.0
143
0.0393701
144
1.0
145
0.0
146
0.71
147
1.0
 71
     0
 72
     0
 73
     0
 74
     0
 75
     0
 76
     0
 77
     3
 78
     8
170
     0
171
     2
172
     0
173
     0
174
     0
175
     0
176
   256
177
   256
178
     4
  0
DIMSTYLE
  2
AM_JIS$6
 70
     0
  3

  4
"
  5

  6

  7

 40
1.0
 41
2.5
 42
1.0
 43
7.0
 44
1.0
 45
0.0
 46
0.0
 47
0.1
 48
0.1000000001
140
2.5
141
0.0
142
0.0
143
0.0393701
144
1.0
145
0.0
146
0.71
147
1.0
 71
     0
 72
     0
 73
     0
 74
     0
 75
     0
 76
     0
 77
     0
 78
     8
170
     0
171
     2
172
     1
173
     0
174
     0
175
     0
176
   256
177
   256
178
     4
  0
DIMSTYLE
  2
AM_JIS$7
 70
     0
  3

  4
"
  5

  6

  7

 40
1.0
 41
2.5
 42
1.0
 43
7.0
 44
1.0
 45
0.0
 46
0.0
 47
0.1
 48
0.1000000001
140
2.5
141
0.0
142
0.0
143
0.0393701
144
1.0
145
0.0
146
0.71
147
1.0
 71
     0
 72
     0
 73
     0
 74
     0
 75
     0
 76
     0
 77
     3
 78
     8
170
     0
171
     2
172
     1
173
     0
174
     0
175
     0
176
   256
177
   256
178
     4
  0
DIMSTYLE
  2
AM_JIS$SF
 70
     0
  3

  4
"
  5

  6

  7

 40
1.0
 41
2.5
 42
1.0
 43
10.0
 44
1.0
 45
0.0
 46
0.0
 47
0.1
 48
0.1
140
3.5
141
0.0
142
0.0
143
0.0393701
144
1.0
145
0.0
146
0.71
147
1.5
 71
     0
 72
     0
 73
     0
 74
     0
 75
     1
 76
     1
 77
     3
 78
     8
170
     0
171
     2
172
     1
173
     0
174
     0
175
     0
176
   256
177
   256
178
     4
  0
DIMSTYLE
  2
AM_JIS$SH
 70
     0
  3

  4
"
  5

  6

  7

 40
1.0
 41
2.5
 42
1.0
 43
10.0
 44
1.0
 45
0.0
 46
0.0
 47
0.1
 48
0.1
140
3.5
141
0.0
142
0.0
143
0.0393701
144
1.0
145
0.0
146
0.71
147
1.5
 71
     0
 72
     0
 73
     0
 74
     0
 75
     1
 76
     0
 77
     3
 78
     8
170
     0
171
     2
172
     1
173
     1
174
     0
175
     0
176
   256
177
   256
178
     4
  0
DIMSTYLE
  2
AM_ANSI
 70
     0
  3

  4
mm
  5

  6

  7

 40
1.0
 41
0.1
 42
0.05
 43
0.5
 44
0.1
 45
0.0
 46
0.0
 47
0.1
 48
0.1
140
0.12
141
0.0
142
0.0
143
25.399999999999999
144
1.0
145
0.0
146
0.71
147
0.06
 71
     0
 72
     0
 73
     1
 74
     1
 75
     0
 76
     0
 77
     0
 78
     7
170
     0
171
     2
172
     0
173
     0
174
     0
175
     0
176
   256
177
   256
178
     2
  0
DIMSTYLE
  2
AM_ANSI$3
 70
     0
  3

  4
mm
  5

  6

  7

 40
1.0
 41
0.1
 42
0.05
 43
0.5
 44
0.1
 45
0.0
 46
0.0
 47
0.1
 48
0.1
140
0.12
141
0.0
142
0.0
143
25.399999999999999
144
1.0
145
0.0
146
0.71
147
0.06
 71
     0
 72
     0
 73
     1
 74
     1
 75
     0
 76
     0
 77
     0
 78
     7
170
     0
171
     2
172
     0
173
     0
174
     0
175
     0
176
   256
177
   256
178
     2
  0
DIMSTYLE
  2
AM_ANSI$4
 70
     0
  3

  4
mm
  5

  6

  7

 40
1.0
 41
0.1
 42
0.05
 43
0.5
 44
0.1
 45
0.0
 46
0.0
 47
0.1
 48
0.1
140
0.12
141
0.0
142
0.0
143
25.399999999999999
144
1.0
145
0.0
146
0.71
147
0.06
 71
     0
 72
     0
 73
     1
 74
     1
 75
     0
 76
     0
 77
     0
 78
     7
170
     0
171
     2
172
     0
173
     0
174
     0
175
     0
176
   256
177
   256
178
     2
  0
DIMSTYLE
  2
AM_ANSI$7
 70
     0
  3

  4
mm
  5

  6

  7

 40
1.0
 41
0.1
 42
0.05
 43
0.5
 44
0.1
 45
0.0
 46
0.0
 47
0.1
 48
0.1
140
0.24
141
0.0
142
0.0
143
25.399999999999999
144
1.0
145
0.0
146
0.71
147
0.06
 71
     0
 72
     0
 73
     1
 74
     1
 75
     0
 76
     0
 77
     0
 78
     7
170
     0
171
     2
172
     0
173
     0
174
     0
175
     0
176
   256
177
   256
178
     2
  0
DIMSTYLE
  2
AM_ANSI$SF
 70
     0
  3

  4
mm
  5

  6

  7

 40
1.0
 41
0.1
 42
0.05
 43
0.5
 44
0.1
 45
0.0
 46
0.0
 47
0.1
 48
0.1
140
0.12
141
0.0
142
0.0
143
25.399999999999999
144
1.0
145
0.0
146
0.71
147
0.06
 71
     0
 72
     0
 73
     1
 74
     1
 75
     1
 76
     1
 77
     0
 78
     7
170
     0
171
     2
172
     0
173
     0
174
     0
175
     0
176
   256
177
   256
178
     2
  0
DIMSTYLE
  2
AM_ANSI$SH
 70
     0
  3

  4
mm
  5

  6

  7

 40
1.0
 41
0.1
 42
0.05
 43
0.5
 44
0.1
 45
0.0
 46
0.0
 47
0.1
 48
0.1
140
0.12
141
0.0
142
0.0
143
25.399999999999999
144
1.0
145
0.0
146
0.71
147
0.06
 71
     0
 72
     0
 73
     1
 74
     1
 75
     1
 76
     1
 77
     0
 78
     7
170
     0
171
     2
172
     0
173
     1
174
     0
175
     0
176
   256
177
   256
178
     2
  0
ENDTAB
  0
ENDSEC
  0
SECTION
  2
BLOCKS
  0
BLOCK
  8
0
  2
$MODEL_SPACE
 70
     0
 10
0.0
 20
0.0
 30
0.0
  3
$MODEL_SPACE
  1

  0
ENDBLK
  5
2F88
  8
0
  0
BLOCK
 67
     1
  8
0
  2
$PAPER_SPACE
 70
     0
 10
0.0
 20
0.0
 30
0.0
  3
$PAPER_SPACE
  1

  0
ENDBLK
  5
2F84
 67
     1
  8
0
  0
BLOCK
  8
0
  2
GENAXEH
 70
     0
 10
0.0
 20
0.0
 30
0.0
  3
GENAXEH
  1

  0
LINE
  5
2CF1
  8
0
 10
-1.0
 20
0.0
 30
0.0
 11
1.0
 21
0.0
 31
0.0
  0
ENDBLK
  5
2CF2
  8
0
  0
BLOCK
  8
0
  2
_OPEN30
 70
     0
 10
0.0
 20
0.0
 30
0.0
  3
_OPEN30
  1

  0
LINE
  5
2CF5
  8
0
 62
     0
 10
-1.0
 20
0.26794919
 30
0.0
 11
0.0
 21
0.0
 31
0.0
  0
LINE
  5
2CF6
  8
0
 62
     0
 10
0.0
 20
0.0
 30
0.0
 11
-1.0
 21
-0.26794919
 31
0.0
  0
LINE
  5
2CF7
  8
0
 62
     0
 10
0.0
 20
0.0
 30
0.0
 11
-1.0
 21
0.0
 31
0.0
  0
ENDBLK
  5
2CF8
  8
0
  0
BLOCK
  8
0
  2
_NONE
 70
     0
 10
0.0
 20
0.0
 30
0.0
  3
_NONE
  1

  0
ENDBLK
  5
2CFB
  8
0
  0
BLOCK
  8
0
  2
_ACMFILLEDHALF
 70
     0
 10
0.0
 20
0.0
 30
0.0
  3
_ACMFILLEDHALF
  1

  0
TRACE
  5
307C
  8
AM_0
 62
     0
 10
-0.8
 20
0.0
 30
0.0
 11
-1.0
 21
0.166666666
 31
0.0
 12
0.0
 22
0.0
 32
0.0
 13
0.0
 23
0.0
 33
0.0
  0
LINE
  5
307D
  8
AM_0
 62
     0
 10
-1.0
 20
0.0
 30
0.0
 11
-0.8
 21
0.0
 31
0.0
  0
ENDBLK
  5
307B
  8
0
  0
ENDSEC
  0
SECTION
  2
ENTITIES
  0
LINE
  5
2CFC
  8
AM_0
 10
434.5128492968322
 20
259.69686593883881
 30
0.0
 11
434.5128492968322
 21
501.82140593883872
 31
0.0
  0
LINE
  5
2CFD
  8
AM_0
 10
448.51279929683221
 20
246.20675093883881
 30
0.0
 11
448.51279929683221
 21
501.43610593883881
 31
0.0
  0
LINE
  5
2CFE
  8
AM_0
 10
461.5127992968321
 20
243.82140593883881
 30
0.0
 11
461.5127992968321
 21
503.82140593883872
 31
0.0
  0
LINE
  5
2CFF
  8
AM_0
 10
559.5128492968322
 20
433.30825593883878
 30
0.0
 11
559.5128492968322
 21
550.79575593883897
 31
0.0
  0
LINE
  5
2D00
  8
AM_0
 10
577.51279929683233
 20
269.32140593883889
 30
0.0
 11
577.51279929683233
 21
554.32140593883878
 31
0.0
  0
LINE
  5
2D01
  8
AM_0
 10
558.37829929683255
 20
430.17434593883883
 30
0.0
 11
542.12534929683238
 21
479.31036093883881
 31
0.0
  0
LINE
  5
2D02
  8
AM_0
 10
567.51279929683233
 20
411.82141093883888
 30
0.0
 11
567.51279929683233
 21
522.77870593883881
 31
0.0
  0
LINE
  5
2D03
  8
AM_0
 10
581.51279929683233
 20
411.82141093883888
 30
0.0
 11
581.51279929683233
 21
531.82140593883855
 31
0.0
  0
LINE
  5
2D04
  8
ﾁｭｳｼﾝｾﾝ
 10
428.48254600429181
 20
345.82140593883872
 30
0.0
 11
231.02660842555889
 21
345.82140593883872
 31
0.0
  0
LINE
  5
2D05
  8
AM_0
 10
266.51269929683241
 20
338.32139830944431
 30
0.0
 11
268.51269929683241
 21
338.32139830944431
 31
0.0
  0
LINE
  5
2D06
  8
AM_0
 10
266.51269929683241
 20
353.32140593883878
 30
0.0
 11
268.51269929683241
 21
353.32140593883878
 31
0.0
  0
LINE
  5
2D07
  8
AM_0
 10
241.51269929683241
 20
351.82140593883872
 30
0.0
 11
266.51269929683241
 21
351.82140593883872
 31
0.0
  0
LINE
  5
2D08
  8
AM_0
 10
241.51269929683241
 20
353.32140593883878
 30
0.0
 11
259.51269929683241
 21
353.32140593883878
 31
0.0
  0
LINE
  5
2D09
  8
AM_0
 10
241.51269929683241
 20
339.82140593883878
 30
0.0
 11
266.51269929683241
 21
339.82140593883878
 31
0.0
  0
LINE
  5
2D0A
  8
AM_0
 10
241.51269929683241
 20
353.32140593883878
 30
0.0
 11
241.51269929683241
 21
339.82140593883878
 31
0.0
  0
LINE
  5
2D0B
  8
AM_0
 10
259.51269929683241
 20
353.32140593883878
 30
0.0
 11
259.51269929683241
 21
351.82140593883872
 31
0.0
  0
LINE
  5
2D0C
  8
AM_0
 10
266.51269929683241
 20
353.32140593883878
 30
0.0
 11
266.51269929683241
 21
338.32139830944431
 31
0.0
  0
LINE
  5
2D0D
  8
ﾁｭｳｼﾝｾﾝ
 10
418.73362086506881
 20
411.82141093883882
 30
0.0
 11
657.984199296832
 21
411.82141093883888
 31
0.0
  0
LINE
  5
2D0E
  8
AM_0
 10
448.51279929683221
 20
266.56094093883883
 30
0.0
 11
563.33624929683265
 21
266.56094093883883
 31
0.0
  0
LINE
  5
2D0F
  8
AM_0
 10
448.51279929683221
 20
363.84042093883869
 30
0.0
 11
567.51279929683233
 21
363.84042093883869
 31
0.0
  0
LINE
  5
2D10
  8
AM_0
 10
448.51279929683221
 20
383.80242593883872
 30
0.0
 11
567.51279929683233
 21
383.80242593883872
 31
0.0
  0
LINE
  5
2D11
  8
AM_0
 10
448.51279929683221
 20
252.1041209388388
 30
0.0
 11
538.29644929683241
 21
252.1041209388388
 31
0.0
  0
LINE
  5
2D12
  8
AM_0
 10
461.5127992968321
 20
243.82139093883879
 30
0.0
 11
521.24134929683225
 21
242.25735093883881
 31
0.0
  0
ARC
  5
2D13
  8
AM_0
 10
489.5128492968322
 20
300.73830593883878
 30
0.0
 40
9.7211409999999994
 50
90.000003000000007
 51
270.0
  0
LINE
  5
2D14
  8
AM_0
 10
346.01274929683228
 20
324.32586093883867
 30
0.0
 11
346.01274929683228
 21
293.88259593883868
 31
0.0
  0
ARC
  5
2D15
  8
AM_0
 10
286.87056367310151
 20
310.82140593883878
 30
0.0
 40
10.0
 50
45.000000000004363
 51
90.0
1001
GENIUS_GENOBJ-N-FIL_13
1002
{
1000
OWNER
1000
GEN
1002
}
1001
GENIUS_GENODEF_13
1002
{
1000
HIER
1070
     0
1002
}
1002
{
1000
MANEDIT
1070
     0
1002
}
1002
{
1000
NOSEL
1070
     0
1002
}
1002
{
1000
BEHIND
1070
     0
1002
}
1002
{
1000
OTHER
1070
     0
1002
}
1002
{
1000
REACTOR
1002
}
  0
LINE
  5
2D16
  8
AM_0
 10
316.01269929683252
 20
401.06002729287349
 30
0.0
 11
316.01269929683349
 21
290.5827845848039
 31
0.0
  0
LINE
  5
2D17
  8
AM_0
 10
326.01269929683252
 20
289.32140593883878
 30
0.0
 11
326.01269929683252
 21
402.3214409388388
 31
0.0
  0
LINE
  5
2D18
  8
AM_0
 10
390.01274929683228
 20
302.70892093883879
 30
0.0
 11
390.01274929683228
 21
443.38732593883879
 31
0.0
  0
LINE
  5
2D19
  8
AM_0
 10
400.01274929683228
 20
299.82143593883882
 30
0.0
 11
400.01274929683228
 21
447.8214409388388
 31
0.0
  0
LINE
  5
2D1A
  8
AM_0
 10
350.1524992968325
 20
305.19921593883879
 30
0.0
 11
387.30029929683212
 21
303.9019759388388
 31
0.0
  0
LINE
  5
2D1B
  8
AM_0
 10
316.98371610354923
 20
289.58320468579262
 30
0.0
 11
326.01269929683252
 21
289.32140593883878
 31
0.0
  0
LINE
  5
2D1C
  8
AM_0
 10
314.5482332027654
 20
297.2858720329059
 30
0.0
 11
293.94163148496722
 21
317.89247375070431
 31
0.0
  0
ARC
  5
2D1D
  8
AM_0
 10
311.01269929683252
 20
293.7503381269733
 30
0.0
 40
5.0
 50
0.0
 51
45.000000000004363
1001
GENIUS_GENODEF_13
1002
{
1000
HIER
1070
     0
1002
}
1002
{
1000
MANEDIT
1070
     0
1002
}
1002
{
1000
NOSEL
1070
     0
1002
}
1002
{
1000
BEHIND
1070
     0
1002
}
1002
{
1000
OTHER
1070
     0
1002
}
1002
{
1000
REACTOR
1002
}
1001
GENIUS_GENOBJ-N-FIL_13
1002
{
1000
OWNER
1000
GEN
1002
}
  0
ARC
  5
2D1E
  8
AM_0
 10
317.01269929683258
 20
290.5827845848039
 30
0.0
 40
1.0
 50
180.0
 51
268.3391527670226
1001
GENIUS_GENOBJ-N-FIL_13
1002
{
1000
OWNER
1000
GEN
1002
}
1001
GENIUS_GENODEF_13
1002
{
1000
HIER
1070
     0
1002
}
1002
{
1000
MANEDIT
1070
     0
1002
}
1002
{
1000
NOSEL
1070
     0
1002
}
1002
{
1000
BEHIND
1070
     0
1002
}
1002
{
1000
OTHER
1070
     0
1002
}
1002
{
1000
REACTOR
1002
}
  0
ARC
  5
2D1F
  8
AM_0
 10
350.01274929683228
 20
301.20165593883883
 30
0.0
 40
4.000000049999997
 50
88.0
 51
180.00001
  0
LINE
  5
2D20
  8
AM_0
 10
326.0126992968323
 20
299.82143593883882
 30
0.0
 11
346.01274929683228
 21
299.82143593883882
 31
0.0
  0
LINE
  5
2D21
  8
AM_0
 10
326.01269929683252
 20
289.32140593883878
 30
0.0
 11
342.15234929683243
 21
289.88503593883883
 31
0.0
  0
ARC
  5
2D22
  8
AM_0
 10
342.01284929683243
 20
293.88259593883868
 30
0.0
 40
4.000000049999997
 50
272.0
 51
0.0
  0
LINE
  5
2D23
  8
AM_0
 10
326.0126992968323
 20
313.01559093883878
 30
0.0
 11
346.01274929683228
 21
313.01559093883878
 31
0.0
  0
ARC
  5
2D24
  8
AM_0
 10
450.51279929683221
 20
246.20675093883881
 30
0.0
 40
2.0000000500000001
 50
179.99998999999991
 51
268.00000999999992
  0
LINE
  5
2D25
  8
AM_0
 10
450.44299929683223
 20
244.20794093883879
 30
0.0
 11
461.5128492968322
 21
243.8213759388388
 31
0.0
  0
LINE
  5
2D26
  8
AM_0
 10
390.01274929683228
 20
312.24276593883877
 30
0.0
 11
434.5128492968322
 21
312.24276593883877
 31
0.0
  0
ARC
  5
2D27
  8
AM_0
 10
431.51279929683233
 20
285.99151093883881
 30
0.0
 40
3.0000000500000001
 50
0.0
 51
84.999996999999979
  0
ARC
  5
2D28
  8
AM_0
 10
402.0128492968322
 20
297.24975093883882
 30
0.0
 40
3.0000000500000001
 50
0.0
 51
88.0
  0
ARC
  5
2D29
  8
AM_0
 10
408.01274929683228
 20
294.07040093883882
 30
0.0
 40
3.0000000500000001
 50
179.99998999999991
 51
265.0
  0
LINE
  5
2D2A
  8
AM_0
 10
393.87324929683228
 20
300.03582593883868
 30
0.0
 11
400.01289929683247
 21
299.82140593883878
 31
0.0
  0
ARC
  5
2D2B
  8
AM_0
 10
394.01274929683228
 20
304.03338093883877
 30
0.0
 40
4.000000049999997
 50
211.07233999999991
 51
268.0
  0
LINE
  5
2D2C
  8
AM_0
 10
405.01274929683223
 20
294.07040093883882
 30
0.0
 11
405.01274929683223
 21
311.82140593883878
 31
0.0
  0
ARC
  5
2D2D
  8
AM_0
 10
387.1606492968325
 20
299.90441593883889
 30
0.0
 40
4.000000049999997
 50
31.072340999999991
 51
88.0
  0
LINE
  5
2D2E
  8
AM_0
 10
400.01274929683228
 20
300.32140593883878
 30
0.0
 11
402.11749929683219
 21
300.24792093883877
 31
0.0
  0
LINE
  5
2D2F
  8
AM_0
 10
407.75134929683207
 20
291.0818459388388
 30
0.0
 11
431.77424929683252
 21
288.9801009388388
 31
0.0
  0
ARC
  5
2D30
  8
AM_0
 10
445.5127992968321
 20
252.19369093883881
 30
0.0
 40
3.0000000500000001
 50
0.0
 51
79.999998000000005
  0
LINE
  5
2D31
  8
AM_0
 10
436.99184929683253
 20
256.74245593883882
 30
0.0
 11
446.0337492968323
 21
255.14809593883879
 31
0.0
  0
ARC
  5
2D32
  8
AM_0
 10
437.51279929683221
 20
259.69686593883881
 30
0.0
 40
3.0000000500000001
 50
179.99998999999991
 51
260.0
  0
LINE
  5
2D33
  8
AM_0
 10
351.9080492968323
 20
436.92254593883871
 30
0.0
 11
384.7406992968323
 21
438.06909093883888
 31
0.0
  0
LINE
  5
2D34
  8
AM_0
 10
365.16424929683228
 20
378.6272859388389
 30
0.0
 11
390.01274929683228
 21
334.25451093883891
 31
0.0
  0
LINE
  5
2D35
  8
AM_0
 10
351.01274929683228
 20
329.32586093883867
 30
0.0
 11
390.01274929683228
 21
329.32586093883867
 31
0.0
  0
LINE
  5
2D36
  8
AM_0
 10
352.51344929683228
 20
404.3220509388388
 30
0.0
 11
387.42959929683229
 21
439.23815593883887
 31
0.0
  0
ARC
  5
2D37
  8
AM_0
 10
371.11579929683228
 20
388.82141093883888
 30
0.0
 40
3.0000000500000001
 50
315.0
 51
90.000003000000007
  0
LINE
  5
2D38
  8
AM_0
 10
314.5482332027654
 20
394.35693984477138
 30
0.0
 11
293.94163148496722
 21
373.75033812697319
 31
0.0
  0
LINE
  5
2D39
  8
AM_0
 10
268.51269929683241
 20
359.99297881409262
 30
0.0
 11
268.51269929683241
 21
331.64983306358482
 31
0.0
  0
LINE
  5
2D3A
  8
AM_0
 10
291.01269929683252
 20
370.8214059388385
 30
0.0
 11
291.01269929683252
 21
320.82140593883861
 31
0.0
  0
LINE
  5
2D3B
  8
AM_0
 10
270.51269929683241
 20
322.82140593883878
 30
0.0
 11
270.51269929683241
 21
368.82140593883872
 31
0.0
  0
LINE
  5
2D3C
  8
AM_0
 10
272.51269929683241
 20
320.82140593883878
 30
0.0
 11
286.87056367310151
 21
320.82140593883878
 31
0.0
  0
LINE
  5
2D3D
  8
AM_0
 10
269.09848573445959
 20
330.23561950121172
 30
0.0
 11
269.92691285920591
 21
329.40719237646562
 31
0.0
  0
ARC
  5
2D3E
  8
AM_0
 10
268.51269929683241
 20
327.99297881409262
 30
0.0
 40
2.0
 50
0.0
 51
45.000000000004363
1001
GENIUS_GENODEF_13
1002
{
1000
HIER
1070
     0
1002
}
1002
{
1000
MANEDIT
1070
     0
1002
}
1002
{
1000
NOSEL
1070
     0
1002
}
1002
{
1000
BEHIND
1070
     0
1002
}
1002
{
1000
OTHER
1070
     0
1002
}
1002
{
1000
REACTOR
1002
}
1001
GENIUS_GENOBJ-N-FIL_13
1002
{
1000
OWNER
1000
GEN
1002
}
  0
ARC
  5
2D3F
  8
AM_0
 10
270.51269929683241
 20
331.64983306358482
 30
0.0
 40
2.0
 50
180.0
 51
225.00000000000421
1001
GENIUS_GENODEF_13
1002
{
1000
HIER
1070
     0
1002
}
1002
{
1000
MANEDIT
1070
     0
1002
}
1002
{
1000
NOSEL
1070
     0
1002
}
1002
{
1000
BEHIND
1070
     0
1002
}
1002
{
1000
OTHER
1070
     0
1002
}
1002
{
1000
REACTOR
1002
}
1001
GENIUS_GENOBJ-N-FIL_13
1002
{
1000
OWNER
1000
GEN
1002
}
  0
ARC
  5
2D40
  8
AM_0
 10
272.51269929683241
 20
322.82140593883878
 30
0.0
 40
2.0
 50
180.0
 51
270.0
1001
GENIUS_GENODEF_13
1002
{
1000
HIER
1070
     0
1002
}
1002
{
1000
MANEDIT
1070
     0
1002
}
1002
{
1000
NOSEL
1070
     0
1002
}
1002
{
1000
BEHIND
1070
     0
1002
}
1002
{
1000
OTHER
1070
     0
1002
}
1002
{
1000
REACTOR
1002
}
1001
GENIUS_GENOBJ-N-FIL_13
1002
{
1000
OWNER
1000
GEN
1002
}
  0
ARC
  5
2D41
  8
AM_0
 10
286.87056367310151
 20
380.82140593883872
 30
0.0
 40
10.0
 50
270.0
 51
314.99999999999562
1001
GENIUS_GENODEF_13
1002
{
1000
HIER
1070
     0
1002
}
1002
{
1000
MANEDIT
1070
     0
1002
}
1002
{
1000
NOSEL
1070
     0
1002
}
1002
{
1000
BEHIND
1070
     0
1002
}
1002
{
1000
OTHER
1070
     0
1002
}
1002
{
1000
REACTOR
1002
}
1001
GENIUS_GENOBJ-N-FIL_13
1002
{
1000
OWNER
1000
GEN
1002
}
  0
LINE
  5
2D42
  8
AM_0
 10
272.51269929683241
 20
370.82140593883872
 30
0.0
 11
286.87056367310151
 21
370.82140593883872
 31
0.0
  0
ARC
  5
2D43
  8
AM_0
 10
272.51269929683241
 20
368.82140593883872
 30
0.0
 40
2.0
 50
90.0
 51
180.0
1001
GENIUS_GENODEF_13
1002
{
1000
HIER
1070
     0
1002
}
1002
{
1000
MANEDIT
1070
     0
1002
}
1002
{
1000
NOSEL
1070
     0
1002
}
1002
{
1000
BEHIND
1070
     0
1002
}
1002
{
1000
OTHER
1070
     0
1002
}
1002
{
1000
REACTOR
1002
}
1001
GENIUS_GENOBJ-N-FIL_13
1002
{
1000
OWNER
1000
GEN
1002
}
  0
LINE
  5
2D44
  8
AM_0
 10
269.09848573445959
 20
361.40719237646562
 30
0.0
 11
269.92691285920591
 21
362.23561950121172
 31
0.0
  0
ARC
  5
2D45
  8
AM_0
 10
270.51269929683241
 20
359.99297881409262
 30
0.0
 40
2.0
 50
134.99999999999551
 51
180.0
1001
GENIUS_GENODEF_13
1002
{
1000
HIER
1070
     0
1002
}
1002
{
1000
MANEDIT
1070
     0
1002
}
1002
{
1000
NOSEL
1070
     0
1002
}
1002
{
1000
BEHIND
1070
     0
1002
}
1002
{
1000
OTHER
1070
     0
1002
}
1002
{
1000
REACTOR
1002
}
1001
GENIUS_GENOBJ-N-FIL_13
1002
{
1000
OWNER
1000
GEN
1002
}
  0
ARC
  5
2D46
  8
AM_0
 10
268.51269929683241
 20
363.64983306358482
 30
0.0
 40
2.0
 50
314.99999999999562
 51
0.0
1001
GENIUS_GENODEF_13
1002
{
1000
HIER
1070
     0
1002
}
1002
{
1000
MANEDIT
1070
     0
1002
}
1002
{
1000
NOSEL
1070
     0
1002
}
1002
{
1000
BEHIND
1070
     0
1002
}
1002
{
1000
OTHER
1070
     0
1002
}
1002
{
1000
REACTOR
1002
}
1001
GENIUS_GENOBJ-N-FIL_13
1002
{
1000
OWNER
1000
GEN
1002
}
  0
ARC
  5
2D47
  8
AM_0
 10
351.01274929683228
 20
324.32586093883867
 30
0.0
 40
5.0
 50
90.000003000000007
 51
180.00001
  0
LINE
  5
2D48
  8
AM_0
 10
326.0126992968323
 20
378.62725593883869
 30
0.0
 11
365.16424929683228
 21
378.62725593883857
 31
0.0
  0
LINE
  5
2D49
  8
AM_0
 10
365.16429929683221
 20
378.62722593883882
 30
0.0
 11
373.23719929683227
 21
386.70007093883879
 31
0.0
  0
LINE
  5
2D4A
  8
AM_0
 10
316.98371610354923
 20
402.05960719188482
 30
0.0
 11
326.01269929683252
 21
402.3214059388385
 31
0.0
  0
ARC
  5
2D4B
  8
AM_0
 10
317.01269929683258
 20
401.06002729287349
 30
0.0
 40
1.0
 50
91.660847232964372
 51
180.0
1001
GENIUS_GENOBJ-N-FIL_13
1002
{
1000
OWNER
1000
GEN
1002
}
1001
GENIUS_GENODEF_13
1002
{
1000
HIER
1070
     0
1002
}
1002
{
1000
MANEDIT
1070
     0
1002
}
1002
{
1000
NOSEL
1070
     0
1002
}
1002
{
1000
BEHIND
1070
     0
1002
}
1002
{
1000
OTHER
1070
     0
1002
}
1002
{
1000
REACTOR
1002
}
  0
ARC
  5
2D4C
  8
AM_0
 10
311.01269929683252
 20
397.8924737507042
 30
0.0
 40
5.0
 50
314.99999999999562
 51
0.0
1001
GENIUS_GENODEF_13
1002
{
1000
HIER
1070
     0
1002
}
1002
{
1000
MANEDIT
1070
     0
1002
}
1002
{
1000
NOSEL
1070
     0
1002
}
1002
{
1000
BEHIND
1070
     0
1002
}
1002
{
1000
OTHER
1070
     0
1002
}
1002
{
1000
REACTOR
1002
}
1001
GENIUS_GENOBJ-N-FIL_13
1002
{
1000
OWNER
1000
GEN
1002
}
  0
LINE
  5
2D4D
  8
AM_0
 10
349.01274929683228
 20
433.92434593883883
 30
0.0
 11
349.01274929683228
 21
407.27810593883891
 31
0.0
  0
ARC
  5
2D4E
  8
AM_0
 10
349.6849992968323
 20
407.15051093883881
 30
0.0
 40
4.000000049999997
 50
272.0
 51
315.0
  0
LINE
  5
2D4F
  8
AM_0
 10
326.01269929683252
 20
391.82141093883882
 30
0.0
 11
371.11579929683228
 21
391.82141093883882
 31
0.0
  0
LINE
  5
2D50
  8
AM_0
 10
326.01269929683252
 20
402.3214409388388
 30
0.0
 11
344.1929492968323
 21
402.95629593883882
 31
0.0
  0
LINE
  5
2D51
  8
AM_0
 10
344.1929492968323
 20
402.95629593883882
 30
0.0
 11
349.82449929683253
 21
403.15295093883879
 31
0.0
  0
ARC
  5
2D52
  8
AM_0
 10
344.0533992968322
 20
406.95385593883861
 30
0.0
 40
4.000000049999997
 50
272.0
 51
309.62979000000001
  0
LINE
  5
2D53
  8
AM_0
 10
347.92624929683228
 20
404.96752593883878
 30
0.0
 11
346.60469929683228
 21
403.87310593883871
 31
0.0
  0
ARC
  5
2D54
  8
AM_0
 10
346.01274929683228
 20
407.27810593883891
 30
0.0
 40
3.0000000500000001
 50
309.62979000000001
 51
0.0
  0
LINE
  5
2D55
  8
AM_0
 10
351.39924929683252
 20
403.2079759388389
 30
0.0
 11
357.77564929683228
 21
391.82147093883867
 31
0.0
  0
ARC
  5
2D56
  8
AM_0
 10
352.01284929683243
 20
433.92434593883883
 30
0.0
 40
3.0000000500000001
 50
91.999997999999948
 51
180.00001
  0
LINE
  5
2D57
  8
AM_0
 10
390.01274929683228
 20
334.34673593883878
 30
0.0
 11
434.5128492968322
 21
334.34673593883878
 31
0.0
  0
LINE
  5
2D58
  8
AM_0
 10
390.01274929683228
 20
435.40005093883889
 30
0.0
 11
434.5128492968322
 21
435.40005093883889
 31
0.0
  0
ARC
  5
2D59
  8
AM_0
 10
429.51284929683231
 20
453.35464093883888
 30
0.0
 40
5.0
 50
272.0
 51
0.0
  0
LINE
  5
2D5A
  8
AM_0
 10
390.01274929683228
 20
413.29608093883883
 30
0.0
 11
434.5128492968322
 21
413.29608093883883
 31
0.0
  0
LINE
  5
2D5B
  8
AM_0
 10
400.0126992968323
 20
447.3214409388388
 30
0.0
 11
429.68719929683232
 21
448.35769593883862
 31
0.0
  0
ARC
  5
2D5C
  8
AM_0
 10
394.01274929683228
 20
443.60946593883881
 30
0.0
 40
4.000000049999997
 50
91.999997999999948
 51
180.93198000000001
  0
LINE
  5
2D5D
  8
AM_0
 10
387.42959929683229
 20
439.23815593883887
 30
0.0
 11
388.84229929683221
 21
440.65087593883879
 31
0.0
  0
ARC
  5
2D5E
  8
AM_0
 10
384.60114929683249
 20
442.06661593883882
 30
0.0
 40
4.000000049999997
 50
272.0
 51
315.0
  0
ARC
  5
2D5F
  8
AM_0
 10
386.01379929683247
 20
443.4793359388388
 30
0.0
 40
4.000000049999997
 50
315.0
 51
0.9319899799999999
  0
LINE
  5
2D60
  8
AM_0
 10
393.87314929683231
 20
447.60702593883877
 30
0.0
 11
400.0126992968323
 21
447.82141093883882
 31
0.0
  0
LINE
  5
2D61
  8
AM_0
 10
581.51279929683233
 20
411.82141093883888
 30
0.0
 11
581.51279929683233
 21
291.82140593883889
 31
0.0
  0
LINE
  5
2D62
  8
AM_0
 10
567.51279929683233
 20
411.82141093883888
 30
0.0
 11
567.51279929683233
 21
300.86410093883882
 31
0.0
  0
LINE
  5
2D63
  8
AM_0
 10
559.5128492968322
 20
271.79943593883883
 30
0.0
 11
559.5128492968322
 21
320.31457093883881
 31
0.0
  0
LINE
  5
2D64
  8
AM_0
 10
521.24129929683238
 20
242.25739593883881
 30
0.0
 11
567.51279929683233
 21
268.97225593883883
 31
0.0
  0
LINE
  5
2D65
  8
AM_0
 10
489.5128492968322
 20
310.45944093883878
 30
0.0
 11
559.5128492968322
 21
310.45944093883878
 31
0.0
  0
LINE
  5
2D66
  8
AM_0
 10
489.5128492968322
 20
291.01714593883878
 30
0.0
 11
559.5128492968322
 21
291.01714593883878
 31
0.0
  0
LINE
  5
2D67
  8
AM_0
 10
489.5128492968322
 20
292.86379593883868
 30
0.0
 11
489.5128492968322
 21
308.9638009388388
 31
0.0
  0
LINE
  5
2D68
  8
AM_0
 10
562.61739929683245
 20
268.8012659388387
 30
0.0
 11
577.51269929683235
 21
269.32140593883889
 31
0.0
  0
ARC
  5
2D69
  8
AM_0
 10
562.51279929683233
 20
271.79943593883883
 30
0.0
 40
3.0000000500000001
 50
179.99998999999991
 51
271.99998999999991
  0
ARC
  5
2D6A
  8
AM_0
 10
562.51279929683233
 20
300.86410093883882
 30
0.0
 40
5.0
 50
268.0
 51
0.0
  0
LINE
  5
2D6B
  8
AM_0
 10
577.51279929683233
 20
291.82140593883889
 30
0.0
 11
581.51279929683233
 21
291.82140593883889
 31
0.0
  0
LINE
  5
2D6C
  8
AM_0
 10
597.51279929683233
 20
435.82141093883882
 30
0.0
 11
653.51279929683233
 21
435.82141093883882
 31
0.0
  0
LINE
  5
2D6D
  8
AM_0
 10
583.51279929683233
 20
390.82141093883882
 30
0.0
 11
653.51279929683233
 21
390.82141093883882
 31
0.0
  0
LINE
  5
2D6E
  8
AM_0
 10
583.51279929683233
 20
432.8214409388388
 30
0.0
 11
653.51279929683233
 21
432.8214409388388
 31
0.0
  0
LINE
  5
2D6F
  8
AM_0
 10
583.51279929683233
 20
389.32141093883882
 30
0.0
 11
583.51279929683233
 21
434.32141093883882
 31
0.0
  0
ARC
  5
2D70
  8
AM_0
 10
564.51284929683231
 20
320.31457093883881
 30
0.0
 40
5.0
 50
90.000003000000007
 51
180.00001
  0
LINE
  5
2D71
  8
AM_0
 10
581.51279929683233
 20
389.32141093883882
 30
0.0
 11
583.51279929683233
 21
389.32141093883882
 31
0.0
  0
ARC
  5
2D72
  8
AM_0
 10
563.12534929683238
 20
431.74456593883878
 30
0.0
 40
5.0
 50
198.30292
 51
270.0
  0
LINE
  5
2D73
  8
AM_0
 10
563.12534929683238
 20
426.74456593883878
 30
0.0
 11
567.51279929683233
 21
426.74456593883878
 31
0.0
  0
LINE
  5
2D74
  8
AM_0
 10
581.51279929683233
 20
434.32141093883882
 30
0.0
 11
583.51279929683233
 21
434.32141093883882
 31
0.0
  0
LINE
  5
2D75
  8
AM_0
 10
597.51279929683233
 20
435.82141093883882
 30
0.0
 11
597.51279929683233
 21
432.8214409388388
 31
0.0
  0
LINE
  5
2D76
  8
AM_0
 10
653.51279929683233
 20
390.82141093883882
 30
0.0
 11
653.51279929683233
 21
435.82141093883882
 31
0.0
  0
LINE
  5
2D77
  8
AM_0
 10
461.5127992968321
 20
503.82140593883872
 30
0.0
 11
531.40099929683265
 21
505.65155593883878
 31
0.0
  0
LINE
  5
2D78
  8
AM_0
 10
448.51279929683221
 20
481.08194093883873
 30
0.0
 11
510.57429929683252
 21
481.08194093883873
 31
0.0
  0
LINE
  5
2D79
  8
AM_0
 10
448.51279929683221
 20
495.5387059388388
 30
0.0
 11
524.42329929683217
 21
495.5387059388388
 31
0.0
  0
CIRCLE
  5
2D7A
  8
AM_0
 10
445.5127992968321
 20
524.32140593883855
 30
0.0
 40
12.5
  0
ARC
  5
2D7B
  8
AM_0
 10
445.5127992968321
 20
524.32140593883855
 30
0.0
 40
20.500000499999992
 50
304.61363999999992
 51
235.38634999999999
  0
ARC
  5
2D7C
  8
AM_0
 10
445.5127992968321
 20
495.44915593883883
 30
0.0
 40
3.0000000500000001
 50
280.0
 51
0.0
  0
LINE
  5
2D7D
  8
AM_0
 10
436.99184929683253
 20
490.90030593883853
 30
0.0
 11
446.0337492968323
 21
492.49470593883871
 31
0.0
  0
ARC
  5
2D7E
  8
AM_0
 10
437.51279929683221
 20
487.94598093883877
 30
0.0
 40
3.0000000500000001
 50
100.0
 51
180.00001
  0
LINE
  5
2D7F
  8
AM_0
 10
450.4429492968323
 20
503.43495593883858
 30
0.0
 11
461.51269929683258
 21
503.82145593883882
 31
0.0
  0
LINE
  5
2D80
  8
AM_0
 10
459.5128492968322
 20
503.82145593883882
 30
0.0
 11
461.5127992968321
 21
503.82145593883882
 31
0.0
  0
LINE
  5
2D81
  8
AM_0
 10
437.69564929683219
 20
510.32145593883888
 30
0.0
 11
453.32984929683238
 21
510.32145593883888
 31
0.0
  0
LINE
  5
2D82
  8
AM_0
 10
445.5126992968323
 20
511.82145593883882
 30
0.0
 11
453.01614929683251
 21
510.43610593883881
 31
0.0
  0
LINE
  5
2D83
  8
AM_0
 10
435.18989929683221
 20
503.32145593883888
 30
0.0
 11
449.84549929683249
 21
503.32145593883888
 31
0.0
  0
LINE
  5
2D84
  8
AM_0
 10
438.00939929683233
 20
510.43610593883881
 30
0.0
 11
445.51284929683243
 21
511.82140593883872
 31
0.0
  0
ARC
  5
2D85
  8
AM_0
 10
438.19094929683251
 20
509.45270593883862
 30
0.0
 40
1.0
 50
100.4607199999999
 51
164.99999
  0
ARC
  5
2D86
  8
AM_0
 10
436.5127992968321
 20
501.82140593883872
 30
0.0
 40
2.0000000500000001
 50
131.4096199999999
 51
180.00001
  0
LINE
  5
2D87
  8
AM_0
 10
435.51279929683233
 20
503.32140593883872
 30
0.0
 11
437.22499929683249
 21
509.71155593883873
 31
0.0
  0
ARC
  5
2D88
  8
AM_0
 10
431.59579929683218
 20
504.15790593883878
 30
0.0
 40
4.000000049999997
 50
347.92932999999999
 51
55.386358999999992
  0
ARC
  5
2D89
  8
AM_0
 10
452.83469929683218
 20
509.45270593883862
 30
0.0
 40
1.0
 50
15.0
 51
79.539281000000003
  0
ARC
  5
2D8A
  8
AM_0
 10
450.51279929683221
 20
501.43610593883881
 30
0.0
 40
2.0000000500000001
 50
91.999997999999948
 51
180.00001
  0
LINE
  5
2D8B
  8
AM_0
 10
459.5128492968322
 20
503.75160593883851
 30
0.0
 11
459.5128492968322
 21
503.82145593883882
 31
0.0
  0
LINE
  5
2D8C
  8
AM_0
 10
455.43574929683223
 20
503.60920593883873
 30
0.0
 11
453.8005992968321
 21
509.71155593883873
 31
0.0
  0
ARC
  5
2D8D
  8
AM_0
 10
459.4296992968325
 20
504.15790593883878
 30
0.0
 40
4.000000049999997
 50
124.61365000000001
 51
187.86824999999999
  0
LINE
  5
2D8E
  8
AM_0
 10
543.45554929683249
 20
480.30273093883858
 30
0.0
 11
559.51279929683233
 21
492.28160593883882
 31
0.0
  0
LINE
  5
2D8F
  8
AM_0
 10
534.80569929683247
 20
507.11425593883882
 30
0.0
 11
558.04834929683238
 21
530.35695593883884
 31
0.0
  0
LINE
  5
2D90
  8
AM_0
 10
557.07904929683264
 20
515.06800593883895
 30
0.0
 11
520.02014929683219
 21
492.90540593883878
 31
0.0
  0
LINE
  5
2D91
  8
AM_0
 10
557.36544929683259
 20
508.82505593883889
 30
0.0
 11
515.60729929683248
 21
483.85217093883881
 31
0.0
  0
LINE
  5
2D92
  8
AM_0
 10
513.01279929683233
 20
479.31033093883877
 30
0.0
 11
540.46579929683219
 21
479.31033093883877
 31
0.0
  0
ARC
  5
2D93
  8
AM_0
 10
491.7125992968322
 20
505.61650593883883
 30
0.0
 40
30.946884499999999
 50
307.55230999999992
 51
335.5961299999999
  0
ARC
  5
2D94
  8
AM_0
 10
513.01279929683233
 20
484.31033093883877
 30
0.0
 40
5.0
 50
229.76332999999991
 51
270.0
  0
ARC
  5
2D95
  8
AM_0
 10
540.46579929683219
 20
484.31033093883877
 30
0.0
 40
5.0
 50
270.0
 51
306.72320999999999
  0
LINE
  5
2D96
  8
AM_0
 10
534.72049929683237
 20
501.69675593883881
 30
0.0
 11
533.39509929683231
 21
505.70375593883892
 31
0.0
  0
ARC
  5
2D97
  8
AM_0
 10
531.27009929683254
 20
510.64975593883878
 30
0.0
 40
5.0
 50
271.49999999999972
 51
315.0
  0
ARC
  5
2D98
  8
AM_0
 10
554.51284929683231
 20
519.35920593883884
 30
0.0
 40
5.0
 50
300.88097999999979
 51
0.0
  0
ARC
  5
2D99
  8
AM_0
 10
554.51284929683231
 20
533.89245593883845
 30
0.0
 40
5.0
 50
315.0
 51
0.0
  0
ARC
  5
2D9A
  8
AM_0
 10
562.51279929683233
 20
522.77870593883881
 30
0.0
 40
5.0
 50
0.0
 51
91.999997999999948
  0
LINE
  5
2D9B
  8
AM_0
 10
577.51279929683233
 20
531.82140593883855
 30
0.0
 11
581.51279929683233
 21
531.82140593883855
 31
0.0
  0
LINE
  5
2D9C
  8
AM_0
 10
562.40804929683236
 20
553.79395593883885
 30
0.0
 11
577.51279929683233
 21
554.32140593883878
 31
0.0
  0
ARC
  5
2D9D
  8
AM_0
 10
562.51279929683233
 20
550.79575593883897
 30
0.0
 40
3.0000000500000001
 50
91.999997999999948
 51
180.00001
  0
LINE
  5
2D9E
  8
AM_0
 10
1011.537528932684
 20
491.39640593883883
 30
0.0
 11
982.34355893268605
 21
462.20245093883881
 31
0.0
  0
LINE
  5
2D9F
  8
AM_0
 10
1018.608603932686
 20
484.32534593883889
 30
0.0
 11
989.41463393268646
 21
455.13137593883891
 31
0.0
  0
LINE
  5
2DA0
  8
AM_0
 10
1079.030798932685
 20
533.49320593883886
 30
0.0
 11
1081.5336389326851
 21
461.82144093883892
 31
0.0
  0
LINE
  5
2DA1
  8
AM_0
 10
866.52971393268558
 20
491.39640593883883
 30
0.0
 11
895.72371393268634
 21
462.20242093883883
 31
0.0
  0
ARC
  5
2DA2
  8
AM_0
 10
939.03362393268606
 20
411.82141093883888
 30
0.0
 40
61.999994999999998
 50
53.583680999999999
 51
126.41632
  0
LINE
  5
2DA3
  8
AM_0
 10
799.03640893268573
 20
533.49320593883886
 30
0.0
 11
796.53360893268621
 21
461.82144093883892
 31
0.0
  0
LINE
  5
2DA4
  8
AM_0
 10
859.45863893268574
 20
484.32534593883889
 30
0.0
 11
888.65263893268559
 21
455.13134593883882
 31
0.0
  0
LINE
  5
2DA5
  8
ﾁｭｳｼﾝｾﾝ
 10
939.03362393268606
 20
558.97518537171516
 30
0.0
 11
939.03362393268606
 21
240.19317542847759
 31
0.0
  0
ARC
  5
2DA6
  8
AM_0
 10
939.03362393268606
 20
373.82141093883882
 30
0.0
 40
122.0
 50
124.67318
 51
157.42802
  0
ARC
  5
2DA7
  8
AM_0
 10
939.03362393268606
 20
373.82141093883882
 30
0.0
 40
122.0
 50
22.571977
 51
55.326820000000012
  0
CIRCLE
  5
2DA8
  8
AM_0
 10
939.03362393268606
 20
411.82141093883888
 30
0.0
 40
113.0
  0
CIRCLE
  5
2DA9
  8
AM_0
 10
939.03362393268606
 20
411.82141093883888
 30
0.0
 40
120.0
  0
LINE
  5
2DAA
  8
ﾁｭｳｼﾝｾﾝ
 10
790.36782382247543
 20
411.82141093883888
 30
0.0
 11
1087.430056169914
 21
411.82141093883888
 31
0.0
  0
LINE
  5
2DAB
  8
AM_0
 10
817.3618089326859
 20
271.82424593883883
 30
0.0
 11
889.03361893268573
 21
269.32140593883889
 31
0.0
  0
ARC
  5
2DAC
  8
AM_0
 10
874.03361893268595
 20
261.23812593883889
 30
0.0
 40
10.0
 50
195.00001
 51
285.0
  0
LINE
  5
2DAD
  8
AM_0
 10
864.37434893268642
 20
258.64993093883879
 30
0.0
 11
861.25499393268569
 21
270.29150093883868
 31
0.0
  0
LINE
  5
2DAE
  8
AM_0
 10
833.51112893268601
 20
383.82141093883882
 30
0.0
 11
869.03361893268561
 21
383.82141093883882
 31
0.0
  0
LINE
  5
2DAF
  8
AM_0
 10
799.03650893268616
 20
290.14959093883868
 30
0.0
 11
796.53360893268621
 21
361.8214409388388
 31
0.0
  0
ARC
  5
2DB0
  8
AM_0
 10
818.024863932686
 20
290.81268093883881
 30
0.0
 40
19.000000499999999
 50
182.0
 51
268.0
  0
LINE
  5
2DB1
  8
ﾁｭｳｼﾝｾﾝ
 10
807.87397486590805
 20
280.6617762641431
 30
0.0
 11
829.61090649501784
 21
302.3987204905917
 31
0.0
  0
ARC
  5
2DB2
  8
ﾁｭｳｼﾝｾﾝ
 10
939.03362393268264
 20
411.82141093883592
 30
0.0
 40
170.0000049999955
 50
218.71969759245741
 51
231.0146100000002
  0
CIRCLE
  5
2DB3
  8
AM_0
 10
818.82545893268605
 20
291.61327593883868
 30
0.0
 40
9.5
  0
LINE
  5
2DB4
  8
AM_0
 10
796.53360893268621
 20
361.82140593883878
 30
0.0
 11
796.53360893268621
 21
411.82141093883888
 31
0.0
  0
ARC
  5
2DB5
  8
AM_0
 10
833.51112893268601
 20
388.82141093883888
 30
0.0
 40
5.0
 50
192.29603999999981
 51
270.0
  0
LINE
  5
2DB6
  8
AM_0
 10
796.53360893268621
 20
461.82141093883888
 30
0.0
 11
796.53360893268621
 21
411.82141093883888
 31
0.0
  0
LINE
  5
2DB7
  8
AM_0
 10
1079.030798932685
 20
290.14959093883868
 30
0.0
 11
1081.5336389326851
 21
361.8214409388388
 31
0.0
  0
ARC
  5
2DB8
  8
AM_0
 10
939.03362393268606
 20
373.82141093883882
 30
0.0
 40
130.0
 50
246.6310399999999
 51
293.36896000000002
  0
LINE
  5
2DB9
  8
AM_0
 10
989.03362393268606
 20
269.32140593883889
 30
0.0
 11
939.03362393268606
 21
269.32140593883889
 31
0.0
  0
LINE
  5
2DBA
  8
AM_0
 10
889.03361893268573
 20
269.32140593883889
 30
0.0
 11
939.03362393268606
 21
269.32140593883889
 31
0.0
  0
LINE
  5
2DBB
  8
AM_0
 10
876.62178393268573
 20
251.5788509388388
 30
0.0
 11
887.46901393268558
 21
254.4853459388388
 31
0.0
  0
LINE
  5
2DBC
  8
AM_0
 10
1060.705468932686
 20
271.82427593883881
 30
0.0
 11
989.03362393268606
 21
269.32143593883882
 31
0.0
  0
ARC
  5
2DBD
  8
AM_0
 10
1004.0336239326861
 20
261.23812593883889
 30
0.0
 40
10.0
 50
255.0
 51
345.0
  0
LINE
  5
2DBE
  8
AM_0
 10
1001.445488932686
 20
251.5788509388388
 30
0.0
 11
990.59822893268574
 21
254.4853459388388
 31
0.0
  0
LINE
  5
2DBF
  8
AM_0
 10
1013.692923932684
 20
258.64989593883882
 30
0.0
 11
1016.812278932686
 21
270.29144093883878
 31
0.0
  0
ARC
  5
2DC0
  8
AM_0
 10
1060.0423839326861
 20
290.81268093883881
 30
0.0
 40
19.000000499999999
 50
272.0
 51
358.0
  0
CIRCLE
  5
2DC1
  8
AM_0
 10
1059.2417839326861
 20
291.61327593883868
 30
0.0
 40
9.5
  0
LINE
  5
2DC2
  8
ﾁｭｳｼﾝｾﾝ
 10
863.20200171520719
 20
373.82141093883882
 30
0.0
 11
1014.865246150165
 21
373.82141093883882
 31
0.0
  0
CIRCLE
  5
2DC3
  8
AM_0
 10
939.03362393268606
 20
411.82141093883888
 30
0.0
 40
41.000000499999992
  0
ARC
  5
2DC4
  8
AM_0
 10
869.03361893268561
 20
391.82141093883882
 30
0.0
 40
8.0
 50
270.0
 51
0.0
  0
ARC
  5
2DC5
  8
AM_0
 10
939.03362393268606
 20
411.82141093883888
 30
0.0
 40
20.9999985
 50
106.60155
 51
73.398452000000006
  0
ARC
  5
2DC6
  8
AM_0
 10
939.03362393268606
 20
411.82141093883888
 30
0.0
 40
61.999994999999998
 50
142.11498999999981
 51
180.00001
  0
LINE
  5
2DC7
  8
AM_0
 10
877.03361893268561
 20
411.82141093883888
 30
0.0
 11
877.03361893268561
 21
391.82141093883882
 31
0.0
  0
ARC
  5
2DC8
  8
AM_0
 10
885.11708893268565
 20
451.59585593883889
 30
0.0
 40
5.0
 50
323.5836799999999
 51
45.00000099999999
  0
ARC
  5
2DC9
  8
AM_0
 10
899.25920893268574
 20
465.7380059388388
 30
0.0
 40
5.0
 50
225.0
 51
306.41631999999993
  0
CIRCLE
  5
2DCA
  8
AM_5
 10
939.03362393268606
 20
411.82141093883888
 30
0.0
 40
5.0
  0
CIRCLE
  5
2DCB
  8
AM_0
 10
939.03362393268606
 20
411.82141093883888
 30
0.0
 40
3.5000000500000001
  0
LINE
  5
2DCC
  8
AM_0
 10
933.03362393268606
 20
435.82141093883882
 30
0.0
 11
945.03362393268617
 21
435.82141093883882
 31
0.0
  0
LINE
  5
2DCD
  8
AM_0
 10
933.03362393268606
 20
427.8214409388388
 30
0.0
 11
945.03362393268617
 21
427.8214409388388
 31
0.0
  0
LINE
  5
2DCE
  8
AM_0
 10
945.03362393268617
 20
435.82141093883882
 30
0.0
 11
945.03362393268617
 21
427.8214409388388
 31
0.0
  0
LINE
  5
2DCF
  8
AM_0
 10
933.03362393268606
 20
435.82141093883882
 30
0.0
 11
933.03362393268606
 21
427.8214409388388
 31
0.0
  0
ARC
  5
2DD0
  8
AM_0
 10
1009.0336239326861
 20
391.82141093883882
 30
0.0
 40
8.0
 50
179.99998999999991
 51
270.0
  0
LINE
  5
2DD1
  8
AM_0
 10
1081.5336389326851
 20
361.82140593883878
 30
0.0
 11
1081.5336389326851
 21
411.82141093883888
 31
0.0
  0
LINE
  5
2DD2
  8
AM_0
 10
1044.556143932685
 20
383.82141093883882
 30
0.0
 11
1009.0336239326861
 21
383.82141093883882
 31
0.0
  0
ARC
  5
2DD3
  8
AM_0
 10
1044.556143932685
 20
388.82141093883888
 30
0.0
 40
5.0
 50
270.0
 51
347.70395000000002
  0
ARC
  5
2DD4
  8
AM_0
 10
939.03362393268606
 20
411.82141093883888
 30
0.0
 40
61.999994999999998
 50
0.0
 51
36.416317999999983
  0
LINE
  5
2DD5
  8
AM_0
 10
1001.0336239326861
 20
411.82141093883888
 30
0.0
 11
1001.0336239326861
 21
391.82141093883882
 31
0.0
  0
ARC
  5
2DD6
  8
AM_0
 10
992.95018893268571
 20
451.59585593883889
 30
0.0
 40
5.0
 50
135.0
 51
216.41632000000001
  0
ARC
  5
2DD7
  8
AM_0
 10
978.80803893268615
 20
465.7380059388388
 30
0.0
 40
5.0
 50
233.5836799999999
 51
315.0
  0
LINE
  5
2DD8
  8
AM_0
 10
1081.5336389326851
 20
461.82141093883888
 30
0.0
 11
1081.5336389326851
 21
411.82141093883888
 31
0.0
  0
LINE
  5
2DD9
  8
AM_0
 10
817.3618089326859
 20
551.8186059388388
 30
0.0
 11
889.03365393268575
 21
554.32140593883878
 31
0.0
  0
CIRCLE
  5
2DDA
  8
AM_0
 10
818.82545893268605
 20
532.0295559388386
 30
0.0
 40
9.5
  0
ARC
  5
2DDB
  8
AM_0
 10
818.024863932686
 20
532.83015593883874
 30
0.0
 40
19.000000499999999
 50
91.999997999999948
 51
178.0
  0
ARC
  5
2DDC
  8
AM_0
 10
855.92308393268559
 20
480.78979593883872
 30
0.0
 40
5.0
 50
45.00000099999999
 51
140.31278
  0
ARC
  5
2DDD
  8
AM_0
 10
939.03362393268606
 20
373.82141093883882
 30
0.0
 40
122.0
 50
60.143059999999998
 51
86.162371999999962
  0
LINE
  5
2DDE
  8
AM_0
 10
989.03362393268606
 20
554.32140593883878
 30
0.0
 11
939.03362393268606
 21
554.32140593883878
 31
0.0
  0
ARC
  5
2DDF
  8
AM_0
 10
870.06523893268616
 20
494.93195593883883
 30
0.0
 40
5.0
 50
129.68721999999991
 51
225.0
  0
ARC
  5
2DE0
  8
AM_0
 10
930.53362393268606
 20
500.53665593883898
 30
0.0
 40
5.0
 50
273.83762999999999
 51
0.0
  0
ARC
  5
2DE1
  8
AM_0
 10
947.53362393268617
 20
500.53665593883898
 30
0.0
 40
5.0
 50
179.99998999999991
 51
266.16235999999992
  0
ARC
  5
2DE2
  8
AM_0
 10
939.03362393268606
 20
373.82141093883882
 30
0.0
 40
122.0
 50
93.837626000003567
 51
119.8569400000037
  0
ARC
  5
2DE3
  8
AM_0
 10
947.53362393268617
 20
519.48640593883874
 30
0.0
 40
5.0
 50
85.485943999999975
 51
180.00001
  0
LINE
  5
2DE4
  8
AM_0
 10
935.53362393268606
 20
519.48640593883874
 30
0.0
 11
935.53362393268606
 21
500.53665593883898
 31
0.0
  0
LINE
  5
2DE5
  8
AM_0
 10
942.53362393268617
 20
519.48640593883874
 30
0.0
 11
942.53362393268617
 21
500.53665593883898
 31
0.0
  0
ARC
  5
2DE6
  8
AM_0
 10
930.53362393268606
 20
519.48640593883874
 30
0.0
 40
5.0
 50
0.0
 51
94.514060999999984
  0
LINE
  5
2DE7
  8
AM_0
 10
889.03361893268573
 20
554.32140593883878
 30
0.0
 11
939.03362393268606
 21
554.32140593883878
 31
0.0
  0
LINE
  5
2DE8
  8
ﾁｭｳｼﾝｾﾝ
 10
1069.003857401166
 20
541.79168533551945
 30
0.0
 11
1048.5027462561991
 21
521.29054508793956
 31
0.0
  0
CIRCLE
  5
2DE9
  8
AM_0
 10
1059.2417839326861
 20
532.0295559388386
 30
0.0
 40
9.5
  0
ARC
  5
2DEA
  8
AM_0
 10
1060.0423839326861
 20
532.83015593883874
 30
0.0
 40
19.000000499999999
 50
2.0
 51
88.0
  0
ARC
  5
2DEB
  8
ﾁｭｳｼﾝｾﾝ
 10
939.03362393267582
 20
411.82141093882927
 30
0.0
 40
170.0000050000134
 50
38.903106396336398
 51
51.014603999999473
  0
ARC
  5
2DEC
  8
AM_0
 10
1008.002038932686
 20
494.93195593883883
 30
0.0
 40
5.0
 50
315.0
 51
50.312775000000002
  0
ARC
  5
2DED
  8
AM_0
 10
1022.144158932686
 20
480.78979593883872
 30
0.0
 40
5.0
 50
39.687224000000001
 51
135.0
  0
LINE
  5
2DEE
  8
AM_0
 10
1060.705468932686
 20
551.8186059388388
 30
0.0
 11
989.03365393268575
 21
554.32140593883878
 31
0.0
  0
LINE
  5
2DEF
  8
AM_0
 10
326.01269929683252
 20
377.75884493883882
 30
0.0
 11
316.01269929683252
 21
377.75884493883882
 31
0.0
  0
LINE
  5
2DF0
  8
AM_0
 10
326.01269929683252
 20
391.82141093883882
 30
0.0
 11
316.01269929683252
 21
391.82141093883882
 31
0.0
  0
LINE
  5
2DF1
  8
AM_0
 10
326.01269929683252
 20
299.82140393883878
 30
0.0
 11
316.01269929683252
 21
299.82140393883878
 31
0.0
  0
LINE
  5
2DF2
  8
AM_0
 10
326.01269929683252
 20
313.8839669388388
 30
0.0
 11
316.01269929683252
 21
313.8839669388388
 31
0.0
  0
LINE
  5
2DF3
  8
AM_0
 10
268.51272929683222
 20
829.93844971090471
 30
0.0
 11
268.51272929683222
 21
801.5953039603969
 31
0.0
  0
LINE
  5
2DF4
  8
AM_0
 10
291.01272929683199
 20
840.76687683565012
 30
0.0
 11
291.01272929683199
 21
790.76687683565092
 31
0.0
  0
LINE
  5
2DF5
  8
AM_0
 10
270.51272929683188
 20
792.76687683565069
 30
0.0
 11
270.51272929683222
 21
838.76687683565081
 31
0.0
  0
LINE
  5
2DF6
  8
AM_0
 10
316.01272929683222
 20
871.0054981896858
 30
0.0
 11
316.01272929683307
 21
760.52825548161604
 31
0.0
  0
LINE
  5
2DF7
  8
AM_0
 10
272.51272929683222
 20
790.76687683565092
 30
0.0
 11
286.87059367310121
 21
790.76687683565092
 31
0.0
  0
ARC
  5
2DF8
  8
AM_0
 10
272.51272929683222
 20
792.76687683565092
 30
0.0
 40
2.0
 50
180.0
 51
270.0
1001
GENIUS_GENODEF_13
1002
{
1000
HIER
1070
     0
1002
}
1002
{
1000
MANEDIT
1070
     0
1002
}
1002
{
1000
NOSEL
1070
     0
1002
}
1002
{
1000
BEHIND
1070
     0
1002
}
1002
{
1000
OTHER
1070
     0
1002
}
1002
{
1000
REACTOR
1002
}
1001
GENIUS_GENOBJ-N-FIL_13
1002
{
1000
OWNER
1000
GEN
1002
}
  0
ARC
  5
2DF9
  8
AM_0
 10
270.51272929683222
 20
801.5953039603969
 30
0.0
 40
2.0
 50
180.0
 51
225.0
1001
GENIUS_GENODEF_13
1002
{
1000
HIER
1070
     0
1002
}
1002
{
1000
MANEDIT
1070
     0
1002
}
1002
{
1000
NOSEL
1070
     0
1002
}
1002
{
1000
BEHIND
1070
     0
1002
}
1002
{
1000
OTHER
1070
     0
1002
}
1002
{
1000
REACTOR
1002
}
1001
GENIUS_GENOBJ-N-FIL_13
1002
{
1000
OWNER
1000
GEN
1002
}
  0
LINE
  5
2DFA
  8
AM_0
 10
269.09851573445911
 20
800.18109039802368
 30
0.0
 11
269.9269428592051
 21
799.3526632732777
 31
0.0
  0
ARC
  5
2DFB
  8
AM_0
 10
268.51272929683222
 20
797.93844971090459
 30
0.0
 40
2.0
 50
0.0
 51
45.0
1001
GENIUS_GENODEF_13
1002
{
1000
HIER
1070
     0
1002
}
1002
{
1000
MANEDIT
1070
     0
1002
}
1002
{
1000
NOSEL
1070
     0
1002
}
1002
{
1000
BEHIND
1070
     0
1002
}
1002
{
1000
OTHER
1070
     0
1002
}
1002
{
1000
REACTOR
1002
}
1001
GENIUS_GENOBJ-N-FIL_13
1002
{
1000
OWNER
1000
GEN
1002
}
  0
ARC
  5
2DFC
  8
AM_0
 10
317.01272929683222
 20
760.52825548161604
 30
0.0
 40
1.0
 50
180.0
 51
268.33915276702578
1001
GENIUS_GENOBJ-N-FIL_13
1002
{
1000
OWNER
1000
GEN
1002
}
1001
GENIUS_GENODEF_13
1002
{
1000
HIER
1070
     0
1002
}
1002
{
1000
MANEDIT
1070
     0
1002
}
1002
{
1000
NOSEL
1070
     0
1002
}
1002
{
1000
BEHIND
1070
     0
1002
}
1002
{
1000
OTHER
1070
     0
1002
}
1002
{
1000
REACTOR
1002
}
  0
LINE
  5
2DFD
  8
AM_0
 10
316.98374610354892
 20
759.52867558260459
 30
0.0
 11
326.01272929683222
 21
759.26687683565092
 31
0.0
  0
LINE
  5
2DFE
  8
AM_0
 10
314.54826320276487
 20
767.23134292971815
 30
0.0
 11
293.94166148496657
 21
787.83794464751645
 31
0.0
  0
ARC
  5
2DFF
  8
AM_0
 10
286.87059367310121
 20
780.76687683565069
 30
0.0
 40
10.0
 50
45.0
 51
90.0
1001
GENIUS_GENOBJ-N-FIL_13
1002
{
1000
OWNER
1000
GEN
1002
}
1001
GENIUS_GENODEF_13
1002
{
1000
HIER
1070
     0
1002
}
1002
{
1000
MANEDIT
1070
     0
1002
}
1002
{
1000
NOSEL
1070
     0
1002
}
1002
{
1000
BEHIND
1070
     0
1002
}
1002
{
1000
OTHER
1070
     0
1002
}
1002
{
1000
REACTOR
1002
}
  0
LINE
  5
2E00
  8
AM_0
 10
326.01272929683222
 20
769.76687483565092
 30
0.0
 11
316.01272929683222
 21
769.76687483565092
 31
0.0
  0
ARC
  5
2E01
  8
AM_0
 10
311.01272929683222
 20
763.6958090237855
 30
0.0
 40
5.0
 50
0.0
 51
45.0
1001
GENIUS_GENODEF_13
1002
{
1000
HIER
1070
     0
1002
}
1002
{
1000
MANEDIT
1070
     0
1002
}
1002
{
1000
NOSEL
1070
     0
1002
}
1002
{
1000
BEHIND
1070
     0
1002
}
1002
{
1000
OTHER
1070
     0
1002
}
1002
{
1000
REACTOR
1002
}
1001
GENIUS_GENOBJ-N-FIL_13
1002
{
1000
OWNER
1000
GEN
1002
}
  0
LINE
  5
2E02
  8
AM_0
 10
326.01272929683222
 20
783.82943783565088
 30
0.0
 11
316.01272929683222
 21
783.82943783565088
 31
0.0
  0
LINE
  5
2E03
  8
AM_0
 10
272.51272929683222
 20
840.76687683565103
 30
0.0
 11
286.87059367310121
 21
840.76687683565103
 31
0.0
  0
LINE
  5
2E04
  8
AM_0
 10
241.51272929683211
 20
809.76687683565092
 30
0.0
 11
266.51272929683222
 21
809.76687683565092
 31
0.0
  0
LINE
  5
2E05
  8
AM_0
 10
241.51272929683211
 20
821.76687683565081
 30
0.0
 11
266.51272929683222
 21
821.76687683565081
 31
0.0
  0
LINE
  5
2E06
  8
AM_0
 10
241.51272929683199
 20
813.76687683565081
 30
0.0
 11
259.51272929683199
 21
813.76687683565081
 31
0.0
  0
LINE
  5
2E07
  8
AM_0
 10
241.51272929683199
 20
817.76687683565092
 30
0.0
 11
259.51272929683199
 21
817.76687683565069
 31
0.0
  0
LINE
  5
2E08
  8
AM_0
 10
241.51272929683211
 20
821.76687683565081
 30
0.0
 11
241.51272929683211
 21
809.76687683565092
 31
0.0
  0
LINE
  5
2E09
  8
AM_0
 10
259.51272929683222
 20
817.76687683565069
 30
0.0
 11
259.51272929683199
 21
813.76687683565081
 31
0.0
  0
ARC
  5
2E0A
  8
AM_0
 10
259.51272929683222
 20
815.76687683565103
 30
0.0
 40
1.9999999999998861
 50
270.0
 51
90.0
  0
LINE
  5
2E0B
  8
AM_0
 10
266.51272929683222
 20
823.26687683565092
 30
0.0
 11
266.51272929683222
 21
808.26686920625605
 31
0.0
  0
LINE
  5
2E0C
  8
AM_0
 10
266.51272929683222
 20
808.26686920625605
 30
0.0
 11
268.51272929683222
 21
808.26686920625605
 31
0.0
  0
LINE
  5
2E0D
  8
AM_0
 10
266.51272929683222
 20
823.26687683565092
 30
0.0
 11
268.51272929683222
 21
823.26687683565092
 31
0.0
  0
ARC
  5
2E0E
  8
AM_0
 10
268.51272929683222
 20
833.5953039603969
 30
0.0
 40
2.0
 50
315.0
 51
0.0
1001
GENIUS_GENODEF_13
1002
{
1000
HIER
1070
     0
1002
}
1002
{
1000
MANEDIT
1070
     0
1002
}
1002
{
1000
NOSEL
1070
     0
1002
}
1002
{
1000
BEHIND
1070
     0
1002
}
1002
{
1000
OTHER
1070
     0
1002
}
1002
{
1000
REACTOR
1002
}
1001
GENIUS_GENOBJ-N-FIL_13
1002
{
1000
OWNER
1000
GEN
1002
}
  0
LINE
  5
2E0F
  8
AM_0
 10
269.09851573445911
 20
831.3526632732777
 30
0.0
 11
269.9269428592051
 21
832.18109039802368
 31
0.0
  0
ARC
  5
2E10
  8
AM_0
 10
270.51272929683222
 20
829.93844971090471
 30
0.0
 40
2.0
 50
135.0
 51
180.0
1001
GENIUS_GENODEF_13
1002
{
1000
HIER
1070
     0
1002
}
1002
{
1000
MANEDIT
1070
     0
1002
}
1002
{
1000
NOSEL
1070
     0
1002
}
1002
{
1000
BEHIND
1070
     0
1002
}
1002
{
1000
OTHER
1070
     0
1002
}
1002
{
1000
REACTOR
1002
}
1001
GENIUS_GENOBJ-N-FIL_13
1002
{
1000
OWNER
1000
GEN
1002
}
  0
ARC
  5
2E11
  8
AM_0
 10
272.51272929683222
 20
838.76687683565081
 30
0.0
 40
2.0
 50
90.0
 51
180.0
1001
GENIUS_GENODEF_13
1002
{
1000
HIER
1070
     0
1002
}
1002
{
1000
MANEDIT
1070
     0
1002
}
1002
{
1000
NOSEL
1070
     0
1002
}
1002
{
1000
BEHIND
1070
     0
1002
}
1002
{
1000
OTHER
1070
     0
1002
}
1002
{
1000
REACTOR
1002
}
1001
GENIUS_GENOBJ-N-FIL_13
1002
{
1000
OWNER
1000
GEN
1002
}
  0
LINE
  5
2E12
  8
AM_0
 10
314.54826320276487
 20
864.30241074158357
 30
0.0
 11
293.94166148496657
 21
843.69580902378527
 31
0.0
  0
ARC
  5
2E13
  8
AM_0
 10
286.87059367310121
 20
850.76687683565092
 30
0.0
 40
10.0
 50
270.0
 51
315.0
1001
GENIUS_GENODEF_13
1002
{
1000
HIER
1070
     0
1002
}
1002
{
1000
MANEDIT
1070
     0
1002
}
1002
{
1000
NOSEL
1070
     0
1002
}
1002
{
1000
BEHIND
1070
     0
1002
}
1002
{
1000
OTHER
1070
     0
1002
}
1002
{
1000
REACTOR
1002
}
1001
GENIUS_GENOBJ-N-FIL_13
1002
{
1000
OWNER
1000
GEN
1002
}
  0
LINE
  5
2E14
  8
AM_0
 10
326.01272929683222
 20
847.70431583565096
 30
0.0
 11
316.01272929683222
 21
847.70431583565096
 31
0.0
  0
LINE
  5
2E15
  8
AM_0
 10
326.01272929683222
 20
861.76688183565045
 30
0.0
 11
316.01272929683222
 21
861.76688183565045
 31
0.0
  0
ARC
  5
2E16
  8
AM_0
 10
311.01272929683222
 20
867.83794464751645
 30
0.0
 40
5.0
 50
315.0
 51
0.0
1001
GENIUS_GENODEF_13
1002
{
1000
HIER
1070
     0
1002
}
1002
{
1000
MANEDIT
1070
     0
1002
}
1002
{
1000
NOSEL
1070
     0
1002
}
1002
{
1000
BEHIND
1070
     0
1002
}
1002
{
1000
OTHER
1070
     0
1002
}
1002
{
1000
REACTOR
1002
}
1001
GENIUS_GENOBJ-N-FIL_13
1002
{
1000
OWNER
1000
GEN
1002
}
  0
LINE
  5
2E17
  8
AM_0
 10
316.98374610354892
 20
872.00507808869679
 30
0.0
 11
326.01272929683222
 21
872.26687683565092
 31
0.0
  0
ARC
  5
2E18
  8
AM_0
 10
317.01272929683222
 20
871.0054981896858
 30
0.0
 40
1.0
 50
91.66084723297412
 51
180.0
1001
GENIUS_GENOBJ-N-FIL_13
1002
{
1000
OWNER
1000
GEN
1002
}
1001
GENIUS_GENODEF_13
1002
{
1000
HIER
1070
     0
1002
}
1002
{
1000
MANEDIT
1070
     0
1002
}
1002
{
1000
NOSEL
1070
     0
1002
}
1002
{
1000
BEHIND
1070
     0
1002
}
1002
{
1000
OTHER
1070
     0
1002
}
1002
{
1000
REACTOR
1002
}
  0
POLYLINE
  5
2E1A
  8
AM_0
 66
     1
 10
0.0
 20
0.0
 30
0.0
  0
VERTEX
  5
2E1B
  8
AM_0
 10
369.1325192968323
 20
861.18501683565091
 30
0.0
 42
-0.011693505
  0
VERTEX
  5
2E1C
  8
AM_0
 10
372.69540929683222
 20
865.68138683565076
 30
0.0
 42
-0.01121677
  0
VERTEX
  5
2E1D
  8
AM_0
 10
376.46028929683217
 20
870.01015683565095
 30
0.0
 42
-0.011000238
  0
VERTEX
  5
2E1E
  8
AM_0
 10
380.4123892968322
 20
874.16659683565081
 30
0.0
  0
SEQEND
  5
2E1F
  8
AM_0
  0
POLYLINE
  5
2E20
  8
AM_0
 66
     1
 10
0.0
 20
0.0
 30
0.0
  0
VERTEX
  5
2E21
  8
AM_0
 10
369.1325192968323
 20
770.34878683565091
 30
0.0
 42
0.011693477
  0
VERTEX
  5
2E22
  8
AM_0
 10
372.69540929683222
 20
765.85242683565093
 30
0.0
 42
0.01121672
  0
VERTEX
  5
2E23
  8
AM_0
 10
376.46028929683217
 20
761.52365683565085
 30
0.0
 42
0.011000161
  0
VERTEX
  5
2E24
  8
AM_0
 10
380.4123892968322
 20
757.36721683565099
 30
0.0
  0
SEQEND
  5
2E25
  8
AM_0
  0
LINE
  5
2E26
  8
AM_0
 10
378.4440692968322
 20
757.43594683565095
 30
0.0
 11
326.01279929683238
 21
759.26687683565092
 31
0.0
  0
LINE
  5
2E27
  8
AM_0
 10
326.01272929683222
 20
872.26687683565092
 30
0.0
 11
378.4440692968322
 21
874.09780683565089
 31
0.0
  0
LINE
  5
2E28
  8
AM_0
 10
352.01272929683228
 20
802.76687683565092
 30
0.0
 11
383.31540929683229
 21
802.76687683565092
 31
0.0
  0
LINE
  5
2E29
  8
AM_0
 10
352.01272929683228
 20
828.76687683565092
 30
0.0
 11
383.31540929683229
 21
828.76687683565092
 31
0.0
  0
LINE
  5
2E2A
  8
ﾁｭｳｼﾝｾﾝ
 10
231.02660842555889
 20
815.76687683565103
 30
0.0
 11
665.0267692968323
 21
815.76687683565103
 31
0.0
  0
ARC
  5
2E2B
  8
AM_0
 10
352.01272929683228
 20
805.76687683565081
 30
0.0
 40
3.0
 50
180.00001000000091
 51
270.0
  0
LINE
  5
2E2C
  8
AM_0
 10
326.01272929683222
 20
759.26687683565092
 30
0.0
 11
326.01272929683222
 21
872.26687683565092
 31
0.0
  0
LINE
  5
2E2D
  8
AM_0
 10
326.01272929683222
 20
783.82693683565094
 30
0.0
 11
362.10507929683212
 21
783.82693683565094
 31
0.0
  0
LINE
  5
2E2E
  8
AM_0
 10
326.01272929683222
 20
769.76687683565092
 30
0.0
 11
367.35544929683221
 21
769.76687683565092
 31
0.0
  0
ARC
  5
2E2F
  8
AM_0
 10
367.35544929683221
 20
772.76687683565092
 30
0.0
 40
3.0
 50
269.999989999999
 51
35.575751000001212
  0
POLYLINE
  5
2E30
  8
AM_0
 66
     1
 10
0.0
 20
0.0
 30
0.0
  0
VERTEX
  5
2E31
  8
AM_0
 10
352.98228929683228
 20
802.76715683565078
 30
0.0
  0
VERTEX
  5
2E32
  8
AM_0
 10
360.40956929683227
 20
783.82775683565092
 30
0.0
 42
-1.0
  0
SEQEND
  5
2E33
  8
AM_0
  0
ARC
  5
2E34
  8
AM_0
 10
362.10507929683212
 20
780.82693683565094
 30
0.0
 40
3.0
 50
30.468076999999081
 51
90.00000299999769
  0
POLYLINE
  5
2E35
  8
AM_0
 66
     1
 10
0.0
 20
0.0
 30
0.0
  0
VERTEX
  5
2E36
  8
AM_0
 10
364.69078929683218
 20
782.34812683565099
 30
0.0
 42
0.0058779346
  0
VERTEX
  5
2E37
  8
AM_0
 10
365.90040929683238
 20
780.34654683565088
 30
0.0
 42
0.0056588677
  0
VERTEX
  5
2E38
  8
AM_0
 10
367.15588929683219
 20
778.37339683565085
 30
0.0
 42
0.0054619133
  0
VERTEX
  5
2E39
  8
AM_0
 10
368.45492929683229
 20
776.42864683565097
 30
0.0
 42
0.0052861212
  0
VERTEX
  5
2E3A
  8
AM_0
 10
369.79545929683229
 20
774.5122468356509
 30
0.0
  0
SEQEND
  5
2E3B
  8
AM_0
  0
LINE
  5
2E3C
  8
AM_0
 10
326.01272929683222
 20
847.70681683565078
 30
0.0
 11
362.10507929683212
 21
847.70681683565078
 31
0.0
  0
LINE
  5
2E3D
  8
AM_0
 10
326.01272929683222
 20
861.76687683565092
 30
0.0
 11
367.35544929683221
 21
861.76687683565092
 31
0.0
  0
POLYLINE
  5
2E3E
  8
AM_0
 66
     1
 10
0.0
 20
0.0
 30
0.0
  0
VERTEX
  5
2E3F
  8
AM_0
 10
352.98228929683228
 20
828.76660683565092
 30
0.0
  0
VERTEX
  5
2E40
  8
AM_0
 10
360.40956929683227
 20
847.70603683565093
 30
0.0
 42
-1.0
  0
SEQEND
  5
2E41
  8
AM_0
  0
LINE
  5
2E42
  8
AM_0
 10
349.01272929683228
 20
805.76687683565081
 30
0.0
 11
349.01272929683228
 21
825.76687683565092
 31
0.0
  0
ARC
  5
2E43
  8
AM_0
 10
352.01272929683228
 20
825.76687683565092
 30
0.0
 40
3.0
 50
90.00000299999769
 51
180.00001000000091
  0
POLYLINE
  5
2E44
  8
AM_0
 66
     1
 10
0.0
 20
0.0
 30
0.0
  0
VERTEX
  5
2E45
  8
AM_0
 10
364.69078929683218
 20
849.18566683565075
 30
0.0
 42
-0.0058779314
  0
VERTEX
  5
2E46
  8
AM_0
 10
365.90040929683238
 20
851.18725683565083
 30
0.0
 42
-0.0056588672
  0
VERTEX
  5
2E47
  8
AM_0
 10
367.15588929683219
 20
853.16040683565086
 30
0.0
 42
-0.0054619156
  0
VERTEX
  5
2E48
  8
AM_0
 10
368.45492929683229
 20
855.10515683565086
 30
0.0
 42
-0.0052861264
  0
VERTEX
  5
2E49
  8
AM_0
 10
369.79545929683229
 20
857.02155683565093
 30
0.0
  0
SEQEND
  5
2E4A
  8
AM_0
  0
ARC
  5
2E4B
  8
AM_0
 10
362.10507929683212
 20
850.7068168356509
 30
0.0
 40
3.0
 50
269.999989999999
 51
329.53192000000121
  0
ARC
  5
2E4C
  8
AM_0
 10
367.35544929683221
 20
858.76687683565092
 30
0.0
 40
3.0
 50
324.42424000000028
 51
90.00000299999769
  0
POLYLINE
  5
2E4D
  8
AM_0
 66
     1
 10
0.0
 20
0.0
 30
0.0
  0
VERTEX
  5
2E4E
  8
AM_0
 10
538.37703929683255
 20
867.33139683565093
 30
0.0
 42
0.030646372
  0
VERTEX
  5
2E4F
  8
AM_0
 10
533.9675092968323
 20
833.04798683565082
 30
0.0
 42
0.064801293
  0
VERTEX
  5
2E50
  8
AM_0
 10
538.37703929683255
 20
764.20233683565095
 30
0.0
  0
SEQEND
  5
2E51
  8
AM_0
  0
ARC
  5
2E52
  8
AM_0
 10
383.31540929683229
 20
799.76687683565092
 30
0.0
 40
3.0
 50
0.0
 51
90.00000299999769
  0
LINE
  5
2E53
  8
AM_0
 10
559.51279929683233
 20
676.77591683565095
 30
0.0
 11
559.51279929683233
 21
954.74124683565105
 31
0.0
  0
LINE
  5
2E54
  8
AM_0
 10
577.51279929683233
 20
673.26687683565092
 30
0.0
 11
577.51279929683233
 21
958.26687683565092
 31
0.0
  0
LINE
  5
2E55
  8
AM_0
 10
567.51279929683233
 20
704.80960683565092
 30
0.0
 11
567.51279929683233
 21
926.72415683565077
 31
0.0
  0
LINE
  5
2E56
  8
AM_0
 10
581.51279929683233
 20
695.76687683565092
 30
0.0
 11
581.51279929683233
 21
935.76687683565092
 31
0.0
  0
LINE
  5
2E57
  8
AM_0
 10
390.01272929683222
 20
746.47885683565084
 30
0.0
 11
390.01272929683222
 21
885.05490683565097
 31
0.0
  0
LINE
  5
2E58
  8
AM_0
 10
400.01272929683222
 20
742.26687683565081
 30
0.0
 11
400.01272929683222
 21
889.26693683565088
 31
0.0
  0
LINE
  5
2E59
  8
AM_0
 10
461.5127992968321
 20
676.0289068356509
 30
0.0
 11
461.5127992968321
 21
811.76687683565092
 31
0.0
  0
LINE
  5
2E5A
  8
AM_0
 10
653.51279929683233
 20
794.76687683565092
 30
0.0
 11
653.51279929683233
 21
836.76687683565092
 31
0.0
  0
LINE
  5
2E5B
  8
AM_0
 10
583.51279929683233
 20
793.26687683565092
 30
0.0
 11
583.51279929683233
 21
838.26687683565092
 31
0.0
  0
LINE
  5
2E5C
  8
AM_0
 10
448.51272929683211
 20
679.37991683565087
 30
0.0
 11
448.51272929683211
 21
806.22744683565088
 31
0.0
  0
LINE
  5
2E5D
  8
AM_0
 10
434.51279929683221
 20
701.6589068356509
 30
0.0
 11
434.51279929683221
 21
811.76687683565092
 31
0.0
  0
LINE
  5
2E5E
  8
AM_0
 10
557.36545929683246
 20
718.76321683565095
 30
0.0
 11
524.86264929683205
 21
738.20108683565093
 31
0.0
  0
LINE
  5
2E5F
  8
AM_0
 10
557.07901929683214
 20
712.52029683565092
 30
0.0
 11
515.66055929683239
 21
737.29007683565078
 31
0.0
  0
LINE
  5
2E60
  8
AM_0
 10
461.5127992968321
 20
764.20236683565054
 30
0.0
 11
559.51279929683233
 21
764.20236683565054
 31
0.0
  0
LINE
  5
2E61
  8
AM_0
 10
461.5127992968321
 20
686.63650683565095
 30
0.0
 11
559.51279929683233
 21
683.21426683565085
 31
0.0
  0
LINE
  5
2E62
  8
AM_0
 10
461.5127992968321
 20
676.0289068356509
 30
0.0
 11
562.44638929683208
 21
673.79324683565085
 31
0.0
  0
LINE
  5
2E63
  8
AM_0
 10
517.20029929683233
 20
742.86477683565079
 30
0.0
 11
559.51279929683233
 21
742.86477683565079
 31
0.0
  0
ARC
  5
2E64
  8
AM_0
 10
451.51272929683228
 20
679.37991683565087
 30
0.0
 40
3.0
 50
179.9999899999988
 51
268.00000999999861
  0
ARC
  5
2E65
  8
AM_0
 10
445.5127992968321
 20
694.1391368356509
 30
0.0
 40
3.0
 50
0.0
 51
79.999998000001099
  0
ARC
  5
2E66
  8
AM_0
 10
450.51279929683221
 20
689.02194683565097
 30
0.0
 40
2.0
 50
179.9999899999988
 51
268.00000999999861
  0
LINE
  5
2E67
  8
AM_0
 10
448.51272929683211
 20
764.20236683565054
 30
0.0
 11
461.5127992968321
 21
764.20236683565054
 31
0.0
  0
LINE
  5
2E68
  8
AM_0
 10
448.51272929683211
 20
738.20108683565093
 30
0.0
 11
461.5127992968321
 21
738.20108683565093
 31
0.0
  0
ARC
  5
2E69
  8
AM_0
 10
429.51279929683221
 20
736.23361683565099
 30
0.0
 40
5.0
 50
0.0
 51
87.999999999996248
  0
LINE
  5
2E6A
  8
AM_0
 10
436.99179929683208
 20
698.68789683565092
 30
0.0
 11
446.03372929683229
 21
697.09353683565075
 31
0.0
  0
ARC
  5
2E6B
  8
AM_0
 10
437.51279929683221
 20
701.64230683565086
 30
0.0
 40
3.0
 50
179.9999899999988
 51
260.00000000000119
  0
LINE
  5
2E6C
  8
AM_0
 10
400.0127992968321
 20
742.26687683565081
 30
0.0
 11
429.68735929683231
 21
741.23062683565092
 31
0.0
  0
LINE
  5
2E6D
  8
AM_0
 10
400.0127992968321
 20
776.29220683565097
 30
0.0
 11
434.51279929683221
 21
776.29220683565097
 31
0.0
  0
LINE
  5
2E6E
  8
AM_0
 10
400.0127992968321
 20
754.18820683565093
 30
0.0
 11
434.51279929683221
 21
754.18820683565093
 31
0.0
  0
ARC
  5
2E6F
  8
AM_0
 10
394.01272929683222
 20
746.47885683565084
 30
0.0
 40
4.0
 50
180.00001000000091
 51
267.99999999999631
  0
LINE
  5
2E70
  8
AM_0
 10
390.01272929683222
 20
754.18820683565093
 30
0.0
 11
400.01272929683222
 21
754.18820683565093
 31
0.0
  0
LINE
  5
2E71
  8
AM_0
 10
388.58578929683222
 20
749.19381683565075
 30
0.0
 11
381.80508929683231
 21
755.97445683565093
 31
0.0
  0
ARC
  5
2E72
  8
AM_0
 10
385.05020929683218
 20
745.65829683565084
 30
0.0
 40
5.0
 50
5.2307202000000732
 51
44.999998000001611
  0
ARC
  5
2E73
  8
AM_0
 10
378.26956929683229
 20
752.43899683565087
 30
0.0
 40
5.0
 50
44.999998000001611
 51
87.999999999996248
  0
LINE
  5
2E74
  8
AM_0
 10
393.8731492968322
 20
742.48123683565086
 30
0.0
 11
400.0127992968321
 21
742.26687683565081
 31
0.0
  0
LINE
  5
2E75
  8
AM_0
 10
390.01272929683222
 20
776.29220683565097
 30
0.0
 11
400.01272929683222
 21
776.29220683565097
 31
0.0
  0
ARC
  5
2E76
  8
AM_0
 10
513.30856929683227
 20
735.20108683565093
 30
0.0
 40
3.0
 50
59.11902300000196
 51
90.00000299999769
  0
ARC
  5
2E77
  8
AM_0
 10
517.20029929683233
 20
739.8647768356509
 30
0.0
 40
3.0
 50
90.00000299999769
 51
239.11901999999981
  0
LINE
  5
2E78
  8
AM_0
 10
451.40799929683237
 20
676.38180683565065
 30
0.0
 11
461.5127992968321
 21
676.0289068356509
 31
0.0
  0
LINE
  5
2E79
  8
AM_0
 10
450.44302929683209
 20
687.02310683565088
 30
0.0
 11
461.51285929683218
 21
686.63650683565095
 31
0.0
  0
LINE
  5
2E7A
  8
AM_0
 10
461.5127992968321
 20
738.20108683565093
 30
0.0
 11
513.30856929683227
 21
738.20108683565093
 31
0.0
  0
ARC
  5
2E7B
  8
AM_0
 10
562.51279929683233
 20
676.79251683565087
 30
0.0
 40
3.0
 50
179.9999899999988
 51
268.00000999999861
  0
LINE
  5
2E7C
  8
AM_0
 10
583.51279929683233
 20
794.76687683565092
 30
0.0
 11
653.51279929683233
 21
794.76687683565092
 31
0.0
  0
LINE
  5
2E7D
  8
AM_0
 10
549.38138929683225
 20
742.86477683565079
 30
0.0
 11
559.51272929683228
 21
735.3067368356509
 31
0.0
  0
ARC
  5
2E7E
  8
AM_0
 10
562.51279929683233
 20
704.80960683565092
 30
0.0
 40
5.0
 50
267.99999999999631
 51
0.0
  0
LINE
  5
2E7F
  8
AM_0
 10
562.40805929683245
 20
673.79434683565103
 30
0.0
 11
577.51279929683233
 21
673.26687683565092
 31
0.0
  0
POLYLINE
  5
2E80
  8
AM_0
 66
     1
 10
0.0
 20
0.0
 30
0.0
  0
VERTEX
  5
2E81
  8
AM_0
 10
551.85389929683231
 20
715.6448968356508
 30
0.0
 42
0.0052467582
  0
VERTEX
  5
2E82
  8
AM_0
 10
554.2741192968324
 20
709.23506683565085
 30
0.0
 42
0.0052066449
  0
VERTEX
  5
2E83
  8
AM_0
 10
556.82779929683215
 20
702.87723683565093
 30
0.0
 42
0.0051740769
  0
VERTEX
  5
2E84
  8
AM_0
 10
559.51279929683233
 20
696.57400683565095
 30
0.0
  0
SEQEND
  5
2E85
  8
AM_0
  0
ARC
  5
2E86
  8
AM_0
 10
554.51279929683233
 20
708.22909683565092
 30
0.0
 40
5.0
 50
0.0
 51
59.11901699999779
  0
LINE
  5
2E87
  8
AM_0
 10
577.51279929683233
 20
695.76687683565092
 30
0.0
 11
581.51279929683233
 21
695.76687683565092
 31
0.0
  0
ARC
  5
2E88
  8
AM_0
 10
564.51279929683233
 20
749.63247683565078
 30
0.0
 40
5.0
 50
90.00000299999769
 51
180.00001000000091
  0
LINE
  5
2E89
  8
AM_0
 10
581.51279929683233
 20
793.26687683565092
 30
0.0
 11
583.51279929683233
 21
793.26687683565092
 31
0.0
  0
LINE
  5
2E8A
  8
AM_0
 10
517.20029929683233
 20
888.66897683565094
 30
0.0
 11
559.51279929683233
 21
888.66897683565094
 31
0.0
  0
LINE
  5
2E8B
  8
AM_0
 10
461.5127992968321
 20
867.33139683565093
 30
0.0
 11
559.51279929683233
 21
867.33139683565093
 31
0.0
  0
LINE
  5
2E8C
  8
AM_0
 10
461.5127992968321
 20
944.89724683565078
 30
0.0
 11
559.5128592968324
 21
948.31942683565092
 31
0.0
  0
LINE
  5
2E8D
  8
AM_0
 10
461.5127992968321
 20
955.50485683565091
 30
0.0
 11
562.44632929683235
 21
957.74057683565093
 31
0.0
  0
LINE
  5
2E8E
  8
AM_0
 10
557.07907929683222
 20
919.0134568356508
 30
0.0
 11
515.66055929683239
 21
894.24368683565092
 31
0.0
  0
LINE
  5
2E8F
  8
AM_0
 10
557.36539929683215
 20
912.77053683565077
 30
0.0
 11
524.86264929683205
 21
893.33267683565077
 31
0.0
  0
ARC
  5
2E90
  8
AM_0
 10
437.51279929683221
 20
929.89144683565098
 30
0.0
 40
3.0
 50
99.999999999998593
 51
180.00001000000091
  0
LINE
  5
2E91
  8
AM_0
 10
448.51272929683211
 20
825.30630683565084
 30
0.0
 11
448.51272929683211
 21
952.15377683565089
 31
0.0
  0
LINE
  5
2E92
  8
AM_0
 10
461.5127992968321
 20
819.76681683565096
 30
0.0
 11
461.5127992968321
 21
955.50485683565091
 31
0.0
  0
ARC
  5
2E93
  8
AM_0
 10
445.51285929683218
 20
815.76687683565103
 30
0.0
 40
10.0
 50
203.5782699999985
 51
336.4217200000013
  0
ARC
  5
2E94
  8
AM_0
 10
445.51285929683218
 20
815.76687683565103
 30
0.0
 40
10.0
 50
23.57803699999776
 51
156.42196000000081
  0
LINE
  5
2E95
  8
AM_0
 10
429.01285929683218
 20
819.76681683565096
 30
0.0
 11
462.01285929683218
 21
819.76681683565096
 31
0.0
  0
LINE
  5
2E96
  8
AM_0
 10
429.01285929683218
 20
811.76687683565092
 30
0.0
 11
462.01285929683218
 21
811.76687683565092
 31
0.0
  0
LINE
  5
2E97
  8
AM_0
 10
448.51272929683211
 20
893.33267683565077
 30
0.0
 11
461.5127992968321
 21
893.33267683565077
 31
0.0
  0
LINE
  5
2E98
  8
AM_0
 10
448.51272929683211
 20
867.33139683565093
 30
0.0
 11
461.5127992968321
 21
867.33139683565093
 31
0.0
  0
LINE
  5
2E99
  8
AM_0
 10
434.51279929683221
 20
819.76681683565096
 30
0.0
 11
434.51279929683221
 21
929.908056835651
 31
0.0
  0
LINE
  5
2E9A
  8
AM_0
 10
400.0127992968321
 20
855.24154683565098
 30
0.0
 11
434.51279929683221
 21
855.24154683565098
 31
0.0
  0
LINE
  5
2E9B
  8
AM_0
 10
386.31540929683217
 20
804.99838683565088
 30
0.0
 11
386.31540929683217
 21
826.99893683565097
 31
0.0
  0
ARC
  5
2E9C
  8
AM_0
 10
383.31540929683229
 20
831.76687683565081
 30
0.0
 40
3.0
 50
269.999989999999
 51
0.0000006832429909
  0
LINE
  5
2E9D
  8
AM_0
 10
390.01272929683222
 20
855.24154683565098
 30
0.0
 11
400.01272929683222
 21
855.24154683565098
 31
0.0
  0
ARC
  5
2E9E
  8
AM_0
 10
429.01285929683218
 20
815.76687683565103
 30
0.0
 40
3.9999962
 50
90.00000299999769
 51
270.0
  0
LINE
  5
2E9F
  8
AM_0
 10
400.0127992968321
 20
889.26687683565092
 30
0.0
 11
429.68722929683219
 21
890.30313683565078
 31
0.0
  0
LINE
  5
2EA0
  8
AM_0
 10
400.0127992968321
 20
877.34549683565081
 30
0.0
 11
434.51279929683221
 21
877.34549683565081
 31
0.0
  0
ARC
  5
2EA1
  8
AM_0
 10
394.01272929683222
 20
885.05490683565097
 30
0.0
 40
4.0
 50
91.999998000000545
 51
180.00001000000091
  0
LINE
  5
2EA2
  8
AM_0
 10
390.01272929683222
 20
877.34555683565077
 30
0.0
 11
400.01272929683222
 21
877.34555683565077
 31
0.0
  0
ARC
  5
2EA3
  8
AM_0
 10
385.05020929683218
 20
885.87545683565088
 30
0.0
 40
5.0
 50
315.0
 51
354.76905999999741
  0
LINE
  5
2EA4
  8
AM_0
 10
381.80514929683233
 20
875.55923683565095
 30
0.0
 11
388.58578929683222
 21
882.33987683565101
 31
0.0
  0
ARC
  5
2EA5
  8
AM_0
 10
378.26956929683229
 20
879.09475683565086
 30
0.0
 40
5.0
 50
272.00000000000369
 51
315.0
  0
LINE
  5
2EA6
  8
AM_0
 10
393.8731492968322
 20
889.05246683565053
 30
0.0
 11
400.01272929683222
 21
889.26687683565092
 31
0.0
  0
ARC
  5
2EA7
  8
AM_0
 10
429.51279929683221
 20
895.30014683565093
 30
0.0
 40
5.0
 50
272.00000000000369
 51
0.0
  0
ARC
  5
2EA8
  8
AM_0
 10
462.01285929683218
 20
815.76687683565103
 30
0.0
 40
3.9999962
 50
270.0
 51
90.00000299999769
  0
LINE
  5
2EA9
  8
AM_0
 10
461.5127992968321
 20
893.33267683565077
 30
0.0
 11
513.30856929683227
 21
893.33267683565077
 31
0.0
  0
ARC
  5
2EAA
  8
AM_0
 10
517.20029929683233
 20
891.66897683565082
 30
0.0
 40
3.0
 50
120.8809700000043
 51
270.0
  0
ARC
  5
2EAB
  8
AM_0
 10
513.30856929683227
 20
896.33267683565089
 30
0.0
 40
3.0
 50
270.0
 51
300.88098000000002
  0
ARC
  5
2EAC
  8
AM_0
 10
451.51272929683228
 20
952.15377683565089
 30
0.0
 40
3.0
 50
91.999998000000545
 51
180.00001000000091
  0
ARC
  5
2EAD
  8
AM_0
 10
445.5127992968321
 20
937.3946268356508
 30
0.0
 40
3.0
 50
280.00001000000128
 51
0.0
  0
ARC
  5
2EAE
  8
AM_0
 10
450.51279929683221
 20
942.51187683565104
 30
0.0
 40
2.0
 50
91.999998000000545
 51
180.00001000000091
  0
LINE
  5
2EAF
  8
AM_0
 10
436.99185929683222
 20
932.84585683565092
 30
0.0
 11
446.03372929683229
 21
934.44021683565086
 31
0.0
  0
LINE
  5
2EB0
  8
AM_0
 10
450.44302929683209
 20
944.51065683565093
 30
0.0
 11
461.5127992968321
 21
944.89724683565078
 31
0.0
  0
LINE
  5
2EB1
  8
AM_0
 10
451.40805929683228
 20
955.15194683565085
 30
0.0
 11
461.5127992968321
 21
955.50479683565095
 31
0.0
  0
POLYLINE
  5
2EB2
  8
AM_0
 66
     1
 10
0.0
 20
0.0
 30
0.0
  0
VERTEX
  5
2EB3
  8
AM_0
 10
559.51279929683233
 20
934.95974683565078
 30
0.0
  0
VERTEX
  5
2EB4
  8
AM_0
 10
551.85396929683236
 20
915.88905683565088
 30
0.0
 42
-1.0
  0
SEQEND
  5
2EB5
  8
AM_0
  0
ARC
  5
2EB6
  8
AM_0
 10
562.51279929683233
 20
926.72415683565077
 30
0.0
 40
5.0
 50
0.0
 51
91.999998000000545
  0
LINE
  5
2EB7
  8
AM_0
 10
597.51279929683233
 20
821.76687683565081
 30
0.0
 11
653.51279929683233
 21
821.76687683565081
 31
0.0
  0
LINE
  5
2EB8
  8
AM_0
 10
597.51279929683233
 20
809.76687683565092
 30
0.0
 11
653.51279929683233
 21
809.76687683565092
 31
0.0
  0
LINE
  5
2EB9
  8
AM_0
 10
583.51279929683233
 20
836.76687683565092
 30
0.0
 11
653.51279929683233
 21
836.76687683565092
 31
0.0
  0
ARC
  5
2EBA
  8
AM_0
 10
597.51279929683233
 20
815.76687683565103
 30
0.0
 40
6.0000037999999991
 50
90.00000299999769
 51
270.0
  0
LINE
  5
2EBB
  8
AM_0
 10
597.51279929683233
 20
821.76687683565081
 30
0.0
 11
597.51279929683233
 21
809.76687683565092
 31
0.0
  0
LINE
  5
2EBC
  8
AM_0
 10
581.51279929683233
 20
838.26687683565092
 30
0.0
 11
583.51279929683233
 21
838.26687683565092
 31
0.0
  0
ARC
  5
2EBD
  8
AM_0
 10
564.51279929683233
 20
881.90127683565095
 30
0.0
 40
5.0
 50
179.9999899999988
 51
270.0
  0
LINE
  5
2EBE
  8
AM_0
 10
549.38138929683225
 20
888.66897683565094
 30
0.0
 11
559.51279929683233
 21
896.22708683565077
 31
0.0
  0
ARC
  5
2EBF
  8
AM_0
 10
554.51279929683233
 20
923.30465683565103
 30
0.0
 40
5.0
 50
300.88098000000002
 51
0.0
  0
LINE
  5
2EC0
  8
AM_0
 10
562.40799929683214
 20
957.73947683565098
 30
0.0
 11
577.51279929683233
 21
958.26693683565099
 31
0.0
  0
ARC
  5
2EC1
  8
AM_0
 10
562.51279929683233
 20
954.74124683565105
 30
0.0
 40
3.0
 50
91.999998000000545
 51
180.00001000000091
  0
LINE
  5
2EC2
  8
AM_0
 10
577.51279929683233
 20
935.76687683565092
 30
0.0
 11
581.51279929683233
 21
935.76687683565092
 31
0.0
  0
LINE
  5
2EC3
  8
ﾁｭｳｼﾝｾﾝ
 10
1069.003898329365
 20
281.85117747035599
 30
0.0
 11
1048.5027580817859
 21
302.35228861532482
 31
0.0
  0
ARC
  5
2EC4
  8
ﾁｭｳｼﾝｾﾝ
 10
939.03362393267673
 20
411.82141093884883
 30
0.0
 40
170.0000050000134
 50
308.90310639633623
 51
321.01460399999922
  0
ARC
  5
2EC5
  8
ﾁｭｳｼﾝｾﾝ
 10
939.03362393268355
 20
411.82141093884229
 30
0.0
 40
170.0000049999955
 50
128.71969759245741
 51
141.0146100000002
  0
LINE
  5
2EC6
  8
ﾁｭｳｼﾝｾﾝ
 10
807.8739892579905
 20
542.98106000561688
 30
0.0
 11
829.6109334844391
 21
521.24412837650709
 31
0.0
  0
TEXT
  5
30A3
  8
AM_0
 10
792.03536949912859
 20
814.83636501273247
 30
0.0
 40
15.0
  1
VX02-800GF~VX02-K20GF
  0
ENDSEC
  0
EOF
