  0
SECTION
  2
HEADER
  9
$ACADVER
  1
AC1009
  9
$INSBASE
 10
0.0
 20
0.0
 30
0.0
  9
$EXTMIN
 10
162.50569370471129
 20
169.5673385257453
 30
-0.0000000000000058
  9
$EXTMAX
 10
643.32875235288975
 20
542.05993780058327
 30
0.0000000000000104
  9
$LIMMIN
 10
0.0
 20
0.0
  9
$LIMMAX
 10
853.5
 20
555.00000000000011
  9
$ORTHOMODE
 70
     0
  9
$REGENMODE
 70
     1
  9
$FILLMODE
 70
     1
  9
$QTEXTMODE
 70
     0
  9
$MIRRTEXT
 70
     1
  9
$DRAGMODE
 70
     2
  9
$LTSCALE
 40
3.0
  9
$OSMODE
 70
   551
  9
$ATTMODE
 70
     1
  9
$TEXTSIZE
 40
2.5
  9
$TRACEWID
 40
1.0
  9
$TEXTSTYLE
  7
STANDARD
  9
$CLAYER
  8
AM_0
  9
$CELTYPE
  6
BYLAYER
  9
$CECOLOR
 62
   256
  9
$DIMSCALE
 40
1.0
  9
$DIMASZ
 40
0.1
  9
$DIMEXO
 40
0.05
  9
$DIMDLI
 40
0.5
  9
$DIMRND
 40
0.0
  9
$DIMDLE
 40
0.0
  9
$DIMEXE
 40
0.1
  9
$DIMTP
 40
0.1
  9
$DIMTM
 40
0.1
  9
$DIMTXT
 40
0.12
  9
$DIMCEN
 40
0.0
  9
$DIMTSZ
 40
0.0
  9
$DIMTOL
 70
     0
  9
$DIMLIM
 70
     0
  9
$DIMTIH
 70
     1
  9
$DIMTOH
 70
     1
  9
$DIMSE1
 70
     0
  9
$DIMSE2
 70
     0
  9
$DIMTAD
 70
     0
  9
$DIMZIN
 70
     8
  9
$DIMBLK
  1

  9
$DIMASO
 70
     1
  9
$DIMSHO
 70
     1
  9
$DIMPOST
  1

  9
$DIMAPOST
  1
mm
  9
$DIMALT
 70
     0
  9
$DIMALTD
 70
     2
  9
$DIMALTF
 40
25.399999999999999
  9
$DIMLFAC
 40
1.0
  9
$DIMTOFL
 70
     0
  9
$DIMTVP
 40
0.0
  9
$DIMTIX
 70
     0
  9
$DIMSOXD
 70
     0
  9
$DIMSAH
 70
     0
  9
$DIMBLK1
  1

  9
$DIMBLK2
  1

  9
$DIMSTYLE
  2
AM_ANSI
  9
$DIMCLRD
 70
   256
  9
$DIMCLRE
 70
   256
  9
$DIMCLRT
 70
     2
  9
$DIMTFAC
 40
0.71
  9
$DIMGAP
 40
0.06
  9
$LUNITS
 70
     2
  9
$LUPREC
 70
     2
  9
$SKETCHINC
 40
1.0
  9
$FILLETRAD
 40
15.0
  9
$AUNITS
 70
     0
  9
$AUPREC
 70
     0
  9
$MENU
  1
.
  9
$ELEVATION
 40
0.0
  9
$PELEVATION
 40
0.0
  9
$THICKNESS
 40
0.0
  9
$LIMCHECK
 70
     0
  9
$BLIPMODE
 70
     0
  9
$CHAMFERA
 40
6.0
  9
$CHAMFERB
 40
3.0
  9
$SKPOLY
 70
     0
  9
$TDCREATE
 40
2452065.79127368
  9
$TDUPDATE
 40
2458541.4405329628
  9
$TDINDWG
 40
0.0440733681
  9
$TDUSRTIMER
 40
0.0440729977
  9
$USRTIMER
 70
     1
  9
$ANGBASE
 50
0.0
  9
$ANGDIR
 70
     0
  9
$PDMODE
 70
     0
  9
$PDSIZE
 40
0.0
  9
$PLINEWID
 40
0.0
  9
$COORDS
 70
     1
  9
$SPLFRAME
 70
     0
  9
$SPLINETYPE
 70
     6
  9
$SPLINESEGS
 70
     8
  9
$ATTDIA
 70
     1
  9
$ATTREQ
 70
     1
  9
$HANDLING
 70
     1
  9
$HANDSEED
  5
31C3
  9
$SURFTAB1
 70
     6
  9
$SURFTAB2
 70
     6
  9
$SURFTYPE
 70
     6
  9
$SURFU
 70
     6
  9
$SURFV
 70
     6
  9
$UCSNAME
  2

  9
$UCSORG
 10
0.0
 20
0.0
 30
0.0
  9
$UCSXDIR
 10
1.0
 20
0.0
 30
0.0
  9
$UCSYDIR
 10
0.0
 20
1.0
 30
0.0
  9
$PUCSNAME
  2

  9
$PUCSORG
 10
0.0
 20
0.0
 30
0.0
  9
$PUCSXDIR
 10
1.0
 20
0.0
 30
0.0
  9
$PUCSYDIR
 10
0.0
 20
1.0
 30
0.0
  9
$USERI1
 70
     0
  9
$USERI2
 70
     0
  9
$USERI3
 70
     0
  9
$USERI4
 70
     0
  9
$USERI5
 70
     0
  9
$USERR1
 40
0.0
  9
$USERR2
 40
0.0
  9
$USERR3
 40
0.0
  9
$USERR4
 40
0.0
  9
$USERR5
 40
0.0
  9
$WORLDVIEW
 70
     1
  9
$SHADEDGE
 70
     3
  9
$SHADEDIF
 70
    70
  9
$TILEMODE
 70
     1
  9
$MAXACTVP
 70
    64
  9
$PLIMCHECK
 70
     0
  9
$PEXTMIN
 10
1.0000000000000000E+020
 20
1.0000000000000000E+020
 30
1.0000000000000000E+020
  9
$PEXTMAX
 10
-1.0000000000000000E+020
 20
-1.0000000000000000E+020
 30
-1.0000000000000000E+020
  9
$PLIMMIN
 10
0.0
 20
0.0
  9
$PLIMMAX
 10
420.0
 20
297.0
  9
$UNITMODE
 70
     0
  9
$VISRETAIN
 70
     1
  9
$PLINEGEN
 70
     0
  9
$PSLTSCALE
 70
     1
  0
ENDSEC
  0
SECTION
  2
TABLES
  0
TABLE
  2
VPORT
 70
     1
  0
VPORT
  2
*ACTIVE
 70
     0
 10
0.0
 20
0.0
 11
1.0
 21
1.0
 12
402.91722302880049
 22
355.81363816316428
 13
0.0
 23
0.0
 14
7.5
 24
7.5
 15
30.0
 25
30.0
 16
0.0
 26
0.0
 36
1.0
 17
0.0
 27
0.0
 37
0.0
 40
375.04975670693079
 41
1.7571592210767459
 42
50.0
 43
0.0
 44
0.0
 50
0.0
 51
0.0
 71
     0
 72
   100
 73
     1
 74
     3
 75
     0
 76
     0
 77
     0
 78
     0
  0
ENDTAB
  0
TABLE
  2
LTYPE
 70
    25
  0
LTYPE
  2
CONTINUOUS
 70
     0
  3
Solid line
 72
    65
 73
     0
 40
0.0
  0
LTYPE
  2
AM_ISO02W050
 70
     0
  3
__ __ __ __ __ __ __ __ __ __ __ __ __ __ __
 72
    65
 73
     2
 40
7.5
 49
6.0
 49
-1.5
  0
LTYPE
  2
AM_ISO08W050
 70
     0
  3
____ . ____ . ____ . ____ . ____ . ____ . ____
 72
    65
 73
     4
 40
18.0
 49
12.0
 49
-1.5
 49
3.0
 49
-1.5
  0
LTYPE
  2
AM_ISO09W050
 70
     0
  3
_____ . . _____ . . _____ . . ____ .. ____
 72
    65
 73
     6
 40
22.5
 49
12.0
 49
-1.5
 49
3.0
 49
-1.5
 49
3.0
 49
-1.5
  0
LTYPE
  2
AMCONSTR
 70
     0
  3
_______________________
 72
    65
 73
     2
 40
9999.0
 49
9999.0
 49
0.0
  0
LTYPE
  2
AM_ISO08W050X2
 70
     0
  3
__ . __ . __ . __ . __ . __
 72
    65
 73
     4
 40
9.0
 49
6.0
 49
-0.75
 49
1.5
 49
-0.75
  0
LTYPE
  2
AM_ISO02W050X2
 70
     0
  3
 _ _ _ _ _ _ _ _ _ _ _ _
 72
    65
 73
     2
 40
3.75
 49
3.0
 49
-0.75
  0
LTYPE
  2
AMZIGZAG
 70
     0
  3
/\/-/\/-/\/-/\/-/\/-/\/
 72
    65
 73
     2
 40
11.000099999999991
 49
0.0001
 49
-11.0
  0
LTYPE
  2
ACISOWELD
 70
     0
  3
_ _ _ _ _
 72
    65
 73
     2
 40
2.0
 49
2.0
 49
-1.0
  0
LTYPE
  2
ACISOTGB
 70
     0
  3
__ . . __ . .
 72
    65
 73
     6
 40
9.0
 49
4.0
 49
-1.0
 49
1.0
 49
-1.0
 49
1.0
 49
-1.0
  0
LTYPE
  2
ACISOTGL
 70
     0
  3
_ _ _ _ _
 72
    65
 73
     2
 40
3.0
 49
2.0
 49
-1.0
  0
LTYPE
  2
CENTER
 70
     0
  3
__ . __
 72
    65
 73
     4
 40
7.0
 49
4.0
 49
-1.0
 49
1.0
 49
-1.0
  0
LTYPE
  2
PHANTOM2
 70
     0
  3
Phantom (.5x) ___ _ _ ___ _ _ ___ _ _ ___ _ _
 72
    65
 73
     6
 40
31.75
 49
15.875
 49
-3.174999999999998
 49
3.174999999999998
 49
-3.174999999999998
 49
3.174999999999998
 49
-3.174999999999998
  0
LTYPE
  2
ACANSTGBM
 70
     0
  3
__ . . __ . .
 72
    65
 73
     6
 40
9.0
 49
4.0
 49
-1.0
 49
1.0
 49
-1.0
 49
1.0
 49
-1.0
  0
LTYPE
  2
ACANSTGLM
 70
     0
  3
_ _ _ _ _
 72
    65
 73
     2
 40
3.0
 49
2.0
 49
-1.0
  0
LTYPE
  2
GEN7A
 70
     0
  3
__ . __ . __
 72
    65
 73
     4
 40
7.375
 49
4.75
 49
-0.875
 49
0.875
 49
-0.875
  0
LTYPE
  2
ACJISTGB
 70
     0
  3
__ . . __ . .
 72
    65
 73
     6
 40
9.0
 49
4.0
 49
-1.0
 49
1.0
 49
-1.0
 49
1.0
 49
-1.0
  0
LTYPE
  2
ACJISTGL
 70
     0
  3
_ _ _ _ _
 72
    65
 73
     2
 40
3.0
 49
2.0
 49
-1.0
  0
LTYPE
  2
HIDDEN
 70
     0
  3
Hidden __ __ __ __ __ __ __ __ __ __ __ __ __ _
 72
    65
 73
     2
 40
0.375
 49
0.25
 49
-0.125
  0
LTYPE
  2
CENTER2
 70
     0
  3
Center (.5x) ___ _ ___ _ ___ _ ___ _ ___ _ ___
 72
    65
 73
     4
 40
1.125
 49
0.75
 49
-0.125
 49
0.125
 49
-0.125
  0
LTYPE
  2
HIDDEN2
 70
     0
  3
Hidden (.5x) _ _ _ _ _ _ _ _ _ _ _ _ _ _ _ _ _
 72
    65
 73
     2
 40
0.1875
 49
0.125
 49
-0.0625
  0
LTYPE
  2
AMZIGZAG2
 70
     0
  3
/\/-/\/-/\/-/\/-/\/-/\/
 72
    65
 73
     2
 40
0.4401
 49
0.0001
 49
-0.4400000000000003
  0
LTYPE
  2
ACANSTGB
 70
     0
  3
__ . . __ . .
 72
    65
 73
     6
 40
0.35433070866
 49
0.15748031496
 49
-0.03937007874
 49
0.03937007874
 49
-0.03937007874
 49
0.03937007874
 49
-0.03937007874
  0
LTYPE
  2
ACANSTGL
 70
     0
  3
_ _ _ _ _
 72
    65
 73
     2
 40
0.11811023622
 49
0.07874015748
 49
-0.03937007874
  0
ENDTAB
  0
TABLE
  2
LAYER
 70
     5
  0
LAYER
  2
0
 70
     0
 62
     7
  6
CONTINUOUS
  0
LAYER
  2
AM_0
 70
     0
 62
     7
  6
CONTINUOUS
  0
LAYER
  2
AM_5
 70
     0
 62
     2
  6
CONTINUOUS
  0
LAYER
  2
DEFPOINTS
 70
     0
 62
     7
  6
CONTINUOUS
  0
LAYER
  2
ﾁｭｳｼﾝｾﾝ1
 70
     0
 62
     1
  6
GEN7A
  0
ENDTAB
  0
TABLE
  2
STYLE
 70
     9
  0
STYLE
  2
STANDARD
 70
     0
 40
0.0
 41
0.8299999999999999
 50
0.0
 71
     0
 42
2.5
  3
txt.shx
  4
bigfont.shx
  0
STYLE
  2
ANNOTATIVE
 70
     0
 40
0.0
 41
1.0
 50
0.0
 71
     0
 42
0.2
  3
txt
  4

  0
STYLE
  2

 70
     1
 40
0.0
 41
1.0
 50
0.0
 71
     0
 42
2.5
  3
ltypeshp.shx
  4

  0
STYLE
  2
ACISOTS
 70
     0
 40
1.0
 41
1.0
 50
0.0
 71
     0
 42
2.5
  3
isocp.shx
  4
extfont.shx
  0
STYLE
  2
ACISOGDT
 70
     0
 40
0.0
 41
1.0
 50
0.0
 71
     0
 42
2.5
  3
amgdt.shx
  4

  0
STYLE
  2
ACANSTS
 70
     0
 40
1.0
 41
1.0
 50
0.0
 71
     0
 42
2.5
  3
romans.shx
  4
bigfont.shx
  0
STYLE
  2
ACANSGDT
 70
     0
 40
0.0
 41
1.0
 50
0.0
 71
     0
 42
2.5
  3
amgdt.shx
  4

  0
STYLE
  2
ACJISTS
 70
     0
 40
1.0
 41
1.0
 50
0.0
 71
     0
 42
2.5
  3
isocp.shx
  4
bigfont.shx
  0
STYLE
  2
ACJISGDT
 70
     0
 40
0.0
 41
1.0
 50
0.0
 71
     0
 42
2.5
  3
amgdt.shx
  4

  0
ENDTAB
  0
TABLE
  2
VIEW
 70
     6
  0
VIEW
  2
AM_VIEW1
 70
     0
 40
277.49999999999989
 10
249.64779005524841
 20
416.24999999999989
 41
499.2955801104971
 11
0.0
 21
0.0
 31
1.0
 12
0.0
 22
0.0
 32
0.0
 42
50.0
 43
0.0
 44
0.0
 50
0.0
 71
     0
  0
VIEW
  2
AM_VIEW2
 70
     0
 40
277.49999999999989
 10
603.85220994475117
 20
416.24999999999989
 41
499.2955801104971
 11
0.0
 21
0.0
 31
1.0
 12
0.0
 22
0.0
 32
0.0
 42
50.0
 43
0.0
 44
0.0
 50
0.0
 71
     0
  0
VIEW
  2
AM_VIEW3
 70
     0
 40
277.49999999999989
 10
249.64779005524841
 20
138.7499999999998
 41
499.2955801104971
 11
0.0
 21
0.0
 31
1.0
 12
0.0
 22
0.0
 32
0.0
 42
50.0
 43
0.0
 44
0.0
 50
0.0
 71
     0
  0
VIEW
  2
AM_VIEW4
 70
     0
 40
277.49999999999989
 10
603.85220994475117
 20
138.7499999999998
 41
499.2955801104971
 11
0.0
 21
0.0
 31
1.0
 12
0.0
 22
0.0
 32
0.0
 42
50.0
 43
0.0
 44
0.0
 50
0.0
 71
     0
  0
VIEW
  2
AM_VIEW5
 70
     0
 40
277.49999999999989
 10
426.75
 20
277.49999999999989
 41
499.2955801104971
 11
0.0
 21
0.0
 31
1.0
 12
0.0
 22
0.0
 32
0.0
 42
50.0
 43
0.0
 44
0.0
 50
0.0
 71
     0
  0
VIEW
  2
AM_VIEW6
 70
     0
 40
554.99445000000014
 10
426.75
 20
277.49999999999989
 41
998.5811743093924
 11
0.0
 21
0.0
 31
1.0
 12
0.0
 22
0.0
 32
0.0
 42
50.0
 43
0.0
 44
0.0
 50
0.0
 71
     0
  0
ENDTAB
  0
TABLE
  2
UCS
 70
     0
  0
ENDTAB
  0
TABLE
  2
APPID
 70
    95
  0
APPID
  2
ACAD
 70
     0
  0
APPID
  2
ACADANNOTATIVE
 70
     0
  0
APPID
  2
MCAD_NO_VIS
 70
     0
  0
APPID
  2
ACAD_TEMP_GRAPHIC
 70
     0
  0
APPID
  2
ACATTRIBSERVICES
 70
     0
  0
APPID
  2
GENIUS_GENREC_14
 70
     0
  0
APPID
  2
GENIUS_GENOBJ-N-REC_13
 70
     0
  0
APPID
  2
GENIUS_GENODEF_13
 70
     0
  0
APPID
  2
GENIUS_GENOLIS_13
 70
     0
  0
APPID
  2
GENIUS_GENOBJ-N-TIT_13
 70
     0
  0
APPID
  2
GENIUS_GENOENT_13
 70
     0
  0
APPID
  2
GENIUS_GENTITLE_13
 70
     0
  0
APPID
  2
GENIUS_GENOREF_13
 70
     0
  0
APPID
  2
GENIUS_GENSCREG_15
 70
     0
  0
APPID
  2
GENIUS_GENOBJ-N-SDF_13
 70
     0
  0
APPID
  2
GENIUS_GENFIL_13
 70
     0
  0
APPID
  2
GENIUS_GENOBJ-N-CHA_13
 70
     0
  0
APPID
  2
GENIUS_GENDTOL_13
 70
     0
  0
APPID
  2
GENIUS_GENOBJ-N-FIL_13
 70
     0
  0
APPID
  2
AD_DRAW
 70
     0
  0
APPID
  2
DESIGNERASSEMBLIES
 70
     0
  0
APPID
  2
ASURF_PCURVE_APPNAME
 70
     0
  0
APPID
  2
GENIUS_GE3SECT_13
 70
     0
  0
APPID
  2
GENIUS_GENCFG_13
 70
     0
  0
APPID
  2
GENIUS_GE3CFG0_13
 70
     0
  0
APPID
  2
GENIUS_GENCFG0_13
 70
     0
  0
APPID
  2
GENIUS_GENCFG1_13
 70
     0
  0
APPID
  2
GENIUS_GENCFG2_13
 70
     0
  0
APPID
  2
GENIUS_GENCFG3_13
 70
     0
  0
APPID
  2
GENIUS_GENCFG4_13
 70
     0
  0
APPID
  2
GENIUS_GEVCFG0_13
 70
     0
  0
APPID
  2
GENIUS_GENHINW_13
 70
     0
  0
APPID
  2
GENIUS_FIRSTVISTXT_14
 70
     0
  0
APPID
  2
GENIUS_GENOBJ-N-LEADER_13
 70
     0
  0
APPID
  2
GEV_VCCNULL_SWITCH_OFF
 70
     0
  0
APPID
  2
GENIUS_GEFCFG0_13
 70
     0
  0
APPID
  2
GENIUS_GENZVEED_13
 70
     0
  0
APPID
  2
GENIUS_GENSCREG_13
 70
     0
  0
APPID
  2
GENIUS_DUMCFG0_13
 70
     0
  0
APPID
  2
GEVID936201362
 70
     0
  0
APPID
  2
GEVDC
 70
     0
  0
APPID
  2
GEVCON
 70
     0
  0
APPID
  2
VCC
 70
     0
  0
APPID
  2
GEVPT
 70
     0
  0
APPID
  2
GEVIT
 70
     0
  0
APPID
  2
GENBH
 70
     0
  0
APPID
  2
GEVMK
 70
     0
  0
APPID
  2
GENIUS_GENBH_13
 70
     0
  0
APPID
  2
GENIUS_GENOBJ-NBEHI-BHF_13
 70
     0
  0
APPID
  2
GENIUS_GENOBJ-NBEHI-BHB_13
 70
     0
  0
APPID
  2
GENIUS_GENOBJ-F-DESC_13
 70
     0
  0
APPID
  2
GENIUS_GEFDESC_14
 70
     0
  0
APPID
  2
GENIUS_GENOBJ-F-PART_13
 70
     0
  0
APPID
  2
GENIUS_GEFSTDP_13
 70
     0
  0
APPID
  2
GENIUS_GEFPARTINS_13
 70
     0
  0
APPID
  2
GENIUS_GENTRA_14
 70
     0
  0
APPID
  2
GENIUS_GENINF13_13
 70
     0
  0
APPID
  2
GENIUS_GENOBJ-N-INFOPT_13
 70
     0
  0
APPID
  2
GENIUS_GENOBJ-N-RSSYM_13
 70
     0
  0
APPID
  2
GENIUS_GENSYMENT_13
 70
     0
  0
APPID
  2
GENIUS_GENSCSYM_13
 70
     0
  0
APPID
  2
GENIUS_GEFINFNAM_13
 70
     0
  0
APPID
  2
GENIUS_GENOBJ-N-CEN_13
 70
     0
  0
APPID
  2
GENIUS_GENOBJ-N-CRS_13
 70
     0
  0
APPID
  2
GENIUS_GENOBJ-N-CRC_13
 70
     0
  0
APPID
  2
GENIUS_GENCRC_14
 70
     0
  0
APPID
  2
GEVID942827039
 70
     0
  0
APPID
  2
GEVID942827040
 70
     0
  0
APPID
  2
GEVID942827041
 70
     0
  0
APPID
  2
GENIUS_GENOBJ-F-SCPASSM_13
 70
     0
  0
APPID
  2
GENIUS_GENDIMSH_14
 70
     0
  0
APPID
  2
GEVID942827042
 70
     0
  0
APPID
  2
GEVID946020473
 70
     0
  0
APPID
  2
GEVID946020474
 70
     0
  0
APPID
  2
GEVID946020475
 70
     0
  0
APPID
  2
GENIUS_GENOBJ-N-HTC_13
 70
     0
  0
APPID
  2
GENIUS_GENHATCH_13
 70
     0
  0
APPID
  2
GEVID948854295
 70
     0
  0
APPID
  2
GEVID939402019
 70
     0
  0
APPID
  2
GEVID952919491
 70
     0
  0
APPID
  2
GEVID952919492
 70
     0
  0
APPID
  2
GENIUS_GEFWELD_13
 70
     0
  0
APPID
  2
GENIUS_GENOBJ-F-WELS_13
 70
     0
  0
APPID
  2
GEVID952919493
 70
     0
  0
APPID
  2
GENIUS_GENOBJ-N-RSBK_13
 70
     0
  0
APPID
  2
GENIUS_GENOBJ-N-LIB_13
 70
     0
  0
APPID
  2
GENIUS_GENSCALE_13
 70
     0
  0
APPID
  2
GEVID986376691
 70
     0
  0
APPID
  2
DCO15
 70
     0
  0
APPID
  2
ACAD_DSTYLE_DIMBREAK
 70
     0
  0
APPID
  2
ACAD_DSTYLE_DIMJAG
 70
     0
  0
APPID
  2
ACAD_NAV_VCDISPLAY
 70
     0
  0
APPID
  2
ACADANNOPO
 70
     0
  0
APPID
  2
ACAD_EXEMPT_FROM_CAD_STANDARDS
 70
     0
  0
APPID
  2
ACAD_MLEADERVER
 70
     0
  0
ENDTAB
  0
TABLE
  2
DIMSTYLE
 70
    22
  0
DIMSTYLE
  2
STANDARD
 70
     0
  3

  4

  5

  6

  7

 40
1.0
 41
0.18
 42
0.0625
 43
0.38
 44
0.18
 45
0.0
 46
0.0
 47
0.0
 48
0.0
140
0.18
141
0.09
142
0.0
143
25.399999999999999
144
1.0
145
0.0
146
1.0
147
0.09
 71
     0
 72
     0
 73
     1
 74
     1
 75
     0
 76
     0
 77
     0
 78
     0
170
     0
171
     2
172
     0
173
     0
174
     0
175
     0
176
     0
177
     0
178
     0
  0
DIMSTYLE
  2
ANNOTATIVE
 70
     0
  3

  4

  5

  6

  7

 40
1.0
 41
0.18
 42
0.0625
 43
0.38
 44
0.18
 45
0.0
 46
0.0
 47
0.0
 48
0.0
140
0.18
141
0.09
142
0.0
143
25.399999999999999
144
1.0
145
0.0
146
1.0
147
0.09
 71
     0
 72
     0
 73
     1
 74
     1
 75
     0
 76
     0
 77
     0
 78
     0
170
     0
171
     2
172
     0
173
     0
174
     0
175
     0
176
     0
177
     0
178
     0
  0
DIMSTYLE
  2
AM_ISO
 70
     0
  3

  4
"
  5

  6

  7

 40
1.0
 41
2.5
 42
1.0
 43
8.0
 44
0.6
 45
0.0
 46
0.0
 47
0.1
 48
0.1
140
2.5
141
0.0
142
0.0
143
0.0393701
144
1.0
145
0.0
146
0.71
147
0.8
 71
     0
 72
     0
 73
     0
 74
     0
 75
     0
 76
     0
 77
     1
 78
     8
170
     0
171
     2
172
     1
173
     0
174
     0
175
     0
176
   256
177
   256
178
     4
  0
DIMSTYLE
  2
AM_ISO$3
 70
     0
  3

  4
"
  5

  6

  7

 40
1.0
 41
2.5
 42
1.0
 43
8.0
 44
0.6
 45
0.0
 46
0.0
 47
0.1
 48
0.1
140
2.5
141
0.0
142
0.0
143
0.0393701
144
1.0
145
0.0
146
0.71
147
0.8
 71
     0
 72
     0
 73
     0
 74
     1
 75
     0
 76
     0
 77
     1
 78
     8
170
     0
171
     2
172
     0
173
     0
174
     0
175
     0
176
   256
177
   256
178
     4
  0
DIMSTYLE
  2
AM_ISO$4
 70
     0
  3

  4
"
  5

  6

  7

 40
1.0
 41
2.5
 42
1.0
 43
8.0
 44
0.6
 45
0.0
 46
0.0
 47
0.1
 48
0.1
140
2.5
141
0.0
142
0.0
143
0.0393701
144
1.0
145
0.0
146
0.71
147
0.8
 71
     0
 72
     0
 73
     0
 74
     1
 75
     0
 76
     0
 77
     1
 78
     8
170
     0
171
     2
172
     0
173
     0
174
     0
175
     0
176
   256
177
   256
178
     4
  0
DIMSTYLE
  2
AM_ISO$6
 70
     0
  3

  4
"
  5

  6

  7

 40
1.0
 41
2.5
 42
1.0
 43
8.0
 44
0.6
 45
0.0
 46
0.0
 47
0.1
 48
0.1
140
2.5
141
0.0
142
0.0
143
0.0393701
144
1.0
145
0.0
146
0.71
147
0.8
 71
     0
 72
     0
 73
     0
 74
     0
 75
     0
 76
     0
 77
     0
 78
     8
170
     0
171
     2
172
     1
173
     0
174
     0
175
     0
176
   256
177
   256
178
     4
  0
DIMSTYLE
  2
AM_ISO$7
 70
     0
  3

  4
"
  5

  6

  7

 40
1.0
 41
2.5
 42
1.0
 43
8.0
 44
0.6
 45
0.0
 46
0.0
 47
0.1
 48
0.1
140
2.5
141
0.0
142
0.0
143
0.0393701
144
1.0
145
0.0
146
0.71
147
0.8
 71
     0
 72
     0
 73
     0
 74
     0
 75
     0
 76
     0
 77
     1
 78
     8
170
     0
171
     2
172
     1
173
     0
174
     0
175
     0
176
   256
177
   256
178
     4
  0
DIMSTYLE
  2
AM_ISO$SF
 70
     0
  3

  4
"
  5

  6

  7

 40
1.0
 41
2.5
 42
1.0
 43
10.0
 44
1.0
 45
0.0
 46
0.0
 47
0.1
 48
0.1
140
3.5
141
0.0
142
0.0
143
0.0393701
144
1.0
145
0.0
146
0.71
147
1.5
 71
     0
 72
     0
 73
     0
 74
     0
 75
     1
 76
     1
 77
     1
 78
     8
170
     0
171
     2
172
     1
173
     0
174
     0
175
     0
176
   256
177
   256
178
     2
  0
DIMSTYLE
  2
AM_ISO$SH
 70
     0
  3

  4
"
  5

  6

  7

 40
1.0
 41
2.5
 42
1.0
 43
10.0
 44
1.0
 45
0.0
 46
0.0
 47
0.1
 48
0.1
140
3.5
141
0.0
142
0.0
143
0.0393701
144
2.0
145
0.0
146
0.71
147
1.5
 71
     0
 72
     0
 73
     0
 74
     0
 75
     1
 76
     1
 77
     1
 78
     8
170
     0
171
     2
172
     1
173
     1
174
     0
175
     0
176
   256
177
   256
178
     2
  0
DIMSTYLE
  2
AM_JIS
 70
     0
  3

  4
"
  5

  6

  7

 40
1.0
 41
2.5
 42
1.0
 43
7.0
 44
1.0
 45
0.0
 46
0.0
 47
0.1
 48
0.1000000001
140
2.5
141
0.0
142
0.0
143
0.0393701
144
1.0
145
0.0
146
0.71
147
1.0
 71
     0
 72
     0
 73
     0
 74
     0
 75
     0
 76
     0
 77
     3
 78
     8
170
     0
171
     2
172
     1
173
     0
174
     0
175
     0
176
   256
177
   256
178
     4
  0
DIMSTYLE
  2
AM_JIS$3
 70
     0
  3

  4
"
  5

  6

  7

 40
1.0
 41
2.5
 42
1.0
 43
7.0
 44
1.0
 45
0.0
 46
0.0
 47
0.1
 48
0.1000000001
140
2.5
141
0.0
142
0.0
143
0.0393701
144
1.0
145
0.0
146
0.71
147
1.0
 71
     0
 72
     0
 73
     0
 74
     1
 75
     0
 76
     0
 77
     3
 78
     8
170
     0
171
     2
172
     0
173
     0
174
     0
175
     0
176
   256
177
   256
178
     4
  0
DIMSTYLE
  2
AM_JIS$4
 70
     0
  3

  4
"
  5

  6

  7

 40
1.0
 41
2.5
 42
1.0
 43
7.0
 44
1.0
 45
0.0
 46
0.0
 47
0.1
 48
0.1000000001
140
2.5
141
0.0
142
0.0
143
0.0393701
144
1.0
145
0.0
146
0.71
147
1.0
 71
     0
 72
     0
 73
     0
 74
     0
 75
     0
 76
     0
 77
     3
 78
     8
170
     0
171
     2
172
     0
173
     0
174
     0
175
     0
176
   256
177
   256
178
     4
  0
DIMSTYLE
  2
AM_JIS$6
 70
     0
  3

  4
"
  5

  6

  7

 40
1.0
 41
2.5
 42
1.0
 43
7.0
 44
1.0
 45
0.0
 46
0.0
 47
0.1
 48
0.1000000001
140
2.5
141
0.0
142
0.0
143
0.0393701
144
1.0
145
0.0
146
0.71
147
1.0
 71
     0
 72
     0
 73
     0
 74
     0
 75
     0
 76
     0
 77
     0
 78
     8
170
     0
171
     2
172
     1
173
     0
174
     0
175
     0
176
   256
177
   256
178
     4
  0
DIMSTYLE
  2
AM_JIS$7
 70
     0
  3

  4
"
  5

  6

  7

 40
1.0
 41
2.5
 42
1.0
 43
7.0
 44
1.0
 45
0.0
 46
0.0
 47
0.1
 48
0.1000000001
140
2.5
141
0.0
142
0.0
143
0.0393701
144
1.0
145
0.0
146
0.71
147
1.0
 71
     0
 72
     0
 73
     0
 74
     0
 75
     0
 76
     0
 77
     3
 78
     8
170
     0
171
     2
172
     1
173
     0
174
     0
175
     0
176
   256
177
   256
178
     4
  0
DIMSTYLE
  2
AM_JIS$SF
 70
     0
  3

  4
"
  5

  6

  7

 40
1.0
 41
2.5
 42
1.0
 43
10.0
 44
1.0
 45
0.0
 46
0.0
 47
0.1
 48
0.1
140
3.5
141
0.0
142
0.0
143
0.0393701
144
1.0
145
0.0
146
0.71
147
1.5
 71
     0
 72
     0
 73
     0
 74
     0
 75
     1
 76
     1
 77
     3
 78
     8
170
     0
171
     2
172
     1
173
     0
174
     0
175
     0
176
   256
177
   256
178
     4
  0
DIMSTYLE
  2
AM_JIS$SH
 70
     0
  3

  4
"
  5

  6

  7

 40
1.0
 41
2.5
 42
1.0
 43
10.0
 44
1.0
 45
0.0
 46
0.0
 47
0.1
 48
0.1
140
3.5
141
0.0
142
0.0
143
0.0393701
144
1.0
145
0.0
146
0.71
147
1.5
 71
     0
 72
     0
 73
     0
 74
     0
 75
     1
 76
     0
 77
     3
 78
     8
170
     0
171
     2
172
     1
173
     1
174
     0
175
     0
176
   256
177
   256
178
     4
  0
DIMSTYLE
  2
AM_ANSI
 70
     0
  3

  4
mm
  5

  6

  7

 40
1.0
 41
0.1
 42
0.05
 43
0.5
 44
0.1
 45
0.0
 46
0.0
 47
0.1
 48
0.1
140
0.12
141
0.0
142
0.0
143
25.399999999999999
144
1.0
145
0.0
146
0.71
147
0.06
 71
     0
 72
     0
 73
     1
 74
     1
 75
     0
 76
     0
 77
     0
 78
     7
170
     0
171
     2
172
     0
173
     0
174
     0
175
     0
176
   256
177
   256
178
     2
  0
DIMSTYLE
  2
AM_ANSI$3
 70
     0
  3

  4
mm
  5

  6

  7

 40
1.0
 41
0.1
 42
0.05
 43
0.5
 44
0.1
 45
0.0
 46
0.0
 47
0.1
 48
0.1
140
0.12
141
0.0
142
0.0
143
25.399999999999999
144
1.0
145
0.0
146
0.71
147
0.06
 71
     0
 72
     0
 73
     1
 74
     1
 75
     0
 76
     0
 77
     0
 78
     7
170
     0
171
     2
172
     0
173
     0
174
     0
175
     0
176
   256
177
   256
178
     2
  0
DIMSTYLE
  2
AM_ANSI$4
 70
     0
  3

  4
mm
  5

  6

  7

 40
1.0
 41
0.1
 42
0.05
 43
0.5
 44
0.1
 45
0.0
 46
0.0
 47
0.1
 48
0.1
140
0.12
141
0.0
142
0.0
143
25.399999999999999
144
1.0
145
0.0
146
0.71
147
0.06
 71
     0
 72
     0
 73
     1
 74
     1
 75
     0
 76
     0
 77
     0
 78
     7
170
     0
171
     2
172
     0
173
     0
174
     0
175
     0
176
   256
177
   256
178
     2
  0
DIMSTYLE
  2
AM_ANSI$7
 70
     0
  3

  4
mm
  5

  6

  7

 40
1.0
 41
0.1
 42
0.05
 43
0.5
 44
0.1
 45
0.0
 46
0.0
 47
0.1
 48
0.1
140
0.24
141
0.0
142
0.0
143
25.399999999999999
144
1.0
145
0.0
146
0.71
147
0.06
 71
     0
 72
     0
 73
     1
 74
     1
 75
     0
 76
     0
 77
     0
 78
     7
170
     0
171
     2
172
     0
173
     0
174
     0
175
     0
176
   256
177
   256
178
     2
  0
DIMSTYLE
  2
AM_ANSI$SF
 70
     0
  3

  4
mm
  5

  6

  7

 40
1.0
 41
0.1
 42
0.05
 43
0.5
 44
0.1
 45
0.0
 46
0.0
 47
0.1
 48
0.1
140
0.12
141
0.0
142
0.0
143
25.399999999999999
144
1.0
145
0.0
146
0.71
147
0.06
 71
     0
 72
     0
 73
     1
 74
     1
 75
     1
 76
     1
 77
     0
 78
     7
170
     0
171
     2
172
     0
173
     0
174
     0
175
     0
176
   256
177
   256
178
     2
  0
DIMSTYLE
  2
AM_ANSI$SH
 70
     0
  3

  4
mm
  5

  6

  7

 40
1.0
 41
0.1
 42
0.05
 43
0.5
 44
0.1
 45
0.0
 46
0.0
 47
0.1
 48
0.1
140
0.12
141
0.0
142
0.0
143
25.399999999999999
144
1.0
145
0.0
146
0.71
147
0.06
 71
     0
 72
     0
 73
     1
 74
     1
 75
     1
 76
     1
 77
     0
 78
     7
170
     0
171
     2
172
     0
173
     1
174
     0
175
     0
176
   256
177
   256
178
     2
  0
ENDTAB
  0
ENDSEC
  0
SECTION
  2
BLOCKS
  0
BLOCK
  8
0
  2
$MODEL_SPACE
 70
     0
 10
0.0
 20
0.0
 30
0.0
  3
$MODEL_SPACE
  1

  0
ENDBLK
  5
303B
  8
0
  0
BLOCK
 67
     1
  8
0
  2
$PAPER_SPACE
 70
     0
 10
0.0
 20
0.0
 30
0.0
  3
$PAPER_SPACE
  1

  0
ENDBLK
  5
3037
 67
     1
  8
0
  0
BLOCK
  8
0
  2
GENAXEH
 70
     0
 10
0.0
 20
0.0
 30
0.0
  3
GENAXEH
  1

  0
LINE
  5
2DBD
  8
0
 10
-1.0
 20
0.0
 30
0.0
 11
1.0
 21
0.0
 31
0.0
  0
ENDBLK
  5
2DBE
  8
0
  0
BLOCK
  8
0
  2
_OPEN30
 70
     0
 10
0.0
 20
0.0
 30
0.0
  3
_OPEN30
  1

  0
LINE
  5
2DC1
  8
0
 62
     0
 10
-1.0
 20
0.26794919
 30
0.0
 11
0.0
 21
0.0
 31
0.0
  0
LINE
  5
2DC2
  8
0
 62
     0
 10
0.0
 20
0.0
 30
0.0
 11
-1.0
 21
-0.26794919
 31
0.0
  0
LINE
  5
2DC3
  8
0
 62
     0
 10
0.0
 20
0.0
 30
0.0
 11
-1.0
 21
0.0
 31
0.0
  0
ENDBLK
  5
2DC4
  8
0
  0
BLOCK
  8
0
  2
_NONE
 70
     0
 10
0.0
 20
0.0
 30
0.0
  3
_NONE
  1

  0
ENDBLK
  5
2DC7
  8
0
  0
BLOCK
  8
0
  2
_ACMFILLEDHALF
 70
     0
 10
0.0
 20
0.0
 30
0.0
  3
_ACMFILLEDHALF
  1

  0
TRACE
  5
312F
  8
AM_0
 62
     0
 10
-0.8
 20
0.0
 30
0.0
 11
-1.0
 21
0.166666666
 31
0.0
 12
0.0
 22
0.0
 32
0.0
 13
0.0
 23
0.0
 33
0.0
  0
LINE
  5
3130
  8
AM_0
 62
     0
 10
-1.0
 20
0.0
 30
0.0
 11
-0.8
 21
0.0
 31
0.0
  0
ENDBLK
  5
312E
  8
0
  0
ENDSEC
  0
SECTION
  2
ENTITIES
  0
LINE
  5
2DC8
  8
AM_0
 10
264.03395215586562
 20
303.26576573782688
 30
0.0
 11
264.03395215586562
 21
175.26576573782691
 31
0.0
  0
LINE
  5
2DC9
  8
AM_0
 10
252.5694860617985
 20
295.30129201436512
 30
0.0
 11
226.4628919733947
 21
269.19469792596152
 31
0.0
  0
LINE
  5
2DCA
  8
AM_0
 10
254.03395215586559
 20
302.265765737827
 30
0.0
 11
254.03395215586559
 21
176.26576573782691
 31
0.0
  0
LINE
  5
2DCB
  8
AM_0
 10
301.53395215586562
 20
174.4518457378268
 30
0.0
 11
301.53395215586562
 21
299.26576873782682
 31
0.0
  0
LINE
  5
2DCC
  8
AM_0
 10
333.53396215586559
 20
320.496873737827
 30
0.0
 11
333.53396215586559
 21
214.5304597378269
 31
0.0
  0
LINE
  5
2DCD
  8
AM_0
 10
360.53396215586571
 20
326.26578373782701
 30
0.0
 11
360.53396215586571
 21
256.26576673782682
 31
0.0
  0
LINE
  5
2DCE
  8
AM_0
 10
356.53391215586578
 20
331.26576373782689
 30
0.0
 11
356.53391215586578
 21
186.36194173782701
 31
0.0
  0
LINE
  5
2DCF
  8
AM_0
 10
351.53396215586559
 20
315.76576873782682
 30
0.0
 11
351.53396215586559
 21
201.6504397378269
 31
0.0
  0
ARC
  5
2DD0
  8
AM_0
 10
270.03395215586562
 20
279.26207473782682
 30
0.0
 40
2.00000007
 50
270.0
 51
0.0
  0
LINE
  5
2DD1
  8
AM_0
 10
270.00776215586552
 20
178.4401897378269
 30
0.0
 11
301.53395215586562
 21
179.265720737827
 31
0.0
  0
LINE
  5
2DD2
  8
AM_0
 10
271.48853215586581
 20
173.66507173782679
 30
0.0
 11
301.53395215586562
 21
174.4518307378269
 31
0.0
  0
LINE
  5
2DD3
  8
ﾁｭｳｼﾝｾﾝ1
 10
278.51042895112721
 20
256.26576673782682
 30
0.0
 11
393.26744215586581
 21
256.26576673782682
 31
0.0
  0
LINE
  5
2DD4
  8
ﾁｭｳｼﾝｾﾝ1
 10
162.51290681438101
 20
239.2657657378268
 30
0.0
 11
294.35316450263161
 21
239.2657657378268
 31
0.0
  0
LINE
  5
2DD5
  8
AM_0
 10
252.5694860617985
 20
183.23023946128879
 30
0.0
 11
226.4628919733947
 21
209.3368335496925
 31
0.0
  0
LINE
  5
2DD6
  8
AM_0
 10
272.03396215586559
 20
189.76575073782681
 30
0.0
 11
272.03396215586559
 21
199.26945973782679
 31
0.0
  0
LINE
  5
2DD7
  8
AM_0
 10
264.03395215586562
 20
175.26576573782691
 30
0.0
 11
255.03395215586559
 21
175.26576573782691
 31
0.0
  0
ARC
  5
2DD8
  8
AM_0
 10
249.03395215586559
 20
179.69470555535599
 30
0.0
 40
5.0
 50
0.0
 51
45.0
1001
GENIUS_GENODEF_13
1002
{
1000
HIER
1070
     0
1002
}
1002
{
1000
MANEDIT
1070
     0
1002
}
1002
{
1000
NOSEL
1070
     0
1002
}
1002
{
1000
BEHIND
1070
     0
1002
}
1002
{
1000
OTHER
1070
     0
1002
}
1002
{
1000
REACTOR
1002
}
1001
GENIUS_GENOBJ-N-FIL_13
1002
{
1000
OWNER
1000
GEN
1002
}
  0
ARC
  5
2DD9
  8
AM_0
 10
255.03395215586559
 20
176.26576573782691
 30
0.0
 40
1.0
 50
180.0
 51
270.0
1001
GENIUS_GENODEF_13
1002
{
1000
HIER
1070
     0
1002
}
1002
{
1000
MANEDIT
1070
     0
1002
}
1002
{
1000
NOSEL
1070
     0
1002
}
1002
{
1000
BEHIND
1070
     0
1002
}
1002
{
1000
OTHER
1070
     0
1002
}
1002
{
1000
REACTOR
1002
}
1001
GENIUS_GENOBJ-N-FIL_13
1002
{
1000
OWNER
1000
GEN
1002
}
  0
LINE
  5
2DDA
  8
AM_0
 10
269.03396215586548
 20
176.870838737827
 30
0.0
 11
269.03396215586548
 21
187.76574973782701
 31
0.0
  0
ARC
  5
2DDB
  8
AM_0
 10
268.03394215586587
 20
176.870838737827
 30
0.0
 40
1.0000000199999981
 50
271.49999999999972
 51
0.0
  0
LINE
  5
2DDC
  8
AM_0
 10
264.03395215586562
 20
175.76574973782701
 30
0.0
 11
268.99331215586551
 21
175.895616737827
 31
0.0
  0
ARC
  5
2DDD
  8
AM_0
 10
271.46234215586588
 20
174.66472273782699
 30
0.0
 40
1.0000000199999981
 50
210.0
 51
271.49999999999972
  0
ARC
  5
2DDE
  8
AM_0
 10
270.03395215586562
 20
177.4405387378269
 30
0.0
 40
1.0000000199999981
 50
91.500000999999969
 51
180.00001
  0
ARC
  5
2DDF
  8
AM_0
 10
269.01947215586563
 20
174.895953737827
 30
0.0
 40
1.0000000199999981
 50
30.00000099999999
 51
91.500000999999969
  0
LINE
  5
2DE0
  8
AM_0
 10
269.88545215586561
 20
175.39598473782681
 30
0.0
 11
270.59633215586558
 21
174.1647367378269
 31
0.0
  0
LINE
  5
2DE1
  8
AM_0
 10
264.03395215586562
 20
187.76574973782701
 30
0.0
 11
270.03395215586562
 21
187.76574973782701
 31
0.0
  0
ARC
  5
2DE2
  8
AM_0
 10
270.03395215586562
 20
189.76575073782681
 30
0.0
 40
2.00000007
 50
270.0
 51
0.0
  0
ARC
  5
2DE3
  8
AM_0
 10
219.3918241615292
 20
276.26576573782688
 30
0.0
 40
10.0
 50
270.0
 51
315.0
1001
GENIUS_GENODEF_13
1002
{
1000
HIER
1070
     0
1002
}
1002
{
1000
MANEDIT
1070
     0
1002
}
1002
{
1000
NOSEL
1070
     0
1002
}
1002
{
1000
BEHIND
1070
     0
1002
}
1002
{
1000
OTHER
1070
     0
1002
}
1002
{
1000
REACTOR
1002
}
1001
GENIUS_GENOBJ-N-FIL_13
1002
{
1000
OWNER
1000
GEN
1002
}
  0
ARC
  5
2DE4
  8
AM_0
 10
219.3918241615292
 20
202.26576573782671
 30
0.0
 40
10.0
 50
45.0
 51
90.0
1001
GENIUS_GENODEF_13
1002
{
1000
HIER
1070
     0
1002
}
1002
{
1000
MANEDIT
1070
     0
1002
}
1002
{
1000
NOSEL
1070
     0
1002
}
1002
{
1000
BEHIND
1070
     0
1002
}
1002
{
1000
OTHER
1070
     0
1002
}
1002
{
1000
REACTOR
1002
}
1001
GENIUS_GENOBJ-N-FIL_13
1002
{
1000
OWNER
1000
GEN
1002
}
  0
LINE
  5
2DE5
  8
AM_0
 10
194.5339643152133
 20
247.7657657378268
 30
0.0
 11
194.5339643152133
 21
230.76576573782691
 31
0.0
  0
LINE
  5
2DE6
  8
AM_0
 10
196.5339643152133
 20
256.35155217545378
 30
0.0
 11
196.5339643152133
 21
222.17997930019999
 31
0.0
  0
LINE
  5
2DE7
  8
AM_0
 10
198.5339643152133
 20
214.2657657378268
 30
0.0
 11
198.5339643152133
 21
264.26576573782683
 31
0.0
  0
LINE
  5
2DE8
  8
AM_0
 10
223.53395978526021
 20
266.26576573782683
 30
0.0
 11
223.53395978526021
 21
212.2657657378268
 31
0.0
  0
LINE
  5
2DE9
  8
AM_0
 10
166.5339643152133
 20
249.26576573782691
 30
0.0
 11
166.5339643152133
 21
231.265765737827
 31
0.0
  0
LINE
  5
2DEA
  8
AM_0
 10
166.5339643152133
 20
231.265765737827
 30
0.0
 11
194.5339643152133
 21
231.265765737827
 31
0.0
  0
ARC
  5
2DEB
  8
AM_0
 10
200.5339643152133
 20
214.2657657378268
 30
0.0
 40
2.0
 50
180.0
 51
270.0
1001
GENIUS_GENOBJ-N-FIL_13
1002
{
1000
OWNER
1000
GEN
1002
}
1001
GENIUS_GENODEF_13
1002
{
1000
HIER
1070
     0
1002
}
1002
{
1000
MANEDIT
1070
     0
1002
}
1002
{
1000
NOSEL
1070
     0
1002
}
1002
{
1000
BEHIND
1070
     0
1002
}
1002
{
1000
OTHER
1070
     0
1002
}
1002
{
1000
REACTOR
1002
}
  0
LINE
  5
2DEC
  8
AM_0
 10
200.5339643152133
 20
212.2657657378268
 30
0.0
 11
219.3918241615292
 21
212.2657657378268
 31
0.0
  0
LINE
  5
2DED
  8
AM_0
 10
196.8268575340266
 20
221.47287251901349
 30
0.0
 11
198.24107109639959
 21
220.05865895664039
 31
0.0
  0
ARC
  5
2DEE
  8
AM_0
 10
197.5339643152133
 20
222.17997930019999
 30
0.0
 40
1.0
 50
180.0
 51
225.0
1001
GENIUS_GENODEF_13
1002
{
1000
HIER
1070
     0
1002
}
1002
{
1000
MANEDIT
1070
     0
1002
}
1002
{
1000
NOSEL
1070
     0
1002
}
1002
{
1000
BEHIND
1070
     0
1002
}
1002
{
1000
OTHER
1070
     0
1002
}
1002
{
1000
REACTOR
1002
}
1001
GENIUS_GENOBJ-N-FIL_13
1002
{
1000
OWNER
1000
GEN
1002
}
  0
ARC
  5
2DEF
  8
AM_0
 10
197.5339643152133
 20
219.35155217545369
 30
0.0
 40
1.0
 50
0.0
 51
45.0
1001
GENIUS_GENODEF_13
1002
{
1000
HIER
1070
     0
1002
}
1002
{
1000
MANEDIT
1070
     0
1002
}
1002
{
1000
NOSEL
1070
     0
1002
}
1002
{
1000
BEHIND
1070
     0
1002
}
1002
{
1000
OTHER
1070
     0
1002
}
1002
{
1000
REACTOR
1002
}
1001
GENIUS_GENOBJ-N-FIL_13
1002
{
1000
OWNER
1000
GEN
1002
}
  0
LINE
  5
2DF0
  8
AM_0
 10
194.5339643152133
 20
230.76577107087689
 30
0.0
 11
196.5339643152133
 21
230.76577000426701
 31
0.0
  0
LINE
  5
2DF1
  8
AM_0
 10
166.5339643152133
 20
247.26576573782691
 30
0.0
 11
194.5339643152133
 21
247.26576573782691
 31
0.0
  0
LINE
  5
2DF2
  8
AM_0
 10
166.5339643152133
 20
249.26576573782691
 30
0.0
 11
188.5339643152133
 21
249.26576573782691
 31
0.0
  0
LINE
  5
2DF3
  8
AM_0
 10
188.5339643152133
 20
247.26576573782691
 30
0.0
 11
188.5339643152133
 21
249.26576573782691
 31
0.0
  0
LINE
  5
2DF4
  8
AM_0
 10
194.5339643152133
 20
247.7657657378268
 30
0.0
 11
196.5339643152133
 21
247.7657657378268
 31
0.0
  0
LINE
  5
2DF5
  8
AM_0
 10
200.5339643152133
 20
266.26576573782683
 30
0.0
 11
219.3918241615292
 21
266.26576573782683
 31
0.0
  0
ARC
  5
2DF6
  8
AM_0
 10
200.5339643152133
 20
264.26576573782683
 30
0.0
 40
2.0
 50
90.0
 51
180.0
1001
GENIUS_GENOBJ-N-FIL_13
1002
{
1000
OWNER
1000
GEN
1002
}
1001
GENIUS_GENODEF_13
1002
{
1000
HIER
1070
     0
1002
}
1002
{
1000
MANEDIT
1070
     0
1002
}
1002
{
1000
NOSEL
1070
     0
1002
}
1002
{
1000
BEHIND
1070
     0
1002
}
1002
{
1000
OTHER
1070
     0
1002
}
1002
{
1000
REACTOR
1002
}
  0
LINE
  5
2DF7
  8
AM_0
 10
196.8268575340266
 20
257.05865895664022
 30
0.0
 11
198.24107109639959
 21
258.47287251901349
 31
0.0
  0
ARC
  5
2DF8
  8
AM_0
 10
197.5339643152133
 20
256.35155217545378
 30
0.0
 40
1.0
 50
135.0
 51
180.0
1001
GENIUS_GENODEF_13
1002
{
1000
HIER
1070
     0
1002
}
1002
{
1000
MANEDIT
1070
     0
1002
}
1002
{
1000
NOSEL
1070
     0
1002
}
1002
{
1000
BEHIND
1070
     0
1002
}
1002
{
1000
OTHER
1070
     0
1002
}
1002
{
1000
REACTOR
1002
}
1001
GENIUS_GENOBJ-N-FIL_13
1002
{
1000
OWNER
1000
GEN
1002
}
  0
ARC
  5
2DF9
  8
AM_0
 10
197.5339643152133
 20
259.17997930019999
 30
0.0
 40
1.0
 50
315.0
 51
0.0
1001
GENIUS_GENODEF_13
1002
{
1000
HIER
1070
     0
1002
}
1002
{
1000
MANEDIT
1070
     0
1002
}
1002
{
1000
NOSEL
1070
     0
1002
}
1002
{
1000
BEHIND
1070
     0
1002
}
1002
{
1000
OTHER
1070
     0
1002
}
1002
{
1000
REACTOR
1002
}
1001
GENIUS_GENOBJ-N-FIL_13
1002
{
1000
OWNER
1000
GEN
1002
}
  0
LINE
  5
2DFA
  8
AM_0
 10
269.03396215586548
 20
201.26944273782701
 30
0.0
 11
269.03396215586548
 21
277.26207673782682
 31
0.0
  0
ARC
  5
2DFB
  8
AM_0
 10
270.03395215586562
 20
199.26945973782679
 30
0.0
 40
2.00000007
 50
0.0
 51
90.000003000000007
  0
LINE
  5
2DFC
  8
AM_0
 10
264.03395215586562
 20
201.26944273782701
 30
0.0
 11
270.03395215586562
 21
201.26944273782701
 31
0.0
  0
LINE
  5
2DFD
  8
AM_0
 10
264.03395215586562
 20
277.26207673782682
 30
0.0
 11
270.03395215586562
 21
277.26207673782682
 31
0.0
  0
LINE
  5
2DFE
  8
AM_0
 10
360.53396215586571
 20
256.26576673782682
 30
0.0
 11
360.53396215586571
 21
190.76574973782701
 31
0.0
  0
LINE
  5
2DFF
  8
AM_0
 10
346.53395215586568
 20
188.642520737827
 30
0.0
 11
346.53395215586568
 21
215.73076273782701
 31
0.0
  0
LINE
  5
2E00
  8
AM_0
 10
356.5339421558657
 20
190.66101373782701
 30
0.0
 11
360.53396215586571
 21
190.76574973782701
 31
0.0
  0
LINE
  5
2E01
  8
AM_0
 10
301.53395215586562
 20
186.48512473782679
 30
0.0
 11
337.53395215586568
 21
186.48512473782679
 31
0.0
  0
LINE
  5
2E02
  8
AM_0
 10
301.53395215586562
 20
174.4518457378268
 30
0.0
 11
337.5339821558656
 21
173.19470473782701
 31
0.0
  0
LINE
  5
2E03
  8
AM_0
 10
338.5077521558656
 20
190.1889847378269
 30
0.0
 11
346.53398215586571
 21
190.3991437378269
 31
0.0
  0
LINE
  5
2E04
  8
AM_0
 10
337.53395215586568
 20
189.46454173782701
 30
0.0
 11
337.53395215586568
 21
173.26575073782701
 31
0.0
  0
LINE
  5
2E05
  8
AM_0
 10
341.53391215586572
 20
185.373843737827
 30
0.0
 11
341.53391215586572
 21
176.7488287378269
 31
0.0
  0
ARC
  5
2E06
  8
AM_0
 10
332.01944215586582
 20
181.061343737827
 30
0.0
 40
9.5144921999999994
 50
342.41196000000002
 51
17.588032999999999
  0
LINE
  5
2E07
  8
AM_0
 10
341.08916215586549
 20
175.311342737827
 30
0.0
 11
337.53395215586568
 21
175.311342737827
 31
0.0
  0
LINE
  5
2E08
  8
AM_0
 10
341.08916215586549
 20
178.1863447378268
 30
0.0
 11
337.53395215586568
 21
178.1863447378268
 31
0.0
  0
ARC
  5
2E09
  8
AM_0
 10
338.98853215586581
 20
176.7488287378269
 30
0.0
 40
2.5454064299999981
 50
325.61556999999982
 51
34.384439
  0
LINE
  5
2E0A
  8
AM_0
 10
341.08916215586549
 20
186.811344737827
 30
0.0
 11
337.53395215586568
 21
186.811344737827
 31
0.0
  0
LINE
  5
2E0B
  8
AM_0
 10
341.08916215586549
 20
183.936342737827
 30
0.0
 11
337.53395215586568
 21
183.936342737827
 31
0.0
  0
ARC
  5
2E0C
  8
AM_0
 10
338.53391215586561
 20
189.1893187378268
 30
0.0
 40
1.0000000199999981
 50
91.500000999999969
 51
180.00001
  0
ARC
  5
2E0D
  8
AM_0
 10
338.98853215586581
 20
185.373843737827
 30
0.0
 40
2.5454064299999981
 50
325.61556999999982
 51
34.384439
  0
LINE
  5
2E0E
  8
AM_0
 10
348.46418215586579
 20
186.6437407378269
 30
0.0
 11
356.5339421558657
 21
186.36194173782701
 31
0.0
  0
ARC
  5
2E0F
  8
AM_0
 10
348.53396215586571
 20
188.642520737827
 30
0.0
 40
2.00000007
 50
179.99998999999991
 51
268.00000999999992
  0
ARC
  5
2E10
  8
AM_0
 10
338.53391215586561
 20
214.5304597378269
 30
0.0
 40
5.0000001000000003
 50
179.99998999999991
 51
270.0
  0
LINE
  5
2E11
  8
AM_0
 10
338.53391215586561
 20
209.5304617378269
 30
0.0
 11
346.53395215586568
 21
209.5304617378269
 31
0.0
  0
ARC
  5
2E12
  8
AM_0
 10
349.53395215586579
 20
201.6504397378269
 30
0.0
 40
2.00000007
 50
268.0
 51
0.0
  0
ARC
  5
2E13
  8
AM_0
 10
348.53396215586571
 20
215.73076273782701
 30
0.0
 40
2.00000007
 50
90.000003000000007
 51
180.00001
  0
LINE
  5
2E14
  8
AM_0
 10
391.53395215586568
 20
246.7657687378269
 30
0.0
 11
391.53395215586568
 21
268.26576873782682
 31
0.0
  0
LINE
  5
2E15
  8
AM_0
 10
363.53393215586578
 20
246.2657827378269
 30
0.0
 11
363.53393215586578
 21
256.26576673782682
 31
0.0
  0
LINE
  5
2E16
  8
AM_0
 10
361.53395215586579
 20
275.29161673782693
 30
0.0
 11
361.53395215586579
 21
237.021336737827
 31
0.0
  0
LINE
  5
2E17
  8
AM_0
 10
363.53393215586578
 20
246.7657687378269
 30
0.0
 11
391.53395215586568
 21
246.7657687378269
 31
0.0
  0
LINE
  5
2E18
  8
AM_0
 10
360.53399215586558
 20
235.19286073782689
 30
0.0
 11
360.94820215586572
 21
235.6070767378269
 31
0.0
  0
ARC
  5
2E19
  8
AM_0
 10
359.53391215586572
 20
237.021336737827
 30
0.0
 40
2.00000007
 50
315.0
 51
0.0
  0
LINE
  5
2E1A
  8
AM_0
 10
361.53395215586579
 20
246.2657827378269
 30
0.0
 11
363.53393215586578
 21
246.2657827378269
 31
0.0
  0
LINE
  5
2E1B
  8
AM_0
 10
363.53393215586578
 20
265.76578273782701
 30
0.0
 11
391.53395215586568
 21
265.76578273782701
 31
0.0
  0
LINE
  5
2E1C
  8
AM_0
 10
369.53393215586578
 20
268.26576873782682
 30
0.0
 11
391.53395215586568
 21
268.26576873782682
 31
0.0
  0
LINE
  5
2E1D
  8
AM_0
 10
369.53393215586578
 20
265.76578273782701
 30
0.0
 11
369.53393215586578
 21
268.26576873782682
 31
0.0
  0
LINE
  5
2E1E
  8
AM_0
 10
363.53393215586578
 20
266.26576873782682
 30
0.0
 11
363.53393215586578
 21
256.26576673782682
 31
0.0
  0
LINE
  5
2E1F
  8
AM_0
 10
361.53395215586579
 20
266.26576873782682
 30
0.0
 11
363.53393215586578
 21
266.26576873782682
 31
0.0
  0
LINE
  5
2E20
  8
AM_0
 10
360.53396215586571
 20
277.19289373782681
 30
0.0
 11
360.94820215586572
 21
276.77867773782702
 31
0.0
  0
ARC
  5
2E21
  8
AM_0
 10
359.53391215586572
 20
275.36449273782682
 30
0.0
 40
2.00000007
 50
0.0
 51
45.00000099999999
  0
LINE
  5
2E22
  8
AM_0
 10
270.00776215586552
 20
300.091299737827
 30
0.0
 11
301.53395215586562
 21
299.26576873782682
 31
0.0
  0
LINE
  5
2E23
  8
AM_0
 10
273.48635215586592
 20
281.87261173782701
 30
0.0
 11
301.53395215586562
 21
281.87261173782701
 31
0.0
  0
LINE
  5
2E24
  8
AM_0
 10
264.03395215586562
 20
303.26576573782688
 30
0.0
 11
255.03395215586559
 21
303.26576573782688
 31
0.0
  0
ARC
  5
2E25
  8
AM_0
 10
249.03395215586559
 20
298.83682592029783
 30
0.0
 40
5.0
 50
315.0
 51
0.0
1001
GENIUS_GENODEF_13
1002
{
1000
HIER
1070
     0
1002
}
1002
{
1000
MANEDIT
1070
     0
1002
}
1002
{
1000
NOSEL
1070
     0
1002
}
1002
{
1000
BEHIND
1070
     0
1002
}
1002
{
1000
OTHER
1070
     0
1002
}
1002
{
1000
REACTOR
1002
}
1001
GENIUS_GENOBJ-N-FIL_13
1002
{
1000
OWNER
1000
GEN
1002
}
  0
ARC
  5
2E26
  8
AM_0
 10
255.03395215586559
 20
302.265765737827
 30
0.0
 40
1.0
 50
90.0
 51
180.0
1001
GENIUS_GENODEF_13
1002
{
1000
HIER
1070
     0
1002
}
1002
{
1000
MANEDIT
1070
     0
1002
}
1002
{
1000
NOSEL
1070
     0
1002
}
1002
{
1000
BEHIND
1070
     0
1002
}
1002
{
1000
OTHER
1070
     0
1002
}
1002
{
1000
REACTOR
1002
}
1001
GENIUS_GENOBJ-N-FIL_13
1002
{
1000
OWNER
1000
GEN
1002
}
  0
LINE
  5
2E27
  8
AM_0
 10
269.03396215586548
 20
290.76576973782682
 30
0.0
 11
269.03396215586548
 21
301.66066573782689
 31
0.0
  0
LINE
  5
2E28
  8
AM_0
 10
272.03396215586559
 20
279.26207473782682
 30
0.0
 11
272.03396215586559
 21
288.76576873782682
 31
0.0
  0
LINE
  5
2E29
  8
AM_0
 10
264.03395215586562
 20
290.76576973782682
 30
0.0
 11
270.03395215586562
 21
290.76576973782682
 31
0.0
  0
ARC
  5
2E2A
  8
AM_0
 10
270.03395215586562
 20
288.76576873782682
 30
0.0
 40
2.00000007
 50
0.0
 51
90.000003000000007
  0
ARC
  5
2E2B
  8
AM_0
 10
268.03394215586587
 20
301.66066573782689
 30
0.0
 40
1.0000000199999981
 50
0.0
 51
88.499996999999965
  0
LINE
  5
2E2C
  8
AM_0
 10
264.03395215586562
 20
302.76576973782682
 30
0.0
 11
268.06007215586573
 21
302.66033173782682
 31
0.0
  0
ARC
  5
2E2D
  8
AM_0
 10
270.03395215586562
 20
301.0909957378268
 30
0.0
 40
1.0000000199999981
 50
179.99998999999991
 51
268.50000999999992
  0
LINE
  5
2E2E
  8
AM_0
 10
356.53391215586578
 20
326.26578373782701
 30
0.0
 11
360.53396215586571
 21
326.26578373782701
 31
0.0
  0
ARC
  5
2E2F
  8
AM_0
 10
338.53391215586561
 20
320.496873737827
 30
0.0
 40
5.0000001000000003
 50
91.999997999999948
 51
180.00001
  0
LINE
  5
2E30
  8
AM_0
 10
346.53395215586568
 20
328.98519373782682
 30
0.0
 11
346.53395215586568
 21
296.70613873782708
 31
0.0
  0
LINE
  5
2E31
  8
AM_0
 10
301.53395215586562
 20
281.87261173782701
 30
0.0
 11
331.72997215586571
 21
281.87261173782701
 31
0.0
  0
LINE
  5
2E32
  8
AM_0
 10
301.53395215586562
 20
299.26576873782682
 30
0.0
 11
330.61247215586582
 21
300.02721373782708
 31
0.0
  0
ARC
  5
2E33
  8
AM_0
 10
348.53396215586571
 20
296.70613873782708
 30
0.0
 40
2.00000007
 50
179.99998999999991
 51
271.51463999999999
  0
ARC
  5
2E34
  8
AM_0
 10
330.53396215586571
 20
303.0262057378269
 30
0.0
 40
3.0
 50
271.49999999999972
 51
0.0
  0
ARC
  5
2E35
  8
AM_0
 10
348.53396215586571
 20
315.76576873782682
 30
0.0
 40
3.0
 50
0.0
 51
90.000003000000007
  0
LINE
  5
2E36
  8
AM_0
 10
338.3594321558657
 20
325.4938237378268
 30
0.0
 11
343.63868215586581
 21
325.67817373782708
 31
0.0
  0
LINE
  5
2E37
  8
AM_0
 10
348.46415215586569
 20
330.98394373782708
 30
0.0
 11
356.5339421558657
 21
331.26573373782708
 31
0.0
  0
ARC
  5
2E38
  8
AM_0
 10
348.53396215586571
 20
328.98519373782682
 30
0.0
 40
2.00000007
 50
91.999997999999948
 51
180.00001
  0
ARC
  5
2E39
  8
AM_0
 10
343.53395215586562
 20
328.67637373782708
 30
0.0
 40
3.0
 50
272.0
 51
0.0
  0
ARC
  5
2E3A
  8
AM_0
 10
573.76492145153645
 20
275.79535573782681
 30
0.0
 40
3.0
 50
135.0
 51
216.28525999999991
  0
ARC
  5
2E3B
  8
AM_0
 10
547.16426045153639
 20
256.26576673782682
 30
0.0
 40
30.0
 50
17.592213999999991
 51
225.82602999999969
  0
ARC
  5
2E3C
  8
AM_0
 10
547.16426045153639
 20
256.26576673782682
 30
0.0
 40
44.000000999999983
 50
137.5473199999997
 51
174.50581
  0
ARC
  5
2E3D
  8
AM_0
 10
520.56359645153634
 20
275.79535573782681
 30
0.0
 40
3.0
 50
323.71474000000001
 51
45.00000099999999
  0
CIRCLE
  5
2E3E
  8
AM_0
 10
497.18300945153652
 20
277.61772673782701
 30
0.0
 40
4.9999998000000003
  0
ARC
  5
2E3F
  8
AM_0
 10
547.16426045153639
 20
256.26576673782682
 30
0.0
 40
66.000003000000007
 50
291.2799599999999
 51
248.72002999999989
  0
ARC
  5
2E40
  8
AM_0
 10
547.16426045153639
 20
256.26576673782682
 30
0.0
 40
70.000001999999995
 50
290.65615000000008
 51
249.3438399999998
  0
ARC
  5
2E41
  8
AM_0
 10
547.16426045153639
 20
256.26576673782682
 30
0.0
 40
44.000000999999983
 50
19.999998999999981
 51
42.452682000000003
  0
CIRCLE
  5
2E42
  8
AM_0
 10
597.14552345153652
 20
277.61772673782701
 30
0.0
 40
4.9999998000000003
  0
LINE
  5
2E43
  8
AM_0
 10
472.16424245153638
 20
276.26576773782682
 30
0.0
 11
475.85769245153642
 21
318.48195673782681
 31
0.0
  0
LINE
  5
2E44
  8
AM_0
 10
622.16426045153639
 20
276.26573773782701
 30
0.0
 11
618.47082545153626
 21
318.48192673782683
 31
0.0
  0
LINE
  5
2E45
  8
ﾁｭｳｼﾝｾﾝ1
 10
547.16426045153639
 20
169.5939967378269
 30
0.0
 11
547.16426045153639
 21
335.57713553516072
 31
0.0
  0
LINE
  5
2E46
  8
AM_0
 10
492.18301145153652
 20
280.50447673782702
 30
0.0
 11
492.18301145153652
 21
274.7309947378269
 31
0.0
  0
LINE
  5
2E47
  8
AM_0
 10
502.18301045153618
 20
274.7309947378269
 30
0.0
 11
502.18301045153618
 21
280.50447673782702
 31
0.0
  0
LINE
  5
2E48
  8
AM_0
 10
592.14553745153648
 20
280.50447673782702
 30
0.0
 11
592.14553745153648
 21
274.7309947378269
 31
0.0
  0
LINE
  5
2E49
  8
AM_0
 10
602.14553945153625
 20
274.7309947378269
 30
0.0
 11
602.14553945153625
 21
280.50447673782702
 31
0.0
  0
ARC
  5
2E4A
  8
AM_0
 10
527.41381745153615
 20
229.4442487378268
 30
0.0
 40
3.0
 50
45.826031
 51
135.0
  0
LINE
  5
2E4B
  8
AM_0
 10
517.46577245153628
 20
223.73885173782679
 30
0.0
 11
541.31754845153625
 21
199.8870727378268
 31
0.0
  0
LINE
  5
2E4C
  8
AM_0
 10
528.05522045153646
 20
183.9480787378269
 30
0.0
 11
523.05523445153653
 21
186.834825737827
 31
0.0
  0
LINE
  5
2E4D
  8
AM_0
 10
523.05521945153646
 20
175.2878437378269
 30
0.0
 11
528.05522045153646
 21
178.174593737827
 31
0.0
  0
LINE
  5
2E4E
  8
AM_0
 10
511.84074245153641
 20
190.7657347378269
 30
0.0
 11
547.16426045153639
 21
190.7657347378269
 31
0.0
  0
CIRCLE
  5
2E4F
  8
AM_0
 10
523.0552044515365
 20
181.06135873782679
 30
0.0
 40
4.9999998000000003
  0
LINE
  5
2E50
  8
ﾁｭｳｼﾝｾﾝ1
 10
470.72625245153642
 20
256.26576673782682
 30
0.0
 11
626.53688456894679
 21
256.26576673782682
 31
0.0
  0
LINE
  5
2E51
  8
AM_0
 10
523.0552044515365
 20
174.0613447378268
 30
0.0
 11
571.27334345153645
 21
174.0613447378268
 31
0.0
  0
LINE
  5
2E52
  8
AM_0
 10
571.11735545153635
 20
194.7657517378268
 30
0.0
 11
523.21118045153639
 21
194.7657517378268
 31
0.0
  0
LINE
  5
2E53
  8
AM_0
 10
554.77749545153642
 20
207.0411877378269
 30
0.0
 11
526.25909045153639
 21
234.748935737827
 31
0.0
  0
ARC
  5
2E54
  8
AM_0
 10
485.7894864515365
 20
195.2657347378269
 30
0.0
 40
10.000000200000001
 50
184.99999
 51
270.0
  0
ARC
  5
2E55
  8
ﾁｭｳｼﾝｾﾝ1
 10
547.16426045153798
 20
256.26576673782893
 30
0.0
 40
85.000002000002581
 50
218.08346005202841
 51
231.97822754368531
  0
LINE
  5
2E56
  8
ﾁｭｳｼﾝｾﾝ1
 10
493.56642239323639
 20
202.66791367952689
 30
0.0
 11
481.04372637129518
 21
190.1452176575857
 31
0.0
  0
LINE
  5
2E57
  8
AM_0
 10
508.66532645153637
 20
185.26575073782701
 30
0.0
 11
485.7894864515365
 21
185.26575073782701
 31
0.0
  0
LINE
  5
2E58
  8
AM_0
 10
508.6653564515363
 20
185.26575073782701
 30
0.0
 11
511.840772451536
 21
190.76574973782701
 31
0.0
  0
LINE
  5
2E59
  8
AM_0
 10
518.0552034515365
 20
183.948108737827
 30
0.0
 11
518.0552034515365
 21
178.17457873782701
 31
0.0
  0
ARC
  5
2E5A
  8
AM_0
 10
523.0552044515365
 20
181.0613287378269
 30
0.0
 40
7.0000007999999987
 50
161.74801999999991
 51
270.0
  0
LINE
  5
2E5B
  8
AM_0
 10
518.05523345153642
 20
178.17457873782701
 30
0.0
 11
523.05523445153653
 21
175.287828737827
 31
0.0
  0
LINE
  5
2E5C
  8
AM_0
 10
523.05521945153646
 20
186.83484073782671
 30
0.0
 11
518.05523345153642
 21
183.94809373782689
 31
0.0
  0
ARC
  5
2E5D
  8
AM_0
 10
547.16426045153639
 20
239.2657657378268
 30
0.0
 40
60.000002999999992
 50
233.93341000000001
 51
236.89085
  0
ARC
  5
2E5E
  8
AM_0
 10
511.65894845153639
 20
184.81968973782679
 30
0.0
 40
5.0000001000000003
 50
341.74801999999988
 51
56.890858999999999
  0
ARC
  5
2E5F
  8
AM_0
 10
547.16426045153639
 20
256.26576673782682
 30
0.0
 40
44.000000999999983
 50
185.49419
 51
222.45267999999999
  0
LINE
  5
2E60
  8
AM_0
 10
522.68491745153642
 20
234.61485673782701
 30
0.0
 11
501.34283045153637
 21
213.27276973782679
 31
0.0
  0
LINE
  5
2E61
  8
AM_0
 10
472.16427245153631
 20
236.26575073782701
 30
0.0
 11
475.82757245153641
 21
194.39418373782701
 31
0.0
  0
CIRCLE
  5
2E62
  8
AM_0
 10
487.06020845153648
 20
196.161669737827
 30
0.0
 40
5.0000001000000003
  0
ARC
  5
2E63
  8
AM_0
 10
499.22152445153642
 20
215.3940787378269
 30
0.0
 40
3.0
 50
220.44792000000001
 51
315.0
  0
LINE
  5
2E64
  8
AM_0
 10
525.29249345153653
 20
231.56557273782701
 30
0.0
 11
504.1712604515364
 21
210.44433973782679
 31
0.0
  0
ARC
  5
2E65
  8
AM_0
 10
506.29258445153653
 20
208.323018737827
 30
0.0
 40
3.0
 50
135.0
 51
229.55207999999999
  0
LINE
  5
2E66
  8
AM_0
 10
492.18304145153638
 20
274.7309467378268
 30
0.0
 11
497.18304245153632
 21
271.8441997378269
 31
0.0
  0
LINE
  5
2E67
  8
AM_0
 10
484.32516245153653
 20
257.76576673782682
 30
0.0
 11
500.3801694515364
 21
257.76576673782682
 31
0.0
  0
LINE
  5
2E68
  8
AM_0
 10
484.32516245153653
 20
254.76576673782679
 30
0.0
 11
500.3801694515364
 21
254.76576673782679
 31
0.0
  0
LINE
  5
2E69
  8
AM_0
 10
472.16427245153631
 20
256.26576673782682
 30
0.0
 11
472.16427245153631
 21
236.265765737827
 31
0.0
  0
ARC
  5
2E6A
  8
AM_0
 10
484.32516245153653
 20
251.76576673782679
 30
0.0
 40
3.0
 50
90.000003000000007
 51
184.09603999999999
  0
LINE
  5
2E6B
  8
AM_0
 10
472.16427245153631
 20
256.26576673782682
 30
0.0
 11
472.16427245153631
 21
276.26573773782701
 31
0.0
  0
ARC
  5
2E6C
  8
AM_0
 10
484.32516245153653
 20
260.76576673782682
 30
0.0
 40
3.0
 50
175.90395000000001
 51
270.0
  0
ARC
  5
2E6D
  8
AM_0
 10
500.3801694515364
 20
251.76576673782679
 30
0.0
 40
3.0
 50
5.494178999999999
 51
90.000003000000007
  0
ARC
  5
2E6E
  8
AM_0
 10
520.56359645153634
 20
236.73616573782701
 30
0.0
 40
3.0
 50
315.0
 51
36.285257000000001
  0
ARC
  5
2E6F
  8
AM_0
 10
500.3801694515364
 20
260.76576673782682
 30
0.0
 40
3.0
 50
270.0
 51
354.50582000000009
  0
LINE
  5
2E70
  8
AM_0
 10
497.18300945153652
 20
271.8442147378268
 30
0.0
 11
502.18302545153631
 21
274.73096173782682
 31
0.0
  0
ARC
  5
2E71
  8
AM_0
 10
608.53903145153663
 20
195.2657347378269
 30
0.0
 40
10.000000200000001
 50
270.0
 51
355.0
  0
LINE
  5
2E72
  8
AM_0
 10
585.66320645153644
 20
185.26575073782701
 30
0.0
 11
608.53903145153663
 21
185.26575073782701
 31
0.0
  0
LINE
  5
2E73
  8
AM_0
 10
582.48777845153643
 20
190.7657347378269
 30
0.0
 11
547.16426045153639
 21
190.7657347378269
 31
0.0
  0
LINE
  5
2E74
  8
AM_0
 10
528.05518745153654
 20
178.17457873782701
 30
0.0
 11
528.05518745153654
 21
183.948108737827
 31
0.0
  0
ARC
  5
2E75
  8
AM_0
 10
571.27334345153645
 20
181.0613287378269
 30
0.0
 40
7.0000007999999987
 50
270.0
 51
18.251978000000001
  0
LINE
  5
2E76
  8
AM_0
 10
576.27332945153626
 20
178.17457873782701
 30
0.0
 11
576.27332945153626
 21
183.948108737827
 31
0.0
  0
LINE
  5
2E77
  8
AM_0
 10
566.27333045153625
 20
183.948108737827
 30
0.0
 11
566.27333045153625
 21
178.17457873782701
 31
0.0
  0
CIRCLE
  5
2E78
  8
AM_0
 10
571.27334345153645
 20
181.06135873782679
 30
0.0
 40
4.9999998000000003
  0
LINE
  5
2E79
  8
AM_0
 10
566.27334545153644
 20
178.17457873782701
 30
0.0
 11
571.27334345153645
 21
175.287828737827
 31
0.0
  0
LINE
  5
2E7A
  8
AM_0
 10
571.27332845153649
 20
175.2878437378269
 30
0.0
 11
576.27332945153626
 21
178.174593737827
 31
0.0
  0
LINE
  5
2E7B
  8
AM_0
 10
571.27332845153649
 20
186.83485873782701
 30
0.0
 11
566.27333045153625
 21
183.94809373782689
 31
0.0
  0
LINE
  5
2E7C
  8
AM_0
 10
576.27334445153645
 20
183.9480787378269
 30
0.0
 11
571.27334345153645
 21
186.834825737827
 31
0.0
  0
LINE
  5
2E7D
  8
AM_0
 10
585.66322145153629
 20
185.2657207378268
 30
0.0
 11
582.48779345153662
 21
190.765719737827
 31
0.0
  0
ARC
  5
2E7E
  8
AM_0
 10
547.16426045153639
 20
239.2657657378268
 30
0.0
 40
60.000002999999992
 50
303.10913999999991
 51
306.06658999999991
  0
ARC
  5
2E7F
  8
AM_0
 10
547.16426045153639
 20
239.2657657378268
 30
0.0
 40
60.000002999999992
 50
303.10913999999991
 51
304.41151000000002
  0
ARC
  5
2E80
  8
AM_0
 10
582.66959945153644
 20
184.81968973782679
 30
0.0
 40
5.0000001000000003
 50
123.10912999999979
 51
198.25198
  0
LINE
  5
2E81
  8
AM_0
 10
592.14553745153648
 20
274.7309467378268
 30
0.0
 11
597.14553845153648
 21
271.8442147378268
 31
0.0
  0
ARC
  5
2E82
  8
AM_0
 10
595.54275545153644
 20
260.76576673782682
 30
0.0
 40
3.0
 50
200.0
 51
270.0
  0
ARC
  5
2E83
  8
AM_0
 10
568.71427745153642
 20
221.3857477378269
 30
0.0
 40
20.000000700000001
 50
225.82602999999969
 51
17.592213999999991
  0
LINE
  5
2E84
  8
AM_0
 10
587.77891445153637
 20
227.4305467378268
 30
0.0
 11
575.76122945153645
 21
265.33296673782701
 31
0.0
  0
ARC
  5
2E85
  8
AM_0
 10
539.19622745153652
 20
197.7657517378268
 30
0.0
 40
3.0
 50
270.0
 51
45.00000099999999
  0
ARC
  5
2E86
  8
AM_0
 10
575.91943145153664
 20
200.210940737827
 30
0.0
 40
3.0
 50
297.15705000000008
 51
31.70912199999999
  0
ARC
  5
2E87
  8
AM_0
 10
584.42669645153615
 20
205.46699773782689
 30
0.0
 40
3.0
 50
211.70912000000001
 51
306.26119999999992
  0
LINE
  5
2E88
  8
AM_0
 10
580.8751824515366
 20
205.50769573782679
 30
0.0
 11
581.87452745153644
 21
203.8901857378269
 31
0.0
  0
LINE
  5
2E89
  8
AM_0
 10
577.47227345153635
 20
203.405262737827
 30
0.0
 11
578.47161845153641
 21
201.78775273782679
 31
0.0
  0
ARC
  5
2E8A
  8
AM_0
 10
547.16426045153639
 20
256.26576673782682
 30
0.0
 40
20.000000700000001
 50
270.0
 51
90.000003000000007
  0
ARC
  5
2E8B
  8
AM_0
 10
547.16426045153639
 20
256.26576673782682
 30
0.0
 40
20.000000700000001
 50
270.0
 51
90.000003000000007
  0
LINE
  5
2E8C
  8
ﾁｭｳｼﾝｾﾝ1
 10
581.24399174648295
 20
239.2657657378268
 30
0.0
 11
513.08452915658961
 21
239.2657657378268
 31
0.0
  0
ARC
  5
2E8D
  8
AM_0
 10
547.16426045153639
 20
256.26576673782682
 30
0.0
 40
20.000000700000001
 50
90.000003000000007
 51
270.0
  0
ARC
  5
2E8E
  8
AM_0
 10
547.16426045153639
 20
256.26576673782682
 30
0.0
 40
20.000000700000001
 50
90.000003000000007
 51
270.0
  0
CIRCLE
  5
2E8F
  8
AM_0
 10
547.16426045153639
 20
256.26576673782682
 30
0.0
 40
2.4999998400000001
  0
CIRCLE
  5
2E90
  8
AM_5
 10
547.16426045153639
 20
256.26576673782682
 30
0.0
 40
3.0
  0
ARC
  5
2E91
  8
AM_0
 10
547.16426045153639
 20
256.26576673782682
 30
0.0
 40
9.5000003999999993
 50
108.40848
 51
71.591511999999994
  0
LINE
  5
2E92
  8
AM_0
 10
544.16426045153617
 20
268.26576673782682
 30
0.0
 11
544.16426045153617
 21
262.26576673782682
 31
0.0
  0
LINE
  5
2E93
  8
AM_0
 10
550.16426045153639
 20
262.26576673782682
 30
0.0
 11
550.16426045153639
 21
268.26576673782682
 31
0.0
  0
LINE
  5
2E94
  8
AM_0
 10
544.16426045153617
 20
262.26576673782682
 30
0.0
 11
550.16426045153639
 21
262.26576673782682
 31
0.0
  0
LINE
  5
2E95
  8
AM_0
 10
550.16426045153639
 20
268.26576673782682
 30
0.0
 11
544.16426045153617
 21
268.26576673782682
 31
0.0
  0
LINE
  5
2E96
  8
AM_0
 10
588.51075545153628
 20
271.31462773782681
 30
0.0
 11
592.7236944515364
 21
259.73967673782698
 31
0.0
  0
LINE
  5
2E97
  8
AM_0
 10
595.99943645153644
 20
250.73967373782679
 30
0.0
 11
605.02363445153651
 21
225.9458677378268
 31
0.0
  0
LINE
  5
2E98
  8
AM_0
 10
622.16427545153635
 20
236.265765737827
 30
0.0
 11
618.50099345153615
 21
194.394198737827
 31
0.0
  0
CIRCLE
  5
2E99
  8
AM_0
 10
607.26835745153653
 20
196.161669737827
 30
0.0
 40
5.0000001000000003
  0
LINE
  5
2E9A
  8
AM_0
 10
622.16427545153635
 20
256.26576673782682
 30
0.0
 11
622.16427545153635
 21
236.265765737827
 31
0.0
  0
ARC
  5
2E9B
  8
AM_0
 10
610.00335845153643
 20
251.76576673782679
 30
0.0
 40
3.0
 50
355.90395999999993
 51
90.000003000000007
  0
LINE
  5
2E9C
  8
AM_0
 10
610.00335845153643
 20
254.76576673782679
 30
0.0
 11
598.81849745153625
 21
254.76576673782679
 31
0.0
  0
ARC
  5
2E9D
  8
AM_0
 10
598.81849745153625
 20
251.76576673782679
 30
0.0
 40
3.0
 50
90.000003000000007
 51
200.0
  0
ARC
  5
2E9E
  8
AM_0
 10
610.00335845153643
 20
260.76576673782682
 30
0.0
 40
3.0
 50
270.0
 51
4.096044
  0
LINE
  5
2E9F
  8
AM_0
 10
610.00335845153643
 20
257.76576673782682
 30
0.0
 11
595.54275545153644
 21
257.76576673782682
 31
0.0
  0
LINE
  5
2EA0
  8
AM_0
 10
597.14553845153648
 20
271.8442147378268
 30
0.0
 11
602.14553945153625
 21
274.730979737827
 31
0.0
  0
LINE
  5
2EA1
  8
AM_0
 10
622.16427545153635
 20
256.26576673782682
 30
0.0
 11
622.16427545153635
 21
276.26573773782701
 31
0.0
  0
ARC
  5
2EA2
  8
AM_0
 10
527.63467145153641
 20
282.86641573782708
 30
0.0
 40
3.0
 50
225.0
 51
306.28525999999982
  0
ARC
  5
2EA3
  8
AM_0
 10
547.16426045153639
 20
256.26576673782682
 30
0.0
 40
44.000000999999983
 50
95.494178999999988
 51
132.4526799999999
  0
LINE
  5
2EA4
  8
AM_0
 10
527.16425945153628
 20
331.26576373782689
 30
0.0
 11
484.94808545153637
 21
327.57231373782707
 31
0.0
  0
ARC
  5
2EA5
  8
AM_0
 10
485.8196694515363
 20
317.61037273782688
 30
0.0
 40
10.000000200000001
 50
95.000001999999995
 51
175.00001
  0
CIRCLE
  5
2EA6
  8
AM_0
 10
487.06020845153648
 20
316.36983373782681
 30
0.0
 40
5.0000001000000003
  0
LINE
  5
2EA7
  8
AM_0
 10
497.18304245153632
 20
283.39119673782682
 30
0.0
 11
492.18304145153638
 21
280.50444673782681
 31
0.0
  0
ARC
  5
2EA8
  8
AM_0
 10
499.22152445153642
 20
297.1374427378268
 30
0.0
 40
3.0
 50
45.00000099999999
 51
139.5520799999999
  0
LINE
  5
2EA9
  8
AM_0
 10
525.51335045153655
 20
280.74510673782697
 30
0.0
 11
504.17127545153647
 21
302.087178737827
 31
0.0
  0
LINE
  5
2EAA
  8
AM_0
 10
522.68491745153642
 20
277.916676737827
 30
0.0
 11
501.3428454515365
 21
299.25874873782681
 31
0.0
  0
LINE
  5
2EAB
  8
AM_0
 10
502.18302545153631
 20
280.50444673782681
 30
0.0
 11
497.18304245153632
 21
283.39119673782682
 31
0.0
  0
ARC
  5
2EAC
  8
AM_0
 10
506.29258445153653
 20
304.208487737827
 30
0.0
 40
3.0
 50
130.44793000000001
 51
225.0
  0
LINE
  5
2EAD
  8
AM_0
 10
567.1642584515364
 20
331.26576373782689
 30
0.0
 11
609.38044745153638
 21
327.572343737827
 31
0.0
  0
LINE
  5
2EAE
  8
AM_0
 10
597.14553845153648
 20
283.39122673782708
 30
0.0
 11
592.14553745153648
 21
280.50447673782702
 31
0.0
  0
ARC
  5
2EAF
  8
AM_0
 10
595.10700845153644
 20
297.1374427378268
 30
0.0
 40
3.0
 50
40.447929000000002
 51
135.0
  0
ARC
  5
2EB0
  8
AM_0
 10
551.66426045153639
 20
319.1048197378268
 30
0.0
 40
3.0
 50
85.903959
 51
180.00001
  0
ARC
  5
2EB1
  8
AM_0
 10
542.66425745153651
 20
319.1048197378268
 30
0.0
 40
3.0
 50
0.0
 51
94.096045999999987
  0
ARC
  5
2EB2
  8
AM_0
 10
547.16426045153639
 20
256.26576673782682
 30
0.0
 40
44.000000999999983
 50
47.547316999999993
 51
84.505819000000017
  0
ARC
  5
2EB3
  8
AM_0
 10
542.66425745153651
 20
303.04985773782693
 30
0.0
 40
3.0
 50
275.49417999999991
 51
0.0
  0
LINE
  5
2EB4
  8
AM_0
 10
545.66426045153639
 20
319.1048197378268
 30
0.0
 11
545.66426045153639
 21
303.04985773782693
 31
0.0
  0
LINE
  5
2EB5
  8
AM_0
 10
548.66426045153617
 20
319.1048197378268
 30
0.0
 11
548.66426045153617
 21
303.04985773782693
 31
0.0
  0
ARC
  5
2EB6
  8
AM_0
 10
551.66426045153639
 20
303.04985773782693
 30
0.0
 40
3.0
 50
179.99998999999991
 51
264.50582000000003
  0
LINE
  5
2EB7
  8
AM_0
 10
571.64360045153626
 20
277.916676737827
 30
0.0
 11
592.98568745153648
 21
299.25874873782681
 31
0.0
  0
LINE
  5
2EB8
  8
AM_0
 10
568.81517045153635
 20
280.74510673782697
 30
0.0
 11
590.15724245153638
 21
302.087178737827
 31
0.0
  0
ARC
  5
2EB9
  8
AM_0
 10
566.69387645153631
 20
282.86641573782708
 30
0.0
 40
3.0
 50
233.7147499999999
 51
315.0
  0
ARC
  5
2EBA
  8
AM_0
 10
588.03596345153642
 20
304.208487737827
 30
0.0
 40
3.0
 50
315.0
 51
49.552073
  0
LINE
  5
2EBB
  8
AM_0
 10
547.16426045153639
 20
331.26576373782689
 30
0.0
 11
567.16427345153647
 21
331.26576373782689
 31
0.0
  0
LINE
  5
2EBC
  8
AM_0
 10
547.16426045153639
 20
331.26576373782689
 30
0.0
 11
527.16427445153613
 21
331.26576373782689
 31
0.0
  0
ARC
  5
2EBD
  8
ﾁｭｳｼﾝｾﾝ1
 10
547.16426045153844
 20
256.26576673782949
 30
0.0
 40
85.000001999996798
 50
37.919075944696651
 51
52.215855023343757
  0
CIRCLE
  5
2EBE
  8
AM_0
 10
607.26835745153653
 20
316.36983373782681
 30
0.0
 40
5.0000001000000003
  0
LINE
  5
2EBF
  8
ﾁｭｳｼﾝｾﾝ1
 10
600.97489177686543
 20
310.076381597286
 30
0.0
 11
613.34665796469051
 21
322.44813553439002
 31
0.0
  0
ARC
  5
2EC0
  8
AM_0
 10
608.50889645153643
 20
317.61037273782688
 30
0.0
 40
10.000000200000001
 50
4.9999998999999971
 51
84.999996999999979
  0
LINE
  5
2EC1
  8
AM_0
 10
602.14553945153625
 20
280.50447673782702
 30
0.0
 11
597.14553845153648
 21
283.39122673782708
 31
0.0
  0
LINE
  5
2EC2
  8
AM_0
 10
264.03395215586562
 20
277.26207573782682
 30
0.0
 11
254.03395215586599
 21
277.26207573782682
 31
0.0
  0
LINE
  5
2EC3
  8
AM_0
 10
264.03395215586562
 20
290.76576573782688
 30
0.0
 11
254.03395215586599
 21
290.76576573782688
 31
0.0
  0
LINE
  5
2EC4
  8
AM_0
 10
264.03395215586562
 20
187.7657657378268
 30
0.0
 11
254.03395215586599
 21
187.7657657378268
 31
0.0
  0
LINE
  5
2EC5
  8
AM_0
 10
264.03395215586562
 20
201.2694607378269
 30
0.0
 11
254.03395215586599
 21
201.2694607378269
 31
0.0
  0
ARC
  5
2EC6
  8
ﾁｭｳｼﾝｾﾝ1
 10
547.16426045153878
 20
256.265766737825
 30
0.0
 40
85.000001999996798
 50
307.9190759446966
 51
322.21585502334369
  0
LINE
  5
2EC7
  8
ﾁｭｳｼﾝｾﾝ1
 10
600.97487531099534
 20
202.45513541249781
 30
0.0
 11
613.34662924809925
 21
190.08336922467271
 31
0.0
  0
ARC
  5
2EC8
  8
ﾁｭｳｼﾝｾﾝ1
 10
547.16426045153833
 20
256.2657667378254
 30
0.0
 40
85.000002000002581
 50
128.0834600520285
 51
141.97822754368531
  0
LINE
  5
2EC9
  8
ﾁｭｳｼﾝｾﾝ1
 10
493.56640739323637
 20
309.86360479612682
 30
0.0
 11
481.0437113712951
 21
322.38630081806798
 31
0.0
  0
LINE
  5
2ECA
  8
AM_0
 10
223.5340197852602
 20
494.03126808617998
 30
0.0
 11
223.5340197852602
 21
440.03126808617998
 31
0.0
  0
LINE
  5
2ECB
  8
AM_0
 10
254.03401215586561
 20
530.03126808617992
 30
0.0
 11
254.03401215586561
 21
404.03126808617992
 31
0.0
  0
LINE
  5
2ECC
  8
AM_0
 10
198.5340243152132
 20
442.03126808617992
 30
0.0
 11
198.5340243152132
 21
492.03126808617992
 31
0.0
  0
LINE
  5
2ECD
  8
AM_0
 10
196.5340243152132
 20
484.11705452380681
 30
0.0
 11
196.5340243152132
 21
449.94548164855291
 31
0.0
  0
LINE
  5
2ECE
  8
AM_0
 10
200.5340243152132
 20
440.03126808617998
 30
0.0
 11
219.39188416152919
 21
440.03126808617998
 31
0.0
  0
ARC
  5
2ECF
  8
AM_0
 10
200.5340243152132
 20
442.03126808617992
 30
0.0
 40
2.0
 50
180.0
 51
270.0
1001
GENIUS_GENOBJ-N-FIL_13
1002
{
1000
OWNER
1000
GEN
1002
}
1001
GENIUS_GENODEF_13
1002
{
1000
HIER
1070
     0
1002
}
1002
{
1000
MANEDIT
1070
     0
1002
}
1002
{
1000
NOSEL
1070
     0
1002
}
1002
{
1000
BEHIND
1070
     0
1002
}
1002
{
1000
OTHER
1070
     0
1002
}
1002
{
1000
REACTOR
1002
}
  0
ARC
  5
2ED0
  8
AM_0
 10
197.53402431521329
 20
449.94548164855291
 30
0.0
 40
1.0
 50
180.0
 51
225.00000000000031
1001
GENIUS_GENODEF_13
1002
{
1000
HIER
1070
     0
1002
}
1002
{
1000
MANEDIT
1070
     0
1002
}
1002
{
1000
NOSEL
1070
     0
1002
}
1002
{
1000
BEHIND
1070
     0
1002
}
1002
{
1000
OTHER
1070
     0
1002
}
1002
{
1000
REACTOR
1002
}
1001
GENIUS_GENOBJ-N-FIL_13
1002
{
1000
OWNER
1000
GEN
1002
}
  0
ARC
  5
2ED1
  8
AM_0
 10
197.53402431521329
 20
447.1170545238067
 30
0.0
 40
1.0
 50
0.0
 51
45.000000000000291
1001
GENIUS_GENODEF_13
1002
{
1000
HIER
1070
     0
1002
}
1002
{
1000
MANEDIT
1070
     0
1002
}
1002
{
1000
NOSEL
1070
     0
1002
}
1002
{
1000
BEHIND
1070
     0
1002
}
1002
{
1000
OTHER
1070
     0
1002
}
1002
{
1000
REACTOR
1002
}
1001
GENIUS_GENOBJ-N-FIL_13
1002
{
1000
OWNER
1000
GEN
1002
}
  0
LINE
  5
2ED2
  8
AM_0
 10
196.82691753402671
 20
449.23837486736659
 30
0.0
 11
198.24113109639981
 21
447.82416130499348
 31
0.0
  0
LINE
  5
2ED3
  8
AM_0
 10
252.56954606179841
 20
410.9957418096418
 30
0.0
 11
226.46295197339469
 21
437.10233589804568
 31
0.0
  0
ARC
  5
2ED4
  8
AM_0
 10
255.0340121558655
 20
404.03126808617992
 30
0.0
 40
1.0
 50
180.0
 51
270.0
1001
GENIUS_GENODEF_13
1002
{
1000
HIER
1070
     0
1002
}
1002
{
1000
MANEDIT
1070
     0
1002
}
1002
{
1000
NOSEL
1070
     0
1002
}
1002
{
1000
BEHIND
1070
     0
1002
}
1002
{
1000
OTHER
1070
     0
1002
}
1002
{
1000
REACTOR
1002
}
1001
GENIUS_GENOBJ-N-FIL_13
1002
{
1000
OWNER
1000
GEN
1002
}
  0
ARC
  5
2ED5
  8
AM_0
 10
249.0340121558655
 20
407.46020790370898
 30
0.0
 40
5.0
 50
0.0
 51
45.000000000000291
1001
GENIUS_GENODEF_13
1002
{
1000
HIER
1070
     0
1002
}
1002
{
1000
MANEDIT
1070
     0
1002
}
1002
{
1000
NOSEL
1070
     0
1002
}
1002
{
1000
BEHIND
1070
     0
1002
}
1002
{
1000
OTHER
1070
     0
1002
}
1002
{
1000
REACTOR
1002
}
1001
GENIUS_GENOBJ-N-FIL_13
1002
{
1000
OWNER
1000
GEN
1002
}
  0
LINE
  5
2ED6
  8
AM_0
 10
264.0340121558657
 20
403.03126808617998
 30
0.0
 11
255.0340121558655
 21
403.03126808617998
 31
0.0
  0
ARC
  5
2ED7
  8
AM_0
 10
219.39188416152919
 20
430.03126808617992
 30
0.0
 40
10.0
 50
45.000000000000291
 51
90.0
1001
GENIUS_GENODEF_13
1002
{
1000
HIER
1070
     0
1002
}
1002
{
1000
MANEDIT
1070
     0
1002
}
1002
{
1000
NOSEL
1070
     0
1002
}
1002
{
1000
BEHIND
1070
     0
1002
}
1002
{
1000
OTHER
1070
     0
1002
}
1002
{
1000
REACTOR
1002
}
1001
GENIUS_GENOBJ-N-FIL_13
1002
{
1000
OWNER
1000
GEN
1002
}
  0
LINE
  5
2ED8
  8
AM_0
 10
264.0340121558657
 20
415.53126808617998
 30
0.0
 11
254.03401215586601
 21
415.53126808617998
 31
0.0
  0
LINE
  5
2ED9
  8
AM_0
 10
264.0340121558657
 20
429.03496308618003
 30
0.0
 11
254.03401215586601
 21
429.03496308618003
 31
0.0
  0
LINE
  5
2EDA
  8
AM_0
 10
200.5340243152132
 20
494.03126808617998
 30
0.0
 11
219.39188416152919
 21
494.03126808617998
 31
0.0
  0
LINE
  5
2EDB
  8
AM_0
 10
166.534024315213
 20
469.53126808617998
 30
0.0
 11
188.5340243152132
 21
469.53126808617998
 31
0.0
  0
LINE
  5
2EDC
  8
AM_0
 10
166.534024315213
 20
464.53126808617992
 30
0.0
 11
188.5340243152132
 21
464.53126808617992
 31
0.0
  0
LINE
  5
2EDD
  8
AM_0
 10
166.534024315213
 20
459.03126808617992
 30
0.0
 11
194.5340243152132
 21
459.03126808617992
 31
0.0
  0
LINE
  5
2EDE
  8
AM_0
 10
166.534024315213
 20
475.03126808617992
 30
0.0
 11
194.5340243152132
 21
475.03126808617992
 31
0.0
  0
LINE
  5
2EDF
  8
AM_0
 10
166.534024315213
 20
475.03126808617992
 30
0.0
 11
166.534024315213
 21
459.03126808617992
 31
0.0
  0
ARC
  5
2EE0
  8
AM_0
 10
188.5340243152132
 20
467.03126808617992
 30
0.0
 40
2.5
 50
270.0
 51
90.0
  0
LINE
  5
2EE1
  8
AM_0
 10
188.5340243152132
 20
469.53126808617998
 30
0.0
 11
188.5340243152132
 21
464.53126808617992
 31
0.0
  0
LINE
  5
2EE2
  8
AM_0
 10
194.5340243152132
 20
475.53126808617992
 30
0.0
 11
194.5340243152132
 21
458.53126808617992
 31
0.0
  0
LINE
  5
2EE3
  8
AM_0
 10
194.5340243152132
 20
458.53127341922982
 30
0.0
 11
196.5340243152132
 21
458.53127235261991
 31
0.0
  0
LINE
  5
2EE4
  8
AM_0
 10
194.5340243152132
 20
475.53126808617992
 30
0.0
 11
196.5340243152132
 21
475.53126808617992
 31
0.0
  0
LINE
  5
2EE5
  8
AM_0
 10
196.82691753402671
 20
484.82416130499348
 30
0.0
 11
198.24113109639981
 21
486.2383748673667
 31
0.0
  0
ARC
  5
2EE6
  8
AM_0
 10
197.53402431521329
 20
486.9454816485528
 30
0.0
 40
1.0
 50
314.99999999999972
 51
0.0
1001
GENIUS_GENODEF_13
1002
{
1000
HIER
1070
     0
1002
}
1002
{
1000
MANEDIT
1070
     0
1002
}
1002
{
1000
NOSEL
1070
     0
1002
}
1002
{
1000
BEHIND
1070
     0
1002
}
1002
{
1000
OTHER
1070
     0
1002
}
1002
{
1000
REACTOR
1002
}
1001
GENIUS_GENOBJ-N-FIL_13
1002
{
1000
OWNER
1000
GEN
1002
}
  0
ARC
  5
2EE7
  8
AM_0
 10
197.53402431521329
 20
484.11705452380681
 30
0.0
 40
1.0
 50
134.9999999999996
 51
180.0
1001
GENIUS_GENODEF_13
1002
{
1000
HIER
1070
     0
1002
}
1002
{
1000
MANEDIT
1070
     0
1002
}
1002
{
1000
NOSEL
1070
     0
1002
}
1002
{
1000
BEHIND
1070
     0
1002
}
1002
{
1000
OTHER
1070
     0
1002
}
1002
{
1000
REACTOR
1002
}
1001
GENIUS_GENOBJ-N-FIL_13
1002
{
1000
OWNER
1000
GEN
1002
}
  0
ARC
  5
2EE8
  8
AM_0
 10
200.5340243152132
 20
492.03126808617992
 30
0.0
 40
2.0
 50
90.0
 51
180.0
1001
GENIUS_GENOBJ-N-FIL_13
1002
{
1000
OWNER
1000
GEN
1002
}
1001
GENIUS_GENODEF_13
1002
{
1000
HIER
1070
     0
1002
}
1002
{
1000
MANEDIT
1070
     0
1002
}
1002
{
1000
NOSEL
1070
     0
1002
}
1002
{
1000
BEHIND
1070
     0
1002
}
1002
{
1000
OTHER
1070
     0
1002
}
1002
{
1000
REACTOR
1002
}
  0
LINE
  5
2EE9
  8
AM_0
 10
252.56954606179841
 20
523.06679436271827
 30
0.0
 11
226.46295197339441
 21
496.9602002743145
 31
0.0
  0
ARC
  5
2EEA
  8
AM_0
 10
219.39188416152919
 20
504.03126808617992
 30
0.0
 40
10.0
 50
270.0
 51
314.99999999999972
1001
GENIUS_GENODEF_13
1002
{
1000
HIER
1070
     0
1002
}
1002
{
1000
MANEDIT
1070
     0
1002
}
1002
{
1000
NOSEL
1070
     0
1002
}
1002
{
1000
BEHIND
1070
     0
1002
}
1002
{
1000
OTHER
1070
     0
1002
}
1002
{
1000
REACTOR
1002
}
1001
GENIUS_GENOBJ-N-FIL_13
1002
{
1000
OWNER
1000
GEN
1002
}
  0
LINE
  5
2EEB
  8
AM_0
 10
264.0340121558657
 20
505.02757808617997
 30
0.0
 11
254.03401215586601
 21
505.02757808617997
 31
0.0
  0
LINE
  5
2EEC
  8
AM_0
 10
264.0340121558657
 20
518.53126808617992
 30
0.0
 11
254.03401215586601
 21
518.53126808617992
 31
0.0
  0
ARC
  5
2EED
  8
AM_0
 10
255.0340121558655
 20
530.03126808617992
 30
0.0
 40
1.0
 50
90.0
 51
180.0
1001
GENIUS_GENODEF_13
1002
{
1000
HIER
1070
     0
1002
}
1002
{
1000
MANEDIT
1070
     0
1002
}
1002
{
1000
NOSEL
1070
     0
1002
}
1002
{
1000
BEHIND
1070
     0
1002
}
1002
{
1000
OTHER
1070
     0
1002
}
1002
{
1000
REACTOR
1002
}
1001
GENIUS_GENOBJ-N-FIL_13
1002
{
1000
OWNER
1000
GEN
1002
}
  0
ARC
  5
2EEE
  8
AM_0
 10
249.0340121558655
 20
526.60232826865104
 30
0.0
 40
5.0
 50
314.99999999999972
 51
0.0
1001
GENIUS_GENODEF_13
1002
{
1000
HIER
1070
     0
1002
}
1002
{
1000
MANEDIT
1070
     0
1002
}
1002
{
1000
NOSEL
1070
     0
1002
}
1002
{
1000
BEHIND
1070
     0
1002
}
1002
{
1000
OTHER
1070
     0
1002
}
1002
{
1000
REACTOR
1002
}
1001
GENIUS_GENOBJ-N-FIL_13
1002
{
1000
OWNER
1000
GEN
1002
}
  0
LINE
  5
2EEF
  8
AM_0
 10
264.0340121558657
 20
531.03126808617992
 30
0.0
 11
255.0340121558655
 21
531.03126808617992
 31
0.0
  0
LINE
  5
2EF1
  8
ﾁｭｳｼﾝｾﾝ1
 10
162.51290681438101
 20
467.03126808617981
 30
0.0
 11
396.8977821558658
 21
467.03126808617992
 31
0.0
  0
LINE
  5
2EF2
  8
AM_0
 10
333.53401215586581
 20
531.26233808618008
 30
0.0
 11
333.53401215586581
 21
402.8176380861799
 31
0.0
  0
LINE
  5
2EF3
  8
AM_0
 10
360.53401215586581
 20
537.03126808617992
 30
0.0
 11
360.53401215586581
 21
397.03119808617998
 31
0.0
  0
LINE
  5
2EF4
  8
AM_0
 10
356.53395215586568
 20
542.0311980861801
 30
0.0
 11
356.53395215586568
 21
392.03119808617998
 31
0.0
  0
LINE
  5
2EF5
  8
AM_0
 10
351.53401215586581
 20
526.53126808617992
 30
0.0
 11
351.53401215586581
 21
407.53119808617993
 31
0.0
  0
LINE
  5
2EF6
  8
AM_0
 10
361.53395215586579
 20
486.0570780861799
 30
0.0
 11
361.53395215586579
 21
447.78681808618012
 31
0.0
  0
LINE
  5
2EF7
  8
AM_0
 10
363.53395215586579
 20
457.03126808617998
 30
0.0
 11
363.53395215586579
 21
477.03126808617992
 31
0.0
  0
LINE
  5
2EF8
  8
AM_0
 10
391.53395215586568
 20
457.53126808617998
 30
0.0
 11
391.53395215586568
 21
476.53126808617992
 31
0.0
  0
LINE
  5
2EF9
  8
AM_0
 10
269.03401215586558
 20
428.97639808617993
 30
0.0
 11
269.03401215586558
 21
505.08613808617997
 31
0.0
  0
LINE
  5
2EFA
  8
AM_0
 10
264.0340121558657
 20
403.03126808617998
 30
0.0
 11
264.0340121558657
 21
531.03126808617992
 31
0.0
  0
LINE
  5
2EFB
  8
AM_0
 10
301.5340121558657
 20
407.03126808617998
 30
0.0
 11
301.5340121558657
 21
527.03126808617992
 31
0.0
  0
LINE
  5
2EFC
  8
AM_0
 10
333.5339821558656
 20
406.19327808617987
 30
0.0
 11
301.5340121558657
 21
407.03123808617988
 31
0.0
  0
LINE
  5
2EFD
  8
AM_0
 10
301.5340121558657
 20
411.50489808617988
 30
0.0
 11
333.53401215586581
 21
411.50489808617988
 31
0.0
  0
LINE
  5
2EFE
  8
AM_0
 10
264.0340121558657
 20
428.97639808617993
 30
0.0
 11
269.03401215586558
 21
428.97639808617993
 31
0.0
  0
LINE
  5
2EFF
  8
AM_0
 10
264.0340121558657
 20
415.53095808617991
 30
0.0
 11
276.15913215586562
 21
415.53095808617991
 31
0.0
  0
LINE
  5
2F00
  8
AM_0
 10
268.06017215586581
 20
403.1366680861799
 30
0.0
 11
264.0340121558657
 21
403.03123808617988
 31
0.0
  0
LINE
  5
2F01
  8
AM_0
 10
287.0340121558657
 20
418.71146808617988
 30
0.0
 11
287.0340121558657
 21
428.68165808617988
 31
0.0
  0
LINE
  5
2F02
  8
AM_0
 10
277.03401215586558
 20
417.74293808617989
 30
0.0
 11
277.03401215586558
 21
427.65616808617989
 31
0.0
  0
LINE
  5
2F03
  8
AM_0
 10
269.03401215586558
 20
411.50489808617988
 30
0.0
 11
301.5340121558657
 21
411.50489808617988
 31
0.0
  0
LINE
  5
2F04
  8
AM_0
 10
269.03401215586558
 20
406.18021808617988
 30
0.0
 11
301.5340121558657
 21
407.03126808617998
 31
0.0
  0
LINE
  5
2F05
  8
AM_0
 10
269.03401215586558
 20
404.13633808617999
 30
0.0
 11
269.03401215586558
 21
415.53095808617991
 31
0.0
  0
ARC
  5
2F06
  8
AM_0
 10
268.0340121558657
 20
404.13633808617999
 30
0.0
 40
1.0
 50
271.4999999999992
 51
0.0
  0
LINE
  5
2F07
  8
AM_0
 10
287.03398215586571
 20
417.29420808617988
 30
0.0
 11
277.89562215586562
 21
415.68287808617998
 31
0.0
  0
ARC
  5
2F08
  8
AM_0
 10
276.15913215586562
 20
425.53095808618002
 30
0.0
 40
10.0
 50
270.0
 51
280.00001000000128
  0
LINE
  5
2F09
  8
AM_0
 10
269.03401215586558
 20
429.85126808617991
 30
0.0
 11
287.0340121558657
 21
429.85126808617991
 31
0.0
  0
LINE
  5
2F0A
  8
AM_0
 10
363.53395215586579
 20
457.53126808617998
 30
0.0
 11
391.53395215586568
 21
457.53126808617998
 31
0.0
  0
LINE
  5
2F0B
  8
AM_0
 10
346.53395215586568
 20
394.31183808617999
 30
0.0
 11
346.53395215586568
 21
426.59083808617999
 31
0.0
  0
LINE
  5
2F0C
  8
AM_0
 10
338.35948215586569
 20
397.80314808617999
 30
0.0
 11
343.63869215586578
 21
397.61878808617979
 31
0.0
  0
ARC
  5
2F0D
  8
AM_0
 10
338.53395215586562
 20
402.80012808617988
 30
0.0
 40
5.0
 50
179.9999899999988
 51
268.00000999999861
  0
LINE
  5
2F0E
  8
AM_0
 10
348.46416215586572
 20
392.31302808618
 30
0.0
 11
356.53398215586571
 21
392.03123808617988
 31
0.0
  0
ARC
  5
2F0F
  8
AM_0
 10
343.53395215586562
 20
394.62061808617989
 30
0.0
 40
3.0
 50
0.0
 51
87.999999999999503
  0
ARC
  5
2F10
  8
AM_0
 10
348.53401215586581
 20
394.31183808617999
 30
0.0
 40
2.0
 50
179.9999899999988
 51
268.00000999999861
  0
ARC
  5
2F11
  8
AM_0
 10
348.53401215586581
 20
407.53119808617993
 30
0.0
 40
3.0
 50
270.0
 51
0.0
  0
LINE
  5
2F12
  8
AM_0
 10
356.53395215586568
 20
397.03119808617998
 30
0.0
 11
360.53401215586581
 21
397.03119808617998
 31
0.0
  0
ARC
  5
2F13
  8
AM_0
 10
348.53401215586581
 20
426.59083808617999
 30
0.0
 40
2.0
 50
88.485353000001084
 51
180.00001000000091
  0
ARC
  5
2F14
  8
AM_0
 10
359.53395215586579
 20
447.93250808618012
 30
0.0
 40
2.0
 50
315.0
 51
0.0
  0
LINE
  5
2F15
  8
AM_0
 10
360.53398215586571
 20
446.10407808617992
 30
0.0
 11
360.94823215586581
 21
446.51829808617998
 31
0.0
  0
LINE
  5
2F16
  8
AM_0
 10
361.53401215586581
 20
457.03126808617998
 30
0.0
 11
363.53395215586579
 21
457.03126808617998
 31
0.0
  0
LINE
  5
2F17
  8
AM_0
 10
301.5340121558657
 20
527.03126808617992
 30
0.0
 11
333.53401215586581
 21
527.86921808618001
 31
0.0
  0
LINE
  5
2F18
  8
AM_0
 10
301.5340121558657
 20
522.55756808617991
 30
0.0
 11
333.53401215586581
 21
522.55756808617991
 31
0.0
  0
LINE
  5
2F19
  8
AM_0
 10
269.03401215586558
 20
518.53126808617992
 30
0.0
 11
269.03401215586558
 21
529.92615808617995
 31
0.0
  0
LINE
  5
2F1A
  8
AM_0
 10
264.0340121558657
 20
518.53153808617992
 30
0.0
 11
276.15913215586562
 21
518.53153808617992
 31
0.0
  0
LINE
  5
2F1B
  8
AM_0
 10
264.0340121558657
 20
505.08613808617997
 30
0.0
 11
269.03401215586558
 21
505.08613808617997
 31
0.0
  0
LINE
  5
2F1C
  8
AM_0
 10
269.03401215586558
 20
522.55759808617995
 30
0.0
 11
301.5340121558657
 21
522.55759808617995
 31
0.0
  0
LINE
  5
2F1D
  8
AM_0
 10
269.03401215586558
 20
527.88227808618001
 30
0.0
 11
301.5340121558657
 21
527.03123808618
 31
0.0
  0
LINE
  5
2F1E
  8
AM_0
 10
287.0340121558657
 20
515.35102808618001
 30
0.0
 11
287.0340121558657
 21
505.38080808618002
 31
0.0
  0
LINE
  5
2F1F
  8
AM_0
 10
277.03401215586558
 20
516.31956808617986
 30
0.0
 11
277.03401215586558
 21
506.40632808617988
 31
0.0
  0
LINE
  5
2F20
  8
AM_0
 10
269.03401215586558
 20
504.21122808617991
 30
0.0
 11
287.0340121558657
 21
504.21122808617991
 31
0.0
  0
LINE
  5
2F21
  8
AM_0
 10
287.03398215586571
 20
516.76829808617993
 30
0.0
 11
277.89558215586561
 21
518.37961808618002
 31
0.0
  0
ARC
  5
2F22
  8
AM_0
 10
276.15913215586562
 20
508.53153808617992
 30
0.0
 40
10.0
 50
79.999998000001099
 51
90.000003000000945
  0
LINE
  5
2F23
  8
AM_0
 10
268.06017215586581
 20
530.92582808617999
 30
0.0
 11
264.0340121558657
 21
531.03123808618
 31
0.0
  0
ARC
  5
2F24
  8
AM_0
 10
268.0340121558657
 20
529.92615808617995
 30
0.0
 40
1.0
 50
0.0
 51
88.499997000000647
  0
ARC
  5
2F25
  8
AM_0
 10
348.53401215586581
 20
526.53126808617992
 30
0.0
 40
3.0
 50
0.0
 51
90.000003000000945
  0
LINE
  5
2F26
  8
AM_0
 10
346.53395215586568
 20
539.75062808618009
 30
0.0
 11
346.53395215586568
 21
507.47162808617998
 31
0.0
  0
ARC
  5
2F27
  8
AM_0
 10
369.53395215586579
 20
467.03126808617992
 30
0.0
 40
3.0
 50
89.986013999999244
 51
270.01398999999992
  0
LINE
  5
2F28
  8
AM_0
 10
363.53395215586579
 20
476.53126808617992
 30
0.0
 11
391.53395215586568
 21
476.53126808617992
 31
0.0
  0
LINE
  5
2F29
  8
AM_0
 10
361.53401215586581
 20
477.03126808617992
 30
0.0
 11
363.53395215586579
 21
477.03126808617992
 31
0.0
  0
ARC
  5
2F2A
  8
AM_0
 10
359.53395215586579
 20
486.1299580861799
 30
0.0
 40
2.0
 50
0.0
 51
45.000000999996892
  0
LINE
  5
2F2B
  8
AM_0
 10
360.53398215586571
 20
487.95838808617992
 30
0.0
 11
360.94820215586572
 21
487.54413808617988
 31
0.0
  0
ARC
  5
2F2C
  8
AM_0
 10
348.53401215586581
 20
507.47162808617998
 30
0.0
 40
2.0
 50
179.9999899999988
 51
271.51463999999902
  0
LINE
  5
2F2D
  8
AM_0
 10
369.53395215586579
 20
470.03126808617998
 30
0.0
 11
391.53395215586568
 21
470.03126808617998
 31
0.0
  0
LINE
  5
2F2E
  8
AM_0
 10
369.53395215586579
 20
464.03126808617992
 30
0.0
 11
391.53395215586568
 21
464.03126808617992
 31
0.0
  0
LINE
  5
2F2F
  8
AM_0
 10
369.53395215586579
 20
464.03126808617992
 30
0.0
 11
369.53395215586579
 21
470.03126808617998
 31
0.0
  0
LINE
  5
2F30
  8
AM_0
 10
338.35954215586582
 20
536.25928808618005
 30
0.0
 11
343.63872215586571
 21
536.44364808617968
 31
0.0
  0
ARC
  5
2F31
  8
AM_0
 10
338.53395215586562
 20
531.26233808618008
 30
0.0
 40
5.0
 50
91.999998000000545
 51
180.00001000000091
  0
LINE
  5
2F32
  8
AM_0
 10
348.4641921558657
 20
541.74943808617991
 30
0.0
 11
356.53401215586581
 21
542.03123808617988
 31
0.0
  0
ARC
  5
2F33
  8
AM_0
 10
343.53395215586562
 20
539.44184808618002
 30
0.0
 40
3.0
 50
272.0000000000004
 51
0.0
  0
ARC
  5
2F34
  8
AM_0
 10
348.53401215586581
 20
539.75062808618009
 30
0.0
 40
2.0
 50
91.999998000000545
 51
180.00001000000091
  0
LINE
  5
2F35
  8
AM_0
 10
356.53395215586568
 20
537.03126808617992
 30
0.0
 11
360.53401215586581
 21
537.03126808617992
 31
0.0
  0
TEXT
  5
3156
  8
AM_0
 10
443.28833682469622
 20
473.80857346998567
 30
0.0
 40
10.0
  1
VX04-003GF~VX04-010GF
  0
ENDSEC
  0
EOF
