  0
SECTION
  2
HEADER
  9
$ACADVER
  1
AC1009
  9
$INSBASE
 10
0.0
 20
0.0
 30
0.0
  9
$EXTMIN
 10
144.01249910310429
 20
145.9398665744111
 30
-0.0000000000112498
  9
$EXTMAX
 10
656.35212883289432
 20
552.22229132803875
 30
0.0000000000002956
  9
$LIMMIN
 10
0.0
 20
0.0
  9
$LIMMAX
 10
853.5
 20
555.00000000000011
  9
$ORTHOMODE
 70
     0
  9
$REGENMODE
 70
     1
  9
$FILLMODE
 70
     1
  9
$QTEXTMODE
 70
     0
  9
$MIRRTEXT
 70
     1
  9
$DRAGMODE
 70
     2
  9
$LTSCALE
 40
3.0
  9
$OSMODE
 70
   551
  9
$ATTMODE
 70
     1
  9
$TEXTSIZE
 40
2.5
  9
$TRACEWID
 40
1.0
  9
$TEXTSTYLE
  7
STANDARD
  9
$CLAYER
  8
AM_0
  9
$CELTYPE
  6
BYLAYER
  9
$CECOLOR
 62
   256
  9
$DIMSCALE
 40
1.0
  9
$DIMASZ
 40
2.5
  9
$DIMEXO
 40
1.0
  9
$DIMDLI
 40
8.0
  9
$DIMRND
 40
0.0
  9
$DIMDLE
 40
0.0
  9
$DIMEXE
 40
0.6
  9
$DIMTP
 40
0.1
  9
$DIMTM
 40
0.1
  9
$DIMTXT
 40
2.5
  9
$DIMCEN
 40
0.0
  9
$DIMTSZ
 40
0.0
  9
$DIMTOL
 70
     0
  9
$DIMLIM
 70
     0
  9
$DIMTIH
 70
     0
  9
$DIMTOH
 70
     0
  9
$DIMSE1
 70
     0
  9
$DIMSE2
 70
     0
  9
$DIMTAD
 70
     1
  9
$DIMZIN
 70
     8
  9
$DIMBLK
  1

  9
$DIMASO
 70
     1
  9
$DIMSHO
 70
     1
  9
$DIMPOST
  1

  9
$DIMAPOST
  1
"
  9
$DIMALT
 70
     0
  9
$DIMALTD
 70
     2
  9
$DIMALTF
 40
0.0393701
  9
$DIMLFAC
 40
1.0
  9
$DIMTOFL
 70
     1
  9
$DIMTVP
 40
0.0
  9
$DIMTIX
 70
     0
  9
$DIMSOXD
 70
     0
  9
$DIMSAH
 70
     0
  9
$DIMBLK1
  1

  9
$DIMBLK2
  1

  9
$DIMSTYLE
  2
AM_ISO
  9
$DIMCLRD
 70
   256
  9
$DIMCLRE
 70
   256
  9
$DIMCLRT
 70
     4
  9
$DIMTFAC
 40
0.71
  9
$DIMGAP
 40
0.8
  9
$LUNITS
 70
     2
  9
$LUPREC
 70
     2
  9
$SKETCHINC
 40
1.0
  9
$FILLETRAD
 40
15.0
  9
$AUNITS
 70
     0
  9
$AUPREC
 70
     0
  9
$MENU
  1
.
  9
$ELEVATION
 40
0.0
  9
$PELEVATION
 40
0.0
  9
$THICKNESS
 40
0.0
  9
$LIMCHECK
 70
     0
  9
$BLIPMODE
 70
     0
  9
$CHAMFERA
 40
6.0
  9
$CHAMFERB
 40
3.0
  9
$SKPOLY
 70
     0
  9
$TDCREATE
 40
2452066.3680125121
  9
$TDUPDATE
 40
2458541.4408718171
  9
$TDINDWG
 40
0.0637869329
  9
$TDUSRTIMER
 40
0.0637869097
  9
$USRTIMER
 70
     1
  9
$ANGBASE
 50
0.0
  9
$ANGDIR
 70
     0
  9
$PDMODE
 70
     0
  9
$PDSIZE
 40
0.0
  9
$PLINEWID
 40
0.0
  9
$COORDS
 70
     1
  9
$SPLFRAME
 70
     0
  9
$SPLINETYPE
 70
     6
  9
$SPLINESEGS
 70
     8
  9
$ATTDIA
 70
     1
  9
$ATTREQ
 70
     1
  9
$HANDLING
 70
     1
  9
$HANDSEED
  5
347E
  9
$SURFTAB1
 70
     6
  9
$SURFTAB2
 70
     6
  9
$SURFTYPE
 70
     6
  9
$SURFU
 70
     6
  9
$SURFV
 70
     6
  9
$UCSNAME
  2

  9
$UCSORG
 10
0.0
 20
0.0
 30
0.0
  9
$UCSXDIR
 10
1.0
 20
0.0
 30
0.0
  9
$UCSYDIR
 10
0.0
 20
1.0
 30
0.0
  9
$PUCSNAME
  2

  9
$PUCSORG
 10
0.0
 20
0.0
 30
0.0
  9
$PUCSXDIR
 10
1.0
 20
0.0
 30
0.0
  9
$PUCSYDIR
 10
0.0
 20
1.0
 30
0.0
  9
$USERI1
 70
     0
  9
$USERI2
 70
     0
  9
$USERI3
 70
     0
  9
$USERI4
 70
     0
  9
$USERI5
 70
     0
  9
$USERR1
 40
0.0
  9
$USERR2
 40
0.0
  9
$USERR3
 40
0.0
  9
$USERR4
 40
0.0
  9
$USERR5
 40
0.0
  9
$WORLDVIEW
 70
     1
  9
$SHADEDGE
 70
     3
  9
$SHADEDIF
 70
    70
  9
$TILEMODE
 70
     1
  9
$MAXACTVP
 70
    64
  9
$PLIMCHECK
 70
     0
  9
$PEXTMIN
 10
1.0000000000000000E+020
 20
1.0000000000000000E+020
 30
1.0000000000000000E+020
  9
$PEXTMAX
 10
-1.0000000000000000E+020
 20
-1.0000000000000000E+020
 30
-1.0000000000000000E+020
  9
$PLIMMIN
 10
0.0
 20
0.0
  9
$PLIMMAX
 10
420.0
 20
297.0
  9
$UNITMODE
 70
     0
  9
$VISRETAIN
 70
     1
  9
$PLINEGEN
 70
     0
  9
$PSLTSCALE
 70
     1
  0
ENDSEC
  0
SECTION
  2
TABLES
  0
TABLE
  2
VPORT
 70
     1
  0
VPORT
  2
*ACTIVE
 70
     0
 10
0.0
 20
0.0
 11
1.0
 21
1.0
 12
400.18231396799922
 22
349.08107895122498
 13
0.0
 23
0.0
 14
7.5
 24
7.5
 15
30.0
 25
30.0
 16
0.0
 26
0.0
 36
1.0
 17
0.0
 27
0.0
 37
0.0
 40
409.07154895102099
 41
1.7571592210767459
 42
50.0
 43
0.0
 44
0.0
 50
0.0
 51
0.0
 71
     0
 72
   100
 73
     1
 74
     3
 75
     0
 76
     0
 77
     0
 78
     0
  0
ENDTAB
  0
TABLE
  2
LTYPE
 70
    25
  0
LTYPE
  2
CONTINUOUS
 70
     0
  3
Solid line
 72
    65
 73
     0
 40
0.0
  0
LTYPE
  2
AM_ISO02W050
 70
     0
  3
__ __ __ __ __ __ __ __ __ __ __ __ __ __ __
 72
    65
 73
     2
 40
7.5
 49
6.0
 49
-1.5
  0
LTYPE
  2
AM_ISO08W050
 70
     0
  3
____ . ____ . ____ . ____ . ____ . ____ . ____
 72
    65
 73
     4
 40
18.0
 49
12.0
 49
-1.5
 49
3.0
 49
-1.5
  0
LTYPE
  2
AM_ISO09W050
 70
     0
  3
_____ . . _____ . . _____ . . ____ .. ____
 72
    65
 73
     6
 40
22.5
 49
12.0
 49
-1.5
 49
3.0
 49
-1.5
 49
3.0
 49
-1.5
  0
LTYPE
  2
AMCONSTR
 70
     0
  3
_______________________
 72
    65
 73
     2
 40
9999.0
 49
9999.0
 49
0.0
  0
LTYPE
  2
AM_ISO08W050X2
 70
     0
  3
__ . __ . __ . __ . __ . __
 72
    65
 73
     4
 40
9.0
 49
6.0
 49
-0.75
 49
1.5
 49
-0.75
  0
LTYPE
  2
AM_ISO02W050X2
 70
     0
  3
 _ _ _ _ _ _ _ _ _ _ _ _
 72
    65
 73
     2
 40
3.75
 49
3.0
 49
-0.75
  0
LTYPE
  2
AMZIGZAG
 70
     0
  3
/\/-/\/-/\/-/\/-/\/-/\/
 72
    65
 73
     2
 40
11.000099999999991
 49
0.0001
 49
-11.0
  0
LTYPE
  2
ACISOWELD
 70
     0
  3
_ _ _ _ _
 72
    65
 73
     2
 40
2.0
 49
2.0
 49
-1.0
  0
LTYPE
  2
ACISOTGB
 70
     0
  3
__ . . __ . .
 72
    65
 73
     6
 40
9.0
 49
4.0
 49
-1.0
 49
1.0
 49
-1.0
 49
1.0
 49
-1.0
  0
LTYPE
  2
ACISOTGL
 70
     0
  3
_ _ _ _ _
 72
    65
 73
     2
 40
3.0
 49
2.0
 49
-1.0
  0
LTYPE
  2
CENTER
 70
     0
  3
__ . __
 72
    65
 73
     4
 40
7.0
 49
4.0
 49
-1.0
 49
1.0
 49
-1.0
  0
LTYPE
  2
PHANTOM2
 70
     0
  3
Phantom (.5x) ___ _ _ ___ _ _ ___ _ _ ___ _ _
 72
    65
 73
     6
 40
31.75
 49
15.875
 49
-3.174999999999998
 49
3.174999999999998
 49
-3.174999999999998
 49
3.174999999999998
 49
-3.174999999999998
  0
LTYPE
  2
ACANSTGBM
 70
     0
  3
__ . . __ . .
 72
    65
 73
     6
 40
9.0
 49
4.0
 49
-1.0
 49
1.0
 49
-1.0
 49
1.0
 49
-1.0
  0
LTYPE
  2
ACANSTGLM
 70
     0
  3
_ _ _ _ _
 72
    65
 73
     2
 40
3.0
 49
2.0
 49
-1.0
  0
LTYPE
  2
GEN7A
 70
     0
  3
__ . __ . __
 72
    65
 73
     4
 40
7.375
 49
4.75
 49
-0.875
 49
0.875
 49
-0.875
  0
LTYPE
  2
ACJISTGB
 70
     0
  3
__ . . __ . .
 72
    65
 73
     6
 40
9.0
 49
4.0
 49
-1.0
 49
1.0
 49
-1.0
 49
1.0
 49
-1.0
  0
LTYPE
  2
ACJISTGL
 70
     0
  3
_ _ _ _ _
 72
    65
 73
     2
 40
3.0
 49
2.0
 49
-1.0
  0
LTYPE
  2
HIDDEN
 70
     0
  3
Hidden __ __ __ __ __ __ __ __ __ __ __ __ __ _
 72
    65
 73
     2
 40
0.375
 49
0.25
 49
-0.125
  0
LTYPE
  2
CENTER2
 70
     0
  3
Center (.5x) ___ _ ___ _ ___ _ ___ _ ___ _ ___
 72
    65
 73
     4
 40
1.125
 49
0.75
 49
-0.125
 49
0.125
 49
-0.125
  0
LTYPE
  2
HIDDEN2
 70
     0
  3
Hidden (.5x) _ _ _ _ _ _ _ _ _ _ _ _ _ _ _ _ _
 72
    65
 73
     2
 40
0.1875
 49
0.125
 49
-0.0625
  0
LTYPE
  2
AMZIGZAG2
 70
     0
  3
/\/-/\/-/\/-/\/-/\/-/\/
 72
    65
 73
     2
 40
0.4401
 49
0.0001
 49
-0.4400000000000002
  0
LTYPE
  2
ACANSTGB
 70
     0
  3
__ . . __ . .
 72
    65
 73
     6
 40
0.35433070866
 49
0.15748031496
 49
-0.03937007874
 49
0.03937007874
 49
-0.03937007874
 49
0.03937007874
 49
-0.03937007874
  0
LTYPE
  2
ACANSTGL
 70
     0
  3
_ _ _ _ _
 72
    65
 73
     2
 40
0.11811023622
 49
0.07874015748
 49
-0.03937007874
  0
ENDTAB
  0
TABLE
  2
LAYER
 70
     5
  0
LAYER
  2
0
 70
     0
 62
     7
  6
CONTINUOUS
  0
LAYER
  2
AM_0
 70
     0
 62
     7
  6
CONTINUOUS
  0
LAYER
  2
AM_5
 70
     0
 62
     2
  6
CONTINUOUS
  0
LAYER
  2
DEFPOINTS
 70
     0
 62
     7
  6
CONTINUOUS
  0
LAYER
  2
ﾁｭｳｼﾝｾﾝ1
 70
     0
 62
     1
  6
GEN7A
  0
ENDTAB
  0
TABLE
  2
STYLE
 70
     9
  0
STYLE
  2
STANDARD
 70
     0
 40
0.0
 41
0.8299999999999999
 50
0.0
 71
     0
 42
2.5
  3
txt.shx
  4
bigfont.shx
  0
STYLE
  2
ANNOTATIVE
 70
     0
 40
0.0
 41
1.0
 50
0.0
 71
     0
 42
0.2
  3
txt
  4

  0
STYLE
  2

 70
     1
 40
0.0
 41
1.0
 50
0.0
 71
     0
 42
2.5
  3
ltypeshp.shx
  4

  0
STYLE
  2
ACISOTS
 70
     0
 40
1.0
 41
1.0
 50
0.0
 71
     0
 42
2.5
  3
isocp.shx
  4
extfont.shx
  0
STYLE
  2
ACISOGDT
 70
     0
 40
0.0
 41
1.0
 50
0.0
 71
     0
 42
2.5
  3
amgdt.shx
  4

  0
STYLE
  2
ACANSTS
 70
     0
 40
1.0
 41
1.0
 50
0.0
 71
     0
 42
2.5
  3
romans.shx
  4
bigfont.shx
  0
STYLE
  2
ACANSGDT
 70
     0
 40
0.0
 41
1.0
 50
0.0
 71
     0
 42
2.5
  3
amgdt.shx
  4

  0
STYLE
  2
ACJISTS
 70
     0
 40
1.0
 41
1.0
 50
0.0
 71
     0
 42
2.5
  3
isocp.shx
  4
bigfont.shx
  0
STYLE
  2
ACJISGDT
 70
     0
 40
0.0
 41
1.0
 50
0.0
 71
     0
 42
2.5
  3
amgdt.shx
  4

  0
ENDTAB
  0
TABLE
  2
VIEW
 70
     6
  0
VIEW
  2
AM_VIEW1
 70
     0
 40
277.49999999999989
 10
249.64779005524849
 20
416.24999999999989
 41
499.2955801104971
 11
0.0
 21
0.0
 31
1.0
 12
0.0
 22
0.0
 32
0.0
 42
50.0
 43
0.0
 44
0.0
 50
0.0
 71
     0
  0
VIEW
  2
AM_VIEW2
 70
     0
 40
277.49999999999989
 10
603.85220994475117
 20
416.24999999999989
 41
499.2955801104971
 11
0.0
 21
0.0
 31
1.0
 12
0.0
 22
0.0
 32
0.0
 42
50.0
 43
0.0
 44
0.0
 50
0.0
 71
     0
  0
VIEW
  2
AM_VIEW3
 70
     0
 40
277.49999999999989
 10
249.64779005524849
 20
138.7499999999998
 41
499.2955801104971
 11
0.0
 21
0.0
 31
1.0
 12
0.0
 22
0.0
 32
0.0
 42
50.0
 43
0.0
 44
0.0
 50
0.0
 71
     0
  0
VIEW
  2
AM_VIEW4
 70
     0
 40
277.49999999999989
 10
603.85220994475117
 20
138.7499999999998
 41
499.2955801104971
 11
0.0
 21
0.0
 31
1.0
 12
0.0
 22
0.0
 32
0.0
 42
50.0
 43
0.0
 44
0.0
 50
0.0
 71
     0
  0
VIEW
  2
AM_VIEW5
 70
     0
 40
277.5
 10
426.75
 20
277.49999999999989
 41
499.2955801104971
 11
0.0
 21
0.0
 31
1.0
 12
0.0
 22
0.0
 32
0.0
 42
50.0
 43
0.0
 44
0.0
 50
0.0
 71
     0
  0
VIEW
  2
AM_VIEW6
 70
     0
 40
554.99445000000014
 10
426.75
 20
277.49999999999989
 41
998.5811743093924
 11
0.0
 21
0.0
 31
1.0
 12
0.0
 22
0.0
 32
0.0
 42
50.0
 43
0.0
 44
0.0
 50
0.0
 71
     0
  0
ENDTAB
  0
TABLE
  2
UCS
 70
     0
  0
ENDTAB
  0
TABLE
  2
APPID
 70
    95
  0
APPID
  2
ACAD
 70
     0
  0
APPID
  2
ACADANNOTATIVE
 70
     0
  0
APPID
  2
MCAD_NO_VIS
 70
     0
  0
APPID
  2
ACAD_TEMP_GRAPHIC
 70
     0
  0
APPID
  2
ACATTRIBSERVICES
 70
     0
  0
APPID
  2
GENIUS_GENREC_14
 70
     0
  0
APPID
  2
GENIUS_GENOBJ-N-REC_13
 70
     0
  0
APPID
  2
GENIUS_GENODEF_13
 70
     0
  0
APPID
  2
GENIUS_GENOLIS_13
 70
     0
  0
APPID
  2
GENIUS_GENOBJ-N-TIT_13
 70
     0
  0
APPID
  2
GENIUS_GENOENT_13
 70
     0
  0
APPID
  2
GENIUS_GENTITLE_13
 70
     0
  0
APPID
  2
GENIUS_GENOREF_13
 70
     0
  0
APPID
  2
GENIUS_GENSCREG_15
 70
     0
  0
APPID
  2
GENIUS_GENOBJ-N-SDF_13
 70
     0
  0
APPID
  2
GENIUS_GENFIL_13
 70
     0
  0
APPID
  2
GENIUS_GENOBJ-N-CHA_13
 70
     0
  0
APPID
  2
GENIUS_GENDTOL_13
 70
     0
  0
APPID
  2
GENIUS_GENOBJ-N-FIL_13
 70
     0
  0
APPID
  2
AD_DRAW
 70
     0
  0
APPID
  2
DESIGNERASSEMBLIES
 70
     0
  0
APPID
  2
ASURF_PCURVE_APPNAME
 70
     0
  0
APPID
  2
GENIUS_GE3SECT_13
 70
     0
  0
APPID
  2
GENIUS_GENCFG_13
 70
     0
  0
APPID
  2
GENIUS_GE3CFG0_13
 70
     0
  0
APPID
  2
GENIUS_GENCFG0_13
 70
     0
  0
APPID
  2
GENIUS_GENCFG1_13
 70
     0
  0
APPID
  2
GENIUS_GENCFG2_13
 70
     0
  0
APPID
  2
GENIUS_GENCFG3_13
 70
     0
  0
APPID
  2
GENIUS_GENCFG4_13
 70
     0
  0
APPID
  2
GENIUS_GEVCFG0_13
 70
     0
  0
APPID
  2
GENIUS_GENHINW_13
 70
     0
  0
APPID
  2
GENIUS_FIRSTVISTXT_14
 70
     0
  0
APPID
  2
GENIUS_GENOBJ-N-LEADER_13
 70
     0
  0
APPID
  2
GEV_VCCNULL_SWITCH_OFF
 70
     0
  0
APPID
  2
GENIUS_GEFCFG0_13
 70
     0
  0
APPID
  2
GENIUS_GENZVEED_13
 70
     0
  0
APPID
  2
GENIUS_GENSCREG_13
 70
     0
  0
APPID
  2
GENIUS_DUMCFG0_13
 70
     0
  0
APPID
  2
GEVID936201362
 70
     0
  0
APPID
  2
GEVDC
 70
     0
  0
APPID
  2
GEVCON
 70
     0
  0
APPID
  2
VCC
 70
     0
  0
APPID
  2
GEVPT
 70
     0
  0
APPID
  2
GEVIT
 70
     0
  0
APPID
  2
GENBH
 70
     0
  0
APPID
  2
GEVMK
 70
     0
  0
APPID
  2
GENIUS_GENBH_13
 70
     0
  0
APPID
  2
GENIUS_GENOBJ-NBEHI-BHF_13
 70
     0
  0
APPID
  2
GENIUS_GENOBJ-NBEHI-BHB_13
 70
     0
  0
APPID
  2
GENIUS_GENOBJ-F-DESC_13
 70
     0
  0
APPID
  2
GENIUS_GEFDESC_14
 70
     0
  0
APPID
  2
GENIUS_GENOBJ-F-PART_13
 70
     0
  0
APPID
  2
GENIUS_GEFSTDP_13
 70
     0
  0
APPID
  2
GENIUS_GEFPARTINS_13
 70
     0
  0
APPID
  2
GENIUS_GENTRA_14
 70
     0
  0
APPID
  2
GENIUS_GENINF13_13
 70
     0
  0
APPID
  2
GENIUS_GENOBJ-N-INFOPT_13
 70
     0
  0
APPID
  2
GENIUS_GENOBJ-N-RSSYM_13
 70
     0
  0
APPID
  2
GENIUS_GENSYMENT_13
 70
     0
  0
APPID
  2
GENIUS_GENSCSYM_13
 70
     0
  0
APPID
  2
GENIUS_GEFINFNAM_13
 70
     0
  0
APPID
  2
GENIUS_GENOBJ-N-CEN_13
 70
     0
  0
APPID
  2
GENIUS_GENOBJ-N-CRS_13
 70
     0
  0
APPID
  2
GENIUS_GENOBJ-N-CRC_13
 70
     0
  0
APPID
  2
GENIUS_GENCRC_14
 70
     0
  0
APPID
  2
GEVID942827039
 70
     0
  0
APPID
  2
GEVID942827040
 70
     0
  0
APPID
  2
GEVID942827041
 70
     0
  0
APPID
  2
GENIUS_GENOBJ-F-SCPASSM_13
 70
     0
  0
APPID
  2
GENIUS_GENDIMSH_14
 70
     0
  0
APPID
  2
GEVID942827042
 70
     0
  0
APPID
  2
GEVID946020473
 70
     0
  0
APPID
  2
GEVID946020474
 70
     0
  0
APPID
  2
GEVID946020475
 70
     0
  0
APPID
  2
GENIUS_GENOBJ-N-HTC_13
 70
     0
  0
APPID
  2
GENIUS_GENHATCH_13
 70
     0
  0
APPID
  2
GEVID948854295
 70
     0
  0
APPID
  2
GEVID939402019
 70
     0
  0
APPID
  2
GEVID952919491
 70
     0
  0
APPID
  2
GEVID952919492
 70
     0
  0
APPID
  2
GENIUS_GEFWELD_13
 70
     0
  0
APPID
  2
GENIUS_GENOBJ-F-WELS_13
 70
     0
  0
APPID
  2
GEVID952919493
 70
     0
  0
APPID
  2
GENIUS_GENOBJ-N-RSBK_13
 70
     0
  0
APPID
  2
GENIUS_GENOBJ-N-LIB_13
 70
     0
  0
APPID
  2
GENIUS_GENSCALE_13
 70
     0
  0
APPID
  2
GEVID986376691
 70
     0
  0
APPID
  2
DCO15
 70
     0
  0
APPID
  2
ACAD_DSTYLE_DIMBREAK
 70
     0
  0
APPID
  2
ACAD_DSTYLE_DIMJAG
 70
     0
  0
APPID
  2
ACAD_NAV_VCDISPLAY
 70
     0
  0
APPID
  2
ACADANNOPO
 70
     0
  0
APPID
  2
ACAD_EXEMPT_FROM_CAD_STANDARDS
 70
     0
  0
APPID
  2
ACAD_MLEADERVER
 70
     0
  0
ENDTAB
  0
TABLE
  2
DIMSTYLE
 70
    22
  0
DIMSTYLE
  2
STANDARD
 70
     0
  3

  4

  5

  6

  7

 40
1.0
 41
0.18
 42
0.0625
 43
0.38
 44
0.18
 45
0.0
 46
0.0
 47
0.0
 48
0.0
140
0.18
141
0.09
142
0.0
143
25.399999999999999
144
1.0
145
0.0
146
1.0
147
0.09
 71
     0
 72
     0
 73
     1
 74
     1
 75
     0
 76
     0
 77
     0
 78
     0
170
     0
171
     2
172
     0
173
     0
174
     0
175
     0
176
     0
177
     0
178
     0
  0
DIMSTYLE
  2
ANNOTATIVE
 70
     0
  3

  4

  5

  6

  7

 40
1.0
 41
0.18
 42
0.0625
 43
0.38
 44
0.18
 45
0.0
 46
0.0
 47
0.0
 48
0.0
140
0.18
141
0.09
142
0.0
143
25.399999999999999
144
1.0
145
0.0
146
1.0
147
0.09
 71
     0
 72
     0
 73
     1
 74
     1
 75
     0
 76
     0
 77
     0
 78
     0
170
     0
171
     2
172
     0
173
     0
174
     0
175
     0
176
     0
177
     0
178
     0
  0
DIMSTYLE
  2
AM_ISO
 70
     0
  3

  4
"
  5

  6

  7

 40
1.0
 41
2.5
 42
1.0
 43
8.0
 44
0.6
 45
0.0
 46
0.0
 47
0.1
 48
0.1
140
2.5
141
0.0
142
0.0
143
0.0393701
144
1.0
145
0.0
146
0.71
147
0.8
 71
     0
 72
     0
 73
     0
 74
     0
 75
     0
 76
     0
 77
     1
 78
     8
170
     0
171
     2
172
     1
173
     0
174
     0
175
     0
176
   256
177
   256
178
     4
  0
DIMSTYLE
  2
AM_ISO$3
 70
     0
  3

  4
"
  5

  6

  7

 40
1.0
 41
2.5
 42
1.0
 43
8.0
 44
0.6
 45
0.0
 46
0.0
 47
0.1
 48
0.1
140
2.5
141
0.0
142
0.0
143
0.0393701
144
1.0
145
0.0
146
0.71
147
0.8
 71
     0
 72
     0
 73
     0
 74
     1
 75
     0
 76
     0
 77
     1
 78
     8
170
     0
171
     2
172
     0
173
     0
174
     0
175
     0
176
   256
177
   256
178
     4
  0
DIMSTYLE
  2
AM_ISO$4
 70
     0
  3

  4
"
  5

  6

  7

 40
1.0
 41
2.5
 42
1.0
 43
8.0
 44
0.6
 45
0.0
 46
0.0
 47
0.1
 48
0.1
140
2.5
141
0.0
142
0.0
143
0.0393701
144
1.0
145
0.0
146
0.71
147
0.8
 71
     0
 72
     0
 73
     0
 74
     1
 75
     0
 76
     0
 77
     1
 78
     8
170
     0
171
     2
172
     0
173
     0
174
     0
175
     0
176
   256
177
   256
178
     4
  0
DIMSTYLE
  2
AM_ISO$6
 70
     0
  3

  4
"
  5

  6

  7

 40
1.0
 41
2.5
 42
1.0
 43
8.0
 44
0.6
 45
0.0
 46
0.0
 47
0.1
 48
0.1
140
2.5
141
0.0
142
0.0
143
0.0393701
144
1.0
145
0.0
146
0.71
147
0.8
 71
     0
 72
     0
 73
     0
 74
     0
 75
     0
 76
     0
 77
     0
 78
     8
170
     0
171
     2
172
     1
173
     0
174
     0
175
     0
176
   256
177
   256
178
     4
  0
DIMSTYLE
  2
AM_ISO$7
 70
     0
  3

  4
"
  5

  6

  7

 40
1.0
 41
2.5
 42
1.0
 43
8.0
 44
0.6
 45
0.0
 46
0.0
 47
0.1
 48
0.1
140
2.5
141
0.0
142
0.0
143
0.0393701
144
1.0
145
0.0
146
0.71
147
0.8
 71
     0
 72
     0
 73
     0
 74
     0
 75
     0
 76
     0
 77
     1
 78
     8
170
     0
171
     2
172
     1
173
     0
174
     0
175
     0
176
   256
177
   256
178
     4
  0
DIMSTYLE
  2
AM_ISO$SF
 70
     0
  3

  4
"
  5

  6

  7

 40
1.0
 41
2.5
 42
1.0
 43
10.0
 44
1.0
 45
0.0
 46
0.0
 47
0.1
 48
0.1
140
3.5
141
0.0
142
0.0
143
0.0393701
144
1.0
145
0.0
146
0.71
147
1.5
 71
     0
 72
     0
 73
     0
 74
     0
 75
     1
 76
     1
 77
     1
 78
     8
170
     0
171
     2
172
     1
173
     0
174
     0
175
     0
176
   256
177
   256
178
     2
  0
DIMSTYLE
  2
AM_ISO$SH
 70
     0
  3

  4
"
  5

  6

  7

 40
1.0
 41
2.5
 42
1.0
 43
10.0
 44
1.0
 45
0.0
 46
0.0
 47
0.1
 48
0.1
140
3.5
141
0.0
142
0.0
143
0.0393701
144
2.0
145
0.0
146
0.71
147
1.5
 71
     0
 72
     0
 73
     0
 74
     0
 75
     1
 76
     1
 77
     1
 78
     8
170
     0
171
     2
172
     1
173
     1
174
     0
175
     0
176
   256
177
   256
178
     2
  0
DIMSTYLE
  2
AM_JIS
 70
     0
  3

  4
"
  5

  6

  7

 40
1.0
 41
2.5
 42
1.0
 43
7.0
 44
1.0
 45
0.0
 46
0.0
 47
0.1
 48
0.1000000001
140
2.5
141
0.0
142
0.0
143
0.0393701
144
1.0
145
0.0
146
0.71
147
1.0
 71
     0
 72
     0
 73
     0
 74
     0
 75
     0
 76
     0
 77
     3
 78
     8
170
     0
171
     2
172
     1
173
     0
174
     0
175
     0
176
   256
177
   256
178
     4
  0
DIMSTYLE
  2
AM_JIS$3
 70
     0
  3

  4
"
  5

  6

  7

 40
1.0
 41
2.5
 42
1.0
 43
7.0
 44
1.0
 45
0.0
 46
0.0
 47
0.1
 48
0.1000000001
140
2.5
141
0.0
142
0.0
143
0.0393701
144
1.0
145
0.0
146
0.71
147
1.0
 71
     0
 72
     0
 73
     0
 74
     1
 75
     0
 76
     0
 77
     3
 78
     8
170
     0
171
     2
172
     0
173
     0
174
     0
175
     0
176
   256
177
   256
178
     4
  0
DIMSTYLE
  2
AM_JIS$4
 70
     0
  3

  4
"
  5

  6

  7

 40
1.0
 41
2.5
 42
1.0
 43
7.0
 44
1.0
 45
0.0
 46
0.0
 47
0.1
 48
0.1000000001
140
2.5
141
0.0
142
0.0
143
0.0393701
144
1.0
145
0.0
146
0.71
147
1.0
 71
     0
 72
     0
 73
     0
 74
     0
 75
     0
 76
     0
 77
     3
 78
     8
170
     0
171
     2
172
     0
173
     0
174
     0
175
     0
176
   256
177
   256
178
     4
  0
DIMSTYLE
  2
AM_JIS$6
 70
     0
  3

  4
"
  5

  6

  7

 40
1.0
 41
2.5
 42
1.0
 43
7.0
 44
1.0
 45
0.0
 46
0.0
 47
0.1
 48
0.1000000001
140
2.5
141
0.0
142
0.0
143
0.0393701
144
1.0
145
0.0
146
0.71
147
1.0
 71
     0
 72
     0
 73
     0
 74
     0
 75
     0
 76
     0
 77
     0
 78
     8
170
     0
171
     2
172
     1
173
     0
174
     0
175
     0
176
   256
177
   256
178
     4
  0
DIMSTYLE
  2
AM_JIS$7
 70
     0
  3

  4
"
  5

  6

  7

 40
1.0
 41
2.5
 42
1.0
 43
7.0
 44
1.0
 45
0.0
 46
0.0
 47
0.1
 48
0.1000000001
140
2.5
141
0.0
142
0.0
143
0.0393701
144
1.0
145
0.0
146
0.71
147
1.0
 71
     0
 72
     0
 73
     0
 74
     0
 75
     0
 76
     0
 77
     3
 78
     8
170
     0
171
     2
172
     1
173
     0
174
     0
175
     0
176
   256
177
   256
178
     4
  0
DIMSTYLE
  2
AM_JIS$SF
 70
     0
  3

  4
"
  5

  6

  7

 40
1.0
 41
2.5
 42
1.0
 43
10.0
 44
1.0
 45
0.0
 46
0.0
 47
0.1
 48
0.1
140
3.5
141
0.0
142
0.0
143
0.0393701
144
1.0
145
0.0
146
0.71
147
1.5
 71
     0
 72
     0
 73
     0
 74
     0
 75
     1
 76
     1
 77
     3
 78
     8
170
     0
171
     2
172
     1
173
     0
174
     0
175
     0
176
   256
177
   256
178
     4
  0
DIMSTYLE
  2
AM_JIS$SH
 70
     0
  3

  4
"
  5

  6

  7

 40
1.0
 41
2.5
 42
1.0
 43
10.0
 44
1.0
 45
0.0
 46
0.0
 47
0.1
 48
0.1
140
3.5
141
0.0
142
0.0
143
0.0393701
144
1.0
145
0.0
146
0.71
147
1.5
 71
     0
 72
     0
 73
     0
 74
     0
 75
     1
 76
     0
 77
     3
 78
     8
170
     0
171
     2
172
     1
173
     1
174
     0
175
     0
176
   256
177
   256
178
     4
  0
DIMSTYLE
  2
AM_ANSI
 70
     0
  3

  4
mm
  5

  6

  7

 40
1.0
 41
0.1
 42
0.05
 43
0.5
 44
0.1
 45
0.0
 46
0.0
 47
0.1
 48
0.1
140
0.12
141
0.0
142
0.0
143
25.399999999999999
144
1.0
145
0.0
146
0.71
147
0.06
 71
     0
 72
     0
 73
     1
 74
     1
 75
     0
 76
     0
 77
     0
 78
     7
170
     0
171
     2
172
     0
173
     0
174
     0
175
     0
176
   256
177
   256
178
     2
  0
DIMSTYLE
  2
AM_ANSI$3
 70
     0
  3

  4
mm
  5

  6

  7

 40
1.0
 41
0.1
 42
0.05
 43
0.5
 44
0.1
 45
0.0
 46
0.0
 47
0.1
 48
0.1
140
0.12
141
0.0
142
0.0
143
25.399999999999999
144
1.0
145
0.0
146
0.71
147
0.06
 71
     0
 72
     0
 73
     1
 74
     1
 75
     0
 76
     0
 77
     0
 78
     7
170
     0
171
     2
172
     0
173
     0
174
     0
175
     0
176
   256
177
   256
178
     2
  0
DIMSTYLE
  2
AM_ANSI$4
 70
     0
  3

  4
mm
  5

  6

  7

 40
1.0
 41
0.1
 42
0.05
 43
0.5
 44
0.1
 45
0.0
 46
0.0
 47
0.1
 48
0.1
140
0.12
141
0.0
142
0.0
143
25.399999999999999
144
1.0
145
0.0
146
0.71
147
0.06
 71
     0
 72
     0
 73
     1
 74
     1
 75
     0
 76
     0
 77
     0
 78
     7
170
     0
171
     2
172
     0
173
     0
174
     0
175
     0
176
   256
177
   256
178
     2
  0
DIMSTYLE
  2
AM_ANSI$7
 70
     0
  3

  4
mm
  5

  6

  7

 40
1.0
 41
0.1
 42
0.05
 43
0.5
 44
0.1
 45
0.0
 46
0.0
 47
0.1
 48
0.1
140
0.24
141
0.0
142
0.0
143
25.399999999999999
144
1.0
145
0.0
146
0.71
147
0.06
 71
     0
 72
     0
 73
     1
 74
     1
 75
     0
 76
     0
 77
     0
 78
     7
170
     0
171
     2
172
     0
173
     0
174
     0
175
     0
176
   256
177
   256
178
     2
  0
DIMSTYLE
  2
AM_ANSI$SF
 70
     0
  3

  4
mm
  5

  6

  7

 40
1.0
 41
0.1
 42
0.05
 43
0.5
 44
0.1
 45
0.0
 46
0.0
 47
0.1
 48
0.1
140
0.12
141
0.0
142
0.0
143
25.399999999999999
144
1.0
145
0.0
146
0.71
147
0.06
 71
     0
 72
     0
 73
     1
 74
     1
 75
     1
 76
     1
 77
     0
 78
     7
170
     0
171
     2
172
     0
173
     0
174
     0
175
     0
176
   256
177
   256
178
     2
  0
DIMSTYLE
  2
AM_ANSI$SH
 70
     0
  3

  4
mm
  5

  6

  7

 40
1.0
 41
0.1
 42
0.05
 43
0.5
 44
0.1
 45
0.0
 46
0.0
 47
0.1
 48
0.1
140
0.12
141
0.0
142
0.0
143
25.399999999999999
144
1.0
145
0.0
146
0.71
147
0.06
 71
     0
 72
     0
 73
     1
 74
     1
 75
     1
 76
     1
 77
     0
 78
     7
170
     0
171
     2
172
     0
173
     1
174
     0
175
     0
176
   256
177
   256
178
     2
  0
ENDTAB
  0
ENDSEC
  0
SECTION
  2
BLOCKS
  0
BLOCK
  8
0
  2
$MODEL_SPACE
 70
     0
 10
0.0
 20
0.0
 30
0.0
  3
$MODEL_SPACE
  1

  0
ENDBLK
  5
32F6
  8
0
  0
BLOCK
 67
     1
  8
0
  2
$PAPER_SPACE
 70
     0
 10
0.0
 20
0.0
 30
0.0
  3
$PAPER_SPACE
  1

  0
ENDBLK
  5
32F2
 67
     1
  8
0
  0
BLOCK
  8
0
  2
GENAXEH
 70
     0
 10
0.0
 20
0.0
 30
0.0
  3
GENAXEH
  1

  0
LINE
  5
30A1
  8
0
 10
-1.0
 20
0.0
 30
0.0
 11
1.0
 21
0.0
 31
0.0
  0
ENDBLK
  5
30A2
  8
0
  0
BLOCK
  8
0
  2
_OPEN30
 70
     0
 10
0.0
 20
0.0
 30
0.0
  3
_OPEN30
  1

  0
LINE
  5
30A5
  8
0
 62
     0
 10
-1.0
 20
0.26794919
 30
0.0
 11
0.0
 21
0.0
 31
0.0
  0
LINE
  5
30A6
  8
0
 62
     0
 10
0.0
 20
0.0
 30
0.0
 11
-1.0
 21
-0.26794919
 31
0.0
  0
LINE
  5
30A7
  8
0
 62
     0
 10
0.0
 20
0.0
 30
0.0
 11
-1.0
 21
0.0
 31
0.0
  0
ENDBLK
  5
30A8
  8
0
  0
BLOCK
  8
0
  2
_NONE
 70
     0
 10
0.0
 20
0.0
 30
0.0
  3
_NONE
  1

  0
ENDBLK
  5
30AB
  8
0
  0
BLOCK
  8
0
  2
_ACMFILLEDHALF
 70
     0
 10
0.0
 20
0.0
 30
0.0
  3
_ACMFILLEDHALF
  1

  0
TRACE
  5
33EA
  8
AM_0
 62
     0
 10
-0.8
 20
0.0
 30
0.0
 11
-1.0
 21
0.166666666
 31
0.0
 12
0.0
 22
0.0
 32
0.0
 13
0.0
 23
0.0
 33
0.0
  0
LINE
  5
33EB
  8
AM_0
 62
     0
 10
-1.0
 20
0.0
 30
0.0
 11
-0.8
 21
0.0
 31
0.0
  0
ENDBLK
  5
33E9
  8
0
  0
ENDSEC
  0
SECTION
  2
ENTITIES
  0
LINE
  5
30AC
  8
AM_0
 10
317.95507956004519
 20
307.82132535478189
 30
0.0
 11
317.95507956004519
 21
262.59216735478191
 31
0.0
  0
LINE
  5
30AD
  8
AM_0
 10
278.95507956004531
 20
292.74735135478193
 30
0.0
 11
278.95507956004531
 21
277.24732035478172
 31
0.0
  0
LINE
  5
30AE
  8
AM_0
 10
248.95507956004531
 20
287.74734835478182
 30
0.0
 11
248.9550795600455
 21
159.74734835478179
 31
0.0
  0
LINE
  5
30AF
  8
AM_0
 10
237.49061346597799
 20
279.78287463132
 30
0.0
 11
211.3840193775743
 21
253.6762805429164
 31
0.0
  0
LINE
  5
30B0
  8
AM_0
 10
238.95507956004519
 20
286.74734835478182
 30
0.0
 11
238.95507956004519
 21
160.74734835478179
 31
0.0
  0
LINE
  5
30B1
  8
AM_0
 10
285.9550695600455
 20
294.74731935478189
 30
0.0
 11
285.9550695600455
 21
150.2473153547819
 31
0.0
  0
LINE
  5
30B2
  8
AM_0
 10
345.95506956004539
 20
161.2473163547819
 30
0.0
 11
345.95506956004539
 21
328.7473153547819
 31
0.0
  0
LINE
  5
30B3
  8
AM_0
 10
339.9550695600455
 20
179.46597435478191
 30
0.0
 11
339.9550695600455
 21
310.52867535478202
 31
0.0
  0
LINE
  5
30B4
  8
ﾁｭｳｼﾝｾﾝ1
 10
144.04804328076111
 20
223.74734835478191
 30
0.0
 11
272.90846737080028
 21
223.74734835478191
 31
0.0
  0
LINE
  5
30B5
  8
AM_0
 10
151.45509171939281
 20
233.74734835478191
 30
0.0
 11
173.45509171939281
 21
233.74734835478191
 31
0.0
  0
LINE
  5
30B6
  8
AM_0
 10
151.45509171939281
 20
231.74734835478191
 30
0.0
 11
179.45509171939281
 21
231.74734835478191
 31
0.0
  0
LINE
  5
30B7
  8
AM_0
 10
151.45509171939281
 20
215.74734835478191
 30
0.0
 11
179.45509171939281
 21
215.74734835478191
 31
0.0
  0
LINE
  5
30B8
  8
AM_0
 10
151.45509171939281
 20
233.74734835478191
 30
0.0
 11
151.45509171939281
 21
215.74734835478191
 31
0.0
  0
LINE
  5
30B9
  8
AM_0
 10
285.9550695600455
 20
272.54437635478189
 30
0.0
 11
316.2733395600452
 21
272.54437635478189
 31
0.0
  0
LINE
  5
30BA
  8
AM_0
 10
285.95512956004518
 20
150.2473153547819
 30
0.0
 11
321.95512956004518
 21
148.7473153547819
 31
0.0
  0
LINE
  5
30BB
  8
AM_0
 10
285.9550695600455
 20
160.87724535478191
 30
0.0
 11
321.95506956004539
 21
160.87724535478191
 31
0.0
  0
LINE
  5
30BC
  8
ﾁｭｳｼﾝｾﾝ1
 10
396.66754956004519
 20
243.74733435478191
 30
0.0
 11
257.50131221903001
 21
243.74733435478191
 31
0.0
  0
LINE
  5
30BD
  8
AM_0
 10
237.49061346597799
 20
167.7118220782435
 30
0.0
 11
211.3840193775743
 21
193.81841616664741
 31
0.0
  0
LINE
  5
30BE
  8
AM_0
 10
278.95507956004531
 20
266.13535035478191
 30
0.0
 11
278.95507956004531
 21
154.7473153547819
 31
0.0
  0
LINE
  5
30BF
  8
AM_0
 10
248.95507956004531
 20
186.5993683547818
 30
0.0
 11
278.95507956004531
 21
186.5993683547818
 31
0.0
  0
LINE
  5
30C0
  8
AM_0
 10
248.95507956004531
 20
172.2473173547819
 30
0.0
 11
278.95507956004531
 21
172.2473173547819
 31
0.0
  0
LINE
  5
30C1
  8
AM_0
 10
248.95513956004561
 20
160.24733235478189
 30
0.0
 11
273.95506956004527
 21
159.59268435478191
 31
0.0
  0
LINE
  5
30C2
  8
AM_0
 10
248.95507956004531
 20
159.74734835478179
 30
0.0
 11
239.95507956004519
 21
159.74734835478179
 31
0.0
  0
ARC
  5
30C3
  8
AM_0
 10
239.95507956004519
 20
160.74734835478179
 30
0.0
 40
1.0
 50
180.0
 51
270.0
1001
GENIUS_GENODEF_13
1002
{
1000
HIER
1070
     0
1002
}
1002
{
1000
MANEDIT
1070
     0
1002
}
1002
{
1000
NOSEL
1070
     0
1002
}
1002
{
1000
BEHIND
1070
     0
1002
}
1002
{
1000
OTHER
1070
     0
1002
}
1002
{
1000
REACTOR
1002
}
1001
GENIUS_GENOBJ-N-FIL_13
1002
{
1000
OWNER
1000
GEN
1002
}
  0
ARC
  5
30C4
  8
AM_0
 10
233.95507956004519
 20
164.17628817231079
 30
0.0
 40
5.0
 50
0.0
 51
45.0
1001
GENIUS_GENODEF_13
1002
{
1000
HIER
1070
     0
1002
}
1002
{
1000
MANEDIT
1070
     0
1002
}
1002
{
1000
NOSEL
1070
     0
1002
}
1002
{
1000
BEHIND
1070
     0
1002
}
1002
{
1000
OTHER
1070
     0
1002
}
1002
{
1000
REACTOR
1002
}
1001
GENIUS_GENOBJ-N-FIL_13
1002
{
1000
OWNER
1000
GEN
1002
}
  0
LINE
  5
30C5
  8
AM_0
 10
275.95507956004531
 20
150.2473153547819
 30
0.0
 11
285.9550695600455
 21
150.2473153547819
 31
0.0
  0
LINE
  5
30C6
  8
AM_0
 10
273.95506956004527
 20
168.11732535478191
 30
0.0
 11
278.4350595600452
 21
168.11732535478191
 31
0.0
  0
LINE
  5
30C7
  8
AM_0
 10
273.95506956004527
 20
166.11732735478191
 30
0.0
 11
273.95506956004527
 21
152.2473163547819
 31
0.0
  0
ARC
  5
30C8
  8
AM_0
 10
275.95507956004531
 20
152.2473163547819
 30
0.0
 40
2.00000007
 50
179.99998999999991
 51
270.0
  0
ARC
  5
30C9
  8
AM_0
 10
271.9551495600453
 20
166.11732735478191
 30
0.0
 40
2.00000007
 50
0.0
 51
90.000003000000007
  0
LINE
  5
30CA
  8
AM_0
 10
280.9551495600453
 20
152.74731435478191
 30
0.0
 11
285.9550695600455
 21
152.74731435478191
 31
0.0
  0
ARC
  5
30CB
  8
AM_0
 10
280.9551495600453
 20
154.7473153547819
 30
0.0
 40
2.00000007
 50
179.99998999999991
 51
270.0
  0
LINE
  5
30CC
  8
AM_0
 10
181.45509171939281
 20
240.83313479240871
 30
0.0
 11
181.45509171939281
 21
206.66156191715501
 31
0.0
  0
LINE
  5
30CD
  8
AM_0
 10
183.45509171939281
 20
198.74734835478191
 30
0.0
 11
183.45509171939281
 21
248.74734835478171
 31
0.0
  0
LINE
  5
30CE
  8
AM_0
 10
208.45508718943981
 20
250.74734835478171
 30
0.0
 11
208.45508718943981
 21
196.74734835478159
 31
0.0
  0
LINE
  5
30CF
  8
AM_0
 10
185.4550917193927
 20
196.74734835478191
 30
0.0
 11
204.3129515657086
 21
196.74734835478171
 31
0.0
  0
ARC
  5
30D0
  8
AM_0
 10
185.4550917193927
 20
198.74734835478191
 30
0.0
 40
2.0
 50
180.0
 51
270.0
1001
GENIUS_GENOBJ-N-FIL_13
1002
{
1000
OWNER
1000
GEN
1002
}
1001
GENIUS_GENODEF_13
1002
{
1000
HIER
1070
     0
1002
}
1002
{
1000
MANEDIT
1070
     0
1002
}
1002
{
1000
NOSEL
1070
     0
1002
}
1002
{
1000
BEHIND
1070
     0
1002
}
1002
{
1000
OTHER
1070
     0
1002
}
1002
{
1000
REACTOR
1002
}
  0
LINE
  5
30D1
  8
AM_0
 10
181.74798493820609
 20
205.95445513596829
 30
0.0
 11
183.16219850057911
 21
204.5402415735953
 31
0.0
  0
ARC
  5
30D2
  8
AM_0
 10
182.45509171939281
 20
206.66156191715501
 30
0.0
 40
1.0
 50
180.0
 51
225.0
1001
GENIUS_GENODEF_13
1002
{
1000
HIER
1070
     0
1002
}
1002
{
1000
MANEDIT
1070
     0
1002
}
1002
{
1000
NOSEL
1070
     0
1002
}
1002
{
1000
BEHIND
1070
     0
1002
}
1002
{
1000
OTHER
1070
     0
1002
}
1002
{
1000
REACTOR
1002
}
1001
GENIUS_GENOBJ-N-FIL_13
1002
{
1000
OWNER
1000
GEN
1002
}
  0
ARC
  5
30D3
  8
AM_0
 10
182.45509171939281
 20
203.8331347924088
 30
0.0
 40
1.0
 50
0.0
 51
45.0
1001
GENIUS_GENODEF_13
1002
{
1000
HIER
1070
     0
1002
}
1002
{
1000
MANEDIT
1070
     0
1002
}
1002
{
1000
NOSEL
1070
     0
1002
}
1002
{
1000
BEHIND
1070
     0
1002
}
1002
{
1000
OTHER
1070
     0
1002
}
1002
{
1000
REACTOR
1002
}
1001
GENIUS_GENOBJ-N-FIL_13
1002
{
1000
OWNER
1000
GEN
1002
}
  0
LINE
  5
30D4
  8
AM_0
 10
173.45509171939281
 20
231.74734835478191
 30
0.0
 11
173.45509171939281
 21
233.74734835478191
 31
0.0
  0
LINE
  5
30D5
  8
AM_0
 10
179.45509171939281
 20
232.24734835478191
 30
0.0
 11
179.45509171939281
 21
215.24734835478191
 31
0.0
  0
LINE
  5
30D6
  8
AM_0
 10
179.45509171939281
 20
215.24735368783169
 30
0.0
 11
181.45509171939281
 21
215.24735262122181
 31
0.0
  0
LINE
  5
30D7
  8
AM_0
 10
179.45509171939281
 20
232.24734835478191
 30
0.0
 11
181.45509171939281
 21
232.24734835478191
 31
0.0
  0
ARC
  5
30D8
  8
AM_0
 10
204.3129515657086
 20
186.74734835478171
 30
0.0
 40
10.0
 50
45.0
 51
90.0
1001
GENIUS_GENODEF_13
1002
{
1000
HIER
1070
     0
1002
}
1002
{
1000
MANEDIT
1070
     0
1002
}
1002
{
1000
NOSEL
1070
     0
1002
}
1002
{
1000
BEHIND
1070
     0
1002
}
1002
{
1000
OTHER
1070
     0
1002
}
1002
{
1000
REACTOR
1002
}
1001
GENIUS_GENOBJ-N-FIL_13
1002
{
1000
OWNER
1000
GEN
1002
}
  0
LINE
  5
30D9
  8
AM_0
 10
185.4550917193927
 20
250.74734835478171
 30
0.0
 11
204.3129515657086
 21
250.74734835478171
 31
0.0
  0
LINE
  5
30DA
  8
AM_0
 10
181.74798493820609
 20
241.5402415735953
 30
0.0
 11
183.16219850057911
 21
242.9544551359684
 31
0.0
  0
ARC
  5
30DB
  8
AM_0
 10
182.45509171939281
 20
240.83313479240871
 30
0.0
 40
1.0
 50
135.0
 51
180.0
1001
GENIUS_GENODEF_13
1002
{
1000
HIER
1070
     0
1002
}
1002
{
1000
MANEDIT
1070
     0
1002
}
1002
{
1000
NOSEL
1070
     0
1002
}
1002
{
1000
BEHIND
1070
     0
1002
}
1002
{
1000
OTHER
1070
     0
1002
}
1002
{
1000
REACTOR
1002
}
1001
GENIUS_GENOBJ-N-FIL_13
1002
{
1000
OWNER
1000
GEN
1002
}
  0
ARC
  5
30DC
  8
AM_0
 10
182.45509171939281
 20
243.6615619171549
 30
0.0
 40
1.0
 50
315.0
 51
0.0
1001
GENIUS_GENODEF_13
1002
{
1000
HIER
1070
     0
1002
}
1002
{
1000
MANEDIT
1070
     0
1002
}
1002
{
1000
NOSEL
1070
     0
1002
}
1002
{
1000
BEHIND
1070
     0
1002
}
1002
{
1000
OTHER
1070
     0
1002
}
1002
{
1000
REACTOR
1002
}
1001
GENIUS_GENOBJ-N-FIL_13
1002
{
1000
OWNER
1000
GEN
1002
}
  0
ARC
  5
30DD
  8
AM_0
 10
185.4550917193927
 20
248.74734835478171
 30
0.0
 40
2.0
 50
90.0
 51
180.0
1001
GENIUS_GENOBJ-N-FIL_13
1002
{
1000
OWNER
1000
GEN
1002
}
1001
GENIUS_GENODEF_13
1002
{
1000
HIER
1070
     0
1002
}
1002
{
1000
MANEDIT
1070
     0
1002
}
1002
{
1000
NOSEL
1070
     0
1002
}
1002
{
1000
BEHIND
1070
     0
1002
}
1002
{
1000
OTHER
1070
     0
1002
}
1002
{
1000
REACTOR
1002
}
  0
ARC
  5
30DE
  8
AM_0
 10
204.3129515657086
 20
260.74734835478182
 30
0.0
 40
10.0
 50
270.0
 51
315.0
1001
GENIUS_GENODEF_13
1002
{
1000
HIER
1070
     0
1002
}
1002
{
1000
MANEDIT
1070
     0
1002
}
1002
{
1000
NOSEL
1070
     0
1002
}
1002
{
1000
BEHIND
1070
     0
1002
}
1002
{
1000
OTHER
1070
     0
1002
}
1002
{
1000
REACTOR
1002
}
1001
GENIUS_GENOBJ-N-FIL_13
1002
{
1000
OWNER
1000
GEN
1002
}
  0
LINE
  5
30DF
  8
AM_0
 10
248.95507956004531
 20
275.24731935478172
 30
0.0
 11
274.95514956004519
 21
275.24731935478172
 31
0.0
  0
LINE
  5
30E0
  8
AM_0
 10
248.95507956004531
 20
260.89526835478182
 30
0.0
 11
273.95506956004527
 21
260.89526835478182
 31
0.0
  0
LINE
  5
30E1
  8
AM_0
 10
275.95507956004531
 20
266.13535035478191
 30
0.0
 11
278.95507956004531
 21
266.13535035478191
 31
0.0
  0
LINE
  5
30E2
  8
AM_0
 10
275.95507956004531
 20
275.24731935478172
 30
0.0
 11
276.9550695600455
 21
275.24731935478172
 31
0.0
  0
LINE
  5
30E3
  8
AM_0
 10
273.95506956004527
 20
256.61465835478191
 30
0.0
 11
278.39575956004541
 21
256.61465835478191
 31
0.0
  0
LINE
  5
30E4
  8
AM_0
 10
273.95506956004527
 20
273.24734835478182
 30
0.0
 11
273.95506956004527
 21
258.61465935478191
 31
0.0
  0
ARC
  5
30E5
  8
AM_0
 10
275.95507956004531
 20
268.1353513547819
 30
0.0
 40
2.00000007
 50
179.99998999999991
 51
270.0
  0
ARC
  5
30E6
  8
AM_0
 10
271.9551495600453
 20
258.61465935478191
 30
0.0
 40
2.00000007
 50
270.0
 51
0.0
  0
ARC
  5
30E7
  8
AM_0
 10
275.95507956004531
 20
273.24734835478182
 30
0.0
 40
2.00000007
 50
90.000003000000007
 51
180.00001
  0
ARC
  5
30E8
  8
AM_0
 10
276.9550695600455
 20
277.24732035478172
 30
0.0
 40
2.00000007
 50
270.0
 51
0.0
  0
LINE
  5
30E9
  8
AM_0
 10
349.95511956004532
 20
243.74733435478191
 30
0.0
 11
349.95511956004532
 21
173.74733235478189
 31
0.0
  0
LINE
  5
30EA
  8
AM_0
 10
335.95507956004519
 20
163.5278953547818
 30
0.0
 11
335.95507956004519
 21
196.59298935478191
 31
0.0
  0
LINE
  5
30EB
  8
AM_0
 10
322.92889956004518
 20
165.15744135478181
 30
0.0
 11
335.95507956004519
 21
165.49853535478181
 31
0.0
  0
LINE
  5
30EC
  8
AM_0
 10
321.95506956004539
 20
164.1577933547818
 30
0.0
 11
321.95506956004539
 21
148.7473153547819
 31
0.0
  0
ARC
  5
30ED
  8
AM_0
 10
322.95511956004532
 20
164.1577933547818
 30
0.0
 40
1.0000000199999981
 50
91.500000999999969
 51
180.00001
  0
LINE
  5
30EE
  8
AM_0
 10
337.88527956004549
 20
161.52913035478181
 30
0.0
 11
345.95509956004548
 21
161.2473163547819
 31
0.0
  0
ARC
  5
30EF
  8
AM_0
 10
337.9551195600452
 20
163.5278953547818
 30
0.0
 40
2.00000007
 50
179.99998999999991
 51
268.00000999999992
  0
ARC
  5
30F0
  8
AM_0
 10
336.9550695600455
 20
179.46597435478191
 30
0.0
 40
3.0
 50
270.0
 51
0.0
  0
LINE
  5
30F1
  8
AM_0
 10
349.88527956004549
 20
177.74977335478181
 30
0.0
 11
349.95511956004532
 21
177.74733135478181
 31
0.0
  0
LINE
  5
30F2
  8
AM_0
 10
345.95506956004539
 20
173.74733235478189
 30
0.0
 11
349.95511956004532
 21
173.74733235478189
 31
0.0
  0
LINE
  5
30F3
  8
AM_0
 10
352.95505956004519
 20
231.74733435478191
 30
0.0
 11
392.95507956004519
 21
231.74733435478191
 31
0.0
  0
LINE
  5
30F4
  8
AM_0
 10
352.95505956004519
 20
255.74731935478181
 30
0.0
 11
392.95507956004519
 21
255.74731935478181
 31
0.0
  0
LINE
  5
30F5
  8
AM_0
 10
352.95505956004519
 20
256.2473173547819
 30
0.0
 11
352.95505956004519
 21
231.24734835478171
 31
0.0
  0
LINE
  5
30F6
  8
AM_0
 10
350.95507956004519
 20
217.79802135478181
 30
0.0
 11
350.95507956004519
 21
269.77609635478188
 31
0.0
  0
ARC
  5
30F7
  8
AM_0
 10
338.95507956004519
 20
196.59298935478191
 30
0.0
 40
3.0
 50
90.000003000000007
 51
180.00001
  0
ARC
  5
30F8
  8
AM_0
 10
347.95507956004519
 20
217.79802135478181
 30
0.0
 40
3.0
 50
311.81031000000002
 51
0.0
  0
LINE
  5
30F9
  8
AM_0
 10
350.95507956004519
 20
231.24734835478171
 30
0.0
 11
352.95505956004519
 21
231.24734835478171
 31
0.0
  0
LINE
  5
30FA
  8
AM_0
 10
322.95511956004532
 20
257.59219935478183
 30
0.0
 11
337.18582956004542
 21
257.59219935478183
 31
0.0
  0
ARC
  5
30FB
  8
AM_0
 10
322.95511956004532
 20
262.59216735478191
 30
0.0
 40
5.0000001000000003
 50
179.99998999999991
 51
270.0
  0
LINE
  5
30FC
  8
AM_0
 10
349.95511956004532
 20
243.74733435478191
 30
0.0
 11
349.95511956004532
 21
255.5502973547818
 31
0.0
  0
LINE
  5
30FD
  8
AM_0
 10
345.95506956004539
 20
255.5502973547818
 30
0.0
 11
349.95511956004532
 21
255.5502973547818
 31
0.0
  0
LINE
  5
30FE
  8
AM_0
 10
350.95507956004519
 20
256.2473173547819
 30
0.0
 11
352.95505956004519
 21
256.2473173547819
 31
0.0
  0
ARC
  5
30FF
  8
AM_0
 10
347.95507956004519
 20
269.77609635478188
 30
0.0
 40
3.0
 50
0.0
 51
39.999999000000003
  0
LINE
  5
3100
  8
AM_0
 10
349.95511956004532
 20
272.0597263547819
 30
0.0
 11
350.25322956004533
 21
271.70444235478192
 31
0.0
  0
ARC
  5
3101
  8
AM_0
 10
344.36920956004548
 20
274.04959635478178
 30
0.0
 40
3.0
 50
39.999999000000003
 51
58.08679699999999
  0
LINE
  5
3102
  8
AM_0
 10
346.66732956004518
 20
275.97793935478182
 30
0.0
 11
349.95511956004532
 21
272.0597263547819
 31
0.0
  0
LINE
  5
3103
  8
AM_0
 10
392.95507956004519
 20
258.74731935478172
 30
0.0
 11
392.95507956004519
 21
231.74733435478191
 31
0.0
  0
LINE
  5
3104
  8
AM_0
 10
360.95506956004539
 20
258.74731935478172
 30
0.0
 11
360.95506956004539
 21
255.74731935478181
 31
0.0
  0
LINE
  5
3105
  8
AM_0
 10
360.95506956004539
 20
258.74731935478172
 30
0.0
 11
392.95507956004519
 21
258.74731935478172
 31
0.0
  0
LINE
  5
3106
  8
AM_0
 10
285.9550695600455
 20
294.74731935478189
 30
0.0
 11
315.03361956004522
 21
295.50876435478182
 31
0.0
  0
LINE
  5
3107
  8
AM_0
 10
248.95507956004531
 20
287.24731935478178
 30
0.0
 11
277.00744956004542
 21
287.98187835478183
 31
0.0
  0
LINE
  5
3108
  8
AM_0
 10
248.95507956004531
 20
287.74734835478182
 30
0.0
 11
239.95507956004519
 21
287.74734835478182
 31
0.0
  0
ARC
  5
3109
  8
AM_0
 10
239.95507956004519
 20
286.74734835478182
 30
0.0
 40
1.0
 50
90.0
 51
180.0
1001
GENIUS_GENODEF_13
1002
{
1000
HIER
1070
     0
1002
}
1002
{
1000
MANEDIT
1070
     0
1002
}
1002
{
1000
NOSEL
1070
     0
1002
}
1002
{
1000
BEHIND
1070
     0
1002
}
1002
{
1000
OTHER
1070
     0
1002
}
1002
{
1000
REACTOR
1002
}
1001
GENIUS_GENOBJ-N-FIL_13
1002
{
1000
OWNER
1000
GEN
1002
}
  0
ARC
  5
310A
  8
AM_0
 10
233.95507956004519
 20
283.31840853725282
 30
0.0
 40
5.0
 50
315.0
 51
0.0
1001
GENIUS_GENODEF_13
1002
{
1000
HIER
1070
     0
1002
}
1002
{
1000
MANEDIT
1070
     0
1002
}
1002
{
1000
NOSEL
1070
     0
1002
}
1002
{
1000
BEHIND
1070
     0
1002
}
1002
{
1000
OTHER
1070
     0
1002
}
1002
{
1000
REACTOR
1002
}
1001
GENIUS_GENOBJ-N-FIL_13
1002
{
1000
OWNER
1000
GEN
1002
}
  0
ARC
  5
310B
  8
AM_0
 10
276.9550695600455
 20
289.98123735478202
 30
0.0
 40
2.00000007
 50
271.49999999999972
 51
0.0
  0
LINE
  5
310C
  8
AM_0
 10
280.9551495600453
 20
294.74731935478189
 30
0.0
 11
285.9550695600455
 21
294.74731935478189
 31
0.0
  0
ARC
  5
310D
  8
AM_0
 10
280.9551495600453
 20
292.74735135478193
 30
0.0
 40
2.00000007
 50
90.000003000000007
 51
180.00001
  0
LINE
  5
310E
  8
AM_0
 10
335.95507956004519
 20
285.69898035478178
 30
0.0
 11
335.95507956004519
 21
326.46674535478189
 31
0.0
  0
LINE
  5
310F
  8
AM_0
 10
323.2806195600453
 20
312.81827535478197
 30
0.0
 11
333.05977956004517
 21
313.15976535478183
 31
0.0
  0
LINE
  5
3110
  8
AM_0
 10
319.4032695600452
 20
283.47598635478181
 30
0.0
 11
336.44056956004522
 21
283.47598635478181
 31
0.0
  0
LINE
  5
3111
  8
AM_0
 10
317.95510956004517
 20
289.98099135478168
 30
0.0
 11
334.28422956004522
 21
298.0507873547819
 31
0.0
  0
LINE
  5
3112
  8
AM_0
 10
319.95511956004532
 20
286.40448435478203
 30
0.0
 11
333.41116956004532
 21
286.40448435478203
 31
0.0
  0
ARC
  5
3113
  8
AM_0
 10
319.95511956004532
 20
288.4044853547818
 30
0.0
 40
2.00000007
 50
179.99998999999991
 51
270.0
  0
ARC
  5
3114
  8
AM_0
 10
314.95507956004519
 20
298.50776535478178
 30
0.0
 40
3.0
 50
271.49999999999972
 51
0.0
  0
ARC
  5
3115
  8
AM_0
 10
322.95511956004532
 20
307.82132535478189
 30
0.0
 40
5.0000001000000003
 50
91.999997999999948
 51
180.00001
  0
LINE
  5
3116
  8
AM_0
 10
349.95511956004532
 20
282.37195335478202
 30
0.0
 11
349.95511956004532
 21
313.7473153547819
 31
0.0
  0
ARC
  5
3117
  8
AM_0
 10
332.95507956004519
 20
300.74030535478181
 30
0.0
 40
3.0
 50
296.29843
 51
0.0
  0
ARC
  5
3118
  8
AM_0
 10
333.41116956004532
 20
283.40448435478203
 30
0.0
 40
3.0
 50
22.48353599999999
 51
90.000003000000007
  0
ARC
  5
3119
  8
AM_0
 10
338.95507956004519
 20
285.69898035478178
 30
0.0
 40
3.0
 50
179.99998999999991
 51
270.0
  0
LINE
  5
311A
  8
AM_0
 10
345.95506956004539
 20
282.37195335478202
 30
0.0
 11
349.95511956004532
 21
282.37195335478202
 31
0.0
  0
ARC
  5
311B
  8
AM_0
 10
332.95507956004519
 20
316.1579353547819
 30
0.0
 40
3.0
 50
272.0
 51
0.0
  0
ARC
  5
311C
  8
AM_0
 10
336.9550695600455
 20
310.52867535478202
 30
0.0
 40
3.0
 50
0.0
 51
90.000003000000007
  0
LINE
  5
311D
  8
AM_0
 10
345.95506956004539
 20
313.7473153547819
 30
0.0
 11
349.95511956004532
 21
313.7473153547819
 31
0.0
  0
LINE
  5
311E
  8
AM_0
 10
337.88527956004549
 20
328.46549535478181
 30
0.0
 11
345.95506956004539
 21
328.74728535478181
 31
0.0
  0
ARC
  5
311F
  8
AM_0
 10
337.9551195600452
 20
326.46674535478189
 30
0.0
 40
2.00000007
 50
91.999997999999948
 51
180.00001
  0
ARC
  5
3120
  8
AM_0
 10
616.51513222796132
 20
268.49133735478199
 30
0.0
 40
11.000000399999999
 50
311.14393999999999
 51
94.843180000000004
  0
LINE
  5
3121
  8
AM_0
 10
600.81356122796126
 20
289.89273735478179
 30
0.0
 11
581.59293322796111
 21
270.6721243547816
 31
0.0
  0
LINE
  5
3122
  8
AM_0
 10
604.34911522796131
 20
286.35721335478189
 30
0.0
 11
585.12847222796097
 21
267.13657035478178
 31
0.0
  0
LINE
  5
3123
  8
AM_0
 10
643.20369922796112
 20
273.74731935478189
 30
0.0
 11
640.93604422796125
 21
317.01671535478198
 31
0.0
  0
LINE
  5
3124
  8
AM_0
 10
515.59381822796092
 20
289.89273735478179
 30
0.0
 11
534.81446122796115
 21
270.6720943547819
 31
0.0
  0
ARC
  5
3125
  8
AM_0
 10
499.89224722796081
 20
268.49133735478199
 30
0.0
 40
11.000000399999999
 50
85.156818000000015
 51
228.85606000000001
  0
LINE
  5
3126
  8
AM_0
 10
473.20370122796112
 20
273.74731935478189
 30
0.0
 11
475.47135022796078
 21
317.01671535478198
 31
0.0
  0
LINE
  5
3127
  8
AM_0
 10
512.05829422796114
 20
286.35718335478191
 30
0.0
 11
531.27892222796117
 21
267.13657035478178
 31
0.0
  0
LINE
  5
3128
  8
ﾁｭｳｼﾝｾﾝ1
 10
558.20368222796105
 20
332.74945557693439
 30
0.0
 11
558.20368222796105
 21
145.96131878648609
 31
0.0
  0
ARC
  5
3129
  8
AM_0
 10
558.20368222796105
 20
243.74733435478191
 30
0.0
 40
52.000007999999987
 50
137.75567000000001
 51
174.78408999999991
  0
ARC
  5
312A
  8
AM_0
 10
558.20368222796105
 20
243.74733435478191
 30
0.0
 40
52.000007999999987
 50
5.215907699999998
 51
42.244334000000009
  0
ARC
  5
312B
  8
AM_0
 10
558.20368222796105
 20
243.74733435478191
 30
0.0
 40
66.000003000000007
 50
168.12284
 51
0.000010017913
  0
ARC
  5
312C
  8
AM_0
 10
558.20368222796105
 20
243.74733435478191
 30
0.0
 40
70.000001999999995
 50
164.5475099999999
 51
0.000010017913
  0
LINE
  5
312D
  8
ﾁｭｳｼﾝｾﾝ1
 10
466.8656312279611
 20
243.74733435478191
 30
0.0
 11
646.8172712279611
 21
243.74733435478191
 31
0.0
  0
LINE
  5
312E
  8
AM_0
 10
485.44473922796101
 20
161.2473163547819
 30
0.0
 11
514.65442522796116
 21
161.2473163547819
 31
0.0
  0
LINE
  5
312F
  8
AM_0
 10
520.20369622796102
 20
218.7473323547818
 30
0.0
 11
499.16980522796121
 21
218.7473323547818
 31
0.0
  0
LINE
  5
3130
  8
AM_0
 10
473.20367122796091
 20
213.7473163547817
 30
0.0
 11
475.45844122796092
 21
170.72395635478179
 31
0.0
  0
ARC
  5
3131
  8
ﾁｭｳｼﾝｾﾝ1
 10
558.20368222796105
 20
243.74733435478191
 30
0.0
 40
100.0000109999999
 50
217.7573799999999
 51
232.63991999999999
  0
LINE
  5
3132
  8
ﾁｭｳｼﾝｾﾝ1
 10
480.73824150132231
 20
166.2819105051797
 30
0.0
 11
495.17759269498248
 21
180.72123638368711
 31
0.0
  0
ARC
  5
3133
  8
AM_0
 10
485.44473922796101
 20
171.24733035478181
 30
0.0
 40
10.000000200000001
 50
183.00001
 51
270.0
  0
CIRCLE
  5
3134
  8
AM_0
 10
487.49301622796111
 20
173.03663835478159
 30
0.0
 40
6.0000002999999991
  0
LINE
  5
3135
  8
AM_0
 10
506.20368022796077
 20
238.74734835478191
 30
0.0
 11
506.20368022796077
 21
221.74733235478169
 31
0.0
  0
LINE
  5
3136
  8
AM_0
 10
473.20370122796112
 20
213.74733135478181
 30
0.0
 11
473.20370122796112
 21
243.74733435478191
 31
0.0
  0
ARC
  5
3137
  8
AM_0
 10
499.16980522796121
 20
221.74733235478169
 30
0.0
 40
3.0
 50
200.43878000000001
 51
270.0
  0
ARC
  5
3138
  8
AM_0
 10
503.20368022796077
 20
221.74733235478169
 30
0.0
 40
3.0
 50
270.0
 51
0.0
  0
LINE
  5
3139
  8
AM_0
 10
473.20370122796112
 20
273.74731935478189
 30
0.0
 11
473.20370122796112
 21
243.74733435478191
 31
0.0
  0
ARC
  5
313A
  8
AM_0
 10
490.91846422796078
 20
253.58069235478189
 30
0.0
 40
2.00000007
 50
351.68540999999982
 51
79.999998000000005
  0
ARC
  5
313B
  8
AM_0
 10
490.91846422796078
 20
253.58069235478189
 30
0.0
 40
2.00000007
 50
79.999998000000005
 51
171.68540999999991
  0
LINE
  5
313C
  8
AM_0
 10
495.40244122796088
 20
241.74734835478191
 30
0.0
 11
503.20368022796077
 21
241.74734835478191
 31
0.0
  0
LINE
  5
313D
  8
AM_0
 10
495.40244122796088
 20
245.7473323547818
 30
0.0
 11
503.43143422796112
 21
245.7473323547818
 31
0.0
  0
ARC
  5
313E
  8
AM_0
 10
495.40244122796088
 20
238.74734835478191
 30
0.0
 40
3.0
 50
90.000003000000007
 51
184.55206999999999
  0
LINE
  5
313F
  8
AM_0
 10
491.26575322796089
 20
255.5502973547818
 30
0.0
 11
491.26575322796089
 21
255.5502973547818
 31
0.0
  0
ARC
  5
3140
  8
AM_0
 10
495.40244122796088
 20
248.74733235478169
 30
0.0
 40
3.0
 50
175.44793000000001
 51
270.0
  0
ARC
  5
3141
  8
AM_0
 10
503.20368022796077
 20
238.74734835478191
 30
0.0
 40
3.0
 50
0.0
 51
90.000003000000007
  0
ARC
  5
3142
  8
AM_0
 10
503.43143422796112
 20
248.74733235478169
 30
0.0
 40
3.0
 50
270.0
 51
354.78408999999999
  0
CIRCLE
  5
3143
  8
AM_0
 10
499.89224722796081
 20
268.49133735478199
 30
0.0
 40
4.9796462999999971
  0
LINE
  5
3144
  8
AM_0
 10
502.7672492279612
 20
263.51169135478182
 30
0.0
 11
497.01724822796081
 21
263.51169135478182
 31
0.0
  0
LINE
  5
3145
  8
AM_0
 10
502.7672492279612
 20
273.47098335478182
 30
0.0
 11
497.01724822796081
 21
273.47098335478182
 31
0.0
  0
LINE
  5
3146
  8
AM_0
 10
497.01724822796081
 20
263.51166135478178
 30
0.0
 11
494.14224922796097
 21
268.49130735478172
 31
0.0
  0
ARC
  5
3147
  8
AM_0
 10
490.68091522796112
 20
257.9485213547818
 30
0.0
 40
3.0
 50
348.12284
 51
48.856062999999999
  0
LINE
  5
3148
  8
AM_0
 10
494.14221922796099
 20
268.49133735478199
 30
0.0
 11
497.01721822796088
 21
273.47098335478182
 31
0.0
  0
LINE
  5
3149
  8
AM_0
 10
505.64224822796092
 20
268.49133735478199
 30
0.0
 11
502.7672492279612
 21
263.51169135478182
 31
0.0
  0
LINE
  5
314A
  8
AM_0
 10
505.64224822796092
 20
268.49130735478172
 30
0.0
 11
502.7672492279612
 21
273.47098335478182
 31
0.0
  0
LINE
  5
314B
  8
AM_0
 10
643.20369922796112
 20
213.7473163547817
 30
0.0
 11
640.94893822796132
 21
170.7239713547819
 31
0.0
  0
LINE
  5
314C
  8
AM_0
 10
517.25250922796113
 20
165.7473163547819
 30
0.0
 11
599.15490022796121
 21
165.7473163547819
 31
0.0
  0
LINE
  5
314D
  8
AM_0
 10
530.07642322796084
 20
148.8421933547819
 30
0.0
 11
586.33097122796073
 21
148.8421933547819
 31
0.0
  0
LINE
  5
314E
  8
AM_0
 10
580.5809702279613
 20
155.84219535478181
 30
0.0
 11
583.45598722796092
 21
160.82185635478189
 31
0.0
  0
LINE
  5
314F
  8
AM_0
 10
583.45597222796096
 20
150.86256435478191
 30
0.0
 11
580.5809702279613
 21
155.8422103547818
 31
0.0
  0
ARC
  5
3150
  8
AM_0
 10
530.07642322796084
 20
155.84219535478181
 30
0.0
 40
7.0000007999999987
 50
164.91944000000001
 51
270.0
  0
CIRCLE
  5
3151
  8
AM_0
 10
530.07642322796084
 20
155.84219535478181
 30
0.0
 40
4.9796462999999971
  0
LINE
  5
3152
  8
AM_0
 10
532.95140722796123
 20
150.86254935478181
 30
0.0
 11
527.20140622796112
 21
150.86254935478181
 31
0.0
  0
LINE
  5
3153
  8
AM_0
 10
532.95140722796123
 20
160.82185635478189
 30
0.0
 11
527.20140622796112
 21
160.82185635478189
 31
0.0
  0
ARC
  5
3154
  8
AM_0
 10
518.48618122796086
 20
158.95132635478191
 30
0.0
 40
5.0000001000000003
 50
344.98363999999992
 51
56.872543000000007
  0
LINE
  5
3155
  8
AM_0
 10
524.32640722796123
 20
155.8422103547818
 30
0.0
 11
527.20140622796112
 21
160.82185635478189
 31
0.0
  0
LINE
  5
3156
  8
AM_0
 10
527.20142422796107
 20
150.86254935478181
 30
0.0
 11
524.32640722796123
 21
155.8422103547818
 31
0.0
  0
LINE
  5
3157
  8
AM_0
 10
514.65442522796116
 20
161.2473163547819
 30
0.0
 11
517.25250922796113
 21
165.74733135478181
 31
0.0
  0
ARC
  5
3158
  8
AM_0
 10
558.20368222796105
 20
223.74734835478191
 30
0.0
 40
71.000000999999983
 50
234.77578999999989
 51
238.49327
  0
LINE
  5
3159
  8
AM_0
 10
535.82642422796096
 20
155.8422103547818
 30
0.0
 11
532.95142222796107
 21
160.82185635478189
 31
0.0
  0
LINE
  5
315A
  8
AM_0
 10
535.82640922796077
 20
155.8422103547818
 30
0.0
 11
532.95140722796123
 21
150.86256435478191
 31
0.0
  0
ARC
  5
315B
  8
AM_0
 10
586.33097122796073
 20
155.84219535478181
 30
0.0
 40
7.0000007999999987
 50
270.00002000000001
 51
15.080558999999999
  0
LINE
  5
315C
  8
AM_0
 10
601.7529692279611
 20
161.2473163547819
 30
0.0
 11
630.96264022796095
 21
161.2473163547819
 31
0.0
  0
ARC
  5
315D
  8
AM_0
 10
558.20368222796105
 20
223.74734835478191
 30
0.0
 40
71.000000999999983
 50
301.50671999999992
 51
305.22421000000008
  0
CIRCLE
  5
315E
  8
AM_0
 10
586.33097122796073
 20
155.84219535478181
 30
0.0
 40
4.9796462999999971
  0
LINE
  5
315F
  8
AM_0
 10
592.08097222796096
 20
155.8422103547818
 30
0.0
 11
589.20597322796095
 21
160.82185635478189
 31
0.0
  0
ARC
  5
3160
  8
AM_0
 10
597.92118322796114
 20
158.95132635478191
 30
0.0
 40
5.0000001000000003
 50
121.50672999999991
 51
195.01634999999999
  0
LINE
  5
3161
  8
AM_0
 10
592.08097222796096
 20
155.8422103547818
 30
0.0
 11
589.20597322796095
 21
150.86254935478181
 31
0.0
  0
LINE
  5
3162
  8
AM_0
 10
589.20597322796095
 20
150.86254935478181
 30
0.0
 11
583.45598722796092
 21
150.86254935478181
 31
0.0
  0
LINE
  5
3163
  8
AM_0
 10
589.20597322796095
 20
160.82185635478189
 30
0.0
 11
583.45598722796092
 21
160.82185635478189
 31
0.0
  0
LINE
  5
3164
  8
AM_0
 10
601.7529692279611
 20
161.2473163547819
 30
0.0
 11
599.15488522796113
 21
165.74733135478181
 31
0.0
  0
CIRCLE
  5
3165
  8
AM_0
 10
628.91436322796096
 20
173.03663835478159
 30
0.0
 40
6.0000002999999991
  0
ARC
  5
3166
  8
AM_0
 10
630.96264022796095
 20
171.24733035478181
 30
0.0
 40
10.000000200000001
 50
270.0
 51
357.0
  0
ARC
  5
3167
  8
AM_0
 10
579.47161222796069
 20
272.79343035478161
 30
0.0
 40
3.0
 50
233.78793999999999
 51
315.0
  0
LINE
  5
3168
  8
ﾁｭｳｼﾝｾﾝ1
 10
595.25449745052595
 20
223.74734835478171
 30
0.0
 11
521.15286700539616
 21
223.74734835478191
 31
0.0
  0
ARC
  5
3169
  8
AM_0
 10
558.20368222796105
 20
243.74733435478191
 30
0.0
 40
33.0
 50
0.0
 51
180.00001
  0
ARC
  5
316A
  8
AM_0
 10
558.20368222796105
 20
243.74733435478191
 30
0.0
 40
26.500002599999998
 50
270.0
 51
90.000003000000007
  0
LINE
  5
316B
  8
AM_0
 10
525.20368222796105
 20
243.74733435478191
 30
0.0
 11
525.20368222796105
 21
223.74734835478191
 31
0.0
  0
ARC
  5
316C
  8
AM_0
 10
558.20368222796105
 20
243.74733435478191
 30
0.0
 40
12.00000029999998
 50
109.47122
 51
70.528789000000003
  0
ARC
  5
316D
  8
AM_0
 10
558.20368222796105
 20
243.74733435478191
 30
0.0
 40
26.500002599999998
 50
90.000003000000007
 51
270.0
  0
ARC
  5
316E
  8
AM_0
 10
520.20369622796102
 20
223.74734835478191
 30
0.0
 40
5.0000001000000003
 50
270.0
 51
0.0
  0
ARC
  5
316F
  8
AM_0
 10
529.15759822796065
 20
265.01526435478178
 30
0.0
 40
3.0
 50
323.78793999999999
 51
45.00000099999999
  0
ARC
  5
3170
  8
AM_0
 10
536.93578222796123
 20
272.79343035478161
 30
0.0
 40
3.0
 50
225.0
 51
306.21206000000001
  0
LINE
  5
3171
  8
AM_0
 10
554.20368322796094
 20
258.74731935478172
 30
0.0
 11
554.20368322796094
 21
251.7473323547818
 31
0.0
  0
LINE
  5
3172
  8
AM_0
 10
562.20366622796109
 20
258.74731935478172
 30
0.0
 11
562.20366622796109
 21
251.7473323547818
 31
0.0
  0
CIRCLE
  5
3173
  8
AM_5
 10
558.20368222796105
 20
243.74733435478191
 30
0.0
 40
4.000000199999997
  0
CIRCLE
  5
3174
  8
AM_0
 10
558.20368222796105
 20
243.74733435478191
 30
0.0
 40
3.0
  0
LINE
  5
3175
  8
AM_0
 10
554.20368322796094
 20
251.7473323547818
 30
0.0
 11
562.20366622796109
 21
251.7473323547818
 31
0.0
  0
LINE
  5
3176
  8
AM_0
 10
554.20368322796094
 20
258.74731935478172
 30
0.0
 11
562.20366622796109
 21
258.74731935478172
 31
0.0
  0
LINE
  5
3177
  8
AM_0
 10
643.20368422796093
 20
213.74733135478181
 30
0.0
 11
643.20368422796093
 21
243.74733435478191
 31
0.0
  0
LINE
  5
3178
  8
AM_0
 10
610.20369922796112
 20
238.74734835478191
 30
0.0
 11
610.20369922796112
 21
221.74733235478169
 31
0.0
  0
LINE
  5
3179
  8
AM_0
 10
591.20368222796094
 20
243.74733435478191
 30
0.0
 11
591.20368222796094
 21
223.74734835478191
 31
0.0
  0
LINE
  5
317A
  8
AM_0
 10
596.2036982279609
 20
218.7473323547818
 30
0.0
 11
617.23757422796086
 21
218.7473323547818
 31
0.0
  0
ARC
  5
317B
  8
AM_0
 10
596.2036982279609
 20
223.74734835478191
 30
0.0
 40
5.0000001000000003
 50
179.99998999999991
 51
270.0
  0
ARC
  5
317C
  8
AM_0
 10
613.20369922796112
 20
221.74733235478169
 30
0.0
 40
3.0
 50
179.99998999999991
 51
270.0
  0
ARC
  5
317D
  8
AM_0
 10
617.23757422796086
 20
221.74733235478169
 30
0.0
 40
3.0
 50
270.0
 51
339.56121999999982
  0
CIRCLE
  5
317E
  8
AM_0
 10
616.51517722796075
 20
268.49127735478191
 30
0.0
 40
4.9796462999999971
  0
LINE
  5
317F
  8
AM_0
 10
619.39019122796128
 20
263.51163135478191
 30
0.0
 11
613.64019322796094
 21
263.51163135478191
 31
0.0
  0
LINE
  5
3180
  8
AM_0
 10
619.39019122796128
 20
273.47092035478192
 30
0.0
 11
613.64019322796094
 21
273.47092035478192
 31
0.0
  0
LINE
  5
3181
  8
AM_0
 10
621.00496822796094
 20
245.7473323547818
 30
0.0
 11
612.97594522796112
 21
245.7473323547818
 31
0.0
  0
LINE
  5
3182
  8
AM_0
 10
621.00496822796094
 20
241.74734835478191
 30
0.0
 11
613.20369922796112
 21
241.74734835478191
 31
0.0
  0
ARC
  5
3183
  8
AM_0
 10
613.20369922796112
 20
238.74734835478191
 30
0.0
 40
3.0
 50
90.000003000000007
 51
180.00001
  0
ARC
  5
3184
  8
AM_0
 10
612.97594522796112
 20
248.74733235478169
 30
0.0
 40
3.0
 50
185.21591000000001
 51
270.0
  0
ARC
  5
3185
  8
AM_0
 10
587.2497962279607
 20
265.01526435478178
 30
0.0
 40
3.0
 50
135.0
 51
216.21206000000009
  0
LINE
  5
3186
  8
AM_0
 10
613.64019322796094
 20
263.51160135478182
 30
0.0
 11
610.76517622796075
 21
268.49127735478191
 31
0.0
  0
LINE
  5
3187
  8
AM_0
 10
610.76517622796075
 20
268.49127735478191
 30
0.0
 11
613.64017522796132
 21
273.47092035478192
 31
0.0
  0
ARC
  5
3188
  8
AM_0
 10
625.48894822796126
 20
253.58069235478189
 30
0.0
 40
2.00000007
 50
100.0
 51
188.3145899999999
  0
ARC
  5
3189
  8
AM_0
 10
625.48894822796126
 20
253.58069235478189
 30
0.0
 40
2.00000007
 50
8.3145874000000024
 51
100.0
  0
LINE
  5
318A
  8
AM_0
 10
643.20368422796093
 20
273.74731935478189
 30
0.0
 11
643.20368422796093
 21
243.74733435478191
 31
0.0
  0
ARC
  5
318B
  8
AM_0
 10
558.20368222796105
 20
243.74733435478191
 30
0.0
 40
66.000003000000007
 50
0.0
 51
11.877162
  0
ARC
  5
318C
  8
AM_0
 10
558.20368222796105
 20
243.74733435478191
 30
0.0
 40
70.000001999999995
 50
0.0
 51
15.452487
  0
ARC
  5
318D
  8
AM_0
 10
621.00496822796094
 20
238.74734835478191
 30
0.0
 40
3.0
 50
355.44792999999999
 51
90.000003000000007
  0
ARC
  5
318E
  8
AM_0
 10
621.00496822796094
 20
248.74733235478169
 30
0.0
 40
3.0
 50
270.0
 51
4.5520714
  0
LINE
  5
318F
  8
AM_0
 10
625.14164122796114
 20
255.5502973547818
 30
0.0
 11
625.14164122796114
 21
255.5502973547818
 31
0.0
  0
LINE
  5
3190
  8
AM_0
 10
622.26519322796094
 20
268.49124735478182
 30
0.0
 11
619.39019122796128
 21
263.51160135478182
 31
0.0
  0
ARC
  5
3191
  8
AM_0
 10
625.72647922796114
 20
257.9485213547818
 30
0.0
 40
3.0
 50
131.1439399999999
 51
191.87716
  0
LINE
  5
3192
  8
AM_0
 10
622.26519322796094
 20
268.49124735478182
 30
0.0
 11
619.39019122796128
 21
273.47092035478192
 31
0.0
  0
LINE
  5
3193
  8
AM_0
 10
528.20369722796113
 20
328.7473153547819
 30
0.0
 11
484.93427122796078
 21
326.47964535478178
 31
0.0
  0
ARC
  5
3194
  8
AM_0
 10
558.20368222796105
 20
243.74733435478191
 30
0.0
 40
66.000003000000007
 50
34.109953999999988
 51
145.89004
  0
ARC
  5
3195
  8
AM_0
 10
558.20368222796105
 20
243.74733435478191
 30
0.0
 40
70.000001999999995
 50
30.534626999999979
 51
149.46537000000001
  0
ARC
  5
3196
  8
AM_0
 10
517.71512422796093
 20
292.01407335478171
 30
0.0
 40
3.0
 50
129.99161000000001
 51
225.0
  0
ARC
  5
3197
  8
AM_0
 10
485.45764822796082
 20
316.49339535478202
 30
0.0
 40
10.000000200000001
 50
92.999999000000017
 51
176.99999
  0
ARC
  5
3198
  8
AM_0
 10
503.67261322796111
 20
284.37195435478202
 30
0.0
 40
2.00000007
 50
235.0
 51
323.31459000000001
  0
LINE
  5
3199
  8
AM_0
 10
502.5254282279609
 20
282.73367835478189
 30
0.0
 11
502.5254282279609
 21
282.73367835478189
 31
0.0
  0
ARC
  5
319A
  8
AM_0
 10
503.67261322796111
 20
284.37195435478202
 30
0.0
 40
2.00000007
 50
143.31458000000001
 51
235.00001
  0
ARC
  5
319B
  8
AM_0
 10
501.07425622796097
 20
282.44134935478172
 30
0.0
 40
3.0
 50
265.15681999999998
 51
325.89004999999992
  0
ARC
  5
319C
  8
AM_0
 10
509.93698822796091
 20
284.23587435478203
 30
0.0
 40
3.0
 50
45.00000099999999
 51
140.00838999999999
  0
CIRCLE
  5
319D
  8
AM_0
 10
487.49301622796111
 20
314.45801535478199
 30
0.0
 40
6.0000002999999991
  0
LINE
  5
319E
  8
AM_0
 10
588.20368222796094
 20
328.74734535478183
 30
0.0
 11
558.20368222796105
 21
328.74734535478183
 31
0.0
  0
ARC
  5
319F
  8
AM_0
 10
558.20368222796105
 20
243.74733435478191
 30
0.0
 40
52.000007999999987
 50
47.755664999999993
 51
84.784093999999982
  0
ARC
  5
31A0
  8
AM_0
 10
558.20366712769578
 20
243.74733435478191
 30
0.0
 40
52.000007999999987
 50
95.215910999999693
 51
132.24432999999581
  0
LINE
  5
31A1
  8
AM_0
 10
560.20369822796101
 20
306.5486053547819
 30
0.0
 11
560.20369822796101
 21
298.5195853547819
 31
0.0
  0
LINE
  5
31A2
  8
AM_0
 10
556.20369622796102
 20
306.5486053547819
 30
0.0
 11
556.20369622796102
 21
298.5195853547819
 31
0.0
  0
ARC
  5
31A3
  8
AM_0
 10
553.20369622796102
 20
298.5195853547819
 30
0.0
 40
3.0
 50
275.21591000000001
 51
0.0
  0
ARC
  5
31A4
  8
AM_0
 10
563.2036982279609
 20
298.5195853547819
 30
0.0
 40
3.0
 50
179.99998999999991
 51
264.78408999999982
  0
ARC
  5
31A5
  8
AM_0
 10
563.2036982279609
 20
306.5486053547819
 30
0.0
 40
3.0
 50
85.447927000000007
 51
180.00001
  0
ARC
  5
31A6
  8
AM_0
 10
553.20369622796102
 20
306.5486053547819
 30
0.0
 40
3.0
 50
0.0
 51
94.552070999999984
  0
LINE
  5
31A7
  8
AM_0
 10
528.20368222796105
 20
328.74734535478183
 30
0.0
 11
558.20368222796105
 21
328.74734535478183
 31
0.0
  0
ARC
  5
31A8
  8
ﾁｭｳｼﾝｾﾝ1
 10
558.20368222796105
 20
243.74733435478191
 30
0.0
 40
100.0000109999999
 50
37.75737500000001
 51
52.639915999999999
  0
LINE
  5
31A9
  8
ﾁｭｳｼﾝｾﾝ1
 10
635.91328703204863
 20
321.45690651241478
 30
0.0
 11
621.36239859845625
 21
306.90604123258322
 31
0.0
  0
ARC
  5
31AA
  8
AM_0
 10
630.94974622796065
 20
316.49339535478202
 30
0.0
 40
10.000000200000001
 50
3.0000000999999981
 51
86.999998999999988
  0
ARC
  5
31AB
  8
AM_0
 10
615.33313822796117
 20
282.44134935478172
 30
0.0
 40
3.0
 50
214.10995999999989
 51
274.8431799999999
  0
ARC
  5
31AC
  8
AM_0
 10
612.73478122796098
 20
284.37195435478202
 30
0.0
 40
2.00000007
 50
305.0
 51
36.685414000000002
  0
ARC
  5
31AD
  8
AM_0
 10
606.47042122796131
 20
284.23587435478203
 30
0.0
 40
3.0
 50
39.991610999999999
 51
135.0
  0
ARC
  5
31AE
  8
AM_0
 10
612.73478122796098
 20
284.37195435478202
 30
0.0
 40
2.00000007
 50
216.68541999999991
 51
305.0
  0
LINE
  5
31AF
  8
AM_0
 10
613.88193622796075
 20
282.73364835478202
 30
0.0
 11
613.88193622796075
 21
282.73364835478202
 31
0.0
  0
ARC
  5
31B0
  8
AM_0
 10
598.69224022796095
 20
292.01407335478171
 30
0.0
 40
3.0
 50
315.0
 51
50.008387999999997
  0
CIRCLE
  5
31B1
  8
AM_0
 10
628.91436322796096
 20
314.45801535478199
 30
0.0
 40
6.0000002999999991
  0
LINE
  5
31B2
  8
AM_0
 10
588.20369722796113
 20
328.7473153547819
 30
0.0
 11
631.47310822796112
 21
326.47967535478182
 31
0.0
  0
LINE
  5
31B3
  8
AM_0
 10
248.95507956004531
 20
261.74365835478181
 30
0.0
 11
238.95507956004559
 21
261.74365835478181
 31
0.0
  0
LINE
  5
31B4
  8
AM_0
 10
248.95507956004531
 20
275.24734835478182
 30
0.0
 11
238.95507956004559
 21
275.24734835478182
 31
0.0
  0
LINE
  5
31B5
  8
AM_0
 10
248.95507956004531
 20
172.24734835478171
 30
0.0
 11
238.95507956004559
 21
172.24734835478171
 31
0.0
  0
LINE
  5
31B6
  8
AM_0
 10
248.95507956004531
 20
185.75104335478159
 30
0.0
 11
238.95507956004559
 21
185.75104335478159
 31
0.0
  0
LINE
  5
31B7
  8
AM_0
 10
181.45512171939279
 20
484.27024007323661
 30
0.0
 11
181.45512171939279
 21
450.09866719798288
 31
0.0
  0
LINE
  5
31B8
  8
AM_0
 10
183.45512171939279
 20
442.1844536356096
 30
0.0
 11
183.45512171939279
 21
492.1844536356096
 31
0.0
  0
LINE
  5
31B9
  8
AM_0
 10
238.9551095600452
 20
530.18445363560977
 30
0.0
 11
238.9551095600452
 21
404.18445363560949
 31
0.0
  0
LINE
  5
31BA
  8
AM_0
 10
208.4551171894397
 20
494.1844536356096
 30
0.0
 11
208.4551171894397
 21
440.1844536356096
 31
0.0
  0
LINE
  5
31BB
  8
AM_0
 10
237.490643465978
 20
411.14892735907131
 30
0.0
 11
211.38404937757431
 21
437.25552144747508
 31
0.0
  0
ARC
  5
31BC
  8
AM_0
 10
204.31298156570881
 20
430.1844536356096
 30
0.0
 40
10.0
 50
45.0
 51
90.0
1001
GENIUS_GENODEF_13
1002
{
1000
HIER
1070
     0
1002
}
1002
{
1000
MANEDIT
1070
     0
1002
}
1002
{
1000
NOSEL
1070
     0
1002
}
1002
{
1000
BEHIND
1070
     0
1002
}
1002
{
1000
OTHER
1070
     0
1002
}
1002
{
1000
REACTOR
1002
}
1001
GENIUS_GENOBJ-N-FIL_13
1002
{
1000
OWNER
1000
GEN
1002
}
  0
LINE
  5
31BD
  8
AM_0
 10
185.45512171939279
 20
440.1844536356096
 30
0.0
 11
204.31298156570881
 21
440.1844536356096
 31
0.0
  0
ARC
  5
31BE
  8
AM_0
 10
185.45512171939279
 20
442.1844536356096
 30
0.0
 40
2.0
 50
180.0
 51
270.0
1001
GENIUS_GENOBJ-N-FIL_13
1002
{
1000
OWNER
1000
GEN
1002
}
1001
GENIUS_GENODEF_13
1002
{
1000
HIER
1070
     0
1002
}
1002
{
1000
MANEDIT
1070
     0
1002
}
1002
{
1000
NOSEL
1070
     0
1002
}
1002
{
1000
BEHIND
1070
     0
1002
}
1002
{
1000
OTHER
1070
     0
1002
}
1002
{
1000
REACTOR
1002
}
  0
LINE
  5
31BF
  8
AM_0
 10
181.7480149382063
 20
449.39156041679632
 30
0.0
 11
183.1622285005794
 21
447.97734685442322
 31
0.0
  0
ARC
  5
31C0
  8
AM_0
 10
182.45512171939279
 20
447.27024007323661
 30
0.0
 40
1.0
 50
0.0
 51
45.0
1001
GENIUS_GENODEF_13
1002
{
1000
HIER
1070
     0
1002
}
1002
{
1000
MANEDIT
1070
     0
1002
}
1002
{
1000
NOSEL
1070
     0
1002
}
1002
{
1000
BEHIND
1070
     0
1002
}
1002
{
1000
OTHER
1070
     0
1002
}
1002
{
1000
REACTOR
1002
}
1001
GENIUS_GENOBJ-N-FIL_13
1002
{
1000
OWNER
1000
GEN
1002
}
  0
ARC
  5
31C1
  8
AM_0
 10
182.45512171939279
 20
450.09866719798288
 30
0.0
 40
1.0
 50
180.0
 51
225.0
1001
GENIUS_GENODEF_13
1002
{
1000
HIER
1070
     0
1002
}
1002
{
1000
MANEDIT
1070
     0
1002
}
1002
{
1000
NOSEL
1070
     0
1002
}
1002
{
1000
BEHIND
1070
     0
1002
}
1002
{
1000
OTHER
1070
     0
1002
}
1002
{
1000
REACTOR
1002
}
1001
GENIUS_GENOBJ-N-FIL_13
1002
{
1000
OWNER
1000
GEN
1002
}
  0
ARC
  5
31C2
  8
AM_0
 10
233.95510956004529
 20
407.6133934531386
 30
0.0
 40
5.0
 50
0.0
 51
45.0
1001
GENIUS_GENODEF_13
1002
{
1000
HIER
1070
     0
1002
}
1002
{
1000
MANEDIT
1070
     0
1002
}
1002
{
1000
NOSEL
1070
     0
1002
}
1002
{
1000
BEHIND
1070
     0
1002
}
1002
{
1000
OTHER
1070
     0
1002
}
1002
{
1000
REACTOR
1002
}
1001
GENIUS_GENOBJ-N-FIL_13
1002
{
1000
OWNER
1000
GEN
1002
}
  0
LINE
  5
31C3
  8
AM_0
 10
248.9551095600452
 20
403.18445363560949
 30
0.0
 11
239.95510956004529
 21
403.18445363560949
 31
0.0
  0
ARC
  5
31C4
  8
AM_0
 10
239.95510956004529
 20
404.18445363560949
 30
0.0
 40
1.0
 50
180.0
 51
270.0
1001
GENIUS_GENODEF_13
1002
{
1000
HIER
1070
     0
1002
}
1002
{
1000
MANEDIT
1070
     0
1002
}
1002
{
1000
NOSEL
1070
     0
1002
}
1002
{
1000
BEHIND
1070
     0
1002
}
1002
{
1000
OTHER
1070
     0
1002
}
1002
{
1000
REACTOR
1002
}
1001
GENIUS_GENOBJ-N-FIL_13
1002
{
1000
OWNER
1000
GEN
1002
}
  0
LINE
  5
31C5
  8
AM_0
 10
248.9551095600452
 20
429.18814863560948
 30
0.0
 11
238.95510956004551
 21
429.18814863560948
 31
0.0
  0
LINE
  5
31C6
  8
AM_0
 10
248.9551095600452
 20
415.68445363560949
 30
0.0
 11
238.95510956004551
 21
415.68445363560949
 31
0.0
  0
LINE
  5
31C7
  8
AM_0
 10
237.490643465978
 20
523.21997991214801
 30
0.0
 11
211.3840493775742
 21
497.11338582374418
 31
0.0
  0
ARC
  5
31C8
  8
AM_0
 10
204.31298156570881
 20
504.18445363560949
 30
0.0
 40
10.0
 50
270.0
 51
315.0
1001
GENIUS_GENODEF_13
1002
{
1000
HIER
1070
     0
1002
}
1002
{
1000
MANEDIT
1070
     0
1002
}
1002
{
1000
NOSEL
1070
     0
1002
}
1002
{
1000
BEHIND
1070
     0
1002
}
1002
{
1000
OTHER
1070
     0
1002
}
1002
{
1000
REACTOR
1002
}
1001
GENIUS_GENOBJ-N-FIL_13
1002
{
1000
OWNER
1000
GEN
1002
}
  0
ARC
  5
31C9
  8
AM_0
 10
185.45512171939279
 20
492.1844536356096
 30
0.0
 40
2.0
 50
90.0
 51
180.0
1001
GENIUS_GENOBJ-N-FIL_13
1002
{
1000
OWNER
1000
GEN
1002
}
1001
GENIUS_GENODEF_13
1002
{
1000
HIER
1070
     0
1002
}
1002
{
1000
MANEDIT
1070
     0
1002
}
1002
{
1000
NOSEL
1070
     0
1002
}
1002
{
1000
BEHIND
1070
     0
1002
}
1002
{
1000
OTHER
1070
     0
1002
}
1002
{
1000
REACTOR
1002
}
  0
LINE
  5
31CA
  8
AM_0
 10
151.45512171939279
 20
475.18445363560949
 30
0.0
 11
179.45512171939279
 21
475.18445363560949
 31
0.0
  0
LINE
  5
31CB
  8
AM_0
 10
151.45512171939279
 20
459.1844536356096
 30
0.0
 11
179.45512171939279
 21
459.1844536356096
 31
0.0
  0
LINE
  5
31CC
  8
AM_0
 10
151.45512171939279
 20
475.18445363560949
 30
0.0
 11
151.45512171939279
 21
459.1844536356096
 31
0.0
  0
LINE
  5
31CD
  8
AM_0
 10
151.45512171939279
 20
464.68445363560971
 30
0.0
 11
173.45512171939279
 21
464.68445363560971
 31
0.0
  0
LINE
  5
31CE
  8
AM_0
 10
151.45512171939279
 20
469.6844536356096
 30
0.0
 11
173.45512171939279
 21
469.6844536356096
 31
0.0
  0
LINE
  5
31CF
  8
AM_0
 10
173.45512171939279
 20
469.6844536356096
 30
0.0
 11
173.45512171939279
 21
464.68445363560971
 31
0.0
  0
ARC
  5
31D0
  8
AM_0
 10
173.45512171939279
 20
467.1844536356096
 30
0.0
 40
2.5
 50
270.0
 51
90.0
  0
LINE
  5
31D1
  8
AM_0
 10
179.45512171939279
 20
475.6844536356096
 30
0.0
 11
179.45512171939279
 21
458.68445363560949
 31
0.0
  0
LINE
  5
31D2
  8
AM_0
 10
179.45512171939279
 20
458.68445896865961
 30
0.0
 11
181.45512171939279
 21
458.68445790204993
 31
0.0
  0
LINE
  5
31D3
  8
AM_0
 10
185.45512171939279
 20
494.1844536356096
 30
0.0
 11
204.31298156570881
 21
494.1844536356096
 31
0.0
  0
LINE
  5
31D4
  8
AM_0
 10
179.45512171939279
 20
475.6844536356096
 30
0.0
 11
181.45512171939279
 21
475.6844536356096
 31
0.0
  0
ARC
  5
31D5
  8
AM_0
 10
182.45512171939279
 20
484.27024007323661
 30
0.0
 40
1.0
 50
135.0
 51
180.0
1001
GENIUS_GENODEF_13
1002
{
1000
HIER
1070
     0
1002
}
1002
{
1000
MANEDIT
1070
     0
1002
}
1002
{
1000
NOSEL
1070
     0
1002
}
1002
{
1000
BEHIND
1070
     0
1002
}
1002
{
1000
OTHER
1070
     0
1002
}
1002
{
1000
REACTOR
1002
}
1001
GENIUS_GENOBJ-N-FIL_13
1002
{
1000
OWNER
1000
GEN
1002
}
  0
ARC
  5
31D6
  8
AM_0
 10
182.45512171939279
 20
487.09866719798271
 30
0.0
 40
1.0
 50
315.0
 51
0.0
1001
GENIUS_GENODEF_13
1002
{
1000
HIER
1070
     0
1002
}
1002
{
1000
MANEDIT
1070
     0
1002
}
1002
{
1000
NOSEL
1070
     0
1002
}
1002
{
1000
BEHIND
1070
     0
1002
}
1002
{
1000
OTHER
1070
     0
1002
}
1002
{
1000
REACTOR
1002
}
1001
GENIUS_GENOBJ-N-FIL_13
1002
{
1000
OWNER
1000
GEN
1002
}
  0
LINE
  5
31D7
  8
AM_0
 10
181.7480149382063
 20
484.97734685442322
 30
0.0
 11
183.1622285005794
 21
486.39156041679632
 31
0.0
  0
LINE
  5
31D8
  8
AM_0
 10
248.9551095600452
 20
531.18445363560966
 30
0.0
 11
239.95510956004529
 21
531.18445363560966
 31
0.0
  0
LINE
  5
31D9
  8
AM_0
 10
248.9551095600452
 20
518.68445363560966
 30
0.0
 11
238.95510956004551
 21
518.68445363560966
 31
0.0
  0
LINE
  5
31DA
  8
AM_0
 10
248.9551095600452
 20
505.18076363560948
 30
0.0
 11
238.95510956004551
 21
505.18076363560948
 31
0.0
  0
ARC
  5
31DB
  8
AM_0
 10
233.95510956004529
 20
526.75551381808066
 30
0.0
 40
5.0
 50
315.0
 51
0.0
1001
GENIUS_GENODEF_13
1002
{
1000
HIER
1070
     0
1002
}
1002
{
1000
MANEDIT
1070
     0
1002
}
1002
{
1000
NOSEL
1070
     0
1002
}
1002
{
1000
BEHIND
1070
     0
1002
}
1002
{
1000
OTHER
1070
     0
1002
}
1002
{
1000
REACTOR
1002
}
1001
GENIUS_GENOBJ-N-FIL_13
1002
{
1000
OWNER
1000
GEN
1002
}
  0
ARC
  5
31DC
  8
AM_0
 10
239.95510956004529
 20
530.18445363560977
 30
0.0
 40
1.0
 50
90.0
 51
180.0
1001
GENIUS_GENODEF_13
1002
{
1000
HIER
1070
     0
1002
}
1002
{
1000
MANEDIT
1070
     0
1002
}
1002
{
1000
NOSEL
1070
     0
1002
}
1002
{
1000
BEHIND
1070
     0
1002
}
1002
{
1000
OTHER
1070
     0
1002
}
1002
{
1000
REACTOR
1002
}
1001
GENIUS_GENOBJ-N-FIL_13
1002
{
1000
OWNER
1000
GEN
1002
}
  0
LINE
  5
31DE
  8
ﾁｭｳｼﾝｾﾝ1
 10
144.04804328076111
 20
467.1844536356096
 30
0.0
 11
399.17476956004521
 21
467.1844536356096
 31
0.0
  0
LINE
  5
31DF
  8
AM_0
 10
349.95510956004512
 20
537.18445363560954
 30
0.0
 11
349.95510956004512
 21
397.1844536356096
 31
0.0
  0
LINE
  5
31E0
  8
AM_0
 10
339.95507956004519
 20
400.40310363560968
 30
0.0
 11
339.95507956004519
 21
533.96579363560954
 31
0.0
  0
LINE
  5
31E1
  8
AM_0
 10
345.95507956004519
 20
382.1844536356096
 30
0.0
 11
345.95507956004519
 21
552.18448363560969
 31
0.0
  0
LINE
  5
31E2
  8
AM_0
 10
317.95507956004519
 20
537.57342363560974
 30
0.0
 11
317.95507956004519
 21
396.7954736356096
 31
0.0
  0
LINE
  5
31E3
  8
AM_0
 10
350.95507956004519
 20
441.65011363560961
 30
0.0
 11
350.95507956004519
 21
492.71875363560969
 31
0.0
  0
LINE
  5
31E4
  8
AM_0
 10
392.95507956004519
 20
479.18445363560949
 30
0.0
 11
392.95507956004519
 21
455.1844536356096
 31
0.0
  0
LINE
  5
31E5
  8
AM_0
 10
352.9550495600451
 20
479.68442363560951
 30
0.0
 11
352.9550495600451
 21
454.68448363560952
 31
0.0
  0
LINE
  5
31E6
  8
AM_0
 10
248.9551095600452
 20
403.18445363560949
 30
0.0
 11
248.9551095600452
 21
531.18445363560966
 31
0.0
  0
LINE
  5
31E7
  8
AM_0
 10
278.95510956004517
 20
398.3160736356096
 30
0.0
 11
278.95510956004517
 21
536.05282363560946
 31
0.0
  0
LINE
  5
31E8
  8
AM_0
 10
285.95507956004519
 20
538.18445363560954
 30
0.0
 11
285.95507956004519
 21
396.1844536356096
 31
0.0
  0
LINE
  5
31E9
  8
AM_0
 10
316.9786695600452
 20
395.3720436356096
 30
0.0
 11
285.95507956004519
 21
396.1844536356096
 31
0.0
  0
LINE
  5
31EA
  8
AM_0
 10
248.9551095600452
 20
430.03442363560953
 30
0.0
 11
278.95510956004517
 21
430.03442363560953
 31
0.0
  0
LINE
  5
31EB
  8
AM_0
 10
248.9551095600452
 20
415.14441363560951
 30
0.0
 11
278.95510956004517
 21
415.14441363560951
 31
0.0
  0
LINE
  5
31EC
  8
AM_0
 10
274.19490956004518
 20
403.02353363560962
 30
0.0
 11
248.9551395600453
 21
403.68445363560949
 31
0.0
  0
ARC
  5
31ED
  8
AM_0
 10
271.95507956004519
 20
413.14441363560968
 30
0.0
 40
2.0
 50
0.0
 51
90.000003000000945
  0
ARC
  5
31EE
  8
AM_0
 10
276.95510956004517
 20
399.97317363560961
 30
0.0
 40
2.0
 50
0.0
 51
90.000003000000945
  0
ARC
  5
31EF
  8
AM_0
 10
280.95510956004517
 20
398.3160736356096
 30
0.0
 40
2.0
 50
180.00001000000091
 51
268.5000000000004
  0
LINE
  5
31F0
  8
AM_0
 10
273.95507956004531
 20
403.9731736356095
 30
0.0
 11
273.95507956004531
 21
413.14441363560968
 31
0.0
  0
ARC
  5
31F1
  8
AM_0
 10
275.95507956004531
 20
403.9731736356095
 30
0.0
 40
2.0
 50
180.00001000000091
 51
270.0
  0
LINE
  5
31F2
  8
AM_0
 10
275.95507956004531
 20
401.97317363560973
 30
0.0
 11
276.95510956004517
 21
401.97317363560973
 31
0.0
  0
LINE
  5
31F3
  8
AM_0
 10
285.95510956004517
 20
396.18448363560958
 30
0.0
 11
280.90276956004521
 21
396.31677363560959
 31
0.0
  0
ARC
  5
31F4
  8
AM_0
 10
320.95507956004519
 20
396.7954736356096
 30
0.0
 40
3.0
 50
179.9999899999988
 51
268.50000999999872
  0
LINE
  5
31F5
  8
AM_0
 10
335.95507956004519
 20
425.23279363560948
 30
0.0
 11
335.95507956004519
 21
384.46506363560962
 31
0.0
  0
LINE
  5
31F6
  8
AM_0
 10
337.88527956004521
 20
382.46625363560958
 30
0.0
 11
345.95507956004519
 21
382.1844536356096
 31
0.0
  0
LINE
  5
31F7
  8
AM_0
 10
320.8765895600452
 20
393.79651363560959
 30
0.0
 11
333.0336295600452
 21
393.47818363560958
 31
0.0
  0
ARC
  5
31F8
  8
AM_0
 10
337.95510956004517
 20
384.46506363560962
 30
0.0
 40
2.0
 50
179.9999899999988
 51
268.00000999999861
  0
ARC
  5
31F9
  8
AM_0
 10
332.95507956004519
 20
390.47919363560959
 30
0.0
 40
3.0
 50
0.0
 51
88.499997000000747
  0
ARC
  5
31FA
  8
AM_0
 10
322.95507956004519
 20
420.54077363560958
 30
0.0
 40
5.0
 50
179.9999899999988
 51
239.431710000001
  0
ARC
  5
31FB
  8
AM_0
 10
318.95507956004519
 20
420.48633363560958
 30
0.0
 40
1.0
 50
179.9999899999988
 51
270.0
  0
ARC
  5
31FC
  8
AM_0
 10
322.95507956004519
 20
417.05652363560961
 30
0.0
 40
5.0
 50
179.9999899999988
 51
239.431710000001
  0
ARC
  5
31FD
  8
AM_0
 10
316.90014956004512
 20
392.37308363560959
 30
0.0
 40
3.0
 50
47.481952000001627
 51
88.499997000000747
  0
LINE
  5
31FE
  8
AM_0
 10
333.49788956004522
 20
408.50659363560948
 30
0.0
 11
320.41228956004522
 21
416.23562363560961
 31
0.0
  0
LINE
  5
31FF
  8
AM_0
 10
333.49788956004522
 20
405.0223736356096
 30
0.0
 11
320.41225956004507
 21
412.7514336356096
 31
0.0
  0
ARC
  5
3200
  8
AM_0
 10
330.95507956004519
 20
400.71722363560968
 30
0.0
 40
5.0
 50
0.0
 51
59.431709000000481
  0
ARC
  5
3201
  8
AM_0
 10
336.95507956004519
 20
400.40310363560968
 30
0.0
 40
3.0
 50
270.0
 51
0.0
  0
ARC
  5
3202
  8
AM_0
 10
330.95507956004519
 20
404.20148363560969
 30
0.0
 40
5.0
 50
0.0
 51
59.431709000000481
  0
LINE
  5
3203
  8
AM_0
 10
318.95507956004519
 20
419.48633363560953
 30
0.0
 11
333.95507956004519
 21
419.48633363560953
 31
0.0
  0
ARC
  5
3204
  8
AM_0
 10
333.95507956004519
 20
417.48633363560958
 30
0.0
 40
2.0
 50
0.0
 51
90.000003000000945
  0
ARC
  5
3205
  8
AM_0
 10
338.95507956004519
 20
425.23279363560948
 30
0.0
 40
3.0
 50
90.000003000000945
 51
180.00001000000091
  0
LINE
  5
3206
  8
AM_0
 10
345.95507956004519
 20
397.1844536356096
 30
0.0
 11
349.95510956004512
 21
397.1844536356096
 31
0.0
  0
LINE
  5
3207
  8
AM_0
 10
360.95507956004519
 20
463.1844536356096
 30
0.0
 11
392.95507956004519
 21
463.1844536356096
 31
0.0
  0
LINE
  5
3208
  8
AM_0
 10
352.9550495600451
 20
455.1844536356096
 30
0.0
 11
392.95507956004519
 21
455.1844536356096
 31
0.0
  0
LINE
  5
3209
  8
AM_0
 10
360.95507956004519
 20
471.18442363560951
 30
0.0
 11
392.95507956004519
 21
471.18442363560951
 31
0.0
  0
ARC
  5
320A
  8
AM_0
 10
349.95507956004519
 20
441.65011363560961
 30
0.0
 40
1.0
 50
272.0000000000004
 51
0.0
  0
LINE
  5
320B
  8
AM_0
 10
349.95507956004519
 20
440.6495336356096
 30
0.0
 11
349.98998956004522
 21
440.65076363560968
 31
0.0
  0
ARC
  5
320C
  8
AM_0
 10
360.95507956004519
 20
467.18442363560951
 30
0.0
 40
3.9999962
 50
90.000003000000945
 51
270.0
  0
LINE
  5
320D
  8
AM_0
 10
350.95507956004519
 20
454.68448363560952
 30
0.0
 11
352.9550495600451
 21
454.68448363560952
 31
0.0
  0
LINE
  5
320E
  8
AM_0
 10
360.95507956004519
 20
471.18442363560951
 30
0.0
 11
360.95507956004519
 21
463.1844536356096
 31
0.0
  0
LINE
  5
320F
  8
AM_0
 10
316.97869956004519
 20
538.99682363560964
 30
0.0
 11
285.95507956004519
 21
538.18445363560954
 31
0.0
  0
LINE
  5
3210
  8
AM_0
 10
248.9551095600452
 20
504.33447363560958
 30
0.0
 11
278.95510956004517
 21
504.33447363560958
 31
0.0
  0
LINE
  5
3211
  8
AM_0
 10
248.9551095600452
 20
519.22449363560975
 30
0.0
 11
278.95510956004517
 21
519.22449363560975
 31
0.0
  0
LINE
  5
3212
  8
AM_0
 10
274.19490956004518
 20
531.34540363560961
 30
0.0
 11
248.9551395600453
 21
530.68448363560969
 31
0.0
  0
ARC
  5
3213
  8
AM_0
 10
275.95507956004531
 20
530.39575363560959
 30
0.0
 40
2.0
 50
90.000003000000945
 51
180.00001000000091
  0
ARC
  5
3214
  8
AM_0
 10
271.95507956004519
 20
521.22449363560975
 30
0.0
 40
2.0
 50
270.0
 51
0.0
  0
LINE
  5
3215
  8
AM_0
 10
273.95507956004531
 20
530.39575363560959
 30
0.0
 11
273.95507956004531
 21
521.22449363560975
 31
0.0
  0
ARC
  5
3216
  8
AM_0
 10
276.95510956004517
 20
534.39575363560959
 30
0.0
 40
2.0
 50
270.0
 51
0.0
  0
ARC
  5
3217
  8
AM_0
 10
280.95510956004517
 20
536.05282363560946
 30
0.0
 40
2.0
 50
91.500001000001546
 51
180.00001000000091
  0
LINE
  5
3218
  8
AM_0
 10
275.95507956004531
 20
532.39575363560971
 30
0.0
 11
276.95510956004517
 21
532.39575363560971
 31
0.0
  0
LINE
  5
3219
  8
AM_0
 10
285.95507956004519
 20
538.18445363560954
 30
0.0
 11
280.90276956004521
 21
538.05215363560967
 31
0.0
  0
ARC
  5
321A
  8
AM_0
 10
337.95510956004517
 20
549.90384363560975
 30
0.0
 40
2.0
 50
91.999998000000545
 51
180.00001000000091
  0
LINE
  5
321B
  8
AM_0
 10
335.95507956004519
 20
509.13611363560972
 30
0.0
 11
335.95507956004519
 21
549.90384363560975
 31
0.0
  0
ARC
  5
321C
  8
AM_0
 10
338.95507956004519
 20
509.13611363560972
 30
0.0
 40
3.0
 50
179.9999899999988
 51
270.0
  0
ARC
  5
321D
  8
AM_0
 10
318.95507956004519
 20
513.88257363560945
 30
0.0
 40
1.0
 50
90.000003000000945
 51
180.00001000000091
  0
ARC
  5
321E
  8
AM_0
 10
322.95507956004519
 20
517.31238363560965
 30
0.0
 40
5.0
 50
120.5682899999989
 51
180.00001000000091
  0
ARC
  5
321F
  8
AM_0
 10
322.95507956004519
 20
513.8281236356097
 30
0.0
 40
5.0
 50
120.5682899999989
 51
180.00001000000091
  0
ARC
  5
3220
  8
AM_0
 10
320.95507956004519
 20
537.57342363560974
 30
0.0
 40
3.0
 50
91.500001000001546
 51
180.00001000000091
  0
ARC
  5
3221
  8
AM_0
 10
316.90014956004512
 20
541.99579363560974
 30
0.0
 40
3.0
 50
271.49999999999932
 51
312.51811999999887
  0
ARC
  5
3222
  8
AM_0
 10
330.95507956004519
 20
533.65167363560965
 30
0.0
 40
5.0
 50
300.56828999999891
 51
0.0
  0
LINE
  5
3223
  8
AM_0
 10
333.4979195600452
 20
529.34653363560972
 30
0.0
 11
320.41225956004507
 21
521.61746363560974
 31
0.0
  0
LINE
  5
3224
  8
AM_0
 10
333.4979195600452
 20
525.86230363560946
 30
0.0
 11
320.41225956004507
 21
518.13324363560969
 31
0.0
  0
LINE
  5
3225
  8
AM_0
 10
318.95507956004519
 20
514.88257363560979
 30
0.0
 11
333.95507956004519
 21
514.88257363560979
 31
0.0
  0
ARC
  5
3226
  8
AM_0
 10
333.95507956004519
 20
516.88257363560956
 30
0.0
 40
2.0
 50
270.0
 51
0.0
  0
ARC
  5
3227
  8
AM_0
 10
330.95507956004519
 20
530.16742363560979
 30
0.0
 40
5.0
 50
300.56828999999891
 51
0.0
  0
LINE
  5
3228
  8
AM_0
 10
320.87655956004522
 20
540.57242363560965
 30
0.0
 11
333.03359956004522
 21
540.89075363560971
 31
0.0
  0
ARC
  5
3229
  8
AM_0
 10
336.95507956004519
 20
533.96579363560954
 30
0.0
 40
3.0
 50
0.0
 51
90.000003000000945
  0
ARC
  5
322A
  8
AM_0
 10
332.95507956004519
 20
543.88971363560961
 30
0.0
 40
3.0
 50
271.49999999999932
 51
0.0
  0
LINE
  5
322B
  8
AM_0
 10
352.9550495600451
 20
479.18445363560949
 30
0.0
 11
392.95507956004519
 21
479.18445363560949
 31
0.0
  0
LINE
  5
322C
  8
AM_0
 10
350.95507956004519
 20
479.68442363560951
 30
0.0
 11
352.9550495600451
 21
479.68442363560951
 31
0.0
  0
ARC
  5
322D
  8
AM_0
 10
349.95507956004519
 20
492.71875363560969
 30
0.0
 40
1.0
 50
0.0
 51
87.999999999999659
  0
LINE
  5
322E
  8
AM_0
 10
349.95513956004521
 20
493.71936363560968
 30
0.0
 11
349.98998956004522
 21
493.71814363560952
 31
0.0
  0
LINE
  5
322F
  8
AM_0
 10
345.95507956004519
 20
537.18445363560954
 30
0.0
 11
349.95510956004512
 21
537.18445363560954
 31
0.0
  0
LINE
  5
3230
  8
AM_0
 10
337.88524956004522
 20
551.90268363560972
 30
0.0
 11
345.95507956004519
 21
552.18448363560969
 31
0.0
  0
ARC
  5
3231
  8
ﾁｭｳｼﾝｾﾝ1
 10
558.20368222796105
 20
243.74733435478191
 30
0.0
 40
100.0000109999999
 50
307.75737500000002
 51
322.63991600000008
  0
LINE
  5
3232
  8
ﾁｭｳｼﾝｾﾝ1
 10
635.91325438559375
 20
166.03772955069411
 30
0.0
 11
621.36238910576253
 21
180.5886179842864
 31
0.0
  0
ARC
  5
3233
  8
ﾁｭｳｼﾝｾﾝ1
 10
558.20368222796105
 20
243.74733435478191
 30
0.0
 40
100.0000109999999
 50
127.7573799999998
 51
142.6399199999999
  0
LINE
  5
3234
  8
ﾁｭｳｼﾝｾﾝ1
 10
480.73825837835892
 20
321.2127750814206
 30
0.0
 11
495.17758425686623
 21
306.77342388776032
 31
0.0
  0
TEXT
  5
3411
  8
AM_0
 10
454.62822147018841
 20
480.2374547079101
 30
0.0
 40
10.0
  1
VX04-015GF~VX04-030GF
  0
ENDSEC
  0
EOF
