  0
SECTION
  2
HEADER
  9
$ACADVER
  1
AC1009
  9
$INSBASE
 10
0.0
 20
0.0
 30
0.0
  9
$EXTMIN
 10
144.01249910310429
 20
145.94645711433961
 30
-0.0000000000112498
  9
$EXTMAX
 10
660.38937554169615
 20
562.25597570815239
 30
0.0000000000002956
  9
$LIMMIN
 10
0.0
 20
0.0
  9
$LIMMAX
 10
853.5
 20
555.00000000000011
  9
$ORTHOMODE
 70
     0
  9
$REGENMODE
 70
     1
  9
$FILLMODE
 70
     1
  9
$QTEXTMODE
 70
     0
  9
$MIRRTEXT
 70
     1
  9
$DRAGMODE
 70
     2
  9
$LTSCALE
 40
3.0
  9
$OSMODE
 70
   551
  9
$ATTMODE
 70
     1
  9
$TEXTSIZE
 40
2.5
  9
$TRACEWID
 40
1.0
  9
$TEXTSTYLE
  7
STANDARD
  9
$CLAYER
  8
AM_0
  9
$CELTYPE
  6
BYLAYER
  9
$CECOLOR
 62
   256
  9
$DIMSCALE
 40
1.0
  9
$DIMASZ
 40
2.5
  9
$DIMEXO
 40
1.0
  9
$DIMDLI
 40
8.0
  9
$DIMRND
 40
0.0
  9
$DIMDLE
 40
0.0
  9
$DIMEXE
 40
0.6
  9
$DIMTP
 40
0.1
  9
$DIMTM
 40
0.1
  9
$DIMTXT
 40
2.5
  9
$DIMCEN
 40
0.0
  9
$DIMTSZ
 40
0.0
  9
$DIMTOL
 70
     0
  9
$DIMLIM
 70
     0
  9
$DIMTIH
 70
     0
  9
$DIMTOH
 70
     0
  9
$DIMSE1
 70
     0
  9
$DIMSE2
 70
     0
  9
$DIMTAD
 70
     1
  9
$DIMZIN
 70
     8
  9
$DIMBLK
  1

  9
$DIMASO
 70
     1
  9
$DIMSHO
 70
     1
  9
$DIMPOST
  1

  9
$DIMAPOST
  1
"
  9
$DIMALT
 70
     0
  9
$DIMALTD
 70
     2
  9
$DIMALTF
 40
0.0393701
  9
$DIMLFAC
 40
1.0
  9
$DIMTOFL
 70
     1
  9
$DIMTVP
 40
0.0
  9
$DIMTIX
 70
     0
  9
$DIMSOXD
 70
     0
  9
$DIMSAH
 70
     0
  9
$DIMBLK1
  1

  9
$DIMBLK2
  1

  9
$DIMSTYLE
  2
AM_ISO
  9
$DIMCLRD
 70
   256
  9
$DIMCLRE
 70
   256
  9
$DIMCLRT
 70
     4
  9
$DIMTFAC
 40
0.71
  9
$DIMGAP
 40
0.8
  9
$LUNITS
 70
     2
  9
$LUPREC
 70
     2
  9
$SKETCHINC
 40
1.0
  9
$FILLETRAD
 40
15.0
  9
$AUNITS
 70
     0
  9
$AUPREC
 70
     0
  9
$MENU
  1
.
  9
$ELEVATION
 40
0.0
  9
$PELEVATION
 40
0.0
  9
$THICKNESS
 40
0.0
  9
$LIMCHECK
 70
     0
  9
$BLIPMODE
 70
     0
  9
$CHAMFERA
 40
6.0
  9
$CHAMFERB
 40
3.0
  9
$SKPOLY
 70
     0
  9
$TDCREATE
 40
2452066.3815903468
  9
$TDUPDATE
 40
2458541.441196702
  9
$TDINDWG
 40
0.068994838
  9
$TDUSRTIMER
 40
0.0689946412
  9
$USRTIMER
 70
     1
  9
$ANGBASE
 50
0.0
  9
$ANGDIR
 70
     0
  9
$PDMODE
 70
     0
  9
$PDSIZE
 40
0.0
  9
$PLINEWID
 40
0.0
  9
$COORDS
 70
     1
  9
$SPLFRAME
 70
     0
  9
$SPLINETYPE
 70
     6
  9
$SPLINESEGS
 70
     8
  9
$ATTDIA
 70
     1
  9
$ATTREQ
 70
     1
  9
$HANDLING
 70
     1
  9
$HANDSEED
  5
2EB2
  9
$SURFTAB1
 70
     6
  9
$SURFTAB2
 70
     6
  9
$SURFTYPE
 70
     6
  9
$SURFU
 70
     6
  9
$SURFV
 70
     6
  9
$UCSNAME
  2

  9
$UCSORG
 10
0.0
 20
0.0
 30
0.0
  9
$UCSXDIR
 10
1.0
 20
0.0
 30
0.0
  9
$UCSYDIR
 10
0.0
 20
1.0
 30
0.0
  9
$PUCSNAME
  2

  9
$PUCSORG
 10
0.0
 20
0.0
 30
0.0
  9
$PUCSXDIR
 10
1.0
 20
0.0
 30
0.0
  9
$PUCSYDIR
 10
0.0
 20
1.0
 30
0.0
  9
$USERI1
 70
     0
  9
$USERI2
 70
     0
  9
$USERI3
 70
     0
  9
$USERI4
 70
     0
  9
$USERI5
 70
     0
  9
$USERR1
 40
0.0
  9
$USERR2
 40
0.0
  9
$USERR3
 40
0.0
  9
$USERR4
 40
0.0
  9
$USERR5
 40
0.0
  9
$WORLDVIEW
 70
     1
  9
$SHADEDGE
 70
     3
  9
$SHADEDIF
 70
    70
  9
$TILEMODE
 70
     1
  9
$MAXACTVP
 70
    64
  9
$PLIMCHECK
 70
     0
  9
$PEXTMIN
 10
1.0000000000000000E+020
 20
1.0000000000000000E+020
 30
1.0000000000000000E+020
  9
$PEXTMAX
 10
-1.0000000000000000E+020
 20
-1.0000000000000000E+020
 30
-1.0000000000000000E+020
  9
$PLIMMIN
 10
0.0
 20
0.0
  9
$PLIMMAX
 10
420.0
 20
297.0
  9
$UNITMODE
 70
     0
  9
$VISRETAIN
 70
     1
  9
$PLINEGEN
 70
     0
  9
$PSLTSCALE
 70
     1
  0
ENDSEC
  0
SECTION
  2
TABLES
  0
TABLE
  2
VPORT
 70
     1
  0
VPORT
  2
*ACTIVE
 70
     0
 10
0.0
 20
0.0
 11
1.0
 21
1.0
 12
402.20093732240031
 22
354.10121641124601
 13
0.0
 23
0.0
 14
7.5
 24
7.5
 15
30.0
 25
30.0
 16
0.0
 26
0.0
 36
1.0
 17
0.0
 27
0.0
 37
0.0
 40
419.16747867569251
 41
1.7571592210767459
 42
50.0
 43
0.0
 44
0.0
 50
0.0
 51
0.0
 71
     0
 72
   100
 73
     1
 74
     3
 75
     0
 76
     0
 77
     0
 78
     0
  0
ENDTAB
  0
TABLE
  2
LTYPE
 70
    25
  0
LTYPE
  2
CONTINUOUS
 70
     0
  3
Solid line
 72
    65
 73
     0
 40
0.0
  0
LTYPE
  2
AM_ISO02W050
 70
     0
  3
__ __ __ __ __ __ __ __ __ __ __ __ __ __ __
 72
    65
 73
     2
 40
7.5
 49
6.0
 49
-1.5
  0
LTYPE
  2
AM_ISO08W050
 70
     0
  3
____ . ____ . ____ . ____ . ____ . ____ . ____
 72
    65
 73
     4
 40
18.0
 49
12.0
 49
-1.5
 49
3.0
 49
-1.5
  0
LTYPE
  2
AM_ISO09W050
 70
     0
  3
_____ . . _____ . . _____ . . ____ .. ____
 72
    65
 73
     6
 40
22.5
 49
12.0
 49
-1.5
 49
3.0
 49
-1.5
 49
3.0
 49
-1.5
  0
LTYPE
  2
AMCONSTR
 70
     0
  3
_______________________
 72
    65
 73
     2
 40
9999.0
 49
9999.0
 49
0.0
  0
LTYPE
  2
AM_ISO08W050X2
 70
     0
  3
__ . __ . __ . __ . __ . __
 72
    65
 73
     4
 40
9.0
 49
6.0
 49
-0.75
 49
1.5
 49
-0.75
  0
LTYPE
  2
AM_ISO02W050X2
 70
     0
  3
 _ _ _ _ _ _ _ _ _ _ _ _
 72
    65
 73
     2
 40
3.75
 49
3.0
 49
-0.75
  0
LTYPE
  2
AMZIGZAG
 70
     0
  3
/\/-/\/-/\/-/\/-/\/-/\/
 72
    65
 73
     2
 40
11.000099999999991
 49
0.0001
 49
-11.0
  0
LTYPE
  2
ACISOWELD
 70
     0
  3
_ _ _ _ _
 72
    65
 73
     2
 40
2.0
 49
2.0
 49
-1.0
  0
LTYPE
  2
ACISOTGB
 70
     0
  3
__ . . __ . .
 72
    65
 73
     6
 40
9.0
 49
4.0
 49
-1.0
 49
1.0
 49
-1.0
 49
1.0
 49
-1.0
  0
LTYPE
  2
ACISOTGL
 70
     0
  3
_ _ _ _ _
 72
    65
 73
     2
 40
3.0
 49
2.0
 49
-1.0
  0
LTYPE
  2
CENTER
 70
     0
  3
__ . __
 72
    65
 73
     4
 40
7.0
 49
4.0
 49
-1.0
 49
1.0
 49
-1.0
  0
LTYPE
  2
PHANTOM2
 70
     0
  3
Phantom (.5x) ___ _ _ ___ _ _ ___ _ _ ___ _ _
 72
    65
 73
     6
 40
31.75
 49
15.875
 49
-3.174999999999998
 49
3.174999999999998
 49
-3.174999999999998
 49
3.174999999999998
 49
-3.174999999999998
  0
LTYPE
  2
ACANSTGBM
 70
     0
  3
__ . . __ . .
 72
    65
 73
     6
 40
9.0
 49
4.0
 49
-1.0
 49
1.0
 49
-1.0
 49
1.0
 49
-1.0
  0
LTYPE
  2
ACANSTGLM
 70
     0
  3
_ _ _ _ _
 72
    65
 73
     2
 40
3.0
 49
2.0
 49
-1.0
  0
LTYPE
  2
GEN7A
 70
     0
  3
__ . __ . __
 72
    65
 73
     4
 40
7.375
 49
4.75
 49
-0.875
 49
0.875
 49
-0.875
  0
LTYPE
  2
ACJISTGB
 70
     0
  3
__ . . __ . .
 72
    65
 73
     6
 40
9.0
 49
4.0
 49
-1.0
 49
1.0
 49
-1.0
 49
1.0
 49
-1.0
  0
LTYPE
  2
ACJISTGL
 70
     0
  3
_ _ _ _ _
 72
    65
 73
     2
 40
3.0
 49
2.0
 49
-1.0
  0
LTYPE
  2
HIDDEN
 70
     0
  3
Hidden __ __ __ __ __ __ __ __ __ __ __ __ __ _
 72
    65
 73
     2
 40
0.375
 49
0.25
 49
-0.125
  0
LTYPE
  2
CENTER2
 70
     0
  3
Center (.5x) ___ _ ___ _ ___ _ ___ _ ___ _ ___
 72
    65
 73
     4
 40
1.125
 49
0.75
 49
-0.125
 49
0.125
 49
-0.125
  0
LTYPE
  2
HIDDEN2
 70
     0
  3
Hidden (.5x) _ _ _ _ _ _ _ _ _ _ _ _ _ _ _ _ _
 72
    65
 73
     2
 40
0.1875
 49
0.125
 49
-0.0625
  0
LTYPE
  2
AMZIGZAG2
 70
     0
  3
/\/-/\/-/\/-/\/-/\/-/\/
 72
    65
 73
     2
 40
0.4401
 49
0.0001
 49
-0.4400000000000002
  0
LTYPE
  2
ACANSTGB
 70
     0
  3
__ . . __ . .
 72
    65
 73
     6
 40
0.35433070866
 49
0.15748031496
 49
-0.03937007874
 49
0.03937007874
 49
-0.03937007874
 49
0.03937007874
 49
-0.03937007874
  0
LTYPE
  2
ACANSTGL
 70
     0
  3
_ _ _ _ _
 72
    65
 73
     2
 40
0.11811023622
 49
0.07874015748
 49
-0.03937007874
  0
ENDTAB
  0
TABLE
  2
LAYER
 70
     5
  0
LAYER
  2
0
 70
     0
 62
     7
  6
CONTINUOUS
  0
LAYER
  2
AM_0
 70
     0
 62
     7
  6
CONTINUOUS
  0
LAYER
  2
AM_5
 70
     0
 62
     2
  6
CONTINUOUS
  0
LAYER
  2
DEFPOINTS
 70
     0
 62
     7
  6
CONTINUOUS
  0
LAYER
  2
ﾁｭｳｼﾝｾﾝ1
 70
     0
 62
     1
  6
GEN7A
  0
ENDTAB
  0
TABLE
  2
STYLE
 70
     9
  0
STYLE
  2
STANDARD
 70
     0
 40
0.0
 41
0.8299999999999999
 50
0.0
 71
     0
 42
2.5
  3
txt.shx
  4
bigfont.shx
  0
STYLE
  2
ANNOTATIVE
 70
     0
 40
0.0
 41
1.0
 50
0.0
 71
     0
 42
0.2
  3
txt
  4

  0
STYLE
  2

 70
     1
 40
0.0
 41
1.0
 50
0.0
 71
     0
 42
2.5
  3
ltypeshp.shx
  4

  0
STYLE
  2
ACISOTS
 70
     0
 40
1.0
 41
1.0
 50
0.0
 71
     0
 42
2.5
  3
isocp.shx
  4
extfont.shx
  0
STYLE
  2
ACISOGDT
 70
     0
 40
0.0
 41
1.0
 50
0.0
 71
     0
 42
2.5
  3
amgdt.shx
  4

  0
STYLE
  2
ACANSTS
 70
     0
 40
1.0
 41
1.0
 50
0.0
 71
     0
 42
2.5
  3
romans.shx
  4
bigfont.shx
  0
STYLE
  2
ACANSGDT
 70
     0
 40
0.0
 41
1.0
 50
0.0
 71
     0
 42
2.5
  3
amgdt.shx
  4

  0
STYLE
  2
ACJISTS
 70
     0
 40
1.0
 41
1.0
 50
0.0
 71
     0
 42
2.5
  3
isocp.shx
  4
bigfont.shx
  0
STYLE
  2
ACJISGDT
 70
     0
 40
0.0
 41
1.0
 50
0.0
 71
     0
 42
2.5
  3
amgdt.shx
  4

  0
ENDTAB
  0
TABLE
  2
VIEW
 70
     6
  0
VIEW
  2
AM_VIEW1
 70
     0
 40
277.49999999999989
 10
249.64779005524849
 20
416.24999999999989
 41
499.2955801104971
 11
0.0
 21
0.0
 31
1.0
 12
0.0
 22
0.0
 32
0.0
 42
50.0
 43
0.0
 44
0.0
 50
0.0
 71
     0
  0
VIEW
  2
AM_VIEW2
 70
     0
 40
277.49999999999989
 10
603.85220994475117
 20
416.24999999999989
 41
499.2955801104971
 11
0.0
 21
0.0
 31
1.0
 12
0.0
 22
0.0
 32
0.0
 42
50.0
 43
0.0
 44
0.0
 50
0.0
 71
     0
  0
VIEW
  2
AM_VIEW3
 70
     0
 40
277.49999999999989
 10
249.64779005524849
 20
138.7499999999998
 41
499.2955801104971
 11
0.0
 21
0.0
 31
1.0
 12
0.0
 22
0.0
 32
0.0
 42
50.0
 43
0.0
 44
0.0
 50
0.0
 71
     0
  0
VIEW
  2
AM_VIEW4
 70
     0
 40
277.49999999999989
 10
603.85220994475117
 20
138.7499999999998
 41
499.2955801104971
 11
0.0
 21
0.0
 31
1.0
 12
0.0
 22
0.0
 32
0.0
 42
50.0
 43
0.0
 44
0.0
 50
0.0
 71
     0
  0
VIEW
  2
AM_VIEW5
 70
     0
 40
277.5
 10
426.75
 20
277.49999999999989
 41
499.2955801104971
 11
0.0
 21
0.0
 31
1.0
 12
0.0
 22
0.0
 32
0.0
 42
50.0
 43
0.0
 44
0.0
 50
0.0
 71
     0
  0
VIEW
  2
AM_VIEW6
 70
     0
 40
554.99445000000014
 10
426.75
 20
277.49999999999989
 41
998.5811743093924
 11
0.0
 21
0.0
 31
1.0
 12
0.0
 22
0.0
 32
0.0
 42
50.0
 43
0.0
 44
0.0
 50
0.0
 71
     0
  0
ENDTAB
  0
TABLE
  2
UCS
 70
     0
  0
ENDTAB
  0
TABLE
  2
APPID
 70
    95
  0
APPID
  2
ACAD
 70
     0
  0
APPID
  2
ACADANNOTATIVE
 70
     0
  0
APPID
  2
MCAD_NO_VIS
 70
     0
  0
APPID
  2
ACAD_TEMP_GRAPHIC
 70
     0
  0
APPID
  2
ACATTRIBSERVICES
 70
     0
  0
APPID
  2
GENIUS_GENREC_14
 70
     0
  0
APPID
  2
GENIUS_GENOBJ-N-REC_13
 70
     0
  0
APPID
  2
GENIUS_GENODEF_13
 70
     0
  0
APPID
  2
GENIUS_GENOLIS_13
 70
     0
  0
APPID
  2
GENIUS_GENOBJ-N-TIT_13
 70
     0
  0
APPID
  2
GENIUS_GENOENT_13
 70
     0
  0
APPID
  2
GENIUS_GENTITLE_13
 70
     0
  0
APPID
  2
GENIUS_GENOREF_13
 70
     0
  0
APPID
  2
GENIUS_GENSCREG_15
 70
     0
  0
APPID
  2
GENIUS_GENOBJ-N-SDF_13
 70
     0
  0
APPID
  2
GENIUS_GENFIL_13
 70
     0
  0
APPID
  2
GENIUS_GENOBJ-N-CHA_13
 70
     0
  0
APPID
  2
GENIUS_GENDTOL_13
 70
     0
  0
APPID
  2
GENIUS_GENOBJ-N-FIL_13
 70
     0
  0
APPID
  2
AD_DRAW
 70
     0
  0
APPID
  2
DESIGNERASSEMBLIES
 70
     0
  0
APPID
  2
ASURF_PCURVE_APPNAME
 70
     0
  0
APPID
  2
GENIUS_GE3SECT_13
 70
     0
  0
APPID
  2
GENIUS_GENCFG_13
 70
     0
  0
APPID
  2
GENIUS_GE3CFG0_13
 70
     0
  0
APPID
  2
GENIUS_GENCFG0_13
 70
     0
  0
APPID
  2
GENIUS_GENCFG1_13
 70
     0
  0
APPID
  2
GENIUS_GENCFG2_13
 70
     0
  0
APPID
  2
GENIUS_GENCFG3_13
 70
     0
  0
APPID
  2
GENIUS_GENCFG4_13
 70
     0
  0
APPID
  2
GENIUS_GEVCFG0_13
 70
     0
  0
APPID
  2
GENIUS_GENHINW_13
 70
     0
  0
APPID
  2
GENIUS_FIRSTVISTXT_14
 70
     0
  0
APPID
  2
GENIUS_GENOBJ-N-LEADER_13
 70
     0
  0
APPID
  2
GEV_VCCNULL_SWITCH_OFF
 70
     0
  0
APPID
  2
GENIUS_GEFCFG0_13
 70
     0
  0
APPID
  2
GENIUS_GENZVEED_13
 70
     0
  0
APPID
  2
GENIUS_GENSCREG_13
 70
     0
  0
APPID
  2
GENIUS_DUMCFG0_13
 70
     0
  0
APPID
  2
GEVID936201362
 70
     0
  0
APPID
  2
GEVDC
 70
     0
  0
APPID
  2
GEVCON
 70
     0
  0
APPID
  2
VCC
 70
     0
  0
APPID
  2
GEVPT
 70
     0
  0
APPID
  2
GEVIT
 70
     0
  0
APPID
  2
GENBH
 70
     0
  0
APPID
  2
GEVMK
 70
     0
  0
APPID
  2
GENIUS_GENBH_13
 70
     0
  0
APPID
  2
GENIUS_GENOBJ-NBEHI-BHF_13
 70
     0
  0
APPID
  2
GENIUS_GENOBJ-NBEHI-BHB_13
 70
     0
  0
APPID
  2
GENIUS_GENOBJ-F-DESC_13
 70
     0
  0
APPID
  2
GENIUS_GEFDESC_14
 70
     0
  0
APPID
  2
GENIUS_GENOBJ-F-PART_13
 70
     0
  0
APPID
  2
GENIUS_GEFSTDP_13
 70
     0
  0
APPID
  2
GENIUS_GEFPARTINS_13
 70
     0
  0
APPID
  2
GENIUS_GENTRA_14
 70
     0
  0
APPID
  2
GENIUS_GENINF13_13
 70
     0
  0
APPID
  2
GENIUS_GENOBJ-N-INFOPT_13
 70
     0
  0
APPID
  2
GENIUS_GENOBJ-N-RSSYM_13
 70
     0
  0
APPID
  2
GENIUS_GENSYMENT_13
 70
     0
  0
APPID
  2
GENIUS_GENSCSYM_13
 70
     0
  0
APPID
  2
GENIUS_GEFINFNAM_13
 70
     0
  0
APPID
  2
GENIUS_GENOBJ-N-CEN_13
 70
     0
  0
APPID
  2
GENIUS_GENOBJ-N-CRS_13
 70
     0
  0
APPID
  2
GENIUS_GENOBJ-N-CRC_13
 70
     0
  0
APPID
  2
GENIUS_GENCRC_14
 70
     0
  0
APPID
  2
GEVID942827039
 70
     0
  0
APPID
  2
GEVID942827040
 70
     0
  0
APPID
  2
GEVID942827041
 70
     0
  0
APPID
  2
GENIUS_GENOBJ-F-SCPASSM_13
 70
     0
  0
APPID
  2
GENIUS_GENDIMSH_14
 70
     0
  0
APPID
  2
GEVID942827042
 70
     0
  0
APPID
  2
GEVID946020473
 70
     0
  0
APPID
  2
GEVID946020474
 70
     0
  0
APPID
  2
GEVID946020475
 70
     0
  0
APPID
  2
GENIUS_GENOBJ-N-HTC_13
 70
     0
  0
APPID
  2
GENIUS_GENHATCH_13
 70
     0
  0
APPID
  2
GEVID948854295
 70
     0
  0
APPID
  2
GEVID939402019
 70
     0
  0
APPID
  2
GEVID952919491
 70
     0
  0
APPID
  2
GEVID952919492
 70
     0
  0
APPID
  2
GENIUS_GEFWELD_13
 70
     0
  0
APPID
  2
GENIUS_GENOBJ-F-WELS_13
 70
     0
  0
APPID
  2
GEVID952919493
 70
     0
  0
APPID
  2
GENIUS_GENOBJ-N-RSBK_13
 70
     0
  0
APPID
  2
GENIUS_GENOBJ-N-LIB_13
 70
     0
  0
APPID
  2
GENIUS_GENSCALE_13
 70
     0
  0
APPID
  2
GEVID986376691
 70
     0
  0
APPID
  2
DCO15
 70
     0
  0
APPID
  2
ACAD_DSTYLE_DIMBREAK
 70
     0
  0
APPID
  2
ACAD_DSTYLE_DIMJAG
 70
     0
  0
APPID
  2
ACAD_NAV_VCDISPLAY
 70
     0
  0
APPID
  2
ACADANNOPO
 70
     0
  0
APPID
  2
ACAD_EXEMPT_FROM_CAD_STANDARDS
 70
     0
  0
APPID
  2
ACAD_MLEADERVER
 70
     0
  0
ENDTAB
  0
TABLE
  2
DIMSTYLE
 70
    22
  0
DIMSTYLE
  2
STANDARD
 70
     0
  3

  4

  5

  6

  7

 40
1.0
 41
0.18
 42
0.0625
 43
0.38
 44
0.18
 45
0.0
 46
0.0
 47
0.0
 48
0.0
140
0.18
141
0.09
142
0.0
143
25.399999999999999
144
1.0
145
0.0
146
1.0
147
0.09
 71
     0
 72
     0
 73
     1
 74
     1
 75
     0
 76
     0
 77
     0
 78
     0
170
     0
171
     2
172
     0
173
     0
174
     0
175
     0
176
     0
177
     0
178
     0
  0
DIMSTYLE
  2
ANNOTATIVE
 70
     0
  3

  4

  5

  6

  7

 40
1.0
 41
0.18
 42
0.0625
 43
0.38
 44
0.18
 45
0.0
 46
0.0
 47
0.0
 48
0.0
140
0.18
141
0.09
142
0.0
143
25.399999999999999
144
1.0
145
0.0
146
1.0
147
0.09
 71
     0
 72
     0
 73
     1
 74
     1
 75
     0
 76
     0
 77
     0
 78
     0
170
     0
171
     2
172
     0
173
     0
174
     0
175
     0
176
     0
177
     0
178
     0
  0
DIMSTYLE
  2
AM_ISO
 70
     0
  3

  4
"
  5

  6

  7

 40
1.0
 41
2.5
 42
1.0
 43
8.0
 44
0.6
 45
0.0
 46
0.0
 47
0.1
 48
0.1
140
2.5
141
0.0
142
0.0
143
0.0393701
144
1.0
145
0.0
146
0.71
147
0.8
 71
     0
 72
     0
 73
     0
 74
     0
 75
     0
 76
     0
 77
     1
 78
     8
170
     0
171
     2
172
     1
173
     0
174
     0
175
     0
176
   256
177
   256
178
     4
  0
DIMSTYLE
  2
AM_ISO$3
 70
     0
  3

  4
"
  5

  6

  7

 40
1.0
 41
2.5
 42
1.0
 43
8.0
 44
0.6
 45
0.0
 46
0.0
 47
0.1
 48
0.1
140
2.5
141
0.0
142
0.0
143
0.0393701
144
1.0
145
0.0
146
0.71
147
0.8
 71
     0
 72
     0
 73
     0
 74
     1
 75
     0
 76
     0
 77
     1
 78
     8
170
     0
171
     2
172
     0
173
     0
174
     0
175
     0
176
   256
177
   256
178
     4
  0
DIMSTYLE
  2
AM_ISO$4
 70
     0
  3

  4
"
  5

  6

  7

 40
1.0
 41
2.5
 42
1.0
 43
8.0
 44
0.6
 45
0.0
 46
0.0
 47
0.1
 48
0.1
140
2.5
141
0.0
142
0.0
143
0.0393701
144
1.0
145
0.0
146
0.71
147
0.8
 71
     0
 72
     0
 73
     0
 74
     1
 75
     0
 76
     0
 77
     1
 78
     8
170
     0
171
     2
172
     0
173
     0
174
     0
175
     0
176
   256
177
   256
178
     4
  0
DIMSTYLE
  2
AM_ISO$6
 70
     0
  3

  4
"
  5

  6

  7

 40
1.0
 41
2.5
 42
1.0
 43
8.0
 44
0.6
 45
0.0
 46
0.0
 47
0.1
 48
0.1
140
2.5
141
0.0
142
0.0
143
0.0393701
144
1.0
145
0.0
146
0.71
147
0.8
 71
     0
 72
     0
 73
     0
 74
     0
 75
     0
 76
     0
 77
     0
 78
     8
170
     0
171
     2
172
     1
173
     0
174
     0
175
     0
176
   256
177
   256
178
     4
  0
DIMSTYLE
  2
AM_ISO$7
 70
     0
  3

  4
"
  5

  6

  7

 40
1.0
 41
2.5
 42
1.0
 43
8.0
 44
0.6
 45
0.0
 46
0.0
 47
0.1
 48
0.1
140
2.5
141
0.0
142
0.0
143
0.0393701
144
1.0
145
0.0
146
0.71
147
0.8
 71
     0
 72
     0
 73
     0
 74
     0
 75
     0
 76
     0
 77
     1
 78
     8
170
     0
171
     2
172
     1
173
     0
174
     0
175
     0
176
   256
177
   256
178
     4
  0
DIMSTYLE
  2
AM_ISO$SF
 70
     0
  3

  4
"
  5

  6

  7

 40
1.0
 41
2.5
 42
1.0
 43
10.0
 44
1.0
 45
0.0
 46
0.0
 47
0.1
 48
0.1
140
3.5
141
0.0
142
0.0
143
0.0393701
144
1.0
145
0.0
146
0.71
147
1.5
 71
     0
 72
     0
 73
     0
 74
     0
 75
     1
 76
     1
 77
     1
 78
     8
170
     0
171
     2
172
     1
173
     0
174
     0
175
     0
176
   256
177
   256
178
     2
  0
DIMSTYLE
  2
AM_ISO$SH
 70
     0
  3

  4
"
  5

  6

  7

 40
1.0
 41
2.5
 42
1.0
 43
10.0
 44
1.0
 45
0.0
 46
0.0
 47
0.1
 48
0.1
140
3.5
141
0.0
142
0.0
143
0.0393701
144
2.0
145
0.0
146
0.71
147
1.5
 71
     0
 72
     0
 73
     0
 74
     0
 75
     1
 76
     1
 77
     1
 78
     8
170
     0
171
     2
172
     1
173
     1
174
     0
175
     0
176
   256
177
   256
178
     2
  0
DIMSTYLE
  2
AM_JIS
 70
     0
  3

  4
"
  5

  6

  7

 40
1.0
 41
2.5
 42
1.0
 43
7.0
 44
1.0
 45
0.0
 46
0.0
 47
0.1
 48
0.1000000001
140
2.5
141
0.0
142
0.0
143
0.0393701
144
1.0
145
0.0
146
0.71
147
1.0
 71
     0
 72
     0
 73
     0
 74
     0
 75
     0
 76
     0
 77
     3
 78
     8
170
     0
171
     2
172
     1
173
     0
174
     0
175
     0
176
   256
177
   256
178
     4
  0
DIMSTYLE
  2
AM_JIS$3
 70
     0
  3

  4
"
  5

  6

  7

 40
1.0
 41
2.5
 42
1.0
 43
7.0
 44
1.0
 45
0.0
 46
0.0
 47
0.1
 48
0.1000000001
140
2.5
141
0.0
142
0.0
143
0.0393701
144
1.0
145
0.0
146
0.71
147
1.0
 71
     0
 72
     0
 73
     0
 74
     1
 75
     0
 76
     0
 77
     3
 78
     8
170
     0
171
     2
172
     0
173
     0
174
     0
175
     0
176
   256
177
   256
178
     4
  0
DIMSTYLE
  2
AM_JIS$4
 70
     0
  3

  4
"
  5

  6

  7

 40
1.0
 41
2.5
 42
1.0
 43
7.0
 44
1.0
 45
0.0
 46
0.0
 47
0.1
 48
0.1000000001
140
2.5
141
0.0
142
0.0
143
0.0393701
144
1.0
145
0.0
146
0.71
147
1.0
 71
     0
 72
     0
 73
     0
 74
     0
 75
     0
 76
     0
 77
     3
 78
     8
170
     0
171
     2
172
     0
173
     0
174
     0
175
     0
176
   256
177
   256
178
     4
  0
DIMSTYLE
  2
AM_JIS$6
 70
     0
  3

  4
"
  5

  6

  7

 40
1.0
 41
2.5
 42
1.0
 43
7.0
 44
1.0
 45
0.0
 46
0.0
 47
0.1
 48
0.1000000001
140
2.5
141
0.0
142
0.0
143
0.0393701
144
1.0
145
0.0
146
0.71
147
1.0
 71
     0
 72
     0
 73
     0
 74
     0
 75
     0
 76
     0
 77
     0
 78
     8
170
     0
171
     2
172
     1
173
     0
174
     0
175
     0
176
   256
177
   256
178
     4
  0
DIMSTYLE
  2
AM_JIS$7
 70
     0
  3

  4
"
  5

  6

  7

 40
1.0
 41
2.5
 42
1.0
 43
7.0
 44
1.0
 45
0.0
 46
0.0
 47
0.1
 48
0.1000000001
140
2.5
141
0.0
142
0.0
143
0.0393701
144
1.0
145
0.0
146
0.71
147
1.0
 71
     0
 72
     0
 73
     0
 74
     0
 75
     0
 76
     0
 77
     3
 78
     8
170
     0
171
     2
172
     1
173
     0
174
     0
175
     0
176
   256
177
   256
178
     4
  0
DIMSTYLE
  2
AM_JIS$SF
 70
     0
  3

  4
"
  5

  6

  7

 40
1.0
 41
2.5
 42
1.0
 43
10.0
 44
1.0
 45
0.0
 46
0.0
 47
0.1
 48
0.1
140
3.5
141
0.0
142
0.0
143
0.0393701
144
1.0
145
0.0
146
0.71
147
1.5
 71
     0
 72
     0
 73
     0
 74
     0
 75
     1
 76
     1
 77
     3
 78
     8
170
     0
171
     2
172
     1
173
     0
174
     0
175
     0
176
   256
177
   256
178
     4
  0
DIMSTYLE
  2
AM_JIS$SH
 70
     0
  3

  4
"
  5

  6

  7

 40
1.0
 41
2.5
 42
1.0
 43
10.0
 44
1.0
 45
0.0
 46
0.0
 47
0.1
 48
0.1
140
3.5
141
0.0
142
0.0
143
0.0393701
144
1.0
145
0.0
146
0.71
147
1.5
 71
     0
 72
     0
 73
     0
 74
     0
 75
     1
 76
     0
 77
     3
 78
     8
170
     0
171
     2
172
     1
173
     1
174
     0
175
     0
176
   256
177
   256
178
     4
  0
DIMSTYLE
  2
AM_ANSI
 70
     0
  3

  4
mm
  5

  6

  7

 40
1.0
 41
0.1
 42
0.05
 43
0.5
 44
0.1
 45
0.0
 46
0.0
 47
0.1
 48
0.1
140
0.12
141
0.0
142
0.0
143
25.399999999999999
144
1.0
145
0.0
146
0.71
147
0.06
 71
     0
 72
     0
 73
     1
 74
     1
 75
     0
 76
     0
 77
     0
 78
     7
170
     0
171
     2
172
     0
173
     0
174
     0
175
     0
176
   256
177
   256
178
     2
  0
DIMSTYLE
  2
AM_ANSI$3
 70
     0
  3

  4
mm
  5

  6

  7

 40
1.0
 41
0.1
 42
0.05
 43
0.5
 44
0.1
 45
0.0
 46
0.0
 47
0.1
 48
0.1
140
0.12
141
0.0
142
0.0
143
25.399999999999999
144
1.0
145
0.0
146
0.71
147
0.06
 71
     0
 72
     0
 73
     1
 74
     1
 75
     0
 76
     0
 77
     0
 78
     7
170
     0
171
     2
172
     0
173
     0
174
     0
175
     0
176
   256
177
   256
178
     2
  0
DIMSTYLE
  2
AM_ANSI$4
 70
     0
  3

  4
mm
  5

  6

  7

 40
1.0
 41
0.1
 42
0.05
 43
0.5
 44
0.1
 45
0.0
 46
0.0
 47
0.1
 48
0.1
140
0.12
141
0.0
142
0.0
143
25.399999999999999
144
1.0
145
0.0
146
0.71
147
0.06
 71
     0
 72
     0
 73
     1
 74
     1
 75
     0
 76
     0
 77
     0
 78
     7
170
     0
171
     2
172
     0
173
     0
174
     0
175
     0
176
   256
177
   256
178
     2
  0
DIMSTYLE
  2
AM_ANSI$7
 70
     0
  3

  4
mm
  5

  6

  7

 40
1.0
 41
0.1
 42
0.05
 43
0.5
 44
0.1
 45
0.0
 46
0.0
 47
0.1
 48
0.1
140
0.24
141
0.0
142
0.0
143
25.399999999999999
144
1.0
145
0.0
146
0.71
147
0.06
 71
     0
 72
     0
 73
     1
 74
     1
 75
     0
 76
     0
 77
     0
 78
     7
170
     0
171
     2
172
     0
173
     0
174
     0
175
     0
176
   256
177
   256
178
     2
  0
DIMSTYLE
  2
AM_ANSI$SF
 70
     0
  3

  4
mm
  5

  6

  7

 40
1.0
 41
0.1
 42
0.05
 43
0.5
 44
0.1
 45
0.0
 46
0.0
 47
0.1
 48
0.1
140
0.12
141
0.0
142
0.0
143
25.399999999999999
144
1.0
145
0.0
146
0.71
147
0.06
 71
     0
 72
     0
 73
     1
 74
     1
 75
     1
 76
     1
 77
     0
 78
     7
170
     0
171
     2
172
     0
173
     0
174
     0
175
     0
176
   256
177
   256
178
     2
  0
DIMSTYLE
  2
AM_ANSI$SH
 70
     0
  3

  4
mm
  5

  6

  7

 40
1.0
 41
0.1
 42
0.05
 43
0.5
 44
0.1
 45
0.0
 46
0.0
 47
0.1
 48
0.1
140
0.12
141
0.0
142
0.0
143
25.399999999999999
144
1.0
145
0.0
146
0.71
147
0.06
 71
     0
 72
     0
 73
     1
 74
     1
 75
     1
 76
     1
 77
     0
 78
     7
170
     0
171
     2
172
     0
173
     1
174
     0
175
     0
176
   256
177
   256
178
     2
  0
ENDTAB
  0
ENDSEC
  0
SECTION
  2
BLOCKS
  0
BLOCK
  8
0
  2
$MODEL_SPACE
 70
     0
 10
0.0
 20
0.0
 30
0.0
  3
$MODEL_SPACE
  1

  0
ENDBLK
  5
2D2A
  8
0
  0
BLOCK
 67
     1
  8
0
  2
$PAPER_SPACE
 70
     0
 10
0.0
 20
0.0
 30
0.0
  3
$PAPER_SPACE
  1

  0
ENDBLK
  5
2D26
 67
     1
  8
0
  0
BLOCK
  8
0
  2
GENAXEH
 70
     0
 10
0.0
 20
0.0
 30
0.0
  3
GENAXEH
  1

  0
LINE
  5
2AD5
  8
0
 10
-1.0
 20
0.0
 30
0.0
 11
1.0
 21
0.0
 31
0.0
  0
ENDBLK
  5
2AD6
  8
0
  0
BLOCK
  8
0
  2
_OPEN30
 70
     0
 10
0.0
 20
0.0
 30
0.0
  3
_OPEN30
  1

  0
LINE
  5
2AD9
  8
0
 62
     0
 10
-1.0
 20
0.26794919
 30
0.0
 11
0.0
 21
0.0
 31
0.0
  0
LINE
  5
2ADA
  8
0
 62
     0
 10
0.0
 20
0.0
 30
0.0
 11
-1.0
 21
-0.26794919
 31
0.0
  0
LINE
  5
2ADB
  8
0
 62
     0
 10
0.0
 20
0.0
 30
0.0
 11
-1.0
 21
0.0
 31
0.0
  0
ENDBLK
  5
2ADC
  8
0
  0
BLOCK
  8
0
  2
_NONE
 70
     0
 10
0.0
 20
0.0
 30
0.0
  3
_NONE
  1

  0
ENDBLK
  5
2ADF
  8
0
  0
BLOCK
  8
0
  2
_ACMFILLEDHALF
 70
     0
 10
0.0
 20
0.0
 30
0.0
  3
_ACMFILLEDHALF
  1

  0
TRACE
  5
2E1E
  8
AM_0
 62
     0
 10
-0.8
 20
0.0
 30
0.0
 11
-1.0
 21
0.166666666
 31
0.0
 12
0.0
 22
0.0
 32
0.0
 13
0.0
 23
0.0
 33
0.0
  0
LINE
  5
2E1F
  8
AM_0
 62
     0
 10
-1.0
 20
0.0
 30
0.0
 11
-0.8
 21
0.0
 31
0.0
  0
ENDBLK
  5
2E1D
  8
0
  0
ENDSEC
  0
SECTION
  2
ENTITIES
  0
LINE
  5
2AE0
  8
AM_0
 10
339.9550695600455
 20
179.46597435478191
 30
0.0
 11
339.9550695600455
 21
310.52867535478202
 31
0.0
  0
LINE
  5
2AE1
  8
AM_0
 10
345.95506956004539
 20
161.2473163547819
 30
0.0
 11
345.95506956004539
 21
328.7473153547819
 31
0.0
  0
LINE
  5
2AE2
  8
AM_0
 10
285.9550695600455
 20
294.74731935478189
 30
0.0
 11
285.9550695600455
 21
150.2473153547819
 31
0.0
  0
LINE
  5
2AE3
  8
AM_0
 10
238.95507956004519
 20
286.74734835478182
 30
0.0
 11
238.95507956004519
 21
160.74734835478179
 31
0.0
  0
LINE
  5
2AE4
  8
AM_0
 10
237.49061346597799
 20
279.78287463132
 30
0.0
 11
211.3840193775743
 21
253.6762805429164
 31
0.0
  0
LINE
  5
2AE5
  8
AM_0
 10
248.95507956004531
 20
287.74734835478182
 30
0.0
 11
248.9550795600455
 21
159.74734835478179
 31
0.0
  0
LINE
  5
2AE6
  8
AM_0
 10
278.95507956004531
 20
292.74735135478193
 30
0.0
 11
278.95507956004531
 21
277.24732035478172
 31
0.0
  0
LINE
  5
2AE7
  8
AM_0
 10
317.95507956004519
 20
307.82132535478189
 30
0.0
 11
317.95507956004519
 21
262.59216735478191
 31
0.0
  0
LINE
  5
2AE8
  8
AM_0
 10
151.45509171939281
 20
215.74734835478191
 30
0.0
 11
179.45509171939281
 21
215.74734835478191
 31
0.0
  0
LINE
  5
2AE9
  8
AM_0
 10
151.45509171939281
 20
231.74734835478191
 30
0.0
 11
179.45509171939281
 21
231.74734835478191
 31
0.0
  0
LINE
  5
2AEA
  8
AM_0
 10
151.45509171939281
 20
233.74734835478191
 30
0.0
 11
173.45509171939281
 21
233.74734835478191
 31
0.0
  0
LINE
  5
2AEB
  8
ﾁｭｳｼﾝｾﾝ1
 10
144.04804328076111
 20
223.74734835478191
 30
0.0
 11
272.90846737080028
 21
223.74734835478191
 31
0.0
  0
LINE
  5
2AEC
  8
AM_0
 10
151.45509171939281
 20
233.74734835478191
 30
0.0
 11
151.45509171939281
 21
215.74734835478191
 31
0.0
  0
LINE
  5
2AED
  8
ﾁｭｳｼﾝｾﾝ1
 10
396.66754956004519
 20
243.74733435478191
 30
0.0
 11
258.02377786972949
 21
243.74733435478191
 31
0.0
  0
LINE
  5
2AEE
  8
AM_0
 10
285.9550695600455
 20
160.87724535478191
 30
0.0
 11
321.95506956004539
 21
160.87724535478191
 31
0.0
  0
LINE
  5
2AEF
  8
AM_0
 10
285.95512956004518
 20
150.2473153547819
 30
0.0
 11
321.95512956004518
 21
148.7473153547819
 31
0.0
  0
LINE
  5
2AF0
  8
AM_0
 10
285.9550695600455
 20
272.54437635478189
 30
0.0
 11
316.2733395600452
 21
272.54437635478189
 31
0.0
  0
LINE
  5
2AF1
  8
AM_0
 10
278.95507956004531
 20
266.13535035478191
 30
0.0
 11
278.95507956004531
 21
154.7473153547819
 31
0.0
  0
LINE
  5
2AF2
  8
AM_0
 10
237.49061346597799
 20
167.7118220782435
 30
0.0
 11
211.3840193775743
 21
193.81841616664741
 31
0.0
  0
LINE
  5
2AF3
  8
AM_0
 10
248.95513956004561
 20
160.24733235478189
 30
0.0
 11
273.95506956004527
 21
159.59268435478191
 31
0.0
  0
LINE
  5
2AF4
  8
AM_0
 10
248.95507956004531
 20
172.2473173547819
 30
0.0
 11
278.95507956004531
 21
172.2473173547819
 31
0.0
  0
LINE
  5
2AF5
  8
AM_0
 10
248.95507956004531
 20
186.5993683547818
 30
0.0
 11
278.95507956004531
 21
186.5993683547818
 31
0.0
  0
LINE
  5
2AF6
  8
AM_0
 10
248.95507956004531
 20
159.74734835478179
 30
0.0
 11
239.95507956004519
 21
159.74734835478179
 31
0.0
  0
ARC
  5
2AF7
  8
AM_0
 10
233.95507956004519
 20
164.17628817231079
 30
0.0
 40
5.0
 50
0.0
 51
45.0
1001
GENIUS_GENODEF_13
1002
{
1000
HIER
1070
     0
1002
}
1002
{
1000
MANEDIT
1070
     0
1002
}
1002
{
1000
NOSEL
1070
     0
1002
}
1002
{
1000
BEHIND
1070
     0
1002
}
1002
{
1000
OTHER
1070
     0
1002
}
1002
{
1000
REACTOR
1002
}
1001
GENIUS_GENOBJ-N-FIL_13
1002
{
1000
OWNER
1000
GEN
1002
}
  0
ARC
  5
2AF8
  8
AM_0
 10
239.95507956004519
 20
160.74734835478179
 30
0.0
 40
1.0
 50
180.0
 51
270.0
1001
GENIUS_GENODEF_13
1002
{
1000
HIER
1070
     0
1002
}
1002
{
1000
MANEDIT
1070
     0
1002
}
1002
{
1000
NOSEL
1070
     0
1002
}
1002
{
1000
BEHIND
1070
     0
1002
}
1002
{
1000
OTHER
1070
     0
1002
}
1002
{
1000
REACTOR
1002
}
1001
GENIUS_GENOBJ-N-FIL_13
1002
{
1000
OWNER
1000
GEN
1002
}
  0
LINE
  5
2AF9
  8
AM_0
 10
273.95506956004527
 20
168.11732535478191
 30
0.0
 11
278.4350595600452
 21
168.11732535478191
 31
0.0
  0
LINE
  5
2AFA
  8
AM_0
 10
275.95507956004531
 20
150.2473153547819
 30
0.0
 11
285.9550695600455
 21
150.2473153547819
 31
0.0
  0
LINE
  5
2AFB
  8
AM_0
 10
273.95506956004527
 20
166.11732735478191
 30
0.0
 11
273.95506956004527
 21
152.2473163547819
 31
0.0
  0
ARC
  5
2AFC
  8
AM_0
 10
275.95507956004531
 20
152.2473163547819
 30
0.0
 40
2.00000007
 50
179.99998999999991
 51
270.0
  0
ARC
  5
2AFD
  8
AM_0
 10
271.9551495600453
 20
166.11732735478191
 30
0.0
 40
2.00000007
 50
0.0
 51
90.000003000000007
  0
LINE
  5
2AFE
  8
AM_0
 10
280.9551495600453
 20
152.74731435478191
 30
0.0
 11
285.9550695600455
 21
152.74731435478191
 31
0.0
  0
ARC
  5
2AFF
  8
AM_0
 10
280.9551495600453
 20
154.7473153547819
 30
0.0
 40
2.00000007
 50
179.99998999999991
 51
270.0
  0
LINE
  5
2B00
  8
AM_0
 10
208.45508718943981
 20
250.74734835478171
 30
0.0
 11
208.45508718943981
 21
196.74734835478159
 31
0.0
  0
LINE
  5
2B01
  8
AM_0
 10
183.45509171939281
 20
198.74734835478191
 30
0.0
 11
183.45509171939281
 21
248.74734835478171
 31
0.0
  0
LINE
  5
2B02
  8
AM_0
 10
181.45509171939281
 20
240.83313479240871
 30
0.0
 11
181.45509171939281
 21
206.66156191715501
 31
0.0
  0
LINE
  5
2B03
  8
AM_0
 10
185.4550917193927
 20
196.74734835478191
 30
0.0
 11
204.3129515657086
 21
196.74734835478171
 31
0.0
  0
ARC
  5
2B04
  8
AM_0
 10
185.4550917193927
 20
198.74734835478191
 30
0.0
 40
2.0
 50
180.0
 51
270.0
1001
GENIUS_GENOBJ-N-FIL_13
1002
{
1000
OWNER
1000
GEN
1002
}
1001
GENIUS_GENODEF_13
1002
{
1000
HIER
1070
     0
1002
}
1002
{
1000
MANEDIT
1070
     0
1002
}
1002
{
1000
NOSEL
1070
     0
1002
}
1002
{
1000
BEHIND
1070
     0
1002
}
1002
{
1000
OTHER
1070
     0
1002
}
1002
{
1000
REACTOR
1002
}
  0
ARC
  5
2B05
  8
AM_0
 10
182.45509171939281
 20
203.8331347924088
 30
0.0
 40
1.0
 50
0.0
 51
45.0
1001
GENIUS_GENODEF_13
1002
{
1000
HIER
1070
     0
1002
}
1002
{
1000
MANEDIT
1070
     0
1002
}
1002
{
1000
NOSEL
1070
     0
1002
}
1002
{
1000
BEHIND
1070
     0
1002
}
1002
{
1000
OTHER
1070
     0
1002
}
1002
{
1000
REACTOR
1002
}
1001
GENIUS_GENOBJ-N-FIL_13
1002
{
1000
OWNER
1000
GEN
1002
}
  0
ARC
  5
2B06
  8
AM_0
 10
182.45509171939281
 20
206.66156191715501
 30
0.0
 40
1.0
 50
180.0
 51
225.0
1001
GENIUS_GENODEF_13
1002
{
1000
HIER
1070
     0
1002
}
1002
{
1000
MANEDIT
1070
     0
1002
}
1002
{
1000
NOSEL
1070
     0
1002
}
1002
{
1000
BEHIND
1070
     0
1002
}
1002
{
1000
OTHER
1070
     0
1002
}
1002
{
1000
REACTOR
1002
}
1001
GENIUS_GENOBJ-N-FIL_13
1002
{
1000
OWNER
1000
GEN
1002
}
  0
LINE
  5
2B07
  8
AM_0
 10
181.74798493820609
 20
205.95445513596829
 30
0.0
 11
183.16219850057911
 21
204.5402415735953
 31
0.0
  0
LINE
  5
2B08
  8
AM_0
 10
173.45509171939281
 20
231.74734835478191
 30
0.0
 11
173.45509171939281
 21
233.74734835478191
 31
0.0
  0
LINE
  5
2B09
  8
AM_0
 10
179.45509171939281
 20
232.24734835478191
 30
0.0
 11
179.45509171939281
 21
215.24734835478191
 31
0.0
  0
LINE
  5
2B0A
  8
AM_0
 10
179.45509171939281
 20
215.24735368783169
 30
0.0
 11
181.45509171939281
 21
215.24735262122181
 31
0.0
  0
LINE
  5
2B0B
  8
AM_0
 10
179.45509171939281
 20
232.24734835478191
 30
0.0
 11
181.45509171939281
 21
232.24734835478191
 31
0.0
  0
ARC
  5
2B0C
  8
AM_0
 10
204.3129515657086
 20
186.74734835478171
 30
0.0
 40
10.0
 50
45.0
 51
90.0
1001
GENIUS_GENODEF_13
1002
{
1000
HIER
1070
     0
1002
}
1002
{
1000
MANEDIT
1070
     0
1002
}
1002
{
1000
NOSEL
1070
     0
1002
}
1002
{
1000
BEHIND
1070
     0
1002
}
1002
{
1000
OTHER
1070
     0
1002
}
1002
{
1000
REACTOR
1002
}
1001
GENIUS_GENOBJ-N-FIL_13
1002
{
1000
OWNER
1000
GEN
1002
}
  0
LINE
  5
2B0D
  8
AM_0
 10
185.4550917193927
 20
250.74734835478171
 30
0.0
 11
204.3129515657086
 21
250.74734835478171
 31
0.0
  0
ARC
  5
2B0E
  8
AM_0
 10
182.45509171939281
 20
243.6615619171549
 30
0.0
 40
1.0
 50
315.0
 51
0.0
1001
GENIUS_GENODEF_13
1002
{
1000
HIER
1070
     0
1002
}
1002
{
1000
MANEDIT
1070
     0
1002
}
1002
{
1000
NOSEL
1070
     0
1002
}
1002
{
1000
BEHIND
1070
     0
1002
}
1002
{
1000
OTHER
1070
     0
1002
}
1002
{
1000
REACTOR
1002
}
1001
GENIUS_GENOBJ-N-FIL_13
1002
{
1000
OWNER
1000
GEN
1002
}
  0
ARC
  5
2B0F
  8
AM_0
 10
182.45509171939281
 20
240.83313479240871
 30
0.0
 40
1.0
 50
135.0
 51
180.0
1001
GENIUS_GENODEF_13
1002
{
1000
HIER
1070
     0
1002
}
1002
{
1000
MANEDIT
1070
     0
1002
}
1002
{
1000
NOSEL
1070
     0
1002
}
1002
{
1000
BEHIND
1070
     0
1002
}
1002
{
1000
OTHER
1070
     0
1002
}
1002
{
1000
REACTOR
1002
}
1001
GENIUS_GENOBJ-N-FIL_13
1002
{
1000
OWNER
1000
GEN
1002
}
  0
LINE
  5
2B10
  8
AM_0
 10
181.74798493820609
 20
241.5402415735953
 30
0.0
 11
183.16219850057911
 21
242.9544551359684
 31
0.0
  0
ARC
  5
2B11
  8
AM_0
 10
185.4550917193927
 20
248.74734835478171
 30
0.0
 40
2.0
 50
90.0
 51
180.0
1001
GENIUS_GENOBJ-N-FIL_13
1002
{
1000
OWNER
1000
GEN
1002
}
1001
GENIUS_GENODEF_13
1002
{
1000
HIER
1070
     0
1002
}
1002
{
1000
MANEDIT
1070
     0
1002
}
1002
{
1000
NOSEL
1070
     0
1002
}
1002
{
1000
BEHIND
1070
     0
1002
}
1002
{
1000
OTHER
1070
     0
1002
}
1002
{
1000
REACTOR
1002
}
  0
ARC
  5
2B12
  8
AM_0
 10
204.3129515657086
 20
260.74734835478182
 30
0.0
 40
10.0
 50
270.0
 51
315.0
1001
GENIUS_GENODEF_13
1002
{
1000
HIER
1070
     0
1002
}
1002
{
1000
MANEDIT
1070
     0
1002
}
1002
{
1000
NOSEL
1070
     0
1002
}
1002
{
1000
BEHIND
1070
     0
1002
}
1002
{
1000
OTHER
1070
     0
1002
}
1002
{
1000
REACTOR
1002
}
1001
GENIUS_GENOBJ-N-FIL_13
1002
{
1000
OWNER
1000
GEN
1002
}
  0
LINE
  5
2B13
  8
AM_0
 10
248.95507956004531
 20
260.89526835478182
 30
0.0
 11
273.95506956004527
 21
260.89526835478182
 31
0.0
  0
LINE
  5
2B14
  8
AM_0
 10
248.95507956004531
 20
275.24731935478172
 30
0.0
 11
274.95514956004519
 21
275.24731935478172
 31
0.0
  0
LINE
  5
2B15
  8
AM_0
 10
273.95506956004527
 20
256.61465835478191
 30
0.0
 11
278.39575956004541
 21
256.61465835478191
 31
0.0
  0
LINE
  5
2B16
  8
AM_0
 10
275.95507956004531
 20
275.24731935478172
 30
0.0
 11
276.9550695600455
 21
275.24731935478172
 31
0.0
  0
LINE
  5
2B17
  8
AM_0
 10
275.95507956004531
 20
266.13535035478191
 30
0.0
 11
278.95507956004531
 21
266.13535035478191
 31
0.0
  0
ARC
  5
2B18
  8
AM_0
 10
275.95507956004531
 20
268.1353513547819
 30
0.0
 40
2.00000007
 50
179.99998999999991
 51
270.0
  0
LINE
  5
2B19
  8
AM_0
 10
273.95506956004527
 20
273.24734835478182
 30
0.0
 11
273.95506956004527
 21
258.61465935478191
 31
0.0
  0
ARC
  5
2B1A
  8
AM_0
 10
271.9551495600453
 20
258.61465935478191
 30
0.0
 40
2.00000007
 50
270.0
 51
0.0
  0
ARC
  5
2B1B
  8
AM_0
 10
275.95507956004531
 20
273.24734835478182
 30
0.0
 40
2.00000007
 50
90.000003000000007
 51
180.00001
  0
ARC
  5
2B1C
  8
AM_0
 10
276.9550695600455
 20
277.24732035478172
 30
0.0
 40
2.00000007
 50
270.0
 51
0.0
  0
LINE
  5
2B1D
  8
AM_0
 10
335.95507956004519
 20
163.5278953547818
 30
0.0
 11
335.95507956004519
 21
196.59298935478191
 31
0.0
  0
LINE
  5
2B1E
  8
AM_0
 10
349.95511956004532
 20
243.74733435478191
 30
0.0
 11
349.95511956004532
 21
173.74733235478189
 31
0.0
  0
LINE
  5
2B1F
  8
AM_0
 10
322.92889956004518
 20
165.15744135478181
 30
0.0
 11
335.95507956004519
 21
165.49853535478181
 31
0.0
  0
LINE
  5
2B20
  8
AM_0
 10
321.95506956004539
 20
164.1577933547818
 30
0.0
 11
321.95506956004539
 21
148.7473153547819
 31
0.0
  0
ARC
  5
2B21
  8
AM_0
 10
322.95511956004532
 20
164.1577933547818
 30
0.0
 40
1.0000000199999981
 50
91.500000999999955
 51
180.00001
  0
LINE
  5
2B22
  8
AM_0
 10
337.88527956004549
 20
161.52913035478181
 30
0.0
 11
345.95509956004548
 21
161.2473163547819
 31
0.0
  0
ARC
  5
2B23
  8
AM_0
 10
337.9551195600452
 20
163.5278953547818
 30
0.0
 40
2.00000007
 50
179.99998999999991
 51
268.00000999999992
  0
ARC
  5
2B24
  8
AM_0
 10
336.9550695600455
 20
179.46597435478191
 30
0.0
 40
3.0
 50
270.0
 51
0.0
  0
LINE
  5
2B25
  8
AM_0
 10
345.95506956004539
 20
173.74733235478189
 30
0.0
 11
349.95511956004532
 21
173.74733235478189
 31
0.0
  0
LINE
  5
2B26
  8
AM_0
 10
349.88527956004549
 20
177.74977335478181
 30
0.0
 11
349.95511956004532
 21
177.74733135478181
 31
0.0
  0
LINE
  5
2B27
  8
AM_0
 10
352.95511956004509
 20
229.747333354782
 30
0.0
 11
392.95507956004519
 21
229.747333354782
 31
0.0
  0
LINE
  5
2B28
  8
AM_0
 10
352.95511956004509
 20
257.74735035478182
 30
0.0
 11
392.95507956004519
 21
257.74735035478182
 31
0.0
  0
LINE
  5
2B29
  8
AM_0
 10
352.95511956004509
 20
258.74733435478191
 30
0.0
 11
352.95511956004509
 21
228.74733435478191
 31
0.0
  0
LINE
  5
2B2A
  8
AM_0
 10
350.95507956004519
 20
217.79802135478181
 30
0.0
 11
350.95507956004519
 21
269.77609635478188
 31
0.0
  0
ARC
  5
2B2B
  8
AM_0
 10
338.95507956004519
 20
196.59298935478191
 30
0.0
 40
3.0
 50
90.000003000000007
 51
180.00001
  0
ARC
  5
2B2C
  8
AM_0
 10
347.95507956004519
 20
217.79802135478181
 30
0.0
 40
3.0
 50
311.81031000000002
 51
0.0
  0
LINE
  5
2B2D
  8
AM_0
 10
350.95507956004519
 20
228.74733435478191
 30
0.0
 11
352.95511956004509
 21
228.74733435478191
 31
0.0
  0
LINE
  5
2B2E
  8
AM_0
 10
322.95511956004532
 20
257.59219935478183
 30
0.0
 11
337.18582956004542
 21
257.59219935478183
 31
0.0
  0
ARC
  5
2B2F
  8
AM_0
 10
322.95511956004532
 20
262.59216735478191
 30
0.0
 40
5.0000001000000003
 50
179.99998999999991
 51
270.0
  0
LINE
  5
2B30
  8
AM_0
 10
349.95511956004532
 20
243.74733435478191
 30
0.0
 11
349.95511956004532
 21
255.5502973547818
 31
0.0
  0
LINE
  5
2B31
  8
AM_0
 10
345.95506956004539
 20
255.5502973547818
 30
0.0
 11
349.95511956004532
 21
255.5502973547818
 31
0.0
  0
LINE
  5
2B32
  8
AM_0
 10
350.95507956004519
 20
258.74733435478191
 30
0.0
 11
352.95511956004509
 21
258.74733435478191
 31
0.0
  0
LINE
  5
2B33
  8
AM_0
 10
346.66732956004518
 20
275.97793935478182
 30
0.0
 11
349.95511956004532
 21
272.0597263547819
 31
0.0
  0
ARC
  5
2B34
  8
AM_0
 10
344.36920956004548
 20
274.04959635478178
 30
0.0
 40
3.0
 50
39.999999000000003
 51
58.08679699999999
  0
LINE
  5
2B35
  8
AM_0
 10
349.95511956004532
 20
272.0597263547819
 30
0.0
 11
350.25322956004533
 21
271.70444235478192
 31
0.0
  0
ARC
  5
2B36
  8
AM_0
 10
347.95507956004519
 20
269.77609635478188
 30
0.0
 40
3.0
 50
0.0
 51
39.999999000000003
  0
LINE
  5
2B37
  8
AM_0
 10
392.95507956004519
 20
260.74733535478191
 30
0.0
 11
392.95507956004519
 21
229.747333354782
 31
0.0
  0
LINE
  5
2B38
  8
AM_0
 10
360.9550695600451
 20
260.74733535478191
 30
0.0
 11
392.95507956004519
 21
260.74733535478191
 31
0.0
  0
LINE
  5
2B39
  8
AM_0
 10
360.9550695600451
 20
260.74733535478191
 30
0.0
 11
360.9550695600451
 21
257.74735035478182
 31
0.0
  0
LINE
  5
2B3A
  8
AM_0
 10
285.9550695600455
 20
294.74731935478189
 30
0.0
 11
315.03361956004522
 21
295.50876435478182
 31
0.0
  0
LINE
  5
2B3B
  8
AM_0
 10
248.95507956004531
 20
287.24731935478178
 30
0.0
 11
277.00744956004542
 21
287.98187835478183
 31
0.0
  0
LINE
  5
2B3C
  8
AM_0
 10
248.95507956004531
 20
287.74734835478182
 30
0.0
 11
239.95507956004519
 21
287.74734835478182
 31
0.0
  0
ARC
  5
2B3D
  8
AM_0
 10
233.95507956004519
 20
283.31840853725282
 30
0.0
 40
5.0
 50
315.0
 51
0.0
1001
GENIUS_GENODEF_13
1002
{
1000
HIER
1070
     0
1002
}
1002
{
1000
MANEDIT
1070
     0
1002
}
1002
{
1000
NOSEL
1070
     0
1002
}
1002
{
1000
BEHIND
1070
     0
1002
}
1002
{
1000
OTHER
1070
     0
1002
}
1002
{
1000
REACTOR
1002
}
1001
GENIUS_GENOBJ-N-FIL_13
1002
{
1000
OWNER
1000
GEN
1002
}
  0
ARC
  5
2B3E
  8
AM_0
 10
239.95507956004519
 20
286.74734835478182
 30
0.0
 40
1.0
 50
90.0
 51
180.0
1001
GENIUS_GENODEF_13
1002
{
1000
HIER
1070
     0
1002
}
1002
{
1000
MANEDIT
1070
     0
1002
}
1002
{
1000
NOSEL
1070
     0
1002
}
1002
{
1000
BEHIND
1070
     0
1002
}
1002
{
1000
OTHER
1070
     0
1002
}
1002
{
1000
REACTOR
1002
}
1001
GENIUS_GENOBJ-N-FIL_13
1002
{
1000
OWNER
1000
GEN
1002
}
  0
ARC
  5
2B3F
  8
AM_0
 10
276.9550695600455
 20
289.98123735478202
 30
0.0
 40
2.00000007
 50
271.49999999999972
 51
0.0
  0
LINE
  5
2B40
  8
AM_0
 10
280.9551495600453
 20
294.74731935478189
 30
0.0
 11
285.9550695600455
 21
294.74731935478189
 31
0.0
  0
ARC
  5
2B41
  8
AM_0
 10
280.9551495600453
 20
292.74735135478193
 30
0.0
 40
2.00000007
 50
90.000003000000007
 51
180.00001
  0
LINE
  5
2B42
  8
AM_0
 10
335.95507956004519
 20
285.69898035478178
 30
0.0
 11
335.95507956004519
 21
326.46674535478189
 31
0.0
  0
LINE
  5
2B43
  8
AM_0
 10
319.95511956004532
 20
286.40448435478203
 30
0.0
 11
333.41116956004532
 21
286.40448435478203
 31
0.0
  0
LINE
  5
2B44
  8
AM_0
 10
317.95510956004517
 20
289.98099135478168
 30
0.0
 11
334.28422956004522
 21
298.0507873547819
 31
0.0
  0
LINE
  5
2B45
  8
AM_0
 10
319.4032695600452
 20
283.47598635478181
 30
0.0
 11
336.44056956004522
 21
283.47598635478181
 31
0.0
  0
LINE
  5
2B46
  8
AM_0
 10
323.2806195600453
 20
312.81827535478197
 30
0.0
 11
333.05977956004517
 21
313.15976535478183
 31
0.0
  0
ARC
  5
2B47
  8
AM_0
 10
319.95511956004532
 20
288.4044853547818
 30
0.0
 40
2.00000007
 50
179.99998999999991
 51
270.0
  0
ARC
  5
2B48
  8
AM_0
 10
314.95507956004519
 20
298.50776535478178
 30
0.0
 40
3.0
 50
271.49999999999972
 51
0.0
  0
ARC
  5
2B49
  8
AM_0
 10
322.95511956004532
 20
307.82132535478189
 30
0.0
 40
5.0000001000000003
 50
91.999997999999948
 51
180.00001
  0
ARC
  5
2B4A
  8
AM_0
 10
332.95507956004519
 20
300.74030535478181
 30
0.0
 40
3.0
 50
296.29843
 51
0.0
  0
LINE
  5
2B4B
  8
AM_0
 10
349.95511956004532
 20
282.37195335478202
 30
0.0
 11
349.95511956004532
 21
313.7473153547819
 31
0.0
  0
ARC
  5
2B4C
  8
AM_0
 10
333.41116956004532
 20
283.40448435478203
 30
0.0
 40
3.0
 50
22.48353599999999
 51
90.000003000000007
  0
ARC
  5
2B4D
  8
AM_0
 10
338.95507956004519
 20
285.69898035478178
 30
0.0
 40
3.0
 50
179.99998999999991
 51
270.0
  0
LINE
  5
2B4E
  8
AM_0
 10
345.95506956004539
 20
282.37195335478202
 30
0.0
 11
349.95511956004532
 21
282.37195335478202
 31
0.0
  0
ARC
  5
2B4F
  8
AM_0
 10
332.95507956004519
 20
316.1579353547819
 30
0.0
 40
3.0
 50
272.0
 51
0.0
  0
ARC
  5
2B50
  8
AM_0
 10
336.9550695600455
 20
310.52867535478202
 30
0.0
 40
3.0
 50
0.0
 51
90.000003000000007
  0
LINE
  5
2B51
  8
AM_0
 10
345.95506956004539
 20
313.7473153547819
 30
0.0
 11
349.95511956004532
 21
313.7473153547819
 31
0.0
  0
LINE
  5
2B52
  8
AM_0
 10
337.88527956004549
 20
328.46549535478181
 30
0.0
 11
345.95506956004539
 21
328.74728535478181
 31
0.0
  0
ARC
  5
2B53
  8
AM_0
 10
337.9551195600452
 20
326.46674535478189
 30
0.0
 40
2.00000007
 50
91.999997999999948
 51
180.00001
  0
ARC
  5
2B54
  8
AM_0
 10
565.21567491051565
 20
243.74733435478191
 30
0.0
 40
70.000001999999995
 50
164.5475099999999
 51
0.000010017913
  0
ARC
  5
2B55
  8
AM_0
 10
565.21567491051565
 20
243.74733435478191
 30
0.0
 40
66.000003000000007
 50
168.12284
 51
0.000010017913
  0
ARC
  5
2B56
  8
AM_0
 10
565.21567491051565
 20
243.74733435478191
 30
0.0
 40
52.000007999999987
 50
5.215907699999998
 51
42.244334000000009
  0
ARC
  5
2B57
  8
AM_0
 10
565.21567491051565
 20
243.74733435478191
 30
0.0
 40
52.000007999999987
 50
137.75567000000001
 51
174.78408999999991
  0
LINE
  5
2B58
  8
ﾁｭｳｼﾝｾﾝ1
 10
565.21567491051565
 20
332.74945557693439
 30
0.0
 11
565.21567491051565
 21
145.96131878648609
 31
0.0
  0
LINE
  5
2B59
  8
AM_0
 10
519.07028691051562
 20
286.35718335478191
 30
0.0
 11
538.29091491051577
 21
267.13657035478178
 31
0.0
  0
LINE
  5
2B5A
  8
AM_0
 10
480.2156939105156
 20
273.74731935478189
 30
0.0
 11
482.48334291051538
 21
317.01671535478198
 31
0.0
  0
ARC
  5
2B5B
  8
AM_0
 10
506.90423991051551
 20
268.49133735478199
 30
0.0
 40
11.000000399999999
 50
85.156818000000015
 51
228.85606000000001
  0
LINE
  5
2B5C
  8
AM_0
 10
522.60581091051563
 20
289.89273735478179
 30
0.0
 11
541.82645391051562
 21
270.6720943547819
 31
0.0
  0
LINE
  5
2B5D
  8
AM_0
 10
650.21569191051537
 20
273.74731935478189
 30
0.0
 11
647.94803691051595
 21
317.01671535478198
 31
0.0
  0
LINE
  5
2B5E
  8
AM_0
 10
611.36110791051556
 20
286.35721335478189
 30
0.0
 11
592.14046491051545
 21
267.13657035478178
 31
0.0
  0
LINE
  5
2B5F
  8
AM_0
 10
607.82555391051562
 20
289.89273735478179
 30
0.0
 11
588.60492591051536
 21
270.6721243547816
 31
0.0
  0
ARC
  5
2B60
  8
AM_0
 10
623.52712491051557
 20
268.49133735478199
 30
0.0
 40
11.000000399999999
 50
311.14393999999999
 51
94.843180000000004
  0
LINE
  5
2B61
  8
AM_0
 10
527.21568891051561
 20
218.7473323547818
 30
0.0
 11
506.1817979105158
 21
218.7473323547818
 31
0.0
  0
LINE
  5
2B62
  8
AM_0
 10
492.45673191051571
 20
161.2473163547819
 30
0.0
 11
521.66641791051575
 21
161.2473163547819
 31
0.0
  0
LINE
  5
2B63
  8
ﾁｭｳｼﾝｾﾝ1
 10
473.87762391051552
 20
243.74733435478191
 30
0.0
 11
653.82926391051535
 21
243.74733435478191
 31
0.0
  0
LINE
  5
2B64
  8
AM_0
 10
480.2156639105155
 20
213.7473163547817
 30
0.0
 11
482.47043391051562
 21
170.72395635478179
 31
0.0
  0
ARC
  5
2B65
  8
AM_0
 10
492.45673191051571
 20
171.24733035478181
 30
0.0
 40
10.000000200000001
 50
183.00001
 51
270.0
  0
LINE
  5
2B66
  8
ﾁｭｳｼﾝｾﾝ1
 10
487.7502341838769
 20
166.2819105051797
 30
0.0
 11
502.18958537753713
 21
180.72123638368711
 31
0.0
  0
ARC
  5
2B67
  8
ﾁｭｳｼﾝｾﾝ1
 10
565.21567491051565
 20
243.74733435478191
 30
0.0
 40
100.0000109999999
 50
217.7573799999999
 51
232.63991999999999
  0
CIRCLE
  5
2B68
  8
AM_0
 10
494.5050089105157
 20
173.03663835478159
 30
0.0
 40
6.0000002999999991
  0
LINE
  5
2B69
  8
AM_0
 10
480.2156939105156
 20
213.74733135478181
 30
0.0
 11
480.2156939105156
 21
243.74733435478191
 31
0.0
  0
LINE
  5
2B6A
  8
AM_0
 10
513.21567291051565
 20
238.74734835478191
 30
0.0
 11
513.21567291051565
 21
221.74733235478169
 31
0.0
  0
ARC
  5
2B6B
  8
AM_0
 10
506.1817979105158
 20
221.74733235478169
 30
0.0
 40
3.0
 50
200.43878000000001
 51
270.0
  0
ARC
  5
2B6C
  8
AM_0
 10
510.21567291051531
 20
221.74733235478169
 30
0.0
 40
3.0
 50
270.0
 51
0.0
  0
LINE
  5
2B6D
  8
AM_0
 10
480.2156939105156
 20
273.74731935478189
 30
0.0
 11
480.2156939105156
 21
243.74733435478191
 31
0.0
  0
ARC
  5
2B6E
  8
AM_0
 10
497.93045691051537
 20
253.58069235478189
 30
0.0
 40
2.00000007
 50
79.999998000000005
 51
171.68540999999991
  0
ARC
  5
2B6F
  8
AM_0
 10
497.93045691051537
 20
253.58069235478189
 30
0.0
 40
2.00000007
 50
351.68540999999982
 51
79.999998000000005
  0
LINE
  5
2B70
  8
AM_0
 10
502.41443391051553
 20
245.7473323547818
 30
0.0
 11
510.4434269105156
 21
245.7473323547818
 31
0.0
  0
LINE
  5
2B71
  8
AM_0
 10
502.41443391051553
 20
241.74734835478191
 30
0.0
 11
510.21567291051531
 21
241.74734835478191
 31
0.0
  0
ARC
  5
2B72
  8
AM_0
 10
502.41443391051553
 20
238.74734835478191
 30
0.0
 40
3.0
 50
90.000003000000007
 51
184.55206999999999
  0
ARC
  5
2B73
  8
AM_0
 10
502.41443391051553
 20
248.74733235478169
 30
0.0
 40
3.0
 50
175.44793000000001
 51
270.0
  0
LINE
  5
2B74
  8
AM_0
 10
498.2777459105157
 20
255.5502973547818
 30
0.0
 11
498.2777459105157
 21
255.5502973547818
 31
0.0
  0
ARC
  5
2B75
  8
AM_0
 10
510.21567291051531
 20
238.74734835478191
 30
0.0
 40
3.0
 50
0.0
 51
90.000003000000007
  0
ARC
  5
2B76
  8
AM_0
 10
510.4434269105156
 20
248.74733235478169
 30
0.0
 40
3.0
 50
270.0
 51
354.78408999999999
  0
LINE
  5
2B77
  8
AM_0
 10
509.77924191051562
 20
273.47098335478182
 30
0.0
 11
504.02924091051551
 21
273.47098335478182
 31
0.0
  0
LINE
  5
2B78
  8
AM_0
 10
509.77924191051562
 20
263.51169135478182
 30
0.0
 11
504.02924091051551
 21
263.51169135478182
 31
0.0
  0
CIRCLE
  5
2B79
  8
AM_0
 10
506.90423991051551
 20
268.49133735478199
 30
0.0
 40
4.9796462999999971
  0
LINE
  5
2B7A
  8
AM_0
 10
504.02924091051551
 20
263.51166135478178
 30
0.0
 11
501.15424191051568
 21
268.49130735478172
 31
0.0
  0
ARC
  5
2B7B
  8
AM_0
 10
497.6929079105156
 20
257.9485213547818
 30
0.0
 40
3.0
 50
348.12284
 51
48.856062999999999
  0
LINE
  5
2B7C
  8
AM_0
 10
501.15421191051558
 20
268.49133735478199
 30
0.0
 11
504.02921091051559
 21
273.47098335478182
 31
0.0
  0
LINE
  5
2B7D
  8
AM_0
 10
512.65424091051545
 20
268.49133735478199
 30
0.0
 11
509.77924191051562
 21
263.51169135478182
 31
0.0
  0
LINE
  5
2B7E
  8
AM_0
 10
512.65424091051545
 20
268.49130735478172
 30
0.0
 11
509.77924191051562
 21
273.47098335478182
 31
0.0
  0
LINE
  5
2B7F
  8
AM_0
 10
650.21569191051537
 20
213.7473163547817
 30
0.0
 11
647.9609309105158
 21
170.7239713547819
 31
0.0
  0
LINE
  5
2B80
  8
AM_0
 10
590.46796491051555
 20
150.86256435478191
 30
0.0
 11
587.59296291051555
 21
155.8422103547818
 31
0.0
  0
LINE
  5
2B81
  8
AM_0
 10
587.59296291051555
 20
155.84219535478181
 30
0.0
 11
590.46797991051562
 21
160.82185635478189
 31
0.0
  0
LINE
  5
2B82
  8
AM_0
 10
537.08841591051555
 20
148.8421933547819
 30
0.0
 11
593.34296391051555
 21
148.8421933547819
 31
0.0
  0
LINE
  5
2B83
  8
AM_0
 10
524.26450191051572
 20
165.7473163547819
 30
0.0
 11
606.1668929105158
 21
165.7473163547819
 31
0.0
  0
ARC
  5
2B84
  8
AM_0
 10
537.08841591051555
 20
155.84219535478181
 30
0.0
 40
7.0000007999999987
 50
164.91944000000001
 51
270.0
  0
LINE
  5
2B85
  8
AM_0
 10
539.96339991051582
 20
160.82185635478189
 30
0.0
 11
534.21339891051571
 21
160.82185635478189
 31
0.0
  0
LINE
  5
2B86
  8
AM_0
 10
539.96339991051582
 20
150.86254935478181
 30
0.0
 11
534.21339891051571
 21
150.86254935478181
 31
0.0
  0
CIRCLE
  5
2B87
  8
AM_0
 10
537.08841591051555
 20
155.84219535478181
 30
0.0
 40
4.9796462999999971
  0
LINE
  5
2B88
  8
AM_0
 10
531.33839991051582
 20
155.8422103547818
 30
0.0
 11
534.21339891051571
 21
160.82185635478189
 31
0.0
  0
ARC
  5
2B89
  8
AM_0
 10
525.49817391051545
 20
158.95132635478191
 30
0.0
 40
5.0000001000000003
 50
344.98363999999992
 51
56.872543000000007
  0
LINE
  5
2B8A
  8
AM_0
 10
534.21341691051566
 20
150.86254935478181
 30
0.0
 11
531.33839991051582
 21
155.8422103547818
 31
0.0
  0
ARC
  5
2B8B
  8
AM_0
 10
565.21567491051565
 20
223.74734835478191
 30
0.0
 40
71.000000999999983
 50
234.77578999999989
 51
238.49327
  0
LINE
  5
2B8C
  8
AM_0
 10
521.66641791051575
 20
161.2473163547819
 30
0.0
 11
524.26450191051572
 21
165.74733135478181
 31
0.0
  0
LINE
  5
2B8D
  8
AM_0
 10
542.83841691051555
 20
155.8422103547818
 30
0.0
 11
539.96341491051555
 21
160.82185635478189
 31
0.0
  0
LINE
  5
2B8E
  8
AM_0
 10
542.83840191051547
 20
155.8422103547818
 30
0.0
 11
539.96339991051582
 21
150.86256435478191
 31
0.0
  0
ARC
  5
2B8F
  8
AM_0
 10
593.34296391051555
 20
155.84219535478181
 30
0.0
 40
7.0000007999999987
 50
270.00002000000001
 51
15.080558999999999
  0
LINE
  5
2B90
  8
AM_0
 10
608.76496191051558
 20
161.2473163547819
 30
0.0
 11
637.97463291051554
 21
161.2473163547819
 31
0.0
  0
ARC
  5
2B91
  8
AM_0
 10
565.21567491051565
 20
223.74734835478191
 30
0.0
 40
71.000000999999983
 50
301.50671999999992
 51
305.22421000000008
  0
ARC
  5
2B92
  8
AM_0
 10
604.93317591051562
 20
158.95132635478191
 30
0.0
 40
5.0000001000000003
 50
121.50672999999991
 51
195.01634999999999
  0
LINE
  5
2B93
  8
AM_0
 10
599.09296491051555
 20
155.8422103547818
 30
0.0
 11
596.21796591051555
 21
160.82185635478189
 31
0.0
  0
CIRCLE
  5
2B94
  8
AM_0
 10
593.34296391051555
 20
155.84219535478181
 30
0.0
 40
4.9796462999999971
  0
LINE
  5
2B95
  8
AM_0
 10
599.09296491051555
 20
155.8422103547818
 30
0.0
 11
596.21796591051555
 21
150.86254935478181
 31
0.0
  0
LINE
  5
2B96
  8
AM_0
 10
596.21796591051555
 20
150.86254935478181
 30
0.0
 11
590.46797991051562
 21
150.86254935478181
 31
0.0
  0
LINE
  5
2B97
  8
AM_0
 10
596.21796591051555
 20
160.82185635478189
 30
0.0
 11
590.46797991051562
 21
160.82185635478189
 31
0.0
  0
LINE
  5
2B98
  8
AM_0
 10
608.76496191051558
 20
161.2473163547819
 30
0.0
 11
606.16687791051561
 21
165.74733135478181
 31
0.0
  0
ARC
  5
2B99
  8
AM_0
 10
637.97463291051554
 20
171.24733035478181
 30
0.0
 40
10.000000200000001
 50
270.0
 51
357.0
  0
CIRCLE
  5
2B9A
  8
AM_0
 10
635.92635591051555
 20
173.03663835478159
 30
0.0
 40
6.0000002999999991
  0
ARC
  5
2B9B
  8
AM_0
 10
565.21567491051565
 20
243.74733435478191
 30
0.0
 40
26.500002599999998
 50
270.0
 51
90.000003000000007
  0
ARC
  5
2B9C
  8
AM_0
 10
565.21567491051565
 20
243.74733435478191
 30
0.0
 40
33.0
 50
0.0
 51
180.00001
  0
LINE
  5
2B9D
  8
ﾁｭｳｼﾝｾﾝ1
 10
601.47038472379325
 20
223.74734835478191
 30
0.0
 11
528.96096509723805
 21
223.74734835478191
 31
0.0
  0
ARC
  5
2B9E
  8
AM_0
 10
586.48360491051562
 20
272.79343035478161
 30
0.0
 40
3.0
 50
233.78793999999999
 51
315.0
  0
ARC
  5
2B9F
  8
AM_0
 10
565.21567491051565
 20
243.74733435478191
 30
0.0
 40
14.000001299999999
 50
106.6015399999999
 51
73.398452000000006
  0
ARC
  5
2BA0
  8
AM_0
 10
565.21567491051565
 20
243.74733435478191
 30
0.0
 40
26.500002599999998
 50
90.000003000000007
 51
270.0
  0
LINE
  5
2BA1
  8
AM_0
 10
532.21567491051565
 20
243.74733435478191
 30
0.0
 11
532.21567491051565
 21
223.74734835478191
 31
0.0
  0
ARC
  5
2BA2
  8
AM_0
 10
527.21568891051561
 20
223.74734835478191
 30
0.0
 40
5.0000001000000003
 50
270.0
 51
0.0
  0
ARC
  5
2BA3
  8
AM_0
 10
536.16959091051535
 20
265.01526435478178
 30
0.0
 40
3.0
 50
323.78793999999999
 51
45.00000099999999
  0
ARC
  5
2BA4
  8
AM_0
 10
543.94777491051582
 20
272.79343035478161
 30
0.0
 40
3.0
 50
225.0
 51
306.21206000000001
  0
LINE
  5
2BA5
  8
AM_0
 10
561.21567591051553
 20
253.74733635478191
 30
0.0
 11
561.21567591051553
 21
260.74733535478191
 31
0.0
  0
LINE
  5
2BA6
  8
AM_0
 10
569.21565891051546
 20
253.74733635478191
 30
0.0
 11
569.21565891051546
 21
260.74733535478191
 31
0.0
  0
CIRCLE
  5
2BA7
  8
AM_5
 10
565.21567491051565
 20
243.74733435478191
 30
0.0
 40
4.000000199999997
  0
CIRCLE
  5
2BA8
  8
AM_0
 10
565.21567491051565
 20
243.74733435478191
 30
0.0
 40
3.0
  0
LINE
  5
2BA9
  8
AM_0
 10
561.21567591051553
 20
253.74733635478191
 30
0.0
 11
569.21565891051546
 21
253.74733635478191
 31
0.0
  0
LINE
  5
2BAA
  8
AM_0
 10
561.21567591051553
 20
260.74733535478191
 30
0.0
 11
569.21565891051546
 21
260.74733535478191
 31
0.0
  0
LINE
  5
2BAB
  8
AM_0
 10
598.21567491051565
 20
243.74733435478191
 30
0.0
 11
598.21567491051565
 21
223.74734835478191
 31
0.0
  0
LINE
  5
2BAC
  8
AM_0
 10
617.21569191051537
 20
238.74734835478191
 30
0.0
 11
617.21569191051537
 21
221.74733235478169
 31
0.0
  0
LINE
  5
2BAD
  8
AM_0
 10
650.21567691051564
 20
213.74733135478181
 30
0.0
 11
650.21567691051564
 21
243.74733435478191
 31
0.0
  0
LINE
  5
2BAE
  8
AM_0
 10
603.2156909105156
 20
218.7473323547818
 30
0.0
 11
624.24956691051557
 21
218.7473323547818
 31
0.0
  0
ARC
  5
2BAF
  8
AM_0
 10
603.2156909105156
 20
223.74734835478191
 30
0.0
 40
5.0000001000000003
 50
179.99998999999991
 51
270.0
  0
ARC
  5
2BB0
  8
AM_0
 10
620.21569191051549
 20
221.74733235478169
 30
0.0
 40
3.0
 50
179.99998999999991
 51
270.0
  0
ARC
  5
2BB1
  8
AM_0
 10
624.24956691051557
 20
221.74733235478169
 30
0.0
 40
3.0
 50
270.0
 51
339.56121999999982
  0
LINE
  5
2BB2
  8
AM_0
 10
628.01696091051554
 20
241.74734835478191
 30
0.0
 11
620.21569191051549
 21
241.74734835478191
 31
0.0
  0
LINE
  5
2BB3
  8
AM_0
 10
628.01696091051554
 20
245.7473323547818
 30
0.0
 11
619.9879379105156
 21
245.7473323547818
 31
0.0
  0
LINE
  5
2BB4
  8
AM_0
 10
626.40218391051565
 20
273.47092035478192
 30
0.0
 11
620.65218591051553
 21
273.47092035478192
 31
0.0
  0
LINE
  5
2BB5
  8
AM_0
 10
626.40218391051565
 20
263.51163135478191
 30
0.0
 11
620.65218591051553
 21
263.51163135478191
 31
0.0
  0
CIRCLE
  5
2BB6
  8
AM_0
 10
623.52716991051545
 20
268.49127735478191
 30
0.0
 40
4.9796462999999971
  0
ARC
  5
2BB7
  8
AM_0
 10
620.21569191051549
 20
238.74734835478191
 30
0.0
 40
3.0
 50
90.000003000000007
 51
180.00001
  0
ARC
  5
2BB8
  8
AM_0
 10
619.9879379105156
 20
248.74733235478169
 30
0.0
 40
3.0
 50
185.21591000000001
 51
270.0
  0
ARC
  5
2BB9
  8
AM_0
 10
594.26178891051563
 20
265.01526435478178
 30
0.0
 40
3.0
 50
135.0
 51
216.21206000000009
  0
LINE
  5
2BBA
  8
AM_0
 10
620.65218591051553
 20
263.51160135478182
 30
0.0
 11
617.77716891051546
 21
268.49127735478191
 31
0.0
  0
LINE
  5
2BBB
  8
AM_0
 10
617.77716891051546
 20
268.49127735478191
 30
0.0
 11
620.6521679105158
 21
273.47092035478192
 31
0.0
  0
ARC
  5
2BBC
  8
AM_0
 10
565.21567491051565
 20
243.74733435478191
 30
0.0
 40
66.000003000000007
 50
0.0
 51
11.877162
  0
LINE
  5
2BBD
  8
AM_0
 10
650.21567691051564
 20
273.74731935478189
 30
0.0
 11
650.21567691051564
 21
243.74733435478191
 31
0.0
  0
ARC
  5
2BBE
  8
AM_0
 10
632.50094091051562
 20
253.58069235478189
 30
0.0
 40
2.00000007
 50
8.3145874000000024
 51
100.0
  0
ARC
  5
2BBF
  8
AM_0
 10
632.50094091051562
 20
253.58069235478189
 30
0.0
 40
2.00000007
 50
100.0
 51
188.3145899999999
  0
ARC
  5
2BC0
  8
AM_0
 10
565.21567491051565
 20
243.74733435478191
 30
0.0
 40
70.000001999999995
 50
0.0
 51
15.452487
  0
ARC
  5
2BC1
  8
AM_0
 10
628.01696091051554
 20
238.74734835478191
 30
0.0
 40
3.0
 50
355.44792999999999
 51
90.000003000000007
  0
ARC
  5
2BC2
  8
AM_0
 10
628.01696091051554
 20
248.74733235478169
 30
0.0
 40
3.0
 50
270.0
 51
4.5520714
  0
LINE
  5
2BC3
  8
AM_0
 10
632.15363391051562
 20
255.5502973547818
 30
0.0
 11
632.15363391051562
 21
255.5502973547818
 31
0.0
  0
LINE
  5
2BC4
  8
AM_0
 10
629.27718591051553
 20
268.49124735478182
 30
0.0
 11
626.40218391051565
 21
263.51160135478182
 31
0.0
  0
ARC
  5
2BC5
  8
AM_0
 10
632.73847191051561
 20
257.9485213547818
 30
0.0
 40
3.0
 50
131.1439399999999
 51
191.87716
  0
LINE
  5
2BC6
  8
AM_0
 10
629.27718591051553
 20
268.49124735478182
 30
0.0
 11
626.40218391051565
 21
273.47092035478192
 31
0.0
  0
ARC
  5
2BC7
  8
AM_0
 10
524.72711691051563
 20
292.01407335478171
 30
0.0
 40
3.0
 50
129.99161000000001
 51
225.0
  0
ARC
  5
2BC8
  8
AM_0
 10
565.21567491051565
 20
243.74733435478191
 30
0.0
 40
70.000001999999995
 50
30.534626999999979
 51
149.46537000000001
  0
ARC
  5
2BC9
  8
AM_0
 10
565.21567491051565
 20
243.74733435478191
 30
0.0
 40
66.000003000000007
 50
34.109953999999988
 51
145.89004
  0
LINE
  5
2BCA
  8
AM_0
 10
535.21568991051572
 20
328.7473153547819
 30
0.0
 11
491.94626391051543
 21
326.47964535478178
 31
0.0
  0
ARC
  5
2BCB
  8
AM_0
 10
492.46964091051552
 20
316.49339535478202
 30
0.0
 40
10.000000200000001
 50
92.999998999999946
 51
176.99999
  0
ARC
  5
2BCC
  8
AM_0
 10
508.08624891051568
 20
282.44134935478172
 30
0.0
 40
3.0
 50
265.15681999999998
 51
325.89004999999992
  0
ARC
  5
2BCD
  8
AM_0
 10
510.68460591051581
 20
284.37195435478202
 30
0.0
 40
2.00000007
 50
143.31458000000001
 51
235.00001
  0
LINE
  5
2BCE
  8
AM_0
 10
509.53742091051549
 20
282.73367835478189
 30
0.0
 11
509.53742091051549
 21
282.73367835478189
 31
0.0
  0
ARC
  5
2BCF
  8
AM_0
 10
510.68460591051581
 20
284.37195435478202
 30
0.0
 40
2.00000007
 50
235.0
 51
323.31459000000001
  0
ARC
  5
2BD0
  8
AM_0
 10
516.94898091051562
 20
284.23587435478203
 30
0.0
 40
3.0
 50
45.00000099999999
 51
140.00838999999999
  0
CIRCLE
  5
2BD1
  8
AM_0
 10
494.5050089105157
 20
314.45801535478199
 30
0.0
 40
6.0000002999999991
  0
ARC
  5
2BD2
  8
AM_0
 10
565.21567491051565
 20
243.74733435478191
 30
0.0
 40
52.000007999999987
 50
47.755664999999993
 51
84.784093999999982
  0
LINE
  5
2BD3
  8
AM_0
 10
595.21567491051565
 20
328.74734535478183
 30
0.0
 11
565.21567491051565
 21
328.74734535478183
 31
0.0
  0
ARC
  5
2BD4
  8
AM_0
 10
565.21565981025049
 20
243.74733435478191
 30
0.0
 40
52.000007999999987
 50
95.215910999999693
 51
132.24432999999581
  0
LINE
  5
2BD5
  8
AM_0
 10
563.21568891051538
 20
306.5486053547819
 30
0.0
 11
563.21568891051538
 21
298.5195853547819
 31
0.0
  0
LINE
  5
2BD6
  8
AM_0
 10
567.21569091051538
 20
306.5486053547819
 30
0.0
 11
567.21569091051538
 21
298.5195853547819
 31
0.0
  0
ARC
  5
2BD7
  8
AM_0
 10
560.21568891051561
 20
298.5195853547819
 30
0.0
 40
3.0
 50
275.21591000000001
 51
0.0
  0
ARC
  5
2BD8
  8
AM_0
 10
570.2156909105156
 20
298.5195853547819
 30
0.0
 40
3.0
 50
179.99998999999991
 51
264.78408999999982
  0
ARC
  5
2BD9
  8
AM_0
 10
560.21568891051561
 20
306.5486053547819
 30
0.0
 40
3.0
 50
0.0
 51
94.55207099999997
  0
ARC
  5
2BDA
  8
AM_0
 10
570.2156909105156
 20
306.5486053547819
 30
0.0
 40
3.0
 50
85.447927000000007
 51
180.00001
  0
LINE
  5
2BDB
  8
AM_0
 10
535.21567491051565
 20
328.74734535478183
 30
0.0
 11
565.21567491051565
 21
328.74734535478183
 31
0.0
  0
ARC
  5
2BDC
  8
AM_0
 10
637.96173891051535
 20
316.49339535478202
 30
0.0
 40
10.000000200000001
 50
3.0000000999999981
 51
86.999998999999988
  0
LINE
  5
2BDD
  8
ﾁｭｳｼﾝｾﾝ1
 10
642.92527971460322
 20
321.45690651241478
 30
0.0
 11
628.37439128101084
 21
306.90604123258322
 31
0.0
  0
ARC
  5
2BDE
  8
ﾁｭｳｼﾝｾﾝ1
 10
565.21567491051565
 20
243.74733435478191
 30
0.0
 40
100.0000109999999
 50
37.75737500000001
 51
52.639915999999999
  0
ARC
  5
2BDF
  8
AM_0
 10
619.74677391051557
 20
284.37195435478202
 30
0.0
 40
2.00000007
 50
305.0
 51
36.685414000000002
  0
ARC
  5
2BE0
  8
AM_0
 10
622.34513091051576
 20
282.44134935478172
 30
0.0
 40
3.0
 50
214.10995999999989
 51
274.8431799999999
  0
ARC
  5
2BE1
  8
AM_0
 10
613.48241391051545
 20
284.23587435478203
 30
0.0
 40
3.0
 50
39.991610999999999
 51
135.0
  0
LINE
  5
2BE2
  8
AM_0
 10
620.89392891051546
 20
282.73364835478202
 30
0.0
 11
620.89392891051546
 21
282.73364835478202
 31
0.0
  0
ARC
  5
2BE3
  8
AM_0
 10
619.74677391051557
 20
284.37195435478202
 30
0.0
 40
2.00000007
 50
216.68541999999991
 51
305.0
  0
ARC
  5
2BE4
  8
AM_0
 10
605.70423291051554
 20
292.01407335478171
 30
0.0
 40
3.0
 50
315.0
 51
50.008387999999997
  0
CIRCLE
  5
2BE5
  8
AM_0
 10
635.92635591051555
 20
314.45801535478199
 30
0.0
 40
6.0000002999999991
  0
LINE
  5
2BE6
  8
AM_0
 10
595.21568991051561
 20
328.7473153547819
 30
0.0
 11
638.4851009105156
 21
326.47967535478182
 31
0.0
  0
LINE
  5
2BE7
  8
AM_0
 10
248.95507956004531
 20
261.74365835478181
 30
0.0
 11
238.95507956004559
 21
261.74365835478181
 31
0.0
  0
LINE
  5
2BE8
  8
AM_0
 10
248.95507956004531
 20
275.24734835478182
 30
0.0
 11
238.95507956004559
 21
275.24734835478182
 31
0.0
  0
LINE
  5
2BE9
  8
AM_0
 10
248.95507956004531
 20
172.24734835478171
 30
0.0
 11
238.95507956004559
 21
172.24734835478171
 31
0.0
  0
LINE
  5
2BEA
  8
AM_0
 10
248.95507956004531
 20
185.75104335478159
 30
0.0
 11
238.95507956004559
 21
185.75104335478159
 31
0.0
  0
LINE
  5
2BEB
  8
AM_0
 10
181.45512171939279
 20
494.31089157331121
 30
0.0
 11
181.45512171939279
 21
460.1393186980572
 31
0.0
  0
LINE
  5
2BEC
  8
AM_0
 10
183.45512171939279
 20
452.22510513568432
 30
0.0
 11
183.45512171939279
 21
502.22510513568432
 31
0.0
  0
LINE
  5
2BED
  8
AM_0
 10
238.9551095600452
 20
540.2251051356842
 30
0.0
 11
238.9551095600452
 21
414.2251051356842
 31
0.0
  0
LINE
  5
2BEE
  8
AM_0
 10
208.4551171894397
 20
504.22510513568409
 30
0.0
 11
208.4551171894397
 21
450.2251051356842
 31
0.0
  0
LINE
  5
2BEF
  8
AM_0
 10
237.490643465978
 20
421.18957885914591
 30
0.0
 11
211.38404937757431
 21
447.29617294754962
 31
0.0
  0
ARC
  5
2BF0
  8
AM_0
 10
204.31298156570881
 20
440.2251051356842
 30
0.0
 40
10.0
 50
45.0
 51
90.0
1001
GENIUS_GENODEF_13
1002
{
1000
HIER
1070
     0
1002
}
1002
{
1000
MANEDIT
1070
     0
1002
}
1002
{
1000
NOSEL
1070
     0
1002
}
1002
{
1000
BEHIND
1070
     0
1002
}
1002
{
1000
OTHER
1070
     0
1002
}
1002
{
1000
REACTOR
1002
}
1001
GENIUS_GENOBJ-N-FIL_13
1002
{
1000
OWNER
1000
GEN
1002
}
  0
LINE
  5
2BF1
  8
AM_0
 10
185.45512171939279
 20
450.2251051356842
 30
0.0
 11
204.31298156570881
 21
450.2251051356842
 31
0.0
  0
ARC
  5
2BF2
  8
AM_0
 10
185.45512171939279
 20
452.22510513568432
 30
0.0
 40
2.0
 50
180.0
 51
270.0
1001
GENIUS_GENOBJ-N-FIL_13
1002
{
1000
OWNER
1000
GEN
1002
}
1001
GENIUS_GENODEF_13
1002
{
1000
HIER
1070
     0
1002
}
1002
{
1000
MANEDIT
1070
     0
1002
}
1002
{
1000
NOSEL
1070
     0
1002
}
1002
{
1000
BEHIND
1070
     0
1002
}
1002
{
1000
OTHER
1070
     0
1002
}
1002
{
1000
REACTOR
1002
}
  0
LINE
  5
2BF3
  8
AM_0
 10
181.7480149382063
 20
459.43221191687059
 30
0.0
 11
183.1622285005794
 21
458.01799835449782
 31
0.0
  0
ARC
  5
2BF4
  8
AM_0
 10
182.45512171939279
 20
457.3108915733111
 30
0.0
 40
1.0
 50
0.0
 51
45.0
1001
GENIUS_GENODEF_13
1002
{
1000
HIER
1070
     0
1002
}
1002
{
1000
MANEDIT
1070
     0
1002
}
1002
{
1000
NOSEL
1070
     0
1002
}
1002
{
1000
BEHIND
1070
     0
1002
}
1002
{
1000
OTHER
1070
     0
1002
}
1002
{
1000
REACTOR
1002
}
1001
GENIUS_GENOBJ-N-FIL_13
1002
{
1000
OWNER
1000
GEN
1002
}
  0
ARC
  5
2BF5
  8
AM_0
 10
182.45512171939279
 20
460.1393186980572
 30
0.0
 40
1.0
 50
180.0
 51
225.0
1001
GENIUS_GENODEF_13
1002
{
1000
HIER
1070
     0
1002
}
1002
{
1000
MANEDIT
1070
     0
1002
}
1002
{
1000
NOSEL
1070
     0
1002
}
1002
{
1000
BEHIND
1070
     0
1002
}
1002
{
1000
OTHER
1070
     0
1002
}
1002
{
1000
REACTOR
1002
}
1001
GENIUS_GENOBJ-N-FIL_13
1002
{
1000
OWNER
1000
GEN
1002
}
  0
ARC
  5
2BF6
  8
AM_0
 10
233.95510956004529
 20
417.65404495321309
 30
0.0
 40
5.0
 50
0.0
 51
45.0
1001
GENIUS_GENODEF_13
1002
{
1000
HIER
1070
     0
1002
}
1002
{
1000
MANEDIT
1070
     0
1002
}
1002
{
1000
NOSEL
1070
     0
1002
}
1002
{
1000
BEHIND
1070
     0
1002
}
1002
{
1000
OTHER
1070
     0
1002
}
1002
{
1000
REACTOR
1002
}
1001
GENIUS_GENOBJ-N-FIL_13
1002
{
1000
OWNER
1000
GEN
1002
}
  0
LINE
  5
2BF7
  8
AM_0
 10
248.9551095600452
 20
413.2251051356842
 30
0.0
 11
239.95510956004529
 21
413.2251051356842
 31
0.0
  0
ARC
  5
2BF8
  8
AM_0
 10
239.95510956004529
 20
414.2251051356842
 30
0.0
 40
1.0
 50
180.0
 51
270.0
1001
GENIUS_GENODEF_13
1002
{
1000
HIER
1070
     0
1002
}
1002
{
1000
MANEDIT
1070
     0
1002
}
1002
{
1000
NOSEL
1070
     0
1002
}
1002
{
1000
BEHIND
1070
     0
1002
}
1002
{
1000
OTHER
1070
     0
1002
}
1002
{
1000
REACTOR
1002
}
1001
GENIUS_GENOBJ-N-FIL_13
1002
{
1000
OWNER
1000
GEN
1002
}
  0
LINE
  5
2BF9
  8
AM_0
 10
248.9551095600452
 20
439.2288001356842
 30
0.0
 11
238.95510956004551
 21
439.2288001356842
 31
0.0
  0
LINE
  5
2BFA
  8
AM_0
 10
248.9551095600452
 20
425.7251051356842
 30
0.0
 11
238.95510956004551
 21
425.7251051356842
 31
0.0
  0
LINE
  5
2BFB
  8
AM_0
 10
237.490643465978
 20
533.26063141222255
 30
0.0
 11
211.3840493775742
 21
507.15403732381873
 31
0.0
  0
ARC
  5
2BFC
  8
AM_0
 10
204.31298156570881
 20
514.22510513568432
 30
0.0
 40
10.0
 50
270.0
 51
315.0
1001
GENIUS_GENODEF_13
1002
{
1000
HIER
1070
     0
1002
}
1002
{
1000
MANEDIT
1070
     0
1002
}
1002
{
1000
NOSEL
1070
     0
1002
}
1002
{
1000
BEHIND
1070
     0
1002
}
1002
{
1000
OTHER
1070
     0
1002
}
1002
{
1000
REACTOR
1002
}
1001
GENIUS_GENOBJ-N-FIL_13
1002
{
1000
OWNER
1000
GEN
1002
}
  0
ARC
  5
2BFD
  8
AM_0
 10
185.45512171939279
 20
502.22510513568432
 30
0.0
 40
2.0
 50
90.0
 51
180.0
1001
GENIUS_GENOBJ-N-FIL_13
1002
{
1000
OWNER
1000
GEN
1002
}
1001
GENIUS_GENODEF_13
1002
{
1000
HIER
1070
     0
1002
}
1002
{
1000
MANEDIT
1070
     0
1002
}
1002
{
1000
NOSEL
1070
     0
1002
}
1002
{
1000
BEHIND
1070
     0
1002
}
1002
{
1000
OTHER
1070
     0
1002
}
1002
{
1000
REACTOR
1002
}
  0
LINE
  5
2BFE
  8
AM_0
 10
151.45512171939279
 20
485.22510513568432
 30
0.0
 11
179.45512171939279
 21
485.22510513568432
 31
0.0
  0
LINE
  5
2BFF
  8
AM_0
 10
151.45512171939279
 20
469.2251051356842
 30
0.0
 11
179.45512171939279
 21
469.2251051356842
 31
0.0
  0
LINE
  5
2C00
  8
AM_0
 10
151.45512171939279
 20
485.22510513568432
 30
0.0
 11
151.45512171939279
 21
469.2251051356842
 31
0.0
  0
LINE
  5
2C01
  8
AM_0
 10
151.45512171939279
 20
474.72510513568409
 30
0.0
 11
173.45512171939279
 21
474.72510513568409
 31
0.0
  0
LINE
  5
2C02
  8
AM_0
 10
151.45512171939279
 20
479.7251051356842
 30
0.0
 11
173.45512171939279
 21
479.7251051356842
 31
0.0
  0
LINE
  5
2C03
  8
AM_0
 10
173.45512171939279
 20
479.7251051356842
 30
0.0
 11
173.45512171939279
 21
474.72510513568409
 31
0.0
  0
ARC
  5
2C04
  8
AM_0
 10
173.45512171939279
 20
477.22510513568432
 30
0.0
 40
2.5
 50
270.0
 51
90.0
  0
LINE
  5
2C05
  8
AM_0
 10
179.45512171939279
 20
485.7251051356842
 30
0.0
 11
179.45512171939279
 21
468.72510513568432
 31
0.0
  0
LINE
  5
2C06
  8
AM_0
 10
179.45512171939279
 20
468.72511046873427
 30
0.0
 11
181.45512171939279
 21
468.7251094021243
 31
0.0
  0
LINE
  5
2C07
  8
AM_0
 10
185.45512171939279
 20
504.22510513568409
 30
0.0
 11
204.31298156570881
 21
504.22510513568409
 31
0.0
  0
LINE
  5
2C08
  8
AM_0
 10
179.45512171939279
 20
485.7251051356842
 30
0.0
 11
181.45512171939279
 21
485.7251051356842
 31
0.0
  0
ARC
  5
2C09
  8
AM_0
 10
182.45512171939279
 20
494.31089157331121
 30
0.0
 40
1.0
 50
135.0
 51
180.0
1001
GENIUS_GENODEF_13
1002
{
1000
HIER
1070
     0
1002
}
1002
{
1000
MANEDIT
1070
     0
1002
}
1002
{
1000
NOSEL
1070
     0
1002
}
1002
{
1000
BEHIND
1070
     0
1002
}
1002
{
1000
OTHER
1070
     0
1002
}
1002
{
1000
REACTOR
1002
}
1001
GENIUS_GENOBJ-N-FIL_13
1002
{
1000
OWNER
1000
GEN
1002
}
  0
ARC
  5
2C0A
  8
AM_0
 10
182.45512171939279
 20
497.13931869805742
 30
0.0
 40
1.0
 50
315.0
 51
0.0
1001
GENIUS_GENODEF_13
1002
{
1000
HIER
1070
     0
1002
}
1002
{
1000
MANEDIT
1070
     0
1002
}
1002
{
1000
NOSEL
1070
     0
1002
}
1002
{
1000
BEHIND
1070
     0
1002
}
1002
{
1000
OTHER
1070
     0
1002
}
1002
{
1000
REACTOR
1002
}
1001
GENIUS_GENOBJ-N-FIL_13
1002
{
1000
OWNER
1000
GEN
1002
}
  0
LINE
  5
2C0B
  8
AM_0
 10
181.7480149382063
 20
495.01799835449759
 30
0.0
 11
183.1622285005794
 21
496.4322119168707
 31
0.0
  0
LINE
  5
2C0C
  8
AM_0
 10
248.9551095600452
 20
541.22510513568432
 30
0.0
 11
239.95510956004529
 21
541.22510513568432
 31
0.0
  0
LINE
  5
2C0D
  8
AM_0
 10
248.9551095600452
 20
528.72510513568432
 30
0.0
 11
238.95510956004551
 21
528.72510513568432
 31
0.0
  0
LINE
  5
2C0E
  8
AM_0
 10
248.9551095600452
 20
515.22141513568431
 30
0.0
 11
238.95510956004551
 21
515.22141513568431
 31
0.0
  0
ARC
  5
2C0F
  8
AM_0
 10
233.95510956004529
 20
536.79616531815498
 30
0.0
 40
5.0
 50
315.0
 51
0.0
1001
GENIUS_GENODEF_13
1002
{
1000
HIER
1070
     0
1002
}
1002
{
1000
MANEDIT
1070
     0
1002
}
1002
{
1000
NOSEL
1070
     0
1002
}
1002
{
1000
BEHIND
1070
     0
1002
}
1002
{
1000
OTHER
1070
     0
1002
}
1002
{
1000
REACTOR
1002
}
1001
GENIUS_GENOBJ-N-FIL_13
1002
{
1000
OWNER
1000
GEN
1002
}
  0
ARC
  5
2C10
  8
AM_0
 10
239.95510956004529
 20
540.2251051356842
 30
0.0
 40
1.0
 50
90.0
 51
180.0
1001
GENIUS_GENODEF_13
1002
{
1000
HIER
1070
     0
1002
}
1002
{
1000
MANEDIT
1070
     0
1002
}
1002
{
1000
NOSEL
1070
     0
1002
}
1002
{
1000
BEHIND
1070
     0
1002
}
1002
{
1000
OTHER
1070
     0
1002
}
1002
{
1000
REACTOR
1002
}
1001
GENIUS_GENOBJ-N-FIL_13
1002
{
1000
OWNER
1000
GEN
1002
}
  0
ARC
  5
2C12
  8
ﾁｭｳｼﾝｾﾝ1
 10
565.21567491051565
 20
243.74733435478191
 30
0.0
 40
100.0000109999999
 50
307.75737500000002
 51
322.63991600000008
  0
LINE
  5
2C13
  8
ﾁｭｳｼﾝｾﾝ1
 10
642.92524706814845
 20
166.03772955069411
 30
0.0
 11
628.37438178831712
 21
180.5886179842864
 31
0.0
  0
ARC
  5
2C14
  8
ﾁｭｳｼﾝｾﾝ1
 10
565.21567491051565
 20
243.74733435478191
 30
0.0
 40
100.0000109999999
 50
127.7573799999998
 51
142.6399199999999
  0
LINE
  5
2C15
  8
ﾁｭｳｼﾝｾﾝ1
 10
487.7502510609134
 20
321.2127750814206
 30
0.0
 11
502.18957693942059
 21
306.77342388776032
 31
0.0
  0
LINE
  5
2C16
  8
ﾁｭｳｼﾝｾﾝ1
 10
144.04804328076111
 20
477.22510513568432
 30
0.0
 11
399.17476956004521
 21
477.22510513568432
 31
0.0
  0
LINE
  5
2C17
  8
AM_0
 10
392.95507956004519
 20
491.22510513568409
 30
0.0
 11
392.95507956004519
 21
463.2251051356842
 31
0.0
  0
LINE
  5
2C18
  8
AM_0
 10
352.95510956004512
 20
492.2251051356842
 30
0.0
 11
352.95510956004512
 21
462.22510513568409
 31
0.0
  0
LINE
  5
2C19
  8
AM_0
 10
349.95510956004512
 20
547.22510513568432
 30
0.0
 11
349.95510956004512
 21
407.22510513568398
 31
0.0
  0
LINE
  5
2C1A
  8
AM_0
 10
339.95507956004519
 20
410.44375513568423
 30
0.0
 11
339.95507956004519
 21
544.00644513568432
 31
0.0
  0
LINE
  5
2C1B
  8
AM_0
 10
345.95507956004519
 20
392.2251051356842
 30
0.0
 11
345.95507956004519
 21
562.22513513568424
 31
0.0
  0
LINE
  5
2C1C
  8
AM_0
 10
317.95507956004519
 20
547.61407513568429
 30
0.0
 11
317.95507956004519
 21
406.8361251356842
 31
0.0
  0
LINE
  5
2C1D
  8
AM_0
 10
350.95507956004519
 20
451.69076513568422
 30
0.0
 11
350.95507956004519
 21
502.75940513568418
 31
0.0
  0
LINE
  5
2C1E
  8
AM_0
 10
248.9551095600452
 20
413.2251051356842
 30
0.0
 11
248.9551095600452
 21
541.22510513568432
 31
0.0
  0
LINE
  5
2C1F
  8
AM_0
 10
278.95510956004517
 20
408.3567251356842
 30
0.0
 11
278.95510956004517
 21
546.09347513568423
 31
0.0
  0
LINE
  5
2C20
  8
AM_0
 10
285.95507956004519
 20
548.2251051356842
 30
0.0
 11
285.95507956004519
 21
406.22510513568432
 31
0.0
  0
LINE
  5
2C21
  8
AM_0
 10
316.97869956004519
 20
405.4126951356842
 30
0.0
 11
285.95507956004519
 21
406.22507513568428
 31
0.0
  0
LINE
  5
2C22
  8
AM_0
 10
248.9551095600452
 20
440.07507513568419
 30
0.0
 11
278.95510956004517
 21
440.07507513568419
 31
0.0
  0
LINE
  5
2C23
  8
AM_0
 10
248.9551095600452
 20
425.18506513568428
 30
0.0
 11
278.95510956004517
 21
425.18506513568428
 31
0.0
  0
LINE
  5
2C24
  8
AM_0
 10
274.19490956004518
 20
413.06418513568423
 30
0.0
 11
248.9551395600453
 21
413.7251051356842
 31
0.0
  0
ARC
  5
2C25
  8
AM_0
 10
280.95510956004517
 20
408.3567251356842
 30
0.0
 40
2.0
 50
180.00001000000091
 51
268.5000000000004
  0
LINE
  5
2C26
  8
AM_0
 10
273.95507956004531
 20
414.01382513568433
 30
0.0
 11
273.95507956004531
 21
423.18506513568411
 31
0.0
  0
ARC
  5
2C27
  8
AM_0
 10
275.95507956004531
 20
414.01382513568433
 30
0.0
 40
2.0
 50
180.00001000000091
 51
270.0
  0
ARC
  5
2C28
  8
AM_0
 10
276.95510956004517
 20
410.01382513568433
 30
0.0
 40
2.0
 50
0.0
 51
90.000003000000945
  0
LINE
  5
2C29
  8
AM_0
 10
275.95507956004531
 20
412.01382513568399
 30
0.0
 11
276.95510956004517
 21
412.01382513568399
 31
0.0
  0
ARC
  5
2C2A
  8
AM_0
 10
271.95507956004519
 20
423.18506513568411
 30
0.0
 40
2.0
 50
0.0
 51
90.000003000000945
  0
LINE
  5
2C2B
  8
AM_0
 10
285.95510956004517
 20
406.22510513568432
 30
0.0
 11
280.90276956004521
 21
406.35739513568421
 31
0.0
  0
LINE
  5
2C2C
  8
AM_0
 10
335.95507956004519
 20
435.2734451356842
 30
0.0
 11
335.95507956004519
 21
394.50571513568423
 31
0.0
  0
LINE
  5
2C2D
  8
AM_0
 10
337.88524956004522
 20
392.50690513568418
 30
0.0
 11
345.9550495600451
 21
392.2251051356842
 31
0.0
  0
ARC
  5
2C2E
  8
AM_0
 10
337.95510956004517
 20
394.50571513568423
 30
0.0
 40
2.0
 50
179.9999899999988
 51
268.00000999999861
  0
LINE
  5
2C2F
  8
AM_0
 10
352.95510956004512
 20
463.2251051356842
 30
0.0
 11
392.95507956004519
 21
463.2251051356842
 31
0.0
  0
LINE
  5
2C30
  8
AM_0
 10
333.49788956004522
 20
418.54724513568431
 30
0.0
 11
320.41228956004522
 21
426.27627513568422
 31
0.0
  0
LINE
  5
2C31
  8
AM_0
 10
333.4979195600452
 20
415.0630251356842
 30
0.0
 11
320.4122295600452
 21
422.7920851356842
 31
0.0
  0
LINE
  5
2C32
  8
AM_0
 10
320.8765895600452
 20
403.83716513568407
 30
0.0
 11
333.0336295600452
 21
403.51883513568418
 31
0.0
  0
LINE
  5
2C33
  8
AM_0
 10
318.95507956004519
 20
429.5269851356843
 30
0.0
 11
333.95507956004519
 21
429.5269851356843
 31
0.0
  0
ARC
  5
2C34
  8
AM_0
 10
316.90014956004512
 20
402.41373513568408
 30
0.0
 40
3.0
 50
47.481952000001627
 51
88.499997000000747
  0
ARC
  5
2C35
  8
AM_0
 10
320.95507956004519
 20
406.8361251356842
 30
0.0
 40
3.0
 50
179.9999899999988
 51
268.50000999999872
  0
ARC
  5
2C36
  8
AM_0
 10
322.95507956004519
 20
430.58142513568401
 30
0.0
 40
5.0
 50
179.9999899999988
 51
239.431710000001
  0
ARC
  5
2C37
  8
AM_0
 10
318.95507956004519
 20
430.52698513568407
 30
0.0
 40
1.0
 50
179.9999899999988
 51
270.0
  0
ARC
  5
2C38
  8
AM_0
 10
322.95507956004519
 20
427.0971751356841
 30
0.0
 40
5.0
 50
179.9999899999988
 51
239.431710000001
  0
ARC
  5
2C39
  8
AM_0
 10
330.95507956004519
 20
414.24213513568412
 30
0.0
 40
5.0
 50
0.0
 51
59.431709000000481
  0
ARC
  5
2C3A
  8
AM_0
 10
332.95507956004519
 20
400.51984513568431
 30
0.0
 40
3.0
 50
0.0
 51
88.499997000000747
  0
ARC
  5
2C3B
  8
AM_0
 10
336.95507956004519
 20
410.44375513568423
 30
0.0
 40
3.0
 50
270.0
 51
0.0
  0
ARC
  5
2C3C
  8
AM_0
 10
330.95507956004519
 20
410.75787513568417
 30
0.0
 40
5.0
 50
0.0
 51
59.431709000000481
  0
LINE
  5
2C3D
  8
AM_0
 10
345.95507956004519
 20
407.22510513568398
 30
0.0
 11
349.95510956004512
 21
407.22510513568398
 31
0.0
  0
ARC
  5
2C3E
  8
AM_0
 10
333.95507956004519
 20
427.5269851356843
 30
0.0
 40
2.0
 50
0.0
 51
90.000003000000945
  0
ARC
  5
2C3F
  8
AM_0
 10
338.95507956004519
 20
435.2734451356842
 30
0.0
 40
3.0
 50
90.000003000000945
 51
180.00001000000091
  0
ARC
  5
2C40
  8
AM_0
 10
349.95507956004519
 20
451.69076513568422
 30
0.0
 40
1.0
 50
272.0000000000004
 51
0.0
  0
LINE
  5
2C41
  8
AM_0
 10
349.95510956004512
 20
450.69018513568398
 30
0.0
 11
349.98998956004522
 21
450.69141513568422
 31
0.0
  0
LINE
  5
2C42
  8
AM_0
 10
350.95507956004519
 20
462.22510513568409
 30
0.0
 11
352.95510956004512
 21
462.22510513568409
 31
0.0
  0
LINE
  5
2C43
  8
AM_0
 10
316.9786695600452
 20
549.03747513568385
 30
0.0
 11
285.95507956004519
 21
548.2251051356842
 31
0.0
  0
ARC
  5
2C44
  8
AM_0
 10
280.95510956004517
 20
546.09347513568423
 30
0.0
 40
2.0
 50
91.500001000001546
 51
180.00001000000091
  0
LINE
  5
2C45
  8
AM_0
 10
248.9551095600452
 20
529.26514513568407
 30
0.0
 11
278.95510956004517
 21
529.26514513568407
 31
0.0
  0
LINE
  5
2C46
  8
AM_0
 10
248.9551095600452
 20
514.37512513568424
 30
0.0
 11
278.95510956004517
 21
514.37512513568424
 31
0.0
  0
LINE
  5
2C47
  8
AM_0
 10
274.19490956004518
 20
541.38602513568424
 30
0.0
 11
248.9551395600453
 21
540.72510513568432
 31
0.0
  0
LINE
  5
2C48
  8
AM_0
 10
273.95507956004531
 20
540.43640513568425
 30
0.0
 11
273.95507956004531
 21
531.26514513568429
 31
0.0
  0
ARC
  5
2C49
  8
AM_0
 10
271.95507956004519
 20
531.26514513568429
 30
0.0
 40
2.0
 50
270.0
 51
0.0
  0
ARC
  5
2C4A
  8
AM_0
 10
275.95507956004531
 20
540.43640513568425
 30
0.0
 40
2.0
 50
90.000003000000945
 51
180.00001000000091
  0
ARC
  5
2C4B
  8
AM_0
 10
276.95510956004517
 20
544.43640513568425
 30
0.0
 40
2.0
 50
270.0
 51
0.0
  0
LINE
  5
2C4C
  8
AM_0
 10
275.95507956004531
 20
542.43640513568425
 30
0.0
 11
276.95510956004517
 21
542.43640513568425
 31
0.0
  0
LINE
  5
2C4D
  8
AM_0
 10
285.95507956004519
 20
548.2251051356842
 30
0.0
 11
280.90276956004521
 21
548.0928051356841
 31
0.0
  0
ARC
  5
2C4E
  8
AM_0
 10
336.95507956004519
 20
544.00644513568432
 30
0.0
 40
3.0
 50
0.0
 51
90.000003000000945
  0
LINE
  5
2C4F
  8
AM_0
 10
335.95507956004519
 20
519.17676513568415
 30
0.0
 11
335.95507956004519
 21
559.94449513568429
 31
0.0
  0
LINE
  5
2C50
  8
AM_0
 10
352.95510956004512
 20
491.22510513568409
 30
0.0
 11
392.95507956004519
 21
491.22510513568409
 31
0.0
  0
LINE
  5
2C51
  8
AM_0
 10
350.95507956004519
 20
492.2251051356842
 30
0.0
 11
352.95510956004512
 21
492.2251051356842
 31
0.0
  0
ARC
  5
2C52
  8
AM_0
 10
349.95507956004519
 20
502.75940513568418
 30
0.0
 40
1.0
 50
0.0
 51
87.999999999999659
  0
LINE
  5
2C53
  8
AM_0
 10
349.95510956004512
 20
503.76001513568423
 30
0.0
 11
349.98995956004518
 21
503.7587951356843
 31
0.0
  0
LINE
  5
2C54
  8
AM_0
 10
333.4979195600452
 20
539.38718513568415
 30
0.0
 11
320.41225956004507
 21
531.65811513568406
 31
0.0
  0
LINE
  5
2C55
  8
AM_0
 10
333.4979195600452
 20
535.90295513568424
 30
0.0
 11
320.41225956004507
 21
528.17389513568423
 31
0.0
  0
LINE
  5
2C56
  8
AM_0
 10
318.95507956004519
 20
524.92322513568433
 30
0.0
 11
333.95507956004519
 21
524.92322513568433
 31
0.0
  0
ARC
  5
2C57
  8
AM_0
 10
322.95507956004519
 20
527.35303513568431
 30
0.0
 40
5.0
 50
120.5682899999989
 51
180.00001000000091
  0
ARC
  5
2C58
  8
AM_0
 10
322.95507956004519
 20
523.86877513568425
 30
0.0
 40
5.0
 50
120.5682899999989
 51
180.00001000000091
  0
ARC
  5
2C59
  8
AM_0
 10
318.95507956004519
 20
523.92322513568433
 30
0.0
 40
1.0
 50
90.000003000000945
 51
180.00001000000091
  0
ARC
  5
2C5A
  8
AM_0
 10
338.95507956004519
 20
519.17676513568415
 30
0.0
 40
3.0
 50
179.9999899999988
 51
270.0
  0
ARC
  5
2C5B
  8
AM_0
 10
333.95507956004519
 20
526.92322513568433
 30
0.0
 40
2.0
 50
270.0
 51
0.0
  0
ARC
  5
2C5C
  8
AM_0
 10
330.95507956004519
 20
540.20807513568423
 30
0.0
 40
5.0
 50
300.56828999999891
 51
0.0
  0
ARC
  5
2C5D
  8
AM_0
 10
330.95507956004519
 20
543.69232513568431
 30
0.0
 40
5.0
 50
300.56828999999891
 51
0.0
  0
LINE
  5
2C5E
  8
AM_0
 10
345.95507956004519
 20
547.22510513568432
 30
0.0
 11
349.95510956004512
 21
547.22510513568432
 31
0.0
  0
LINE
  5
2C5F
  8
AM_0
 10
360.95507956004519
 20
473.2251051356842
 30
0.0
 11
392.95507956004519
 21
473.2251051356842
 31
0.0
  0
LINE
  5
2C60
  8
AM_0
 10
360.95507956004519
 20
481.22507513568428
 30
0.0
 11
392.95507956004519
 21
481.22507513568428
 31
0.0
  0
ARC
  5
2C61
  8
AM_0
 10
360.95507956004519
 20
477.22507513568428
 30
0.0
 40
3.9999962
 50
90.000003000000945
 51
270.0
  0
LINE
  5
2C62
  8
AM_0
 10
360.95507956004519
 20
481.22507513568428
 30
0.0
 11
360.95507956004519
 21
473.2251051356842
 31
0.0
  0
LINE
  5
2C63
  8
AM_0
 10
320.87655956004522
 20
550.61304513568427
 30
0.0
 11
333.03359956004522
 21
550.93140513568426
 31
0.0
  0
ARC
  5
2C64
  8
AM_0
 10
320.95507956004519
 20
547.61407513568429
 30
0.0
 40
3.0
 50
91.500001000001546
 51
180.00001000000091
  0
ARC
  5
2C65
  8
AM_0
 10
316.90014956004512
 20
552.03644513568429
 30
0.0
 40
3.0
 50
271.49999999999932
 51
312.51811999999887
  0
LINE
  5
2C66
  8
AM_0
 10
337.88524956004522
 20
561.94333513568426
 30
0.0
 11
345.95507956004519
 21
562.22513513568424
 31
0.0
  0
ARC
  5
2C67
  8
AM_0
 10
332.95507956004519
 20
553.93036513568416
 30
0.0
 40
3.0
 50
271.49999999999932
 51
0.0
  0
ARC
  5
2C68
  8
AM_0
 10
337.95510956004517
 20
559.94449513568429
 30
0.0
 40
2.0
 50
91.999998000000545
 51
180.00001000000091
  0
TEXT
  5
2E45
  8
AM_0
 10
457.0456962338987
 20
486.91614868150037
 30
0.0
 40
10.0
  1
VX04-040GF~VX04-050GF
  0
ENDSEC
  0
EOF
