  0
SECTION
  2
HEADER
  9
$ACADVER
  1
AC1009
  9
$INSBASE
 10
0.0
 20
0.0
 30
0.0
  9
$EXTMIN
 10
130.20772003429889
 20
139.43774550671469
 30
-0.0000000000112498
  9
$EXTMAX
 10
676.53836237690211
 20
603.73880376339753
 30
0.0000000000002956
  9
$LIMMIN
 10
0.0
 20
0.0
  9
$LIMMAX
 10
853.5
 20
555.00000000000011
  9
$ORTHOMODE
 70
     0
  9
$REGENMODE
 70
     1
  9
$FILLMODE
 70
     1
  9
$QTEXTMODE
 70
     0
  9
$MIRRTEXT
 70
     1
  9
$DRAGMODE
 70
     2
  9
$LTSCALE
 40
3.0
  9
$OSMODE
 70
   551
  9
$ATTMODE
 70
     1
  9
$TEXTSIZE
 40
2.5
  9
$TRACEWID
 40
1.0
  9
$TEXTSTYLE
  7
STANDARD
  9
$CLAYER
  8
AM_0
  9
$CELTYPE
  6
BYLAYER
  9
$CECOLOR
 62
   256
  9
$DIMSCALE
 40
1.0
  9
$DIMASZ
 40
2.5
  9
$DIMEXO
 40
1.0
  9
$DIMDLI
 40
8.0
  9
$DIMRND
 40
0.0
  9
$DIMDLE
 40
0.0
  9
$DIMEXE
 40
0.6
  9
$DIMTP
 40
0.1
  9
$DIMTM
 40
0.1
  9
$DIMTXT
 40
2.5
  9
$DIMCEN
 40
0.0
  9
$DIMTSZ
 40
0.0
  9
$DIMTOL
 70
     0
  9
$DIMLIM
 70
     0
  9
$DIMTIH
 70
     0
  9
$DIMTOH
 70
     0
  9
$DIMSE1
 70
     0
  9
$DIMSE2
 70
     0
  9
$DIMTAD
 70
     1
  9
$DIMZIN
 70
     8
  9
$DIMBLK
  1

  9
$DIMASO
 70
     1
  9
$DIMSHO
 70
     1
  9
$DIMPOST
  1

  9
$DIMAPOST
  1
"
  9
$DIMALT
 70
     0
  9
$DIMALTD
 70
     2
  9
$DIMALTF
 40
0.0393701
  9
$DIMLFAC
 40
1.0
  9
$DIMTOFL
 70
     1
  9
$DIMTVP
 40
0.0
  9
$DIMTIX
 70
     0
  9
$DIMSOXD
 70
     0
  9
$DIMSAH
 70
     0
  9
$DIMBLK1
  1

  9
$DIMBLK2
  1

  9
$DIMSTYLE
  2
AM_ISO
  9
$DIMCLRD
 70
   256
  9
$DIMCLRE
 70
   256
  9
$DIMCLRT
 70
     4
  9
$DIMTFAC
 40
0.71
  9
$DIMGAP
 40
0.8
  9
$LUNITS
 70
     2
  9
$LUPREC
 70
     2
  9
$SKETCHINC
 40
1.0
  9
$FILLETRAD
 40
15.0
  9
$AUNITS
 70
     0
  9
$AUPREC
 70
     0
  9
$MENU
  1
.
  9
$ELEVATION
 40
0.0
  9
$PELEVATION
 40
0.0
  9
$THICKNESS
 40
0.0
  9
$LIMCHECK
 70
     0
  9
$BLIPMODE
 70
     0
  9
$CHAMFERA
 40
6.0
  9
$CHAMFERB
 40
3.0
  9
$SKPOLY
 70
     0
  9
$TDCREATE
 40
2452066.3926509959
  9
$TDUPDATE
 40
2458541.4415654629
  9
$TDINDWG
 40
0.0828368287
  9
$TDUSRTIMER
 40
0.0828366319
  9
$USRTIMER
 70
     1
  9
$ANGBASE
 50
0.0
  9
$ANGDIR
 70
     0
  9
$PDMODE
 70
     0
  9
$PDSIZE
 40
0.0
  9
$PLINEWID
 40
0.0
  9
$COORDS
 70
     1
  9
$SPLFRAME
 70
     0
  9
$SPLINETYPE
 70
     6
  9
$SPLINESEGS
 70
     8
  9
$ATTDIA
 70
     1
  9
$ATTREQ
 70
     1
  9
$HANDLING
 70
     1
  9
$HANDSEED
  5
2DD3
  9
$SURFTAB1
 70
     6
  9
$SURFTAB2
 70
     6
  9
$SURFTYPE
 70
     6
  9
$SURFU
 70
     6
  9
$SURFV
 70
     6
  9
$UCSNAME
  2

  9
$UCSORG
 10
0.0
 20
0.0
 30
0.0
  9
$UCSXDIR
 10
1.0
 20
0.0
 30
0.0
  9
$UCSYDIR
 10
0.0
 20
1.0
 30
0.0
  9
$PUCSNAME
  2

  9
$PUCSORG
 10
0.0
 20
0.0
 30
0.0
  9
$PUCSXDIR
 10
1.0
 20
0.0
 30
0.0
  9
$PUCSYDIR
 10
0.0
 20
1.0
 30
0.0
  9
$USERI1
 70
     0
  9
$USERI2
 70
     0
  9
$USERI3
 70
     0
  9
$USERI4
 70
     0
  9
$USERI5
 70
     0
  9
$USERR1
 40
0.0
  9
$USERR2
 40
0.0
  9
$USERR3
 40
0.0
  9
$USERR4
 40
0.0
  9
$USERR5
 40
0.0
  9
$WORLDVIEW
 70
     1
  9
$SHADEDGE
 70
     3
  9
$SHADEDIF
 70
    70
  9
$TILEMODE
 70
     1
  9
$MAXACTVP
 70
    64
  9
$PLIMCHECK
 70
     0
  9
$PEXTMIN
 10
1.0000000000000000E+020
 20
1.0000000000000000E+020
 30
1.0000000000000000E+020
  9
$PEXTMAX
 10
-1.0000000000000000E+020
 20
-1.0000000000000000E+020
 30
-1.0000000000000000E+020
  9
$PLIMMIN
 10
0.0
 20
0.0
  9
$PLIMMAX
 10
420.0
 20
297.0
  9
$UNITMODE
 70
     0
  9
$VISRETAIN
 70
     1
  9
$PLINEGEN
 70
     0
  9
$PSLTSCALE
 70
     1
  0
ENDSEC
  0
SECTION
  2
TABLES
  0
TABLE
  2
VPORT
 70
     1
  0
VPORT
  2
*ACTIVE
 70
     0
 10
0.0
 20
0.0
 11
1.0
 21
1.0
 12
403.37304120560049
 22
371.58827463505611
 13
0.0
 23
0.0
 14
7.5
 24
7.5
 15
30.0
 25
30.0
 16
0.0
 26
0.0
 36
1.0
 17
0.0
 27
0.0
 37
0.0
 40
467.48847970924589
 41
1.7571592210767459
 42
50.0
 43
0.0
 44
0.0
 50
0.0
 51
0.0
 71
     0
 72
   100
 73
     1
 74
     3
 75
     0
 76
     0
 77
     0
 78
     0
  0
ENDTAB
  0
TABLE
  2
LTYPE
 70
    26
  0
LTYPE
  2
CONTINUOUS
 70
     0
  3
Solid line
 72
    65
 73
     0
 40
0.0
  0
LTYPE
  2
AM_ISO02W050
 70
     0
  3
__ __ __ __ __ __ __ __ __ __ __ __ __ __ __
 72
    65
 73
     2
 40
7.5
 49
6.0
 49
-1.5
  0
LTYPE
  2
AM_ISO08W050
 70
     0
  3
____ . ____ . ____ . ____ . ____ . ____ . ____
 72
    65
 73
     4
 40
18.0
 49
12.0
 49
-1.5
 49
3.0
 49
-1.5
  0
LTYPE
  2
AM_ISO09W050
 70
     0
  3
_____ . . _____ . . _____ . . ____ .. ____
 72
    65
 73
     6
 40
22.5
 49
12.0
 49
-1.5
 49
3.0
 49
-1.5
 49
3.0
 49
-1.5
  0
LTYPE
  2
AMCONSTR
 70
     0
  3
_______________________
 72
    65
 73
     2
 40
9999.0
 49
9999.0
 49
0.0
  0
LTYPE
  2
AM_ISO08W050X2
 70
     0
  3
__ . __ . __ . __ . __ . __
 72
    65
 73
     4
 40
9.0
 49
6.0
 49
-0.75
 49
1.5
 49
-0.75
  0
LTYPE
  2
AM_ISO02W050X2
 70
     0
  3
 _ _ _ _ _ _ _ _ _ _ _ _
 72
    65
 73
     2
 40
3.75
 49
3.0
 49
-0.75
  0
LTYPE
  2
AMZIGZAG
 70
     0
  3
/\/-/\/-/\/-/\/-/\/-/\/
 72
    65
 73
     2
 40
11.000099999999991
 49
0.0001
 49
-11.0
  0
LTYPE
  2
ACISOWELD
 70
     0
  3
_ _ _ _ _
 72
    65
 73
     2
 40
2.0
 49
2.0
 49
-1.0
  0
LTYPE
  2
ACISOTGB
 70
     0
  3
__ . . __ . .
 72
    65
 73
     6
 40
9.0
 49
4.0
 49
-1.0
 49
1.0
 49
-1.0
 49
1.0
 49
-1.0
  0
LTYPE
  2
ACISOTGL
 70
     0
  3
_ _ _ _ _
 72
    65
 73
     2
 40
3.0
 49
2.0
 49
-1.0
  0
LTYPE
  2
CENTER
 70
     0
  3
__ . __
 72
    65
 73
     4
 40
7.0
 49
4.0
 49
-1.0
 49
1.0
 49
-1.0
  0
LTYPE
  2
PHANTOM2
 70
     0
  3
Phantom (.5x) ___ _ _ ___ _ _ ___ _ _ ___ _ _
 72
    65
 73
     6
 40
31.75
 49
15.875
 49
-3.174999999999998
 49
3.174999999999998
 49
-3.174999999999998
 49
3.174999999999998
 49
-3.174999999999998
  0
LTYPE
  2
ACANSTGBM
 70
     0
  3
__ . . __ . .
 72
    65
 73
     6
 40
9.0
 49
4.0
 49
-1.0
 49
1.0
 49
-1.0
 49
1.0
 49
-1.0
  0
LTYPE
  2
ACANSTGLM
 70
     0
  3
_ _ _ _ _
 72
    65
 73
     2
 40
3.0
 49
2.0
 49
-1.0
  0
LTYPE
  2
GEN7
 70
     0
  3
____ . ____ . ____ . ____ . ____ . ____ . ____
 72
    65
 73
     4
 40
14.25
 49
9.75
 49
-1.5
 49
1.5
 49
-1.5
  0
LTYPE
  2
GEN7A
 70
     0
  3
__ . __ . __
 72
    65
 73
     4
 40
7.375
 49
4.75
 49
-0.875
 49
0.875
 49
-0.875
  0
LTYPE
  2
ACJISTGB
 70
     0
  3
__ . . __ . .
 72
    65
 73
     6
 40
9.0
 49
4.0
 49
-1.0
 49
1.0
 49
-1.0
 49
1.0
 49
-1.0
  0
LTYPE
  2
ACJISTGL
 70
     0
  3
_ _ _ _ _
 72
    65
 73
     2
 40
3.0
 49
2.0
 49
-1.0
  0
LTYPE
  2
HIDDEN
 70
     0
  3
Hidden __ __ __ __ __ __ __ __ __ __ __ __ __ _
 72
    65
 73
     2
 40
0.375
 49
0.25
 49
-0.125
  0
LTYPE
  2
CENTER2
 70
     0
  3
Center (.5x) ___ _ ___ _ ___ _ ___ _ ___ _ ___
 72
    65
 73
     4
 40
1.125
 49
0.75
 49
-0.125
 49
0.125
 49
-0.125
  0
LTYPE
  2
HIDDEN2
 70
     0
  3
Hidden (.5x) _ _ _ _ _ _ _ _ _ _ _ _ _ _ _ _ _
 72
    65
 73
     2
 40
0.1875
 49
0.125
 49
-0.0625
  0
LTYPE
  2
AMZIGZAG2
 70
     0
  3
/\/-/\/-/\/-/\/-/\/-/\/
 72
    65
 73
     2
 40
0.4401
 49
0.0001
 49
-0.4400000000000002
  0
LTYPE
  2
ACANSTGB
 70
     0
  3
__ . . __ . .
 72
    65
 73
     6
 40
0.35433070866
 49
0.15748031496
 49
-0.03937007874
 49
0.03937007874
 49
-0.03937007874
 49
0.03937007874
 49
-0.03937007874
  0
LTYPE
  2
ACANSTGL
 70
     0
  3
_ _ _ _ _
 72
    65
 73
     2
 40
0.11811023622
 49
0.07874015748
 49
-0.03937007874
  0
ENDTAB
  0
TABLE
  2
LAYER
 70
     6
  0
LAYER
  2
0
 70
     0
 62
     7
  6
CONTINUOUS
  0
LAYER
  2
AM_0
 70
     0
 62
     7
  6
CONTINUOUS
  0
LAYER
  2
AM_5
 70
     0
 62
     2
  6
CONTINUOUS
  0
LAYER
  2
DEFPOINTS
 70
     0
 62
     7
  6
CONTINUOUS
  0
LAYER
  2
ﾁｭｳｼﾝｾﾝ
 70
     0
 62
     1
  6
GEN7
  0
LAYER
  2
ﾁｭｳｼﾝｾﾝ1
 70
     0
 62
     1
  6
GEN7A
  0
ENDTAB
  0
TABLE
  2
STYLE
 70
     9
  0
STYLE
  2
STANDARD
 70
     0
 40
0.0
 41
0.8299999999999999
 50
0.0
 71
     0
 42
2.5
  3
txt.shx
  4
bigfont.shx
  0
STYLE
  2
ANNOTATIVE
 70
     0
 40
0.0
 41
1.0
 50
0.0
 71
     0
 42
0.2
  3
txt
  4

  0
STYLE
  2

 70
     1
 40
0.0
 41
1.0
 50
0.0
 71
     0
 42
2.5
  3
ltypeshp.shx
  4

  0
STYLE
  2
ACISOTS
 70
     0
 40
1.0
 41
1.0
 50
0.0
 71
     0
 42
2.5
  3
isocp.shx
  4
extfont.shx
  0
STYLE
  2
ACISOGDT
 70
     0
 40
0.0
 41
1.0
 50
0.0
 71
     0
 42
2.5
  3
amgdt.shx
  4

  0
STYLE
  2
ACANSTS
 70
     0
 40
1.0
 41
1.0
 50
0.0
 71
     0
 42
2.5
  3
romans.shx
  4
bigfont.shx
  0
STYLE
  2
ACANSGDT
 70
     0
 40
0.0
 41
1.0
 50
0.0
 71
     0
 42
2.5
  3
amgdt.shx
  4

  0
STYLE
  2
ACJISTS
 70
     0
 40
1.0
 41
1.0
 50
0.0
 71
     0
 42
2.5
  3
isocp.shx
  4
bigfont.shx
  0
STYLE
  2
ACJISGDT
 70
     0
 40
0.0
 41
1.0
 50
0.0
 71
     0
 42
2.5
  3
amgdt.shx
  4

  0
ENDTAB
  0
TABLE
  2
VIEW
 70
     6
  0
VIEW
  2
AM_VIEW1
 70
     0
 40
277.49999999999989
 10
249.64779005524849
 20
416.24999999999989
 41
499.2955801104971
 11
0.0
 21
0.0
 31
1.0
 12
0.0
 22
0.0
 32
0.0
 42
50.0
 43
0.0
 44
0.0
 50
0.0
 71
     0
  0
VIEW
  2
AM_VIEW2
 70
     0
 40
277.49999999999989
 10
603.85220994475117
 20
416.24999999999989
 41
499.2955801104971
 11
0.0
 21
0.0
 31
1.0
 12
0.0
 22
0.0
 32
0.0
 42
50.0
 43
0.0
 44
0.0
 50
0.0
 71
     0
  0
VIEW
  2
AM_VIEW3
 70
     0
 40
277.49999999999989
 10
249.64779005524849
 20
138.7499999999998
 41
499.2955801104971
 11
0.0
 21
0.0
 31
1.0
 12
0.0
 22
0.0
 32
0.0
 42
50.0
 43
0.0
 44
0.0
 50
0.0
 71
     0
  0
VIEW
  2
AM_VIEW4
 70
     0
 40
277.49999999999989
 10
603.85220994475117
 20
138.7499999999998
 41
499.2955801104971
 11
0.0
 21
0.0
 31
1.0
 12
0.0
 22
0.0
 32
0.0
 42
50.0
 43
0.0
 44
0.0
 50
0.0
 71
     0
  0
VIEW
  2
AM_VIEW5
 70
     0
 40
277.5
 10
426.75
 20
277.49999999999989
 41
499.2955801104971
 11
0.0
 21
0.0
 31
1.0
 12
0.0
 22
0.0
 32
0.0
 42
50.0
 43
0.0
 44
0.0
 50
0.0
 71
     0
  0
VIEW
  2
AM_VIEW6
 70
     0
 40
554.99445000000014
 10
426.75
 20
277.49999999999989
 41
998.5811743093924
 11
0.0
 21
0.0
 31
1.0
 12
0.0
 22
0.0
 32
0.0
 42
50.0
 43
0.0
 44
0.0
 50
0.0
 71
     0
  0
ENDTAB
  0
TABLE
  2
UCS
 70
     0
  0
ENDTAB
  0
TABLE
  2
APPID
 70
    95
  0
APPID
  2
ACAD
 70
     0
  0
APPID
  2
ACADANNOTATIVE
 70
     0
  0
APPID
  2
MCAD_NO_VIS
 70
     0
  0
APPID
  2
ACAD_TEMP_GRAPHIC
 70
     0
  0
APPID
  2
ACATTRIBSERVICES
 70
     0
  0
APPID
  2
GENIUS_GENREC_14
 70
     0
  0
APPID
  2
GENIUS_GENOBJ-N-REC_13
 70
     0
  0
APPID
  2
GENIUS_GENODEF_13
 70
     0
  0
APPID
  2
GENIUS_GENOLIS_13
 70
     0
  0
APPID
  2
GENIUS_GENOBJ-N-TIT_13
 70
     0
  0
APPID
  2
GENIUS_GENOENT_13
 70
     0
  0
APPID
  2
GENIUS_GENTITLE_13
 70
     0
  0
APPID
  2
GENIUS_GENOREF_13
 70
     0
  0
APPID
  2
GENIUS_GENSCREG_15
 70
     0
  0
APPID
  2
GENIUS_GENOBJ-N-SDF_13
 70
     0
  0
APPID
  2
GENIUS_GENFIL_13
 70
     0
  0
APPID
  2
GENIUS_GENOBJ-N-CHA_13
 70
     0
  0
APPID
  2
GENIUS_GENDTOL_13
 70
     0
  0
APPID
  2
GENIUS_GENOBJ-N-FIL_13
 70
     0
  0
APPID
  2
AD_DRAW
 70
     0
  0
APPID
  2
DESIGNERASSEMBLIES
 70
     0
  0
APPID
  2
ASURF_PCURVE_APPNAME
 70
     0
  0
APPID
  2
GENIUS_GE3SECT_13
 70
     0
  0
APPID
  2
GENIUS_GENCFG_13
 70
     0
  0
APPID
  2
GENIUS_GE3CFG0_13
 70
     0
  0
APPID
  2
GENIUS_GENCFG0_13
 70
     0
  0
APPID
  2
GENIUS_GENCFG1_13
 70
     0
  0
APPID
  2
GENIUS_GENCFG2_13
 70
     0
  0
APPID
  2
GENIUS_GENCFG3_13
 70
     0
  0
APPID
  2
GENIUS_GENCFG4_13
 70
     0
  0
APPID
  2
GENIUS_GEVCFG0_13
 70
     0
  0
APPID
  2
GENIUS_GENHINW_13
 70
     0
  0
APPID
  2
GENIUS_FIRSTVISTXT_14
 70
     0
  0
APPID
  2
GENIUS_GENOBJ-N-LEADER_13
 70
     0
  0
APPID
  2
GEV_VCCNULL_SWITCH_OFF
 70
     0
  0
APPID
  2
GENIUS_GEFCFG0_13
 70
     0
  0
APPID
  2
GENIUS_GENZVEED_13
 70
     0
  0
APPID
  2
GENIUS_GENSCREG_13
 70
     0
  0
APPID
  2
GENIUS_DUMCFG0_13
 70
     0
  0
APPID
  2
GEVID936201362
 70
     0
  0
APPID
  2
GEVDC
 70
     0
  0
APPID
  2
GEVCON
 70
     0
  0
APPID
  2
VCC
 70
     0
  0
APPID
  2
GEVPT
 70
     0
  0
APPID
  2
GEVIT
 70
     0
  0
APPID
  2
GENBH
 70
     0
  0
APPID
  2
GEVMK
 70
     0
  0
APPID
  2
GENIUS_GENBH_13
 70
     0
  0
APPID
  2
GENIUS_GENOBJ-NBEHI-BHF_13
 70
     0
  0
APPID
  2
GENIUS_GENOBJ-NBEHI-BHB_13
 70
     0
  0
APPID
  2
GENIUS_GENOBJ-F-DESC_13
 70
     0
  0
APPID
  2
GENIUS_GEFDESC_14
 70
     0
  0
APPID
  2
GENIUS_GENOBJ-F-PART_13
 70
     0
  0
APPID
  2
GENIUS_GEFSTDP_13
 70
     0
  0
APPID
  2
GENIUS_GEFPARTINS_13
 70
     0
  0
APPID
  2
GENIUS_GENTRA_14
 70
     0
  0
APPID
  2
GENIUS_GENINF13_13
 70
     0
  0
APPID
  2
GENIUS_GENOBJ-N-INFOPT_13
 70
     0
  0
APPID
  2
GENIUS_GENOBJ-N-RSSYM_13
 70
     0
  0
APPID
  2
GENIUS_GENSYMENT_13
 70
     0
  0
APPID
  2
GENIUS_GENSCSYM_13
 70
     0
  0
APPID
  2
GENIUS_GEFINFNAM_13
 70
     0
  0
APPID
  2
GENIUS_GENOBJ-N-CEN_13
 70
     0
  0
APPID
  2
GENIUS_GENOBJ-N-CRS_13
 70
     0
  0
APPID
  2
GENIUS_GENOBJ-N-CRC_13
 70
     0
  0
APPID
  2
GENIUS_GENCRC_14
 70
     0
  0
APPID
  2
GEVID942827039
 70
     0
  0
APPID
  2
GEVID942827040
 70
     0
  0
APPID
  2
GEVID942827041
 70
     0
  0
APPID
  2
GENIUS_GENOBJ-F-SCPASSM_13
 70
     0
  0
APPID
  2
GENIUS_GENDIMSH_14
 70
     0
  0
APPID
  2
GEVID942827042
 70
     0
  0
APPID
  2
GEVID946020473
 70
     0
  0
APPID
  2
GEVID946020474
 70
     0
  0
APPID
  2
GEVID946020475
 70
     0
  0
APPID
  2
GENIUS_GENOBJ-N-HTC_13
 70
     0
  0
APPID
  2
GENIUS_GENHATCH_13
 70
     0
  0
APPID
  2
GEVID948854295
 70
     0
  0
APPID
  2
GEVID939402019
 70
     0
  0
APPID
  2
GEVID952919491
 70
     0
  0
APPID
  2
GEVID952919492
 70
     0
  0
APPID
  2
GENIUS_GEFWELD_13
 70
     0
  0
APPID
  2
GENIUS_GENOBJ-F-WELS_13
 70
     0
  0
APPID
  2
GEVID952919493
 70
     0
  0
APPID
  2
GENIUS_GENOBJ-N-RSBK_13
 70
     0
  0
APPID
  2
GENIUS_GENOBJ-N-LIB_13
 70
     0
  0
APPID
  2
GENIUS_GENSCALE_13
 70
     0
  0
APPID
  2
GEVID986376691
 70
     0
  0
APPID
  2
DCO15
 70
     0
  0
APPID
  2
ACAD_DSTYLE_DIMBREAK
 70
     0
  0
APPID
  2
ACAD_DSTYLE_DIMJAG
 70
     0
  0
APPID
  2
ACAD_NAV_VCDISPLAY
 70
     0
  0
APPID
  2
ACADANNOPO
 70
     0
  0
APPID
  2
ACAD_EXEMPT_FROM_CAD_STANDARDS
 70
     0
  0
APPID
  2
ACAD_MLEADERVER
 70
     0
  0
ENDTAB
  0
TABLE
  2
DIMSTYLE
 70
    22
  0
DIMSTYLE
  2
STANDARD
 70
     0
  3

  4

  5

  6

  7

 40
1.0
 41
0.18
 42
0.0625
 43
0.38
 44
0.18
 45
0.0
 46
0.0
 47
0.0
 48
0.0
140
0.18
141
0.09
142
0.0
143
25.399999999999999
144
1.0
145
0.0
146
1.0
147
0.09
 71
     0
 72
     0
 73
     1
 74
     1
 75
     0
 76
     0
 77
     0
 78
     0
170
     0
171
     2
172
     0
173
     0
174
     0
175
     0
176
     0
177
     0
178
     0
  0
DIMSTYLE
  2
ANNOTATIVE
 70
     0
  3

  4

  5

  6

  7

 40
1.0
 41
0.18
 42
0.0625
 43
0.38
 44
0.18
 45
0.0
 46
0.0
 47
0.0
 48
0.0
140
0.18
141
0.09
142
0.0
143
25.399999999999999
144
1.0
145
0.0
146
1.0
147
0.09
 71
     0
 72
     0
 73
     1
 74
     1
 75
     0
 76
     0
 77
     0
 78
     0
170
     0
171
     2
172
     0
173
     0
174
     0
175
     0
176
     0
177
     0
178
     0
  0
DIMSTYLE
  2
AM_ISO
 70
     0
  3

  4
"
  5

  6

  7

 40
1.0
 41
2.5
 42
1.0
 43
8.0
 44
0.6
 45
0.0
 46
0.0
 47
0.1
 48
0.1
140
2.5
141
0.0
142
0.0
143
0.0393701
144
1.0
145
0.0
146
0.71
147
0.8
 71
     0
 72
     0
 73
     0
 74
     0
 75
     0
 76
     0
 77
     1
 78
     8
170
     0
171
     2
172
     1
173
     0
174
     0
175
     0
176
   256
177
   256
178
     4
  0
DIMSTYLE
  2
AM_ISO$3
 70
     0
  3

  4
"
  5

  6

  7

 40
1.0
 41
2.5
 42
1.0
 43
8.0
 44
0.6
 45
0.0
 46
0.0
 47
0.1
 48
0.1
140
2.5
141
0.0
142
0.0
143
0.0393701
144
1.0
145
0.0
146
0.71
147
0.8
 71
     0
 72
     0
 73
     0
 74
     1
 75
     0
 76
     0
 77
     1
 78
     8
170
     0
171
     2
172
     0
173
     0
174
     0
175
     0
176
   256
177
   256
178
     4
  0
DIMSTYLE
  2
AM_ISO$4
 70
     0
  3

  4
"
  5

  6

  7

 40
1.0
 41
2.5
 42
1.0
 43
8.0
 44
0.6
 45
0.0
 46
0.0
 47
0.1
 48
0.1
140
2.5
141
0.0
142
0.0
143
0.0393701
144
1.0
145
0.0
146
0.71
147
0.8
 71
     0
 72
     0
 73
     0
 74
     1
 75
     0
 76
     0
 77
     1
 78
     8
170
     0
171
     2
172
     0
173
     0
174
     0
175
     0
176
   256
177
   256
178
     4
  0
DIMSTYLE
  2
AM_ISO$6
 70
     0
  3

  4
"
  5

  6

  7

 40
1.0
 41
2.5
 42
1.0
 43
8.0
 44
0.6
 45
0.0
 46
0.0
 47
0.1
 48
0.1
140
2.5
141
0.0
142
0.0
143
0.0393701
144
1.0
145
0.0
146
0.71
147
0.8
 71
     0
 72
     0
 73
     0
 74
     0
 75
     0
 76
     0
 77
     0
 78
     8
170
     0
171
     2
172
     1
173
     0
174
     0
175
     0
176
   256
177
   256
178
     4
  0
DIMSTYLE
  2
AM_ISO$7
 70
     0
  3

  4
"
  5

  6

  7

 40
1.0
 41
2.5
 42
1.0
 43
8.0
 44
0.6
 45
0.0
 46
0.0
 47
0.1
 48
0.1
140
2.5
141
0.0
142
0.0
143
0.0393701
144
1.0
145
0.0
146
0.71
147
0.8
 71
     0
 72
     0
 73
     0
 74
     0
 75
     0
 76
     0
 77
     1
 78
     8
170
     0
171
     2
172
     1
173
     0
174
     0
175
     0
176
   256
177
   256
178
     4
  0
DIMSTYLE
  2
AM_ISO$SF
 70
     0
  3

  4
"
  5

  6

  7

 40
1.0
 41
2.5
 42
1.0
 43
10.0
 44
1.0
 45
0.0
 46
0.0
 47
0.1
 48
0.1
140
3.5
141
0.0
142
0.0
143
0.0393701
144
1.0
145
0.0
146
0.71
147
1.5
 71
     0
 72
     0
 73
     0
 74
     0
 75
     1
 76
     1
 77
     1
 78
     8
170
     0
171
     2
172
     1
173
     0
174
     0
175
     0
176
   256
177
   256
178
     2
  0
DIMSTYLE
  2
AM_ISO$SH
 70
     0
  3

  4
"
  5

  6

  7

 40
1.0
 41
2.5
 42
1.0
 43
10.0
 44
1.0
 45
0.0
 46
0.0
 47
0.1
 48
0.1
140
3.5
141
0.0
142
0.0
143
0.0393701
144
2.0
145
0.0
146
0.71
147
1.5
 71
     0
 72
     0
 73
     0
 74
     0
 75
     1
 76
     1
 77
     1
 78
     8
170
     0
171
     2
172
     1
173
     1
174
     0
175
     0
176
   256
177
   256
178
     2
  0
DIMSTYLE
  2
AM_JIS
 70
     0
  3

  4
"
  5

  6

  7

 40
1.0
 41
2.5
 42
1.0
 43
7.0
 44
1.0
 45
0.0
 46
0.0
 47
0.1
 48
0.1000000001
140
2.5
141
0.0
142
0.0
143
0.0393701
144
1.0
145
0.0
146
0.71
147
1.0
 71
     0
 72
     0
 73
     0
 74
     0
 75
     0
 76
     0
 77
     3
 78
     8
170
     0
171
     2
172
     1
173
     0
174
     0
175
     0
176
   256
177
   256
178
     4
  0
DIMSTYLE
  2
AM_JIS$3
 70
     0
  3

  4
"
  5

  6

  7

 40
1.0
 41
2.5
 42
1.0
 43
7.0
 44
1.0
 45
0.0
 46
0.0
 47
0.1
 48
0.1000000001
140
2.5
141
0.0
142
0.0
143
0.0393701
144
1.0
145
0.0
146
0.71
147
1.0
 71
     0
 72
     0
 73
     0
 74
     1
 75
     0
 76
     0
 77
     3
 78
     8
170
     0
171
     2
172
     0
173
     0
174
     0
175
     0
176
   256
177
   256
178
     4
  0
DIMSTYLE
  2
AM_JIS$4
 70
     0
  3

  4
"
  5

  6

  7

 40
1.0
 41
2.5
 42
1.0
 43
7.0
 44
1.0
 45
0.0
 46
0.0
 47
0.1
 48
0.1000000001
140
2.5
141
0.0
142
0.0
143
0.0393701
144
1.0
145
0.0
146
0.71
147
1.0
 71
     0
 72
     0
 73
     0
 74
     0
 75
     0
 76
     0
 77
     3
 78
     8
170
     0
171
     2
172
     0
173
     0
174
     0
175
     0
176
   256
177
   256
178
     4
  0
DIMSTYLE
  2
AM_JIS$6
 70
     0
  3

  4
"
  5

  6

  7

 40
1.0
 41
2.5
 42
1.0
 43
7.0
 44
1.0
 45
0.0
 46
0.0
 47
0.1
 48
0.1000000001
140
2.5
141
0.0
142
0.0
143
0.0393701
144
1.0
145
0.0
146
0.71
147
1.0
 71
     0
 72
     0
 73
     0
 74
     0
 75
     0
 76
     0
 77
     0
 78
     8
170
     0
171
     2
172
     1
173
     0
174
     0
175
     0
176
   256
177
   256
178
     4
  0
DIMSTYLE
  2
AM_JIS$7
 70
     0
  3

  4
"
  5

  6

  7

 40
1.0
 41
2.5
 42
1.0
 43
7.0
 44
1.0
 45
0.0
 46
0.0
 47
0.1
 48
0.1000000001
140
2.5
141
0.0
142
0.0
143
0.0393701
144
1.0
145
0.0
146
0.71
147
1.0
 71
     0
 72
     0
 73
     0
 74
     0
 75
     0
 76
     0
 77
     3
 78
     8
170
     0
171
     2
172
     1
173
     0
174
     0
175
     0
176
   256
177
   256
178
     4
  0
DIMSTYLE
  2
AM_JIS$SF
 70
     0
  3

  4
"
  5

  6

  7

 40
1.0
 41
2.5
 42
1.0
 43
10.0
 44
1.0
 45
0.0
 46
0.0
 47
0.1
 48
0.1
140
3.5
141
0.0
142
0.0
143
0.0393701
144
1.0
145
0.0
146
0.71
147
1.5
 71
     0
 72
     0
 73
     0
 74
     0
 75
     1
 76
     1
 77
     3
 78
     8
170
     0
171
     2
172
     1
173
     0
174
     0
175
     0
176
   256
177
   256
178
     4
  0
DIMSTYLE
  2
AM_JIS$SH
 70
     0
  3

  4
"
  5

  6

  7

 40
1.0
 41
2.5
 42
1.0
 43
10.0
 44
1.0
 45
0.0
 46
0.0
 47
0.1
 48
0.1
140
3.5
141
0.0
142
0.0
143
0.0393701
144
1.0
145
0.0
146
0.71
147
1.5
 71
     0
 72
     0
 73
     0
 74
     0
 75
     1
 76
     0
 77
     3
 78
     8
170
     0
171
     2
172
     1
173
     1
174
     0
175
     0
176
   256
177
   256
178
     4
  0
DIMSTYLE
  2
AM_ANSI
 70
     0
  3

  4
mm
  5

  6

  7

 40
1.0
 41
0.1
 42
0.05
 43
0.5
 44
0.1
 45
0.0
 46
0.0
 47
0.1
 48
0.1
140
0.12
141
0.0
142
0.0
143
25.399999999999999
144
1.0
145
0.0
146
0.71
147
0.06
 71
     0
 72
     0
 73
     1
 74
     1
 75
     0
 76
     0
 77
     0
 78
     7
170
     0
171
     2
172
     0
173
     0
174
     0
175
     0
176
   256
177
   256
178
     2
  0
DIMSTYLE
  2
AM_ANSI$3
 70
     0
  3

  4
mm
  5

  6

  7

 40
1.0
 41
0.1
 42
0.05
 43
0.5
 44
0.1
 45
0.0
 46
0.0
 47
0.1
 48
0.1
140
0.12
141
0.0
142
0.0
143
25.399999999999999
144
1.0
145
0.0
146
0.71
147
0.06
 71
     0
 72
     0
 73
     1
 74
     1
 75
     0
 76
     0
 77
     0
 78
     7
170
     0
171
     2
172
     0
173
     0
174
     0
175
     0
176
   256
177
   256
178
     2
  0
DIMSTYLE
  2
AM_ANSI$4
 70
     0
  3

  4
mm
  5

  6

  7

 40
1.0
 41
0.1
 42
0.05
 43
0.5
 44
0.1
 45
0.0
 46
0.0
 47
0.1
 48
0.1
140
0.12
141
0.0
142
0.0
143
25.399999999999999
144
1.0
145
0.0
146
0.71
147
0.06
 71
     0
 72
     0
 73
     1
 74
     1
 75
     0
 76
     0
 77
     0
 78
     7
170
     0
171
     2
172
     0
173
     0
174
     0
175
     0
176
   256
177
   256
178
     2
  0
DIMSTYLE
  2
AM_ANSI$7
 70
     0
  3

  4
mm
  5

  6

  7

 40
1.0
 41
0.1
 42
0.05
 43
0.5
 44
0.1
 45
0.0
 46
0.0
 47
0.1
 48
0.1
140
0.24
141
0.0
142
0.0
143
25.399999999999999
144
1.0
145
0.0
146
0.71
147
0.06
 71
     0
 72
     0
 73
     1
 74
     1
 75
     0
 76
     0
 77
     0
 78
     7
170
     0
171
     2
172
     0
173
     0
174
     0
175
     0
176
   256
177
   256
178
     2
  0
DIMSTYLE
  2
AM_ANSI$SF
 70
     0
  3

  4
mm
  5

  6

  7

 40
1.0
 41
0.1
 42
0.05
 43
0.5
 44
0.1
 45
0.0
 46
0.0
 47
0.1
 48
0.1
140
0.12
141
0.0
142
0.0
143
25.399999999999999
144
1.0
145
0.0
146
0.71
147
0.06
 71
     0
 72
     0
 73
     1
 74
     1
 75
     1
 76
     1
 77
     0
 78
     7
170
     0
171
     2
172
     0
173
     0
174
     0
175
     0
176
   256
177
   256
178
     2
  0
DIMSTYLE
  2
AM_ANSI$SH
 70
     0
  3

  4
mm
  5

  6

  7

 40
1.0
 41
0.1
 42
0.05
 43
0.5
 44
0.1
 45
0.0
 46
0.0
 47
0.1
 48
0.1
140
0.12
141
0.0
142
0.0
143
25.399999999999999
144
1.0
145
0.0
146
0.71
147
0.06
 71
     0
 72
     0
 73
     1
 74
     1
 75
     1
 76
     1
 77
     0
 78
     7
170
     0
171
     2
172
     0
173
     1
174
     0
175
     0
176
   256
177
   256
178
     2
  0
ENDTAB
  0
ENDSEC
  0
SECTION
  2
BLOCKS
  0
BLOCK
  8
0
  2
$MODEL_SPACE
 70
     0
 10
0.0
 20
0.0
 30
0.0
  3
$MODEL_SPACE
  1

  0
ENDBLK
  5
2C47
  8
0
  0
BLOCK
 67
     1
  8
0
  2
$PAPER_SPACE
 70
     0
 10
0.0
 20
0.0
 30
0.0
  3
$PAPER_SPACE
  1

  0
ENDBLK
  5
2C43
 67
     1
  8
0
  0
BLOCK
  8
0
  2
GENAXEH
 70
     0
 10
0.0
 20
0.0
 30
0.0
  3
GENAXEH
  1

  0
LINE
  5
2A53
  8
0
 10
-1.0
 20
0.0
 30
0.0
 11
1.0
 21
0.0
 31
0.0
  0
ENDBLK
  5
2A54
  8
0
  0
BLOCK
  8
0
  2
_OPEN30
 70
     0
 10
0.0
 20
0.0
 30
0.0
  3
_OPEN30
  1

  0
LINE
  5
2A57
  8
0
 62
     0
 10
-1.0
 20
0.26794919
 30
0.0
 11
0.0
 21
0.0
 31
0.0
  0
LINE
  5
2A58
  8
0
 62
     0
 10
0.0
 20
0.0
 30
0.0
 11
-1.0
 21
-0.26794919
 31
0.0
  0
LINE
  5
2A59
  8
0
 62
     0
 10
0.0
 20
0.0
 30
0.0
 11
-1.0
 21
0.0
 31
0.0
  0
ENDBLK
  5
2A5A
  8
0
  0
BLOCK
  8
0
  2
_NONE
 70
     0
 10
0.0
 20
0.0
 30
0.0
  3
_NONE
  1

  0
ENDBLK
  5
2A5D
  8
0
  0
BLOCK
  8
0
  2
_ACMFILLEDHALF
 70
     0
 10
0.0
 20
0.0
 30
0.0
  3
_ACMFILLEDHALF
  1

  0
TRACE
  5
2D3D
  8
AM_0
 62
     0
 10
-0.8
 20
0.0
 30
0.0
 11
-1.0
 21
0.166666666
 31
0.0
 12
0.0
 22
0.0
 32
0.0
 13
0.0
 23
0.0
 33
0.0
  0
LINE
  5
2D3E
  8
AM_0
 62
     0
 10
-1.0
 20
0.0
 30
0.0
 11
-0.8
 21
0.0
 31
0.0
  0
ENDBLK
  5
2D3C
  8
0
  0
ENDSEC
  0
SECTION
  2
ENTITIES
  0
ARC
  5
2A5E
  8
AM_0
 10
318.16967348713041
 20
272.06409317540641
 30
0.0
 40
24.832211399999991
 50
349.38167999999979
 51
47.544066000000022
  0
LINE
  5
2A5F
  8
AM_0
 10
224.03747739306331
 20
281.84964845194457
 30
0.0
 11
197.9308833046592
 21
255.74305436354109
 31
0.0
  0
LINE
  5
2A60
  8
AM_0
 10
225.5019434871304
 20
288.8141221754064
 30
0.0
 11
225.5019434871304
 21
162.8141221754064
 31
0.0
  0
LINE
  5
2A61
  8
AM_0
 10
358.00187348713052
 20
334.01408117540632
 30
0.0
 11
358.00187348713052
 21
164.01410117540641
 31
0.0
  0
LINE
  5
2A62
  8
AM_0
 10
279.0019434871304
 20
306.81413117540649
 30
0.0
 11
279.0019434871304
 21
144.8141041754063
 31
0.0
  0
LINE
  5
2A63
  8
AM_0
 10
262.00187348713041
 20
296.63645117540631
 30
0.0
 11
262.00187348713041
 21
147.3391441754064
 31
0.0
  0
LINE
  5
2A64
  8
AM_0
 10
235.5019434871304
 20
289.3140931754063
 30
0.0
 11
235.5019434871304
 21
162.3140581754063
 31
0.0
  0
LINE
  5
2A65
  8
AM_0
 10
344.00186348713021
 20
225.1037341754064
 30
0.0
 11
344.00186348713021
 21
300.13931117540631
 31
0.0
  0
LINE
  5
2A66
  8
AM_0
 10
348.0019134871302
 20
178.51408817540641
 30
0.0
 11
348.0019134871302
 21
319.18637117540652
 31
0.0
  0
LINE
  5
2A67
  8
AM_0
 10
354.00191348713031
 20
249.0141031754064
 30
0.0
 11
354.00191348713031
 21
341.51408117540637
 31
0.0
  0
LINE
  5
2A68
  8
ﾁｭｳｼﾝｾﾝ
 10
130.24658327821939
 20
225.8141221754064
 30
0.0
 11
257.17003805649341
 21
225.8141221754064
 31
0.0
  0
LINE
  5
2A69
  8
AM_0
 10
138.00195564647811
 20
217.8141221754064
 30
0.0
 11
166.00195564647811
 21
217.8141221754064
 31
0.0
  0
LINE
  5
2A6A
  8
AM_0
 10
138.00195564647811
 20
233.8141221754064
 30
0.0
 11
166.00195564647811
 21
233.8141221754064
 31
0.0
  0
LINE
  5
2A6B
  8
AM_0
 10
160.00195564647811
 20
233.8141221754064
 30
0.0
 11
160.00195564647811
 21
235.8141221754064
 31
0.0
  0
LINE
  5
2A6C
  8
AM_0
 10
138.00195564647811
 20
235.8141221754064
 30
0.0
 11
138.00195564647811
 21
217.8141221754064
 31
0.0
  0
LINE
  5
2A6D
  8
AM_0
 10
138.00195564647811
 20
235.8141221754064
 30
0.0
 11
160.00195564647811
 21
235.8141221754064
 31
0.0
  0
LINE
  5
2A6E
  8
AM_0
 10
279.0019434871304
 20
272.06409317540641
 30
0.0
 11
340.94720348713048
 21
272.06409317540641
 31
0.0
  0
LINE
  5
2A6F
  8
AM_0
 10
279.0019434871304
 20
159.70389017540629
 30
0.0
 11
344.00186348713021
 21
159.70389017540629
 31
0.0
  0
LINE
  5
2A70
  8
ﾁｭｳｼﾝｾﾝ
 10
240.6298127577079
 20
249.0141031754064
 30
0.0
 11
404.94965348713049
 21
249.0141031754064
 31
0.0
  0
LINE
  5
2A71
  8
AM_0
 10
279.00188348713021
 20
144.8141041754063
 30
0.0
 11
321.75581348713018
 21
143.32110917540641
 31
0.0
  0
LINE
  5
2A72
  8
AM_0
 10
224.03747739306331
 20
169.7785958988681
 30
0.0
 11
197.9308833046592
 21
195.8851899872719
 31
0.0
  0
LINE
  5
2A73
  8
AM_0
 10
272.00186348713032
 20
256.96329317540642
 30
0.0
 11
272.00186348713032
 21
166.2701431754063
 31
0.0
  0
LINE
  5
2A74
  8
AM_0
 10
235.5019434871304
 20
174.3140911754065
 30
0.0
 11
225.5019434871304
 21
174.3140911754065
 31
0.0
  0
LINE
  5
2A75
  8
AM_0
 10
235.5019434871304
 20
188.66614217540641
 30
0.0
 11
225.5019434871304
 21
188.66614217540641
 31
0.0
  0
LINE
  5
2A76
  8
AM_0
 10
235.5019434871304
 20
161.8141221754064
 30
0.0
 11
226.5019434871304
 21
161.8141221754064
 31
0.0
  0
ARC
  5
2A77
  8
AM_0
 10
220.5019434871304
 20
166.2430619929354
 30
0.0
 40
5.0
 50
0.0
 51
45.0
1001
GENIUS_GENODEF_13
1002
{
1000
HIER
1070
     0
1002
}
1002
{
1000
MANEDIT
1070
     0
1002
}
1002
{
1000
NOSEL
1070
     0
1002
}
1002
{
1000
BEHIND
1070
     0
1002
}
1002
{
1000
OTHER
1070
     0
1002
}
1002
{
1000
REACTOR
1002
}
1001
GENIUS_GENOBJ-N-FIL_13
1002
{
1000
OWNER
1000
GEN
1002
}
  0
ARC
  5
2A78
  8
AM_0
 10
226.5019434871304
 20
162.8141221754064
 30
0.0
 40
1.0
 50
180.0
 51
270.0
1001
GENIUS_GENODEF_13
1002
{
1000
HIER
1070
     0
1002
}
1002
{
1000
MANEDIT
1070
     0
1002
}
1002
{
1000
NOSEL
1070
     0
1002
}
1002
{
1000
BEHIND
1070
     0
1002
}
1002
{
1000
OTHER
1070
     0
1002
}
1002
{
1000
REACTOR
1002
}
1001
GENIUS_GENOBJ-N-FIL_13
1002
{
1000
OWNER
1000
GEN
1002
}
  0
LINE
  5
2A79
  8
AM_0
 10
279.00188348713021
 20
144.8141191754064
 30
0.0
 11
263.93210348713041
 21
145.34036417540631
 31
0.0
  0
ARC
  5
2A7A
  8
AM_0
 10
264.0019434871304
 20
147.3391441754064
 30
0.0
 40
2.00000007
 50
179.99998999999991
 51
268.00000999999992
  0
LINE
  5
2A7B
  8
AM_0
 10
235.5019434871304
 20
174.3141211754064
 30
0.0
 11
262.00187348713041
 21
174.3141211754064
 31
0.0
  0
LINE
  5
2A7C
  8
AM_0
 10
235.5019434871304
 20
188.66618717540641
 30
0.0
 11
262.00187348713041
 21
188.66618717540641
 31
0.0
  0
ARC
  5
2A7D
  8
AM_0
 10
259.00187348713041
 20
158.29681517540641
 30
0.0
 40
3.0
 50
0.0
 51
79.999998000000005
  0
LINE
  5
2A7E
  8
AM_0
 10
235.5018834871301
 20
162.3141211754064
 30
0.0
 11
257.72873348713023
 21
161.5379371754064
 31
0.0
  0
LINE
  5
2A7F
  8
AM_0
 10
258.14495348713018
 20
161.49420317540651
 30
0.0
 11
259.5228834871304
 21
161.25123917540651
 31
0.0
  0
ARC
  5
2A80
  8
AM_0
 10
257.62400348713021
 20
158.5397671754065
 30
0.0
 40
3.0
 50
79.999998000000005
 51
88.0
  0
LINE
  5
2A81
  8
AM_0
 10
264.0019434871304
 20
164.27013017540631
 30
0.0
 11
270.0019434871304
 21
164.27013017540631
 31
0.0
  0
ARC
  5
2A82
  8
AM_0
 10
264.0019434871304
 20
162.27012917540631
 30
0.0
 40
2.00000007
 50
90.000003000000007
 51
180.00001
  0
ARC
  5
2A83
  8
AM_0
 10
270.0019434871304
 20
166.2701431754063
 30
0.0
 40
2.00000007
 50
270.0
 51
0.0
  0
LINE
  5
2A84
  8
AM_0
 10
235.5019434871304
 20
262.9620421754064
 30
0.0
 11
225.5019434871304
 21
262.9620421754064
 31
0.0
  0
LINE
  5
2A85
  8
AM_0
 10
235.5019434871304
 20
277.31409317540641
 30
0.0
 11
225.5019434871304
 21
277.31409317540641
 31
0.0
  0
LINE
  5
2A86
  8
AM_0
 10
166.00195564647811
 20
234.3141221754064
 30
0.0
 11
166.00195564647811
 21
217.3141221754064
 31
0.0
  0
LINE
  5
2A87
  8
AM_0
 10
168.00195564647811
 20
242.8999086130334
 30
0.0
 11
168.00195564647811
 21
208.72833573777959
 31
0.0
  0
LINE
  5
2A88
  8
AM_0
 10
170.00195564647811
 20
200.8141221754064
 30
0.0
 11
170.00195564647811
 21
250.8141221754064
 31
0.0
  0
LINE
  5
2A89
  8
AM_0
 10
195.00195111652511
 20
252.8141221754064
 30
0.0
 11
195.00195111652511
 21
198.81412217540631
 31
0.0
  0
ARC
  5
2A8A
  8
AM_0
 10
190.85981549279401
 20
188.8141221754064
 30
0.0
 40
10.0
 50
45.0
 51
90.0
1001
GENIUS_GENODEF_13
1002
{
1000
HIER
1070
     0
1002
}
1002
{
1000
MANEDIT
1070
     0
1002
}
1002
{
1000
NOSEL
1070
     0
1002
}
1002
{
1000
BEHIND
1070
     0
1002
}
1002
{
1000
OTHER
1070
     0
1002
}
1002
{
1000
REACTOR
1002
}
1001
GENIUS_GENOBJ-N-FIL_13
1002
{
1000
OWNER
1000
GEN
1002
}
  0
LINE
  5
2A8B
  8
AM_0
 10
172.00195564647811
 20
198.8141221754064
 30
0.0
 11
190.85981549279401
 21
198.8141221754064
 31
0.0
  0
ARC
  5
2A8C
  8
AM_0
 10
172.00195564647811
 20
200.8141221754064
 30
0.0
 40
2.0
 50
180.0
 51
270.0
1001
GENIUS_GENOBJ-N-FIL_13
1002
{
1000
OWNER
1000
GEN
1002
}
1001
GENIUS_GENODEF_13
1002
{
1000
HIER
1070
     0
1002
}
1002
{
1000
MANEDIT
1070
     0
1002
}
1002
{
1000
NOSEL
1070
     0
1002
}
1002
{
1000
BEHIND
1070
     0
1002
}
1002
{
1000
OTHER
1070
     0
1002
}
1002
{
1000
REACTOR
1002
}
  0
LINE
  5
2A8D
  8
AM_0
 10
168.29484886529141
 20
208.02122895659301
 30
0.0
 11
169.70906242766429
 21
206.6070153942197
 31
0.0
  0
ARC
  5
2A8E
  8
AM_0
 10
169.00195564647811
 20
208.72833573777959
 30
0.0
 40
1.0
 50
180.0
 51
225.0
1001
GENIUS_GENODEF_13
1002
{
1000
HIER
1070
     0
1002
}
1002
{
1000
MANEDIT
1070
     0
1002
}
1002
{
1000
NOSEL
1070
     0
1002
}
1002
{
1000
BEHIND
1070
     0
1002
}
1002
{
1000
OTHER
1070
     0
1002
}
1002
{
1000
REACTOR
1002
}
1001
GENIUS_GENOBJ-N-FIL_13
1002
{
1000
OWNER
1000
GEN
1002
}
  0
ARC
  5
2A8F
  8
AM_0
 10
169.00195564647811
 20
205.89990861303329
 30
0.0
 40
1.0
 50
0.0
 51
45.0
1001
GENIUS_GENODEF_13
1002
{
1000
HIER
1070
     0
1002
}
1002
{
1000
MANEDIT
1070
     0
1002
}
1002
{
1000
NOSEL
1070
     0
1002
}
1002
{
1000
BEHIND
1070
     0
1002
}
1002
{
1000
OTHER
1070
     0
1002
}
1002
{
1000
REACTOR
1002
}
1001
GENIUS_GENOBJ-N-FIL_13
1002
{
1000
OWNER
1000
GEN
1002
}
  0
LINE
  5
2A90
  8
AM_0
 10
166.00195564647811
 20
217.31412750845641
 30
0.0
 11
168.00195564647811
 21
217.3141264418465
 31
0.0
  0
ARC
  5
2A91
  8
AM_0
 10
190.85981549279401
 20
262.8141221754064
 30
0.0
 40
10.0
 50
270.0
 51
315.0
1001
GENIUS_GENODEF_13
1002
{
1000
HIER
1070
     0
1002
}
1002
{
1000
MANEDIT
1070
     0
1002
}
1002
{
1000
NOSEL
1070
     0
1002
}
1002
{
1000
BEHIND
1070
     0
1002
}
1002
{
1000
OTHER
1070
     0
1002
}
1002
{
1000
REACTOR
1002
}
1001
GENIUS_GENOBJ-N-FIL_13
1002
{
1000
OWNER
1000
GEN
1002
}
  0
LINE
  5
2A92
  8
AM_0
 10
172.00195564647811
 20
252.8141221754064
 30
0.0
 11
190.85981549279401
 21
252.8141221754064
 31
0.0
  0
LINE
  5
2A93
  8
AM_0
 10
168.29484886529141
 20
243.6070153942197
 30
0.0
 11
169.70906242766429
 21
245.02122895659289
 31
0.0
  0
ARC
  5
2A94
  8
AM_0
 10
169.00195564647811
 20
242.8999086130334
 30
0.0
 40
1.0
 50
135.0
 51
180.0
1001
GENIUS_GENODEF_13
1002
{
1000
HIER
1070
     0
1002
}
1002
{
1000
MANEDIT
1070
     0
1002
}
1002
{
1000
NOSEL
1070
     0
1002
}
1002
{
1000
BEHIND
1070
     0
1002
}
1002
{
1000
OTHER
1070
     0
1002
}
1002
{
1000
REACTOR
1002
}
1001
GENIUS_GENOBJ-N-FIL_13
1002
{
1000
OWNER
1000
GEN
1002
}
  0
LINE
  5
2A95
  8
AM_0
 10
166.00195564647811
 20
234.3141221754064
 30
0.0
 11
168.00195564647811
 21
234.3141221754064
 31
0.0
  0
ARC
  5
2A96
  8
AM_0
 10
172.00195564647811
 20
250.8141221754064
 30
0.0
 40
2.0
 50
90.0
 51
180.0
1001
GENIUS_GENOBJ-N-FIL_13
1002
{
1000
OWNER
1000
GEN
1002
}
1001
GENIUS_GENODEF_13
1002
{
1000
HIER
1070
     0
1002
}
1002
{
1000
MANEDIT
1070
     0
1002
}
1002
{
1000
NOSEL
1070
     0
1002
}
1002
{
1000
BEHIND
1070
     0
1002
}
1002
{
1000
OTHER
1070
     0
1002
}
1002
{
1000
REACTOR
1002
}
  0
ARC
  5
2A97
  8
AM_0
 10
169.00195564647811
 20
245.72833573777959
 30
0.0
 40
1.0
 50
315.0
 51
0.0
1001
GENIUS_GENODEF_13
1002
{
1000
HIER
1070
     0
1002
}
1002
{
1000
MANEDIT
1070
     0
1002
}
1002
{
1000
NOSEL
1070
     0
1002
}
1002
{
1000
BEHIND
1070
     0
1002
}
1002
{
1000
OTHER
1070
     0
1002
}
1002
{
1000
REACTOR
1002
}
1001
GENIUS_GENOBJ-N-FIL_13
1002
{
1000
OWNER
1000
GEN
1002
}
  0
LINE
  5
2A98
  8
AM_0
 10
235.5019434871304
 20
262.9620421754064
 30
0.0
 11
262.00187348713041
 21
262.9620421754064
 31
0.0
  0
LINE
  5
2A99
  8
AM_0
 10
235.5019434871304
 20
277.31409317540641
 30
0.0
 11
262.00187348713041
 21
277.31409317540641
 31
0.0
  0
LINE
  5
2A9A
  8
AM_0
 10
262.91735348713041
 20
252.48618017540639
 30
0.0
 11
270.0019434871304
 21
252.48618017540639
 31
0.0
  0
ARC
  5
2A9B
  8
AM_0
 10
270.0019434871304
 20
250.48617917540639
 30
0.0
 40
2.00000007
 50
0.0
 51
90.000003000000007
  0
LINE
  5
2A9C
  8
AM_0
 10
264.0019434871304
 20
258.9633241754064
 30
0.0
 11
270.0019434871304
 21
258.9633241754064
 31
0.0
  0
ARC
  5
2A9D
  8
AM_0
 10
264.0019434871304
 20
260.9633221754064
 30
0.0
 40
2.00000007
 50
179.99998999999991
 51
270.0
  0
ARC
  5
2A9E
  8
AM_0
 10
270.0019434871304
 20
256.96329317540642
 30
0.0
 40
2.00000007
 50
0.0
 51
90.000003000000007
  0
LINE
  5
2A9F
  8
AM_0
 10
344.00186348713021
 20
159.2714881754064
 30
0.0
 11
344.00186348713021
 21
194.6434501754064
 31
0.0
  0
LINE
  5
2AA0
  8
AM_0
 10
354.00191348713031
 20
156.51410117540641
 30
0.0
 11
354.00191348713031
 21
249.0141031754064
 31
0.0
  0
LINE
  5
2AA1
  8
AM_0
 10
321.75581348713018
 20
143.32112417540631
 30
0.0
 11
344.00186348713021
 21
156.1648891754065
 31
0.0
  0
LINE
  5
2AA2
  8
AM_0
 10
304.00187348713052
 20
187.20964517540639
 30
0.0
 11
344.00186348713021
 21
187.20964517540639
 31
0.0
  0
LINE
  5
2AA3
  8
AM_0
 10
304.00187348713052
 20
172.54632917540641
 30
0.0
 11
344.00186348713021
 21
172.54632917540641
 31
0.0
  0
LINE
  5
2AA4
  8
AM_0
 10
304.00187348713052
 20
173.72932817540641
 30
0.0
 11
304.00187348713052
 21
186.04933517540641
 31
0.0
  0
ARC
  5
2AA5
  8
AM_0
 10
304.00352348713039
 20
179.8779931754064
 30
0.0
 40
7.331659199999998
 50
90.000003000000007
 51
270.0
  0
ARC
  5
2AA6
  8
AM_0
 10
347.00186348713021
 20
159.2714881754064
 30
0.0
 40
3.0
 50
179.99998999999991
 51
271.99998999999991
  0
LINE
  5
2AA7
  8
AM_0
 10
344.00186348713021
 20
156.1648891754065
 30
0.0
 11
354.00191348713031
 21
156.51408617540631
 31
0.0
  0
LINE
  5
2AA8
  8
AM_0
 10
354.00191348713031
 20
164.01410117540641
 30
0.0
 11
358.00187348713052
 21
164.01410117540641
 31
0.0
  0
ARC
  5
2AA9
  8
AM_0
 10
345.00191348713031
 20
178.51408817540641
 30
0.0
 40
3.0
 50
270.0
 51
0.0
  0
LINE
  5
2AAA
  8
AM_0
 10
358.00187348713052
 20
263.01410417540637
 30
0.0
 11
400.0018734871303
 21
263.01410417540637
 31
0.0
  0
LINE
  5
2AAB
  8
AM_0
 10
358.00187348713052
 20
235.0141201754065
 30
0.0
 11
400.0018734871303
 21
235.0141201754065
 31
0.0
  0
ARC
  5
2AAC
  8
AM_0
 10
362.64716348713029
 20
239.7818791754064
 30
0.0
 40
24.832211399999991
 50
169.38167999999999
 51
218.79320999999999
  0
ARC
  5
2AAD
  8
AM_0
 10
347.00186348713021
 20
194.6434501754064
 30
0.0
 40
3.0
 50
90.000003000000007
 51
180.00001
  0
ARC
  5
2AAE
  8
AM_0
 10
345.63089348713021
 20
226.10374817540639
 30
0.0
 40
3.0
 50
218.79321999999999
 51
270.0
  0
LINE
  5
2AAF
  8
AM_0
 10
345.63089348713021
 20
223.10374817540639
 30
0.0
 11
348.0019134871302
 21
223.10374817540639
 31
0.0
  0
LINE
  5
2AB0
  8
AM_0
 10
342.57665348713039
 20
267.48837917540641
 30
0.0
 11
338.24018348713031
 21
244.35761117540639
 31
0.0
  0
LINE
  5
2AB1
  8
AM_0
 10
368.00186348713032
 20
266.01410417540637
 30
0.0
 11
400.0018734871303
 21
266.01410417540637
 31
0.0
  0
LINE
  5
2AB2
  8
AM_0
 10
368.00186348713032
 20
266.01410417540637
 30
0.0
 11
368.00186348713032
 21
263.01410417540637
 31
0.0
  0
LINE
  5
2AB3
  8
AM_0
 10
400.0018734871303
 20
266.01410417540637
 30
0.0
 11
400.0018734871303
 21
235.0141201754065
 31
0.0
  0
LINE
  5
2AB4
  8
AM_0
 10
279.00188348713021
 20
306.81410117540639
 30
0.0
 11
314.3981934871303
 21
308.0501911754065
 31
0.0
  0
LINE
  5
2AB5
  8
AM_0
 10
235.5019434871304
 20
289.81412217540651
 30
0.0
 11
226.5019434871304
 21
289.81412217540651
 31
0.0
  0
ARC
  5
2AB6
  8
AM_0
 10
220.5019434871304
 20
285.38518235787751
 30
0.0
 40
5.0
 50
315.0
 51
0.0
1001
GENIUS_GENODEF_13
1002
{
1000
HIER
1070
     0
1002
}
1002
{
1000
MANEDIT
1070
     0
1002
}
1002
{
1000
NOSEL
1070
     0
1002
}
1002
{
1000
BEHIND
1070
     0
1002
}
1002
{
1000
OTHER
1070
     0
1002
}
1002
{
1000
REACTOR
1002
}
1001
GENIUS_GENOBJ-N-FIL_13
1002
{
1000
OWNER
1000
GEN
1002
}
  0
ARC
  5
2AB7
  8
AM_0
 10
226.5019434871304
 20
288.8141221754064
 30
0.0
 40
1.0
 50
90.0
 51
180.0
1001
GENIUS_GENODEF_13
1002
{
1000
HIER
1070
     0
1002
}
1002
{
1000
MANEDIT
1070
     0
1002
}
1002
{
1000
NOSEL
1070
     0
1002
}
1002
{
1000
BEHIND
1070
     0
1002
}
1002
{
1000
OTHER
1070
     0
1002
}
1002
{
1000
REACTOR
1002
}
1001
GENIUS_GENOBJ-N-FIL_13
1002
{
1000
OWNER
1000
GEN
1002
}
  0
ARC
  5
2AB8
  8
AM_0
 10
259.00187348713041
 20
293.33142617540631
 30
0.0
 40
3.0
 50
280.0
 51
0.0
  0
LINE
  5
2AB9
  8
AM_0
 10
235.5018834871301
 20
289.3140931754063
 30
0.0
 11
257.5889634871304
 21
290.0853931754063
 31
0.0
  0
LINE
  5
2ABA
  8
AM_0
 10
258.2827434871304
 20
290.1583021754065
 30
0.0
 11
259.5228834871304
 21
290.37696017540628
 31
0.0
  0
ARC
  5
2ABB
  8
AM_0
 10
257.41454348713012
 20
295.08236117540639
 30
0.0
 40
5.0000001000000003
 50
272.0
 51
280.0
  0
ARC
  5
2ABC
  8
AM_0
 10
267.0019434871304
 20
296.63645117540631
 30
0.0
 40
5.0000001000000003
 50
91.999997999999948
 51
180.00001
  0
LINE
  5
2ABD
  8
AM_0
 10
272.00186348713032
 20
304.63829117540649
 30
0.0
 11
272.00186348713032
 21
282.14817017540639
 31
0.0
  0
LINE
  5
2ABE
  8
AM_0
 10
264.0019434871304
 20
280.14819917540638
 30
0.0
 11
270.0019434871304
 21
280.14819917540638
 31
0.0
  0
ARC
  5
2ABF
  8
AM_0
 10
264.0019434871304
 20
278.14819817540649
 30
0.0
 40
2.00000007
 50
90.000003000000007
 51
180.00001
  0
ARC
  5
2AC0
  8
AM_0
 10
270.0019434871304
 20
282.14817017540639
 30
0.0
 40
2.00000007
 50
270.0
 51
0.0
  0
LINE
  5
2AC1
  8
AM_0
 10
279.00188348713021
 20
306.81410117540639
 30
0.0
 11
273.93212348713041
 21
306.6370711754065
 31
0.0
  0
ARC
  5
2AC2
  8
AM_0
 10
267.29807348713041
 20
306.65291117540642
 30
0.0
 40
5.0000001000000003
 50
272.0
 51
343.27366000000001
  0
LINE
  5
2AC3
  8
AM_0
 10
266.82737348713027
 20
301.63343117540632
 30
0.0
 11
267.47258348713041
 21
301.6559611754065
 31
0.0
  0
ARC
  5
2AC4
  8
AM_0
 10
274.00187348713041
 20
304.63829117540649
 30
0.0
 40
2.00000007
 50
91.999997999999948
 51
163.27365
  0
ARC
  5
2AC5
  8
AM_0
 10
345.00191348713031
 20
319.18637117540652
 30
0.0
 40
3.0
 50
0.0
 51
91.999997999999948
  0
LINE
  5
2AC6
  8
AM_0
 10
316.41482348713032
 20
308.92703117540651
 30
0.0
 11
344.00186348713021
 21
336.51410117540649
 31
0.0
  0
LINE
  5
2AC7
  8
AM_0
 10
344.00186348713021
 20
300.13931117540631
 30
0.0
 11
344.00186348713021
 21
339.23351117540631
 31
0.0
  0
LINE
  5
2AC8
  8
AM_0
 10
315.57920348713031
 20
308.09141117540651
 30
0.0
 11
334.93199348713051
 21
290.3852281754065
 31
0.0
  0
ARC
  5
2AC9
  8
AM_0
 10
314.29349348713049
 20
311.04836117540651
 30
0.0
 40
3.0
 50
272.0
 51
315.0
  0
ARC
  5
2ACA
  8
AM_0
 10
347.00186348713021
 20
300.13931117540631
 30
0.0
 40
3.0
 50
179.99998999999991
 51
270.0
  0
LINE
  5
2ACB
  8
AM_0
 10
334.93199348713051
 20
290.3852281754065
 30
0.0
 11
334.93199348713051
 21
290.3852281754065
 31
0.0
  0
LINE
  5
2ACC
  8
AM_0
 10
345.9320934871302
 20
341.23229117540632
 30
0.0
 11
354.00191348713031
 21
341.51408117540637
 31
0.0
  0
ARC
  5
2ACD
  8
AM_0
 10
346.00187348713052
 20
339.23351117540631
 30
0.0
 40
2.00000007
 50
91.999997999999948
 51
180.00001
  0
LINE
  5
2ACE
  8
AM_0
 10
354.00191348713031
 20
334.01408117540632
 30
0.0
 11
358.00187348713052
 21
334.01408117540632
 31
0.0
  0
ARC
  5
2ACF
  8
AM_0
 10
577.55818794066181
 20
225.8141221754064
 30
0.0
 40
81.000003000000007
 50
24.588774999999998
 51
54.525830000000013
  0
LINE
  5
2AD0
  8
AM_0
 10
609.07338894066174
 20
276.28665617540639
 30
0.0
 11
633.96117594066186
 21
301.17443117540648
 31
0.0
  0
ARC
  5
2AD1
  8
AM_0
 10
577.55818794066181
 20
225.8141221754064
 30
0.0
 40
81.000003000000007
 50
125.47417
 51
155.4112299999999
  0
LINE
  5
2AD2
  8
AM_0
 10
546.04297494066168
 20
276.28665617540639
 30
0.0
 11
521.15520294066175
 21
301.17443117540648
 31
0.0
  0
LINE
  5
2AD3
  8
AM_0
 10
485.05817394066162
 20
249.0141031754064
 30
0.0
 11
485.05817394066162
 21
279.01410617540648
 31
0.0
  0
LINE
  5
2AD4
  8
AM_0
 10
670.05816894066174
 20
249.0141031754064
 30
0.0
 11
670.05816894066174
 21
279.01410617540648
 31
0.0
  0
LINE
  5
2AD5
  8
ﾁｭｳｼﾝｾﾝ
 10
577.55818794066181
 20
139.47937217540641
 30
0.0
 11
577.55818794066181
 21
346.63322112934662
 31
0.0
  0
CIRCLE
  5
2AD6
  8
AM_0
 10
577.55818794066181
 20
249.0141031754064
 30
0.0
 40
29.000001000000001
  0
CIRCLE
  5
2AD7
  8
AM_0
 10
577.55818794066181
 20
249.0141031754064
 30
0.0
 40
80.000000999999983
  0
CIRCLE
  5
2AD8
  8
AM_0
 10
577.55818794066181
 20
249.0141031754064
 30
0.0
 40
85.000001999999981
  0
LINE
  5
2AD9
  8
ﾁｭｳｼﾝｾﾝ
 10
476.29448394066179
 20
249.0141031754064
 30
0.0
 11
676.4778732837035
 21
249.0141031754064
 31
0.0
  0
ARC
  5
2ADA
  8
AM_0
 10
652.67319594066157
 20
173.89906517540641
 30
0.0
 40
15.00000029999998
 50
273.0
 51
357.0
  0
ARC
  5
2ADB
  8
AM_0
 10
652.67319594066157
 20
173.89906517540641
 30
0.0
 40
15.00000029999998
 50
273.0
 51
357.0
  0
ARC
  5
2ADC
  8
AM_0
 10
535.80818694066193
 20
153.50097917540629
 30
0.0
 40
8.0000000999999976
 50
156.73873999999981
 51
323.26127000000002
  0
LINE
  5
2ADD
  8
AM_0
 10
547.55817294066173
 20
156.51410117540641
 30
0.0
 11
501.65810094066183
 21
158.91961817540641
 31
0.0
  0
LINE
  5
2ADE
  8
AM_0
 10
502.6932269406617
 20
220.81410617540641
 30
0.0
 11
533.55818694066193
 21
220.81410617540641
 31
0.0
  0
LINE
  5
2ADF
  8
AM_0
 10
485.05814394066192
 20
219.01410317540629
 30
0.0
 11
487.46366394066172
 21
173.1140161754065
 31
0.0
  0
ARC
  5
2AE0
  8
ﾁｭｳｼﾝｾﾝ1
 10
577.55818794066499
 20
249.0141031754095
 30
0.0
 40
107.50001100000451
 50
218.98603582544379
 51
231.2572415082046
  0
CIRCLE
  5
2AE1
  8
AM_0
 10
501.54420894066169
 20
173.0001241754064
 30
0.0
 40
6.0000002999999991
  0
LINE
  5
2AE2
  8
ﾁｭｳｼﾝｾﾝ1
 10
508.5078963488358
 20
179.96380210940339
 30
0.0
 11
494.3989006966803
 21
165.85482463086061
 31
0.0
  0
ARC
  5
2AE3
  8
AM_0
 10
502.44316494066169
 20
173.89906517540641
 30
0.0
 40
15.00000029999998
 50
183.00001
 51
267.0
  0
ARC
  5
2AE4
  8
AM_0
 10
502.44316494066169
 20
173.89906517540641
 30
0.0
 40
15.00000029999998
 50
183.00001
 51
267.0
  0
ARC
  5
2AE5
  8
AM_0
 10
577.55818794066181
 20
225.8141221754064
 30
0.0
 40
76.000001999999981
 50
167.2398
 51
181.39354
  0
LINE
  5
2AE6
  8
AM_0
 10
485.05817394066162
 20
249.0141031754064
 30
0.0
 11
485.05817394066162
 21
219.01410317540629
 31
0.0
  0
ARC
  5
2AE7
  8
AM_0
 10
577.55818794066181
 20
249.0141031754064
 30
0.0
 40
74.400002999999998
 50
171.8834499999999
 51
184.9454199999999
  0
LINE
  5
2AE8
  8
AM_0
 10
577.55818794066181
 20
156.51410117540641
 30
0.0
 11
607.55817594066161
 21
156.51410117540641
 31
0.0
  0
ARC
  5
2AE9
  8
AM_0
 10
577.55818794066181
 20
225.8141221754064
 30
0.0
 40
81.000003000000007
 50
270.0
 51
291.36619999999999
  0
ARC
  5
2AEA
  8
AM_0
 10
577.55818794066181
 20
225.8141221754064
 30
0.0
 40
81.000003000000007
 50
248.63379999999989
 51
270.0
  0
LINE
  5
2AEB
  8
AM_0
 10
577.55818794066181
 20
156.51410117540641
 30
0.0
 11
547.55818794066158
 21
156.51410117540641
 31
0.0
  0
ARC
  5
2AEC
  8
AM_0
 10
546.22601994066167
 20
145.7248111754063
 30
0.0
 40
5.0000001000000003
 50
68.633797999999999
 51
143.26125999999991
  0
ARC
  5
2AED
  8
AM_0
 10
619.30815894066177
 20
153.50097917540629
 30
0.0
 40
8.0000000999999976
 50
216.73873999999989
 51
23.26125799999998
  0
LINE
  5
2AEE
  8
AM_0
 10
607.55817594066161
 20
156.51410117540641
 30
0.0
 11
653.45826294066183
 21
158.91961817540641
 31
0.0
  0
ARC
  5
2AEF
  8
AM_0
 10
608.89034394066175
 20
145.7248111754063
 30
0.0
 40
5.0000001000000003
 50
36.738737
 51
111.36621
  0
CIRCLE
  5
2AF0
  8
AM_0
 10
653.57215194066157
 20
173.0001241754064
 30
0.0
 40
6.0000002999999991
  0
LINE
  5
2AF1
  8
ﾁｭｳｼﾝｾﾝ
 10
528.99797396533165
 20
225.8141221754064
 30
0.0
 11
626.11840191599185
 21
225.8141221754064
 31
0.0
  0
LINE
  5
2AF2
  8
AM_0
 10
538.55815794066166
 20
249.0141031754064
 30
0.0
 11
538.55815794066166
 21
225.8141221754064
 31
0.0
  0
ARC
  5
2AF3
  8
AM_0
 10
533.55818694066193
 20
225.8141221754064
 30
0.0
 40
5.0000001000000003
 50
270.0
 51
0.0
  0
ARC
  5
2AF4
  8
AM_0
 10
577.55818794066181
 20
249.0141031754064
 30
0.0
 40
14.000001299999999
 50
106.6015399999999
 51
73.398452000000006
  0
ARC
  5
2AF5
  8
AM_0
 10
577.55818794066181
 20
249.0141031754064
 30
0.0
 40
39.000011999999998
 50
143.21321
 51
180.00001
  0
ARC
  5
2AF6
  8
AM_0
 10
543.92166894066168
 20
274.16532017540641
 30
0.0
 40
3.0
 50
323.21321
 51
45.00000099999999
  0
CIRCLE
  5
2AF7
  8
AM_5
 10
577.55818794066181
 20
249.0141031754064
 30
0.0
 40
4.000000199999997
  0
CIRCLE
  5
2AF8
  8
AM_0
 10
577.55818794066181
 20
249.0141031754064
 30
0.0
 40
3.0
  0
POINT
  5
2AF9
  8
AM_0
 10
577.55818794066181
 20
249.0141031754064
 30
0.0
  0
LINE
  5
2AFA
  8
AM_0
 10
573.55817394066185
 20
266.01410417540637
 30
0.0
 11
581.55817494066162
 21
266.01410417540637
 31
0.0
  0
LINE
  5
2AFB
  8
AM_0
 10
573.55817394066185
 20
259.01410517540643
 30
0.0
 11
581.55817494066162
 21
259.01410517540643
 31
0.0
  0
LINE
  5
2AFC
  8
AM_0
 10
573.55817394066185
 20
259.01410517540643
 30
0.0
 11
573.55817394066185
 21
266.01410417540637
 31
0.0
  0
LINE
  5
2AFD
  8
AM_0
 10
581.55817494066162
 20
259.01410517540643
 30
0.0
 11
581.55817494066162
 21
266.01410417540637
 31
0.0
  0
ARC
  5
2AFE
  8
AM_0
 10
577.55818794066181
 20
225.8141221754064
 30
0.0
 40
76.000001999999981
 50
358.60644999999982
 51
12.760202
  0
LINE
  5
2AFF
  8
AM_0
 10
616.55819094066158
 20
249.0141031754064
 30
0.0
 11
616.55819094066158
 21
225.8141221754064
 31
0.0
  0
LINE
  5
2B00
  8
AM_0
 10
652.42312194066164
 20
220.81410617540641
 30
0.0
 11
621.55817394066185
 21
220.81410617540641
 31
0.0
  0
ARC
  5
2B01
  8
AM_0
 10
621.55817394066185
 20
225.8141221754064
 30
0.0
 40
5.0000001000000003
 50
179.99998999999991
 51
270.0
  0
ARC
  5
2B02
  8
AM_0
 10
577.55818794066181
 20
249.0141031754064
 30
0.0
 40
39.000011999999998
 50
0.0
 51
36.786791000000001
  0
ARC
  5
2B03
  8
AM_0
 10
611.19469494066175
 20
274.16532017540641
 30
0.0
 40
3.0
 50
135.0
 51
216.78679
  0
ARC
  5
2B04
  8
AM_0
 10
577.55818794066181
 20
249.0141031754064
 30
0.0
 40
74.400002999999998
 50
355.05457999999999
 51
8.1165493999999985
  0
LINE
  5
2B05
  8
AM_0
 10
670.05817794066161
 20
219.01410317540629
 30
0.0
 11
667.65265794066181
 21
173.1140161754065
 31
0.0
  0
LINE
  5
2B06
  8
AM_0
 10
670.05816894066174
 20
249.0141031754064
 30
0.0
 11
670.05816894066174
 21
219.01410317540629
 31
0.0
  0
ARC
  5
2B07
  8
AM_0
 10
652.67319594066157
 20
324.1291411754064
 30
0.0
 40
15.00000029999998
 50
3.0000000999999981
 51
86.999998999999988
  0
ARC
  5
2B08
  8
AM_0
 10
652.67319594066157
 20
324.1291411754064
 30
0.0
 40
15.00000029999998
 50
3.0000000999999981
 51
86.999998999999988
  0
LINE
  5
2B09
  8
AM_0
 10
550.28561994066195
 20
280.52930417540642
 30
0.0
 11
525.39781794066175
 21
305.41709117540648
 31
0.0
  0
LINE
  5
2B0A
  8
AM_0
 10
547.55815794066154
 20
341.5141111754063
 30
0.0
 11
501.65810094066183
 21
339.10859117540639
 31
0.0
  0
CIRCLE
  5
2B0B
  8
AM_0
 10
501.54420894066169
 20
325.0280911754063
 30
0.0
 40
6.0000002999999991
  0
LINE
  5
2B0C
  8
AM_0
 10
485.05817394066162
 20
279.01410617540648
 30
0.0
 11
487.46369394066181
 21
324.9141811754065
 31
0.0
  0
ARC
  5
2B0D
  8
AM_0
 10
519.03389394066176
 20
299.05310117540648
 30
0.0
 40
3.0
 50
45.00000099999999
 51
139.4691399999999
  0
ARC
  5
2B0E
  8
AM_0
 10
527.51915694066179
 20
307.5383911754065
 30
0.0
 40
3.0
 50
130.5308599999999
 51
225.0
  0
ARC
  5
2B0F
  8
AM_0
 10
502.44316494066169
 20
324.1291411754064
 30
0.0
 40
15.00000029999998
 50
92.999999000000017
 51
176.99999
  0
ARC
  5
2B10
  8
AM_0
 10
502.44316494066169
 20
324.1291411754064
 30
0.0
 40
15.00000029999998
 50
92.999999000000017
 51
176.99999
  0
LINE
  5
2B11
  8
AM_0
 10
577.55818794066181
 20
341.51408117540637
 30
0.0
 11
607.55817594066161
 21
341.51408117540637
 31
0.0
  0
ARC
  5
2B12
  8
AM_0
 10
577.55818794066181
 20
249.0141031754064
 30
0.0
 40
39.000011999999998
 50
53.213208000000002
 51
126.78679
  0
ARC
  5
2B13
  8
AM_0
 10
577.55818794066181
 20
225.8141221754064
 30
0.0
 40
81.000003000000007
 50
58.860945000000001
 51
86.245803000000024
  0
ARC
  5
2B14
  8
AM_0
 10
572.05817394066185
 20
320.20193117540651
 30
0.0
 40
3.0
 50
0.0
 51
94.417918999999983
  0
ARC
  5
2B15
  8
AM_0
 10
583.0581899406618
 20
320.20193117540651
 30
0.0
 40
3.0
 50
85.582086000000032
 51
180.00001
  0
ARC
  5
2B16
  8
AM_0
 10
552.40692894066183
 20
282.65061017540648
 30
0.0
 40
3.0
 50
225.0
 51
306.78678999999988
  0
ARC
  5
2B17
  8
AM_0
 10
583.0581899406618
 20
309.63386117540631
 30
0.0
 40
3.0
 50
180.00001
 51
266.24579999999992
  0
LINE
  5
2B18
  8
AM_0
 10
580.05818994066158
 20
309.63386117540631
 30
0.0
 11
580.05818994066158
 21
320.20193117540651
 31
0.0
  0
LINE
  5
2B19
  8
AM_0
 10
575.05817394066185
 20
309.63386117540631
 30
0.0
 11
575.05817394066185
 21
320.20193117540651
 31
0.0
  0
ARC
  5
2B1A
  8
AM_0
 10
577.55820141403819
 20
225.81409217540639
 30
0.0
 40
81.000003000000007
 50
93.754195000000877
 51
121.1390599999998
  0
ARC
  5
2B1B
  8
AM_0
 10
572.05817394066185
 20
309.63386117540631
 30
0.0
 40
3.0
 50
273.75420000000003
 51
0.0
  0
LINE
  5
2B1C
  8
AM_0
 10
577.55818794066181
 20
341.51408117540637
 30
0.0
 11
547.55818794066158
 21
341.51408117540637
 31
0.0
  0
CIRCLE
  5
2B1D
  8
AM_0
 10
653.57215194066157
 20
325.0280911754063
 30
0.0
 40
6.0000002999999991
  0
LINE
  5
2B1E
  8
ﾁｭｳｼﾝｾﾝ1
 10
646.32390371645897
 20
317.779846191361
 30
0.0
 11
660.51242312863735
 21
331.9683478300052
 31
0.0
  0
ARC
  5
2B1F
  8
ﾁｭｳｼﾝｾﾝ1
 10
577.55818794065135
 20
249.0141031753958
 30
0.0
 40
107.5000110000146
 50
38.852188836944507
 51
51.124540376617396
  0
ARC
  5
2B20
  8
AM_0
 10
627.59719194066156
 20
307.5383911754065
 30
0.0
 40
3.0
 50
315.0
 51
49.469136999999989
  0
LINE
  5
2B21
  8
AM_0
 10
604.83074394066182
 20
280.52930417540642
 30
0.0
 11
629.71853094066182
 21
305.41709117540648
 31
0.0
  0
ARC
  5
2B22
  8
AM_0
 10
602.70943494066182
 20
282.65061017540648
 30
0.0
 40
3.0
 50
233.21321
 51
315.0
  0
ARC
  5
2B23
  8
AM_0
 10
636.08248194066186
 20
299.05310117540648
 30
0.0
 40
3.0
 50
40.530864999999999
 51
135.0
  0
LINE
  5
2B24
  8
AM_0
 10
607.55817594066161
 20
341.5141111754063
 30
0.0
 11
653.45826294066183
 21
339.10859117540639
 31
0.0
  0
LINE
  5
2B25
  8
AM_0
 10
670.05818394066182
 20
279.01410617540648
 30
0.0
 11
667.65265794066181
 21
324.9141811754065
 31
0.0
  0
LINE
  5
2B26
  8
AM_0
 10
168.00191564647801
 20
528.29941738444768
 30
0.0
 11
168.00191564647801
 21
494.12784450919372
 31
0.0
  0
LINE
  5
2B27
  8
AM_0
 10
170.00191564647801
 20
486.21363094682079
 30
0.0
 11
170.00191564647801
 21
536.21363094682067
 31
0.0
  0
LINE
  5
2B28
  8
AM_0
 10
225.50190348713039
 20
574.21363094682067
 30
0.0
 11
225.50190348713039
 21
448.21363094682079
 31
0.0
  0
LINE
  5
2B29
  8
AM_0
 10
195.00191111652501
 20
538.21363094682067
 30
0.0
 11
195.00191111652501
 21
484.21363094682079
 31
0.0
  0
LINE
  5
2B2A
  8
AM_0
 10
224.03743739306319
 20
455.17810467028261
 30
0.0
 11
197.93084330465931
 21
481.28469875868637
 31
0.0
  0
ARC
  5
2B2B
  8
AM_0
 10
190.8597754927938
 20
474.21363094682079
 30
0.0
 40
10.0
 50
45.0
 51
90.0
1001
GENIUS_GENODEF_13
1002
{
1000
HIER
1070
     0
1002
}
1002
{
1000
MANEDIT
1070
     0
1002
}
1002
{
1000
NOSEL
1070
     0
1002
}
1002
{
1000
BEHIND
1070
     0
1002
}
1002
{
1000
OTHER
1070
     0
1002
}
1002
{
1000
REACTOR
1002
}
1001
GENIUS_GENOBJ-N-FIL_13
1002
{
1000
OWNER
1000
GEN
1002
}
  0
LINE
  5
2B2C
  8
AM_0
 10
172.00191564647801
 20
484.2136309468209
 30
0.0
 11
190.8597754927938
 21
484.21363094682079
 31
0.0
  0
ARC
  5
2B2D
  8
AM_0
 10
172.00191564647801
 20
486.21363094682079
 30
0.0
 40
2.0
 50
180.0
 51
270.0
1001
GENIUS_GENOBJ-N-FIL_13
1002
{
1000
OWNER
1000
GEN
1002
}
1001
GENIUS_GENODEF_13
1002
{
1000
HIER
1070
     0
1002
}
1002
{
1000
MANEDIT
1070
     0
1002
}
1002
{
1000
NOSEL
1070
     0
1002
}
1002
{
1000
BEHIND
1070
     0
1002
}
1002
{
1000
OTHER
1070
     0
1002
}
1002
{
1000
REACTOR
1002
}
  0
LINE
  5
2B2E
  8
AM_0
 10
168.2948088652914
 20
493.42073772800723
 30
0.0
 11
169.70902242766451
 21
492.00652416563429
 31
0.0
  0
ARC
  5
2B2F
  8
AM_0
 10
169.00191564647801
 20
491.29941738444768
 30
0.0
 40
1.0
 50
0.0
 51
45.0
1001
GENIUS_GENODEF_13
1002
{
1000
HIER
1070
     0
1002
}
1002
{
1000
MANEDIT
1070
     0
1002
}
1002
{
1000
NOSEL
1070
     0
1002
}
1002
{
1000
BEHIND
1070
     0
1002
}
1002
{
1000
OTHER
1070
     0
1002
}
1002
{
1000
REACTOR
1002
}
1001
GENIUS_GENOBJ-N-FIL_13
1002
{
1000
OWNER
1000
GEN
1002
}
  0
ARC
  5
2B30
  8
AM_0
 10
169.00191564647801
 20
494.12784450919372
 30
0.0
 40
1.0
 50
180.0
 51
225.0
1001
GENIUS_GENODEF_13
1002
{
1000
HIER
1070
     0
1002
}
1002
{
1000
MANEDIT
1070
     0
1002
}
1002
{
1000
NOSEL
1070
     0
1002
}
1002
{
1000
BEHIND
1070
     0
1002
}
1002
{
1000
OTHER
1070
     0
1002
}
1002
{
1000
REACTOR
1002
}
1001
GENIUS_GENOBJ-N-FIL_13
1002
{
1000
OWNER
1000
GEN
1002
}
  0
ARC
  5
2B31
  8
AM_0
 10
220.50190348713051
 20
451.6425707643499
 30
0.0
 40
5.0
 50
0.0
 51
45.0
1001
GENIUS_GENODEF_13
1002
{
1000
HIER
1070
     0
1002
}
1002
{
1000
MANEDIT
1070
     0
1002
}
1002
{
1000
NOSEL
1070
     0
1002
}
1002
{
1000
BEHIND
1070
     0
1002
}
1002
{
1000
OTHER
1070
     0
1002
}
1002
{
1000
REACTOR
1002
}
1001
GENIUS_GENOBJ-N-FIL_13
1002
{
1000
OWNER
1000
GEN
1002
}
  0
LINE
  5
2B32
  8
AM_0
 10
235.50190348713039
 20
447.2136309468209
 30
0.0
 11
226.50190348713039
 21
447.2136309468209
 31
0.0
  0
ARC
  5
2B33
  8
AM_0
 10
226.50190348713039
 20
448.21363094682079
 30
0.0
 40
1.0
 50
180.0
 51
270.0
1001
GENIUS_GENODEF_13
1002
{
1000
HIER
1070
     0
1002
}
1002
{
1000
MANEDIT
1070
     0
1002
}
1002
{
1000
NOSEL
1070
     0
1002
}
1002
{
1000
BEHIND
1070
     0
1002
}
1002
{
1000
OTHER
1070
     0
1002
}
1002
{
1000
REACTOR
1002
}
1001
GENIUS_GENOBJ-N-FIL_13
1002
{
1000
OWNER
1000
GEN
1002
}
  0
LINE
  5
2B34
  8
AM_0
 10
235.50190348713039
 20
473.21732594682089
 30
0.0
 11
225.5019034871307
 21
473.21732594682089
 31
0.0
  0
LINE
  5
2B35
  8
AM_0
 10
235.50190348713039
 20
459.7136309468209
 30
0.0
 11
225.5019034871307
 21
459.7136309468209
 31
0.0
  0
LINE
  5
2B36
  8
AM_0
 10
224.03743739306319
 20
567.24915722335913
 30
0.0
 11
197.93084330465931
 21
541.14256313495548
 31
0.0
  0
ARC
  5
2B37
  8
AM_0
 10
190.8597754927938
 20
548.21363094682079
 30
0.0
 40
10.0
 50
270.0
 51
315.0
1001
GENIUS_GENODEF_13
1002
{
1000
HIER
1070
     0
1002
}
1002
{
1000
MANEDIT
1070
     0
1002
}
1002
{
1000
NOSEL
1070
     0
1002
}
1002
{
1000
BEHIND
1070
     0
1002
}
1002
{
1000
OTHER
1070
     0
1002
}
1002
{
1000
REACTOR
1002
}
1001
GENIUS_GENOBJ-N-FIL_13
1002
{
1000
OWNER
1000
GEN
1002
}
  0
ARC
  5
2B38
  8
AM_0
 10
172.00191564647801
 20
536.21363094682067
 30
0.0
 40
2.0
 50
90.0
 51
180.0
1001
GENIUS_GENOBJ-N-FIL_13
1002
{
1000
OWNER
1000
GEN
1002
}
1001
GENIUS_GENODEF_13
1002
{
1000
HIER
1070
     0
1002
}
1002
{
1000
MANEDIT
1070
     0
1002
}
1002
{
1000
NOSEL
1070
     0
1002
}
1002
{
1000
BEHIND
1070
     0
1002
}
1002
{
1000
OTHER
1070
     0
1002
}
1002
{
1000
REACTOR
1002
}
  0
LINE
  5
2B39
  8
AM_0
 10
138.00191564647801
 20
519.21363094682079
 30
0.0
 11
166.00191564647801
 21
519.21363094682079
 31
0.0
  0
LINE
  5
2B3A
  8
AM_0
 10
138.00191564647801
 20
503.21363094682079
 30
0.0
 11
166.00191564647801
 21
503.21363094682079
 31
0.0
  0
LINE
  5
2B3B
  8
AM_0
 10
138.00191564647801
 20
519.21363094682079
 30
0.0
 11
138.00191564647801
 21
503.21363094682079
 31
0.0
  0
LINE
  5
2B3C
  8
AM_0
 10
138.00191564647801
 20
508.71363094682079
 30
0.0
 11
160.00191564647801
 21
508.71363094682079
 31
0.0
  0
LINE
  5
2B3D
  8
AM_0
 10
138.00191564647801
 20
513.71363094682079
 30
0.0
 11
160.00191564647801
 21
513.71363094682079
 31
0.0
  0
LINE
  5
2B3E
  8
AM_0
 10
160.00191564647801
 20
513.71363094682079
 30
0.0
 11
160.00191564647801
 21
508.71363094682079
 31
0.0
  0
ARC
  5
2B3F
  8
AM_0
 10
160.00191564647801
 20
511.21363094682079
 30
0.0
 40
2.5
 50
270.0
 51
90.0
  0
LINE
  5
2B40
  8
AM_0
 10
166.00191564647801
 20
519.71363094682067
 30
0.0
 11
166.00191564647801
 21
502.71363094682079
 31
0.0
  0
LINE
  5
2B41
  8
AM_0
 10
166.00191564647801
 20
502.7136362798708
 30
0.0
 11
168.00191564647801
 21
502.71363521326077
 31
0.0
  0
LINE
  5
2B42
  8
AM_0
 10
172.00191564647801
 20
538.21363094682067
 30
0.0
 11
190.8597754927938
 21
538.21363094682067
 31
0.0
  0
LINE
  5
2B43
  8
AM_0
 10
166.00191564647801
 20
519.71363094682067
 30
0.0
 11
168.00191564647801
 21
519.71363094682067
 31
0.0
  0
ARC
  5
2B44
  8
AM_0
 10
169.00191564647801
 20
528.29941738444768
 30
0.0
 40
1.0
 50
135.0
 51
180.0
1001
GENIUS_GENODEF_13
1002
{
1000
HIER
1070
     0
1002
}
1002
{
1000
MANEDIT
1070
     0
1002
}
1002
{
1000
NOSEL
1070
     0
1002
}
1002
{
1000
BEHIND
1070
     0
1002
}
1002
{
1000
OTHER
1070
     0
1002
}
1002
{
1000
REACTOR
1002
}
1001
GENIUS_GENOBJ-N-FIL_13
1002
{
1000
OWNER
1000
GEN
1002
}
  0
ARC
  5
2B45
  8
AM_0
 10
169.00191564647801
 20
531.12784450919378
 30
0.0
 40
1.0
 50
315.0
 51
0.0
1001
GENIUS_GENODEF_13
1002
{
1000
HIER
1070
     0
1002
}
1002
{
1000
MANEDIT
1070
     0
1002
}
1002
{
1000
NOSEL
1070
     0
1002
}
1002
{
1000
BEHIND
1070
     0
1002
}
1002
{
1000
OTHER
1070
     0
1002
}
1002
{
1000
REACTOR
1002
}
1001
GENIUS_GENOBJ-N-FIL_13
1002
{
1000
OWNER
1000
GEN
1002
}
  0
LINE
  5
2B46
  8
AM_0
 10
168.2948088652914
 20
529.00652416563435
 30
0.0
 11
169.70902242766451
 21
530.42073772800745
 31
0.0
  0
LINE
  5
2B47
  8
AM_0
 10
235.50190348713039
 20
575.21363094682067
 30
0.0
 11
226.50190348713039
 21
575.21363094682067
 31
0.0
  0
LINE
  5
2B48
  8
AM_0
 10
235.50190348713039
 20
562.71363094682067
 30
0.0
 11
225.5019034871307
 21
562.71363094682067
 31
0.0
  0
LINE
  5
2B49
  8
AM_0
 10
235.50190348713039
 20
549.20994094682078
 30
0.0
 11
225.5019034871307
 21
549.20994094682078
 31
0.0
  0
ARC
  5
2B4A
  8
AM_0
 10
220.50190348713051
 20
570.78469112929145
 30
0.0
 40
5.0
 50
315.0
 51
0.0
1001
GENIUS_GENODEF_13
1002
{
1000
HIER
1070
     0
1002
}
1002
{
1000
MANEDIT
1070
     0
1002
}
1002
{
1000
NOSEL
1070
     0
1002
}
1002
{
1000
BEHIND
1070
     0
1002
}
1002
{
1000
OTHER
1070
     0
1002
}
1002
{
1000
REACTOR
1002
}
1001
GENIUS_GENOBJ-N-FIL_13
1002
{
1000
OWNER
1000
GEN
1002
}
  0
ARC
  5
2B4B
  8
AM_0
 10
226.50190348713039
 20
574.21363094682067
 30
0.0
 40
1.0
 50
90.0
 51
180.0
1001
GENIUS_GENODEF_13
1002
{
1000
HIER
1070
     0
1002
}
1002
{
1000
MANEDIT
1070
     0
1002
}
1002
{
1000
NOSEL
1070
     0
1002
}
1002
{
1000
BEHIND
1070
     0
1002
}
1002
{
1000
OTHER
1070
     0
1002
}
1002
{
1000
REACTOR
1002
}
1001
GENIUS_GENOBJ-N-FIL_13
1002
{
1000
OWNER
1000
GEN
1002
}
  0
LINE
  5
2B4D
  8
AM_0
 10
368.00187348713052
 20
507.21363094682079
 30
0.0
 11
400.0018734871303
 21
507.21363094682079
 31
0.0
  0
LINE
  5
2B4E
  8
AM_0
 10
358.00190348713051
 20
525.21366094682094
 30
0.0
 11
400.0018734871303
 21
525.21366094682094
 31
0.0
  0
LINE
  5
2B4F
  8
AM_0
 10
358.00190348713051
 20
497.21366094682088
 30
0.0
 11
400.0018734871303
 21
497.21366094682088
 31
0.0
  0
LINE
  5
2B50
  8
AM_0
 10
368.00187348713052
 20
515.21360094682075
 30
0.0
 11
400.0018734871303
 21
515.21360094682075
 31
0.0
  0
LINE
  5
2B51
  8
ﾁｭｳｼﾝｾﾝ
 10
130.24658327821939
 20
511.21363094682079
 30
0.0
 11
404.70890348713021
 21
511.21363094682079
 31
0.0
  0
POLYLINE
  5
2B52
  8
AM_0
 66
     1
 10
0.0
 20
0.0
 30
0.0
  0
VERTEX
  5
2B53
  8
AM_0
 10
340.91496348713048
 20
595.62662094682094
 30
0.0
 42
0.081985852
  0
VERTEX
  5
2B54
  8
AM_0
 10
318.7990734871305
 20
540.71494094682089
 30
0.0
 42
0.10914194
  0
VERTEX
  5
2B55
  8
AM_0
 10
318.7991634871305
 20
481.71193094682093
 30
0.0
 42
0.081985219
  0
VERTEX
  5
2B56
  8
AM_0
 10
340.91496348713048
 20
426.80063094682089
 30
0.0
  0
SEQEND
  5
2B57
  8
AM_0
  0
ARC
  5
2B58
  8
AM_0
 10
368.00187348713052
 20
511.2136009468208
 30
0.0
 40
3.9999962
 50
90.000003000000945
 51
270.0
  0
LINE
  5
2B59
  8
AM_0
 10
358.00193348713032
 20
596.2136309468209
 30
0.0
 11
358.00193348713032
 21
426.2136309468209
 31
0.0
  0
LINE
  5
2B5A
  8
AM_0
 10
344.00190348713051
 20
420.99424094682092
 30
0.0
 11
344.00190348713051
 21
601.43302094682099
 31
0.0
  0
LINE
  5
2B5B
  8
AM_0
 10
348.00190348713028
 20
440.71363094682079
 30
0.0
 11
348.00190348713028
 21
581.38593094682096
 31
0.0
  0
LINE
  5
2B5C
  8
AM_0
 10
354.00190348713028
 20
418.7136309468209
 30
0.0
 11
354.00190348713028
 21
603.7136309468209
 31
0.0
  0
LINE
  5
2B5D
  8
AM_0
 10
368.00187348713052
 20
515.21360094682075
 30
0.0
 11
368.00187348713052
 21
507.21363094682079
 31
0.0
  0
LINE
  5
2B5E
  8
AM_0
 10
235.50190348713039
 20
447.2136309468209
 30
0.0
 11
235.50190348713039
 21
575.21363094682044
 31
0.0
  0
LINE
  5
2B5F
  8
AM_0
 10
272.00187348713041
 20
440.12345094682092
 30
0.0
 11
272.00187348713041
 21
582.30381094682093
 31
0.0
  0
LINE
  5
2B60
  8
AM_0
 10
262.00190348713039
 20
434.38477094682088
 30
0.0
 11
262.00190348713039
 21
588.04249094682075
 31
0.0
  0
LINE
  5
2B61
  8
AM_0
 10
279.00190348713039
 20
428.96268094682091
 30
0.0
 11
279.00190348713039
 21
593.46458094682066
 31
0.0
  0
LINE
  5
2B62
  8
AM_0
 10
338.94660348713052
 20
426.8693609468209
 30
0.0
 11
279.00190348713039
 21
428.96268094682091
 31
0.0
  0
ARC
  5
2B63
  8
AM_0
 10
267.00190348713039
 20
434.38477094682088
 30
0.0
 40
5.0
 50
180.00001000000091
 51
267.9999999999996
  0
LINE
  5
2B64
  8
AM_0
 10
279.00190348713039
 20
428.96268094682091
 30
0.0
 11
266.82740348713043
 21
429.38782094682091
 31
0.0
  0
LINE
  5
2B65
  8
AM_0
 10
235.50190348713039
 20
459.1736209468209
 30
0.0
 11
262.00187348713041
 21
459.1736209468209
 31
0.0
  0
LINE
  5
2B66
  8
AM_0
 10
235.50190348713039
 20
474.0657109468209
 30
0.0
 11
262.00187348713041
 21
474.0657109468209
 31
0.0
  0
LINE
  5
2B67
  8
AM_0
 10
235.50193348713029
 20
447.71360094682092
 30
0.0
 11
259.10658348713042
 21
446.88932094682087
 31
0.0
  0
LINE
  5
2B68
  8
AM_0
 10
262.00190348713039
 20
451.90513094682092
 30
0.0
 11
272.00187348713041
 21
451.90513094682092
 31
0.0
  0
ARC
  5
2B69
  8
AM_0
 10
259.00190348713039
 20
443.89115094682091
 30
0.0
 40
3.0
 50
0.0
 51
87.999999999999659
  0
LINE
  5
2B6A
  8
AM_0
 10
342.30766348713053
 20
425.4079309468209
 30
0.0
 11
344.00193348713032
 21
423.71366094682071
 31
0.0
  0
ARC
  5
2B6B
  8
AM_0
 10
338.77210348713038
 20
421.87241094682088
 30
0.0
 40
5.0
 50
45.000000999999187
 51
87.999999999999659
  0
LINE
  5
2B6C
  8
AM_0
 10
354.00190348713028
 20
426.2136309468209
 30
0.0
 11
358.00193348713032
 21
426.2136309468209
 31
0.0
  0
ARC
  5
2B6D
  8
AM_0
 10
346.00193348713032
 20
420.99424094682092
 30
0.0
 40
2.0
 50
179.9999899999988
 51
268.00000999999861
  0
LINE
  5
2B6E
  8
AM_0
 10
345.93211348713032
 20
418.99543094682082
 30
0.0
 11
354.00187348713052
 21
418.7136309468209
 31
0.0
  0
ARC
  5
2B6F
  8
AM_0
 10
345.00190348713051
 20
441.04133094682089
 30
0.0
 40
3.0
 50
267.9999999999996
 51
0.0
  0
ARC
  5
2B70
  8
AM_0
 10
347.00190348713051
 20
460.08839094682071
 30
0.0
 40
3.0
 50
90.000003000000945
 51
180.00001000000091
  0
LINE
  5
2B71
  8
AM_0
 10
338.94660348713052
 20
595.55787094682091
 30
0.0
 11
279.00190348713039
 21
593.46458094682066
 31
0.0
  0
LINE
  5
2B72
  8
AM_0
 10
235.50190348713039
 20
574.7136309468209
 30
0.0
 11
259.10661348713029
 21
575.53794094682098
 31
0.0
  0
LINE
  5
2B73
  8
AM_0
 10
235.50190348713039
 20
548.3615509468209
 30
0.0
 11
262.00187348713041
 21
548.3615509468209
 31
0.0
  0
LINE
  5
2B74
  8
AM_0
 10
235.50190348713039
 20
563.25364094682095
 30
0.0
 11
262.00187348713041
 21
563.25364094682095
 31
0.0
  0
LINE
  5
2B75
  8
AM_0
 10
262.00190348713039
 20
570.52213094682088
 30
0.0
 11
272.00187348713041
 21
570.52213094682088
 31
0.0
  0
ARC
  5
2B76
  8
AM_0
 10
259.00190348713039
 20
578.5361109468206
 30
0.0
 40
3.0
 50
272.0000000000004
 51
0.0
  0
ARC
  5
2B77
  8
AM_0
 10
267.00190348713039
 20
588.04249094682075
 30
0.0
 40
5.0
 50
91.999998000000545
 51
180.00001000000091
  0
LINE
  5
2B78
  8
AM_0
 10
279.00187348713041
 20
593.46458094682066
 30
0.0
 11
266.8273734871305
 21
593.03943094682086
 31
0.0
  0
ARC
  5
2B79
  8
AM_0
 10
347.00190348713051
 20
562.33887094682075
 30
0.0
 40
3.0
 50
179.9999899999988
 51
270.0
  0
ARC
  5
2B7A
  8
AM_0
 10
345.00190348713051
 20
581.38593094682096
 30
0.0
 40
3.0
 50
0.0
 51
91.999998000000545
  0
LINE
  5
2B7B
  8
AM_0
 10
342.30766348713053
 20
597.019290946821
 30
0.0
 11
344.00193348713032
 21
598.71360094682075
 31
0.0
  0
ARC
  5
2B7C
  8
AM_0
 10
338.77210348713038
 20
600.55485094682092
 30
0.0
 40
5.0
 50
272.0000000000004
 51
315.0
  0
LINE
  5
2B7D
  8
AM_0
 10
354.00190348713028
 20
596.2136309468209
 30
0.0
 11
358.00193348713032
 21
596.2136309468209
 31
0.0
  0
LINE
  5
2B7E
  8
AM_0
 10
345.9321434871303
 20
603.43180094682089
 30
0.0
 11
354.00190348713028
 21
603.71360094682075
 31
0.0
  0
ARC
  5
2B7F
  8
AM_0
 10
346.00193348713032
 20
601.43302094682099
 30
0.0
 40
2.0
 50
91.999998000000545
 51
180.00001000000091
  0
LINE
  5
2B80
  8
AM_0
 10
400.0018734871303
 20
525.21366094682094
 30
0.0
 11
400.0018734871303
 21
497.21366094682088
 31
0.0
  0
ARC
  5
2B81
  8
ﾁｭｳｼﾝｾﾝ1
 10
577.55818794065112
 20
249.01410317541681
 30
0.0
 40
107.5000110000146
 50
308.85218883694449
 51
321.1245403766174
  0
LINE
  5
2B82
  8
ﾁｭｳｼﾝｾﾝ1
 10
646.32393095661632
 20
180.24838739960919
 30
0.0
 11
660.51243259526063
 21
166.05986798743041
 31
0.0
  0
LINE
  5
2B83
  8
ﾁｭｳｼﾝｾﾝ1
 10
508.5078868746586
 20
318.06439476723239
 30
0.0
 11
494.39890939611598
 21
332.17339041938772
 31
0.0
  0
ARC
  5
2B84
  8
ﾁｭｳｼﾝｾﾝ1
 10
577.55818794066499
 20
249.01410317540319
 30
0.0
 40
107.50001100000451
 50
128.98603582544391
 51
141.2572415082046
  0
TEXT
  5
2D64
  8
AM_0
 10
472.79696140508503
 20
516.91016266457791
 30
0.0
 40
10.0
  1
VX04-060GF~VX04-100GF
  0
ENDSEC
  0
EOF
