  0
SECTION
  2
HEADER
  9
$ACADVER
  1
AC1009
  9
$INSBASE
 10
0.0
 20
0.0
 30
0.0
  9
$EXTMIN
 10
115.23083708229341
 20
126.0048589424466
 30
-0.0000000000112498
  9
$EXTMAX
 10
817.32106212575582
 20
698.56035295420327
 30
0.0000000000002956
  9
$LIMMIN
 10
0.0
 20
0.0
  9
$LIMMAX
 10
853.5
 20
555.00000000000011
  9
$ORTHOMODE
 70
     0
  9
$REGENMODE
 70
     1
  9
$FILLMODE
 70
     1
  9
$QTEXTMODE
 70
     0
  9
$MIRRTEXT
 70
     1
  9
$DRAGMODE
 70
     2
  9
$LTSCALE
 40
3.0
  9
$OSMODE
 70
   551
  9
$ATTMODE
 70
     1
  9
$TEXTSIZE
 40
2.5
  9
$TRACEWID
 40
1.0
  9
$TEXTSTYLE
  7
STANDARD
  9
$CLAYER
  8
AM_0
  9
$CELTYPE
  6
BYLAYER
  9
$CECOLOR
 62
   256
  9
$DIMSCALE
 40
1.0
  9
$DIMASZ
 40
2.5
  9
$DIMEXO
 40
1.0
  9
$DIMDLI
 40
8.0
  9
$DIMRND
 40
0.0
  9
$DIMDLE
 40
0.0
  9
$DIMEXE
 40
0.6
  9
$DIMTP
 40
0.1
  9
$DIMTM
 40
0.1
  9
$DIMTXT
 40
2.5
  9
$DIMCEN
 40
0.0
  9
$DIMTSZ
 40
0.0
  9
$DIMTOL
 70
     0
  9
$DIMLIM
 70
     0
  9
$DIMTIH
 70
     0
  9
$DIMTOH
 70
     0
  9
$DIMSE1
 70
     0
  9
$DIMSE2
 70
     0
  9
$DIMTAD
 70
     1
  9
$DIMZIN
 70
     8
  9
$DIMBLK
  1

  9
$DIMASO
 70
     1
  9
$DIMSHO
 70
     1
  9
$DIMPOST
  1

  9
$DIMAPOST
  1
"
  9
$DIMALT
 70
     0
  9
$DIMALTD
 70
     2
  9
$DIMALTF
 40
0.0393701
  9
$DIMLFAC
 40
1.0
  9
$DIMTOFL
 70
     1
  9
$DIMTVP
 40
0.0
  9
$DIMTIX
 70
     0
  9
$DIMSOXD
 70
     0
  9
$DIMSAH
 70
     0
  9
$DIMBLK1
  1

  9
$DIMBLK2
  1

  9
$DIMSTYLE
  2
AM_ISO
  9
$DIMCLRD
 70
   256
  9
$DIMCLRE
 70
   256
  9
$DIMCLRT
 70
     4
  9
$DIMTFAC
 40
0.71
  9
$DIMGAP
 40
0.8
  9
$LUNITS
 70
     2
  9
$LUPREC
 70
     2
  9
$SKETCHINC
 40
1.0
  9
$FILLETRAD
 40
15.0
  9
$AUNITS
 70
     0
  9
$AUPREC
 70
     0
  9
$MENU
  1
.
  9
$ELEVATION
 40
0.0
  9
$PELEVATION
 40
0.0
  9
$THICKNESS
 40
0.0
  9
$LIMCHECK
 70
     0
  9
$BLIPMODE
 70
     0
  9
$CHAMFERA
 40
6.0
  9
$CHAMFERB
 40
3.0
  9
$SKPOLY
 70
     0
  9
$TDCREATE
 40
2452066.403275996
  9
$TDUPDATE
 40
2458541.441970787
  9
$TDINDWG
 40
0.1020803472
  9
$TDUSRTIMER
 40
0.1020803356
  9
$USRTIMER
 70
     1
  9
$ANGBASE
 50
0.0
  9
$ANGDIR
 70
     0
  9
$PDMODE
 70
     0
  9
$PDSIZE
 40
0.0
  9
$PLINEWID
 40
0.0
  9
$COORDS
 70
     1
  9
$SPLFRAME
 70
     0
  9
$SPLINETYPE
 70
     6
  9
$SPLINESEGS
 70
     8
  9
$ATTDIA
 70
     1
  9
$ATTREQ
 70
     1
  9
$HANDLING
 70
     1
  9
$HANDSEED
  5
2CA5
  9
$SURFTAB1
 70
     6
  9
$SURFTAB2
 70
     6
  9
$SURFTYPE
 70
     6
  9
$SURFU
 70
     6
  9
$SURFV
 70
     6
  9
$UCSNAME
  2

  9
$UCSORG
 10
0.0
 20
0.0
 30
0.0
  9
$UCSXDIR
 10
1.0
 20
0.0
 30
0.0
  9
$UCSYDIR
 10
0.0
 20
1.0
 30
0.0
  9
$PUCSNAME
  2

  9
$PUCSORG
 10
0.0
 20
0.0
 30
0.0
  9
$PUCSXDIR
 10
1.0
 20
0.0
 30
0.0
  9
$PUCSYDIR
 10
0.0
 20
1.0
 30
0.0
  9
$USERI1
 70
     0
  9
$USERI2
 70
     0
  9
$USERI3
 70
     0
  9
$USERI4
 70
     0
  9
$USERI5
 70
     0
  9
$USERR1
 40
0.0
  9
$USERR2
 40
0.0
  9
$USERR3
 40
0.0
  9
$USERR4
 40
0.0
  9
$USERR5
 40
0.0
  9
$WORLDVIEW
 70
     1
  9
$SHADEDGE
 70
     3
  9
$SHADEDIF
 70
    70
  9
$TILEMODE
 70
     1
  9
$MAXACTVP
 70
    64
  9
$PLIMCHECK
 70
     0
  9
$PEXTMIN
 10
1.0000000000000000E+020
 20
1.0000000000000000E+020
 30
1.0000000000000000E+020
  9
$PEXTMAX
 10
-1.0000000000000000E+020
 20
-1.0000000000000000E+020
 30
-1.0000000000000000E+020
  9
$PLIMMIN
 10
0.0
 20
0.0
  9
$PLIMMAX
 10
420.0
 20
297.0
  9
$UNITMODE
 70
     0
  9
$VISRETAIN
 70
     1
  9
$PLINEGEN
 70
     0
  9
$PSLTSCALE
 70
     1
  0
ENDSEC
  0
SECTION
  2
TABLES
  0
TABLE
  2
VPORT
 70
     1
  0
VPORT
  2
*ACTIVE
 70
     0
 10
0.0
 20
0.0
 11
1.0
 21
1.0
 12
466.27594960402462
 22
412.282605948325
 13
0.0
 23
0.0
 14
7.5
 24
7.5
 15
30.0
 25
30.0
 16
0.0
 26
0.0
 36
1.0
 17
0.0
 27
0.0
 37
0.0
 40
576.48608092716916
 41
1.7571592210767459
 42
50.0
 43
0.0
 44
0.0
 50
0.0
 51
0.0
 71
     0
 72
   100
 73
     1
 74
     3
 75
     0
 76
     0
 77
     0
 78
     0
  0
ENDTAB
  0
TABLE
  2
LTYPE
 70
    26
  0
LTYPE
  2
CONTINUOUS
 70
     0
  3
Solid line
 72
    65
 73
     0
 40
0.0
  0
LTYPE
  2
AM_ISO02W050
 70
     0
  3
__ __ __ __ __ __ __ __ __ __ __ __ __ __ __
 72
    65
 73
     2
 40
7.5
 49
6.0
 49
-1.5
  0
LTYPE
  2
AM_ISO08W050
 70
     0
  3
____ . ____ . ____ . ____ . ____ . ____ . ____
 72
    65
 73
     4
 40
18.0
 49
12.0
 49
-1.5
 49
3.0
 49
-1.5
  0
LTYPE
  2
AM_ISO09W050
 70
     0
  3
_____ . . _____ . . _____ . . ____ .. ____
 72
    65
 73
     6
 40
22.5
 49
12.0
 49
-1.5
 49
3.0
 49
-1.5
 49
3.0
 49
-1.5
  0
LTYPE
  2
AMCONSTR
 70
     0
  3
_______________________
 72
    65
 73
     2
 40
9999.0
 49
9999.0
 49
0.0
  0
LTYPE
  2
AM_ISO08W050X2
 70
     0
  3
__ . __ . __ . __ . __ . __
 72
    65
 73
     4
 40
9.0
 49
6.0
 49
-0.75
 49
1.5
 49
-0.75
  0
LTYPE
  2
AM_ISO02W050X2
 70
     0
  3
 _ _ _ _ _ _ _ _ _ _ _ _
 72
    65
 73
     2
 40
3.75
 49
3.0
 49
-0.75
  0
LTYPE
  2
AMZIGZAG
 70
     0
  3
/\/-/\/-/\/-/\/-/\/-/\/
 72
    65
 73
     2
 40
11.000099999999991
 49
0.0001
 49
-11.0
  0
LTYPE
  2
ACISOWELD
 70
     0
  3
_ _ _ _ _
 72
    65
 73
     2
 40
2.0
 49
2.0
 49
-1.0
  0
LTYPE
  2
ACISOTGB
 70
     0
  3
__ . . __ . .
 72
    65
 73
     6
 40
9.0
 49
4.0
 49
-1.0
 49
1.0
 49
-1.0
 49
1.0
 49
-1.0
  0
LTYPE
  2
ACISOTGL
 70
     0
  3
_ _ _ _ _
 72
    65
 73
     2
 40
3.0
 49
2.0
 49
-1.0
  0
LTYPE
  2
CENTER
 70
     0
  3
__ . __
 72
    65
 73
     4
 40
7.0
 49
4.0
 49
-1.0
 49
1.0
 49
-1.0
  0
LTYPE
  2
PHANTOM2
 70
     0
  3
Phantom (.5x) ___ _ _ ___ _ _ ___ _ _ ___ _ _
 72
    65
 73
     6
 40
31.75
 49
15.875
 49
-3.174999999999998
 49
3.174999999999998
 49
-3.174999999999998
 49
3.174999999999998
 49
-3.174999999999998
  0
LTYPE
  2
ACANSTGBM
 70
     0
  3
__ . . __ . .
 72
    65
 73
     6
 40
9.0
 49
4.0
 49
-1.0
 49
1.0
 49
-1.0
 49
1.0
 49
-1.0
  0
LTYPE
  2
ACANSTGLM
 70
     0
  3
_ _ _ _ _
 72
    65
 73
     2
 40
3.0
 49
2.0
 49
-1.0
  0
LTYPE
  2
GEN7
 70
     0
  3
____ . ____ . ____ . ____ . ____ . ____ . ____
 72
    65
 73
     4
 40
14.25
 49
9.75
 49
-1.5
 49
1.5
 49
-1.5
  0
LTYPE
  2
GEN7A
 70
     0
  3
__ . __ . __
 72
    65
 73
     4
 40
7.375
 49
4.75
 49
-0.875
 49
0.875
 49
-0.875
  0
LTYPE
  2
ACJISTGB
 70
     0
  3
__ . . __ . .
 72
    65
 73
     6
 40
9.0
 49
4.0
 49
-1.0
 49
1.0
 49
-1.0
 49
1.0
 49
-1.0
  0
LTYPE
  2
ACJISTGL
 70
     0
  3
_ _ _ _ _
 72
    65
 73
     2
 40
3.0
 49
2.0
 49
-1.0
  0
LTYPE
  2
HIDDEN
 70
     0
  3
Hidden __ __ __ __ __ __ __ __ __ __ __ __ __ _
 72
    65
 73
     2
 40
0.375
 49
0.25
 49
-0.125
  0
LTYPE
  2
CENTER2
 70
     0
  3
Center (.5x) ___ _ ___ _ ___ _ ___ _ ___ _ ___
 72
    65
 73
     4
 40
1.125
 49
0.75
 49
-0.125
 49
0.125
 49
-0.125
  0
LTYPE
  2
HIDDEN2
 70
     0
  3
Hidden (.5x) _ _ _ _ _ _ _ _ _ _ _ _ _ _ _ _ _
 72
    65
 73
     2
 40
0.1875
 49
0.125
 49
-0.0625
  0
LTYPE
  2
AMZIGZAG2
 70
     0
  3
/\/-/\/-/\/-/\/-/\/-/\/
 72
    65
 73
     2
 40
0.4401
 49
0.0001
 49
-0.4400000000000002
  0
LTYPE
  2
ACANSTGB
 70
     0
  3
__ . . __ . .
 72
    65
 73
     6
 40
0.35433070866
 49
0.15748031496
 49
-0.03937007874
 49
0.03937007874
 49
-0.03937007874
 49
0.03937007874
 49
-0.03937007874
  0
LTYPE
  2
ACANSTGL
 70
     0
  3
_ _ _ _ _
 72
    65
 73
     2
 40
0.11811023622
 49
0.07874015748
 49
-0.03937007874
  0
ENDTAB
  0
TABLE
  2
LAYER
 70
     6
  0
LAYER
  2
0
 70
     0
 62
     7
  6
CONTINUOUS
  0
LAYER
  2
AM_0
 70
     0
 62
     7
  6
CONTINUOUS
  0
LAYER
  2
AM_5
 70
     0
 62
     2
  6
CONTINUOUS
  0
LAYER
  2
DEFPOINTS
 70
     0
 62
     7
  6
CONTINUOUS
  0
LAYER
  2
ﾁｭｳｼﾝｾﾝ
 70
     0
 62
     1
  6
GEN7
  0
LAYER
  2
ﾁｭｳｼﾝｾﾝ1
 70
     0
 62
     1
  6
GEN7A
  0
ENDTAB
  0
TABLE
  2
STYLE
 70
     9
  0
STYLE
  2
STANDARD
 70
     0
 40
0.0
 41
0.8299999999999999
 50
0.0
 71
     0
 42
2.5
  3
txt.shx
  4
bigfont.shx
  0
STYLE
  2
ANNOTATIVE
 70
     0
 40
0.0
 41
1.0
 50
0.0
 71
     0
 42
0.2
  3
txt
  4

  0
STYLE
  2

 70
     1
 40
0.0
 41
1.0
 50
0.0
 71
     0
 42
2.5
  3
ltypeshp.shx
  4

  0
STYLE
  2
ACISOTS
 70
     0
 40
1.0
 41
1.0
 50
0.0
 71
     0
 42
2.5
  3
isocp.shx
  4
extfont.shx
  0
STYLE
  2
ACISOGDT
 70
     0
 40
0.0
 41
1.0
 50
0.0
 71
     0
 42
2.5
  3
amgdt.shx
  4

  0
STYLE
  2
ACANSTS
 70
     0
 40
1.0
 41
1.0
 50
0.0
 71
     0
 42
2.5
  3
romans.shx
  4
bigfont.shx
  0
STYLE
  2
ACANSGDT
 70
     0
 40
0.0
 41
1.0
 50
0.0
 71
     0
 42
2.5
  3
amgdt.shx
  4

  0
STYLE
  2
ACJISTS
 70
     0
 40
1.0
 41
1.0
 50
0.0
 71
     0
 42
2.5
  3
isocp.shx
  4
bigfont.shx
  0
STYLE
  2
ACJISGDT
 70
     0
 40
0.0
 41
1.0
 50
0.0
 71
     0
 42
2.5
  3
amgdt.shx
  4

  0
ENDTAB
  0
TABLE
  2
VIEW
 70
     6
  0
VIEW
  2
AM_VIEW1
 70
     0
 40
277.49999999999989
 10
249.64779005524849
 20
416.24999999999989
 41
499.2955801104971
 11
0.0
 21
0.0
 31
1.0
 12
0.0
 22
0.0
 32
0.0
 42
50.0
 43
0.0
 44
0.0
 50
0.0
 71
     0
  0
VIEW
  2
AM_VIEW2
 70
     0
 40
277.49999999999989
 10
603.85220994475117
 20
416.24999999999989
 41
499.2955801104971
 11
0.0
 21
0.0
 31
1.0
 12
0.0
 22
0.0
 32
0.0
 42
50.0
 43
0.0
 44
0.0
 50
0.0
 71
     0
  0
VIEW
  2
AM_VIEW3
 70
     0
 40
277.49999999999989
 10
249.64779005524849
 20
138.7499999999998
 41
499.2955801104971
 11
0.0
 21
0.0
 31
1.0
 12
0.0
 22
0.0
 32
0.0
 42
50.0
 43
0.0
 44
0.0
 50
0.0
 71
     0
  0
VIEW
  2
AM_VIEW4
 70
     0
 40
277.49999999999989
 10
603.85220994475117
 20
138.7499999999998
 41
499.2955801104971
 11
0.0
 21
0.0
 31
1.0
 12
0.0
 22
0.0
 32
0.0
 42
50.0
 43
0.0
 44
0.0
 50
0.0
 71
     0
  0
VIEW
  2
AM_VIEW5
 70
     0
 40
277.5
 10
426.75
 20
277.49999999999989
 41
499.2955801104971
 11
0.0
 21
0.0
 31
1.0
 12
0.0
 22
0.0
 32
0.0
 42
50.0
 43
0.0
 44
0.0
 50
0.0
 71
     0
  0
VIEW
  2
AM_VIEW6
 70
     0
 40
554.99445000000014
 10
426.75
 20
277.49999999999989
 41
998.5811743093924
 11
0.0
 21
0.0
 31
1.0
 12
0.0
 22
0.0
 32
0.0
 42
50.0
 43
0.0
 44
0.0
 50
0.0
 71
     0
  0
ENDTAB
  0
TABLE
  2
UCS
 70
     0
  0
ENDTAB
  0
TABLE
  2
APPID
 70
    95
  0
APPID
  2
ACAD
 70
     0
  0
APPID
  2
ACADANNOTATIVE
 70
     0
  0
APPID
  2
MCAD_NO_VIS
 70
     0
  0
APPID
  2
ACAD_TEMP_GRAPHIC
 70
     0
  0
APPID
  2
ACATTRIBSERVICES
 70
     0
  0
APPID
  2
GENIUS_GENREC_14
 70
     0
  0
APPID
  2
GENIUS_GENOBJ-N-REC_13
 70
     0
  0
APPID
  2
GENIUS_GENODEF_13
 70
     0
  0
APPID
  2
GENIUS_GENOLIS_13
 70
     0
  0
APPID
  2
GENIUS_GENOBJ-N-TIT_13
 70
     0
  0
APPID
  2
GENIUS_GENOENT_13
 70
     0
  0
APPID
  2
GENIUS_GENTITLE_13
 70
     0
  0
APPID
  2
GENIUS_GENOREF_13
 70
     0
  0
APPID
  2
GENIUS_GENSCREG_15
 70
     0
  0
APPID
  2
GENIUS_GENOBJ-N-SDF_13
 70
     0
  0
APPID
  2
GENIUS_GENFIL_13
 70
     0
  0
APPID
  2
GENIUS_GENOBJ-N-CHA_13
 70
     0
  0
APPID
  2
GENIUS_GENDTOL_13
 70
     0
  0
APPID
  2
GENIUS_GENOBJ-N-FIL_13
 70
     0
  0
APPID
  2
AD_DRAW
 70
     0
  0
APPID
  2
DESIGNERASSEMBLIES
 70
     0
  0
APPID
  2
ASURF_PCURVE_APPNAME
 70
     0
  0
APPID
  2
GENIUS_GE3SECT_13
 70
     0
  0
APPID
  2
GENIUS_GENCFG_13
 70
     0
  0
APPID
  2
GENIUS_GE3CFG0_13
 70
     0
  0
APPID
  2
GENIUS_GENCFG0_13
 70
     0
  0
APPID
  2
GENIUS_GENCFG1_13
 70
     0
  0
APPID
  2
GENIUS_GENCFG2_13
 70
     0
  0
APPID
  2
GENIUS_GENCFG3_13
 70
     0
  0
APPID
  2
GENIUS_GENCFG4_13
 70
     0
  0
APPID
  2
GENIUS_GEVCFG0_13
 70
     0
  0
APPID
  2
GENIUS_GENHINW_13
 70
     0
  0
APPID
  2
GENIUS_FIRSTVISTXT_14
 70
     0
  0
APPID
  2
GENIUS_GENOBJ-N-LEADER_13
 70
     0
  0
APPID
  2
GEV_VCCNULL_SWITCH_OFF
 70
     0
  0
APPID
  2
GENIUS_GEFCFG0_13
 70
     0
  0
APPID
  2
GENIUS_GENZVEED_13
 70
     0
  0
APPID
  2
GENIUS_GENSCREG_13
 70
     0
  0
APPID
  2
GENIUS_DUMCFG0_13
 70
     0
  0
APPID
  2
GEVID936201362
 70
     0
  0
APPID
  2
GEVDC
 70
     0
  0
APPID
  2
GEVCON
 70
     0
  0
APPID
  2
VCC
 70
     0
  0
APPID
  2
GEVPT
 70
     0
  0
APPID
  2
GEVIT
 70
     0
  0
APPID
  2
GENBH
 70
     0
  0
APPID
  2
GEVMK
 70
     0
  0
APPID
  2
GENIUS_GENBH_13
 70
     0
  0
APPID
  2
GENIUS_GENOBJ-NBEHI-BHF_13
 70
     0
  0
APPID
  2
GENIUS_GENOBJ-NBEHI-BHB_13
 70
     0
  0
APPID
  2
GENIUS_GENOBJ-F-DESC_13
 70
     0
  0
APPID
  2
GENIUS_GEFDESC_14
 70
     0
  0
APPID
  2
GENIUS_GENOBJ-F-PART_13
 70
     0
  0
APPID
  2
GENIUS_GEFSTDP_13
 70
     0
  0
APPID
  2
GENIUS_GEFPARTINS_13
 70
     0
  0
APPID
  2
GENIUS_GENTRA_14
 70
     0
  0
APPID
  2
GENIUS_GENINF13_13
 70
     0
  0
APPID
  2
GENIUS_GENOBJ-N-INFOPT_13
 70
     0
  0
APPID
  2
GENIUS_GENOBJ-N-RSSYM_13
 70
     0
  0
APPID
  2
GENIUS_GENSYMENT_13
 70
     0
  0
APPID
  2
GENIUS_GENSCSYM_13
 70
     0
  0
APPID
  2
GENIUS_GEFINFNAM_13
 70
     0
  0
APPID
  2
GENIUS_GENOBJ-N-CEN_13
 70
     0
  0
APPID
  2
GENIUS_GENOBJ-N-CRS_13
 70
     0
  0
APPID
  2
GENIUS_GENOBJ-N-CRC_13
 70
     0
  0
APPID
  2
GENIUS_GENCRC_14
 70
     0
  0
APPID
  2
GEVID942827039
 70
     0
  0
APPID
  2
GEVID942827040
 70
     0
  0
APPID
  2
GEVID942827041
 70
     0
  0
APPID
  2
GENIUS_GENOBJ-F-SCPASSM_13
 70
     0
  0
APPID
  2
GENIUS_GENDIMSH_14
 70
     0
  0
APPID
  2
GEVID942827042
 70
     0
  0
APPID
  2
GEVID946020473
 70
     0
  0
APPID
  2
GEVID946020474
 70
     0
  0
APPID
  2
GEVID946020475
 70
     0
  0
APPID
  2
GENIUS_GENOBJ-N-HTC_13
 70
     0
  0
APPID
  2
GENIUS_GENHATCH_13
 70
     0
  0
APPID
  2
GEVID948854295
 70
     0
  0
APPID
  2
GEVID939402019
 70
     0
  0
APPID
  2
GEVID952919491
 70
     0
  0
APPID
  2
GEVID952919492
 70
     0
  0
APPID
  2
GENIUS_GEFWELD_13
 70
     0
  0
APPID
  2
GENIUS_GENOBJ-F-WELS_13
 70
     0
  0
APPID
  2
GEVID952919493
 70
     0
  0
APPID
  2
GENIUS_GENOBJ-N-RSBK_13
 70
     0
  0
APPID
  2
GENIUS_GENOBJ-N-LIB_13
 70
     0
  0
APPID
  2
GENIUS_GENSCALE_13
 70
     0
  0
APPID
  2
GEVID986376691
 70
     0
  0
APPID
  2
DCO15
 70
     0
  0
APPID
  2
ACAD_DSTYLE_DIMBREAK
 70
     0
  0
APPID
  2
ACAD_DSTYLE_DIMJAG
 70
     0
  0
APPID
  2
ACAD_NAV_VCDISPLAY
 70
     0
  0
APPID
  2
ACADANNOPO
 70
     0
  0
APPID
  2
ACAD_EXEMPT_FROM_CAD_STANDARDS
 70
     0
  0
APPID
  2
ACAD_MLEADERVER
 70
     0
  0
ENDTAB
  0
TABLE
  2
DIMSTYLE
 70
    22
  0
DIMSTYLE
  2
STANDARD
 70
     0
  3

  4

  5

  6

  7

 40
1.0
 41
0.18
 42
0.0625
 43
0.38
 44
0.18
 45
0.0
 46
0.0
 47
0.0
 48
0.0
140
0.18
141
0.09
142
0.0
143
25.399999999999999
144
1.0
145
0.0
146
1.0
147
0.09
 71
     0
 72
     0
 73
     1
 74
     1
 75
     0
 76
     0
 77
     0
 78
     0
170
     0
171
     2
172
     0
173
     0
174
     0
175
     0
176
     0
177
     0
178
     0
  0
DIMSTYLE
  2
ANNOTATIVE
 70
     0
  3

  4

  5

  6

  7

 40
1.0
 41
0.18
 42
0.0625
 43
0.38
 44
0.18
 45
0.0
 46
0.0
 47
0.0
 48
0.0
140
0.18
141
0.09
142
0.0
143
25.399999999999999
144
1.0
145
0.0
146
1.0
147
0.09
 71
     0
 72
     0
 73
     1
 74
     1
 75
     0
 76
     0
 77
     0
 78
     0
170
     0
171
     2
172
     0
173
     0
174
     0
175
     0
176
     0
177
     0
178
     0
  0
DIMSTYLE
  2
AM_ISO
 70
     0
  3

  4
"
  5

  6

  7

 40
1.0
 41
2.5
 42
1.0
 43
8.0
 44
0.6
 45
0.0
 46
0.0
 47
0.1
 48
0.1
140
2.5
141
0.0
142
0.0
143
0.0393701
144
1.0
145
0.0
146
0.71
147
0.8
 71
     0
 72
     0
 73
     0
 74
     0
 75
     0
 76
     0
 77
     1
 78
     8
170
     0
171
     2
172
     1
173
     0
174
     0
175
     0
176
   256
177
   256
178
     4
  0
DIMSTYLE
  2
AM_ISO$3
 70
     0
  3

  4
"
  5

  6

  7

 40
1.0
 41
2.5
 42
1.0
 43
8.0
 44
0.6
 45
0.0
 46
0.0
 47
0.1
 48
0.1
140
2.5
141
0.0
142
0.0
143
0.0393701
144
1.0
145
0.0
146
0.71
147
0.8
 71
     0
 72
     0
 73
     0
 74
     1
 75
     0
 76
     0
 77
     1
 78
     8
170
     0
171
     2
172
     0
173
     0
174
     0
175
     0
176
   256
177
   256
178
     4
  0
DIMSTYLE
  2
AM_ISO$4
 70
     0
  3

  4
"
  5

  6

  7

 40
1.0
 41
2.5
 42
1.0
 43
8.0
 44
0.6
 45
0.0
 46
0.0
 47
0.1
 48
0.1
140
2.5
141
0.0
142
0.0
143
0.0393701
144
1.0
145
0.0
146
0.71
147
0.8
 71
     0
 72
     0
 73
     0
 74
     1
 75
     0
 76
     0
 77
     1
 78
     8
170
     0
171
     2
172
     0
173
     0
174
     0
175
     0
176
   256
177
   256
178
     4
  0
DIMSTYLE
  2
AM_ISO$6
 70
     0
  3

  4
"
  5

  6

  7

 40
1.0
 41
2.5
 42
1.0
 43
8.0
 44
0.6
 45
0.0
 46
0.0
 47
0.1
 48
0.1
140
2.5
141
0.0
142
0.0
143
0.0393701
144
1.0
145
0.0
146
0.71
147
0.8
 71
     0
 72
     0
 73
     0
 74
     0
 75
     0
 76
     0
 77
     0
 78
     8
170
     0
171
     2
172
     1
173
     0
174
     0
175
     0
176
   256
177
   256
178
     4
  0
DIMSTYLE
  2
AM_ISO$7
 70
     0
  3

  4
"
  5

  6

  7

 40
1.0
 41
2.5
 42
1.0
 43
8.0
 44
0.6
 45
0.0
 46
0.0
 47
0.1
 48
0.1
140
2.5
141
0.0
142
0.0
143
0.0393701
144
1.0
145
0.0
146
0.71
147
0.8
 71
     0
 72
     0
 73
     0
 74
     0
 75
     0
 76
     0
 77
     1
 78
     8
170
     0
171
     2
172
     1
173
     0
174
     0
175
     0
176
   256
177
   256
178
     4
  0
DIMSTYLE
  2
AM_ISO$SF
 70
     0
  3

  4
"
  5

  6

  7

 40
1.0
 41
2.5
 42
1.0
 43
10.0
 44
1.0
 45
0.0
 46
0.0
 47
0.1
 48
0.1
140
3.5
141
0.0
142
0.0
143
0.0393701
144
1.0
145
0.0
146
0.71
147
1.5
 71
     0
 72
     0
 73
     0
 74
     0
 75
     1
 76
     1
 77
     1
 78
     8
170
     0
171
     2
172
     1
173
     0
174
     0
175
     0
176
   256
177
   256
178
     2
  0
DIMSTYLE
  2
AM_ISO$SH
 70
     0
  3

  4
"
  5

  6

  7

 40
1.0
 41
2.5
 42
1.0
 43
10.0
 44
1.0
 45
0.0
 46
0.0
 47
0.1
 48
0.1
140
3.5
141
0.0
142
0.0
143
0.0393701
144
2.0
145
0.0
146
0.71
147
1.5
 71
     0
 72
     0
 73
     0
 74
     0
 75
     1
 76
     1
 77
     1
 78
     8
170
     0
171
     2
172
     1
173
     1
174
     0
175
     0
176
   256
177
   256
178
     2
  0
DIMSTYLE
  2
AM_JIS
 70
     0
  3

  4
"
  5

  6

  7

 40
1.0
 41
2.5
 42
1.0
 43
7.0
 44
1.0
 45
0.0
 46
0.0
 47
0.1
 48
0.1000000001
140
2.5
141
0.0
142
0.0
143
0.0393701
144
1.0
145
0.0
146
0.71
147
1.0
 71
     0
 72
     0
 73
     0
 74
     0
 75
     0
 76
     0
 77
     3
 78
     8
170
     0
171
     2
172
     1
173
     0
174
     0
175
     0
176
   256
177
   256
178
     4
  0
DIMSTYLE
  2
AM_JIS$3
 70
     0
  3

  4
"
  5

  6

  7

 40
1.0
 41
2.5
 42
1.0
 43
7.0
 44
1.0
 45
0.0
 46
0.0
 47
0.1
 48
0.1000000001
140
2.5
141
0.0
142
0.0
143
0.0393701
144
1.0
145
0.0
146
0.71
147
1.0
 71
     0
 72
     0
 73
     0
 74
     1
 75
     0
 76
     0
 77
     3
 78
     8
170
     0
171
     2
172
     0
173
     0
174
     0
175
     0
176
   256
177
   256
178
     4
  0
DIMSTYLE
  2
AM_JIS$4
 70
     0
  3

  4
"
  5

  6

  7

 40
1.0
 41
2.5
 42
1.0
 43
7.0
 44
1.0
 45
0.0
 46
0.0
 47
0.1
 48
0.1000000001
140
2.5
141
0.0
142
0.0
143
0.0393701
144
1.0
145
0.0
146
0.71
147
1.0
 71
     0
 72
     0
 73
     0
 74
     0
 75
     0
 76
     0
 77
     3
 78
     8
170
     0
171
     2
172
     0
173
     0
174
     0
175
     0
176
   256
177
   256
178
     4
  0
DIMSTYLE
  2
AM_JIS$6
 70
     0
  3

  4
"
  5

  6

  7

 40
1.0
 41
2.5
 42
1.0
 43
7.0
 44
1.0
 45
0.0
 46
0.0
 47
0.1
 48
0.1000000001
140
2.5
141
0.0
142
0.0
143
0.0393701
144
1.0
145
0.0
146
0.71
147
1.0
 71
     0
 72
     0
 73
     0
 74
     0
 75
     0
 76
     0
 77
     0
 78
     8
170
     0
171
     2
172
     1
173
     0
174
     0
175
     0
176
   256
177
   256
178
     4
  0
DIMSTYLE
  2
AM_JIS$7
 70
     0
  3

  4
"
  5

  6

  7

 40
1.0
 41
2.5
 42
1.0
 43
7.0
 44
1.0
 45
0.0
 46
0.0
 47
0.1
 48
0.1000000001
140
2.5
141
0.0
142
0.0
143
0.0393701
144
1.0
145
0.0
146
0.71
147
1.0
 71
     0
 72
     0
 73
     0
 74
     0
 75
     0
 76
     0
 77
     3
 78
     8
170
     0
171
     2
172
     1
173
     0
174
     0
175
     0
176
   256
177
   256
178
     4
  0
DIMSTYLE
  2
AM_JIS$SF
 70
     0
  3

  4
"
  5

  6

  7

 40
1.0
 41
2.5
 42
1.0
 43
10.0
 44
1.0
 45
0.0
 46
0.0
 47
0.1
 48
0.1
140
3.5
141
0.0
142
0.0
143
0.0393701
144
1.0
145
0.0
146
0.71
147
1.5
 71
     0
 72
     0
 73
     0
 74
     0
 75
     1
 76
     1
 77
     3
 78
     8
170
     0
171
     2
172
     1
173
     0
174
     0
175
     0
176
   256
177
   256
178
     4
  0
DIMSTYLE
  2
AM_JIS$SH
 70
     0
  3

  4
"
  5

  6

  7

 40
1.0
 41
2.5
 42
1.0
 43
10.0
 44
1.0
 45
0.0
 46
0.0
 47
0.1
 48
0.1
140
3.5
141
0.0
142
0.0
143
0.0393701
144
1.0
145
0.0
146
0.71
147
1.5
 71
     0
 72
     0
 73
     0
 74
     0
 75
     1
 76
     0
 77
     3
 78
     8
170
     0
171
     2
172
     1
173
     1
174
     0
175
     0
176
   256
177
   256
178
     4
  0
DIMSTYLE
  2
AM_ANSI
 70
     0
  3

  4
mm
  5

  6

  7

 40
1.0
 41
0.1
 42
0.05
 43
0.5
 44
0.1
 45
0.0
 46
0.0
 47
0.1
 48
0.1
140
0.12
141
0.0
142
0.0
143
25.399999999999999
144
1.0
145
0.0
146
0.71
147
0.06
 71
     0
 72
     0
 73
     1
 74
     1
 75
     0
 76
     0
 77
     0
 78
     7
170
     0
171
     2
172
     0
173
     0
174
     0
175
     0
176
   256
177
   256
178
     2
  0
DIMSTYLE
  2
AM_ANSI$3
 70
     0
  3

  4
mm
  5

  6

  7

 40
1.0
 41
0.1
 42
0.05
 43
0.5
 44
0.1
 45
0.0
 46
0.0
 47
0.1
 48
0.1
140
0.12
141
0.0
142
0.0
143
25.399999999999999
144
1.0
145
0.0
146
0.71
147
0.06
 71
     0
 72
     0
 73
     1
 74
     1
 75
     0
 76
     0
 77
     0
 78
     7
170
     0
171
     2
172
     0
173
     0
174
     0
175
     0
176
   256
177
   256
178
     2
  0
DIMSTYLE
  2
AM_ANSI$4
 70
     0
  3

  4
mm
  5

  6

  7

 40
1.0
 41
0.1
 42
0.05
 43
0.5
 44
0.1
 45
0.0
 46
0.0
 47
0.1
 48
0.1
140
0.12
141
0.0
142
0.0
143
25.399999999999999
144
1.0
145
0.0
146
0.71
147
0.06
 71
     0
 72
     0
 73
     1
 74
     1
 75
     0
 76
     0
 77
     0
 78
     7
170
     0
171
     2
172
     0
173
     0
174
     0
175
     0
176
   256
177
   256
178
     2
  0
DIMSTYLE
  2
AM_ANSI$7
 70
     0
  3

  4
mm
  5

  6

  7

 40
1.0
 41
0.1
 42
0.05
 43
0.5
 44
0.1
 45
0.0
 46
0.0
 47
0.1
 48
0.1
140
0.24
141
0.0
142
0.0
143
25.399999999999999
144
1.0
145
0.0
146
0.71
147
0.06
 71
     0
 72
     0
 73
     1
 74
     1
 75
     0
 76
     0
 77
     0
 78
     7
170
     0
171
     2
172
     0
173
     0
174
     0
175
     0
176
   256
177
   256
178
     2
  0
DIMSTYLE
  2
AM_ANSI$SF
 70
     0
  3

  4
mm
  5

  6

  7

 40
1.0
 41
0.1
 42
0.05
 43
0.5
 44
0.1
 45
0.0
 46
0.0
 47
0.1
 48
0.1
140
0.12
141
0.0
142
0.0
143
25.399999999999999
144
1.0
145
0.0
146
0.71
147
0.06
 71
     0
 72
     0
 73
     1
 74
     1
 75
     1
 76
     1
 77
     0
 78
     7
170
     0
171
     2
172
     0
173
     0
174
     0
175
     0
176
   256
177
   256
178
     2
  0
DIMSTYLE
  2
AM_ANSI$SH
 70
     0
  3

  4
mm
  5

  6

  7

 40
1.0
 41
0.1
 42
0.05
 43
0.5
 44
0.1
 45
0.0
 46
0.0
 47
0.1
 48
0.1
140
0.12
141
0.0
142
0.0
143
25.399999999999999
144
1.0
145
0.0
146
0.71
147
0.06
 71
     0
 72
     0
 73
     1
 74
     1
 75
     1
 76
     1
 77
     0
 78
     7
170
     0
171
     2
172
     0
173
     1
174
     0
175
     0
176
   256
177
   256
178
     2
  0
ENDTAB
  0
ENDSEC
  0
SECTION
  2
BLOCKS
  0
BLOCK
  8
0
  2
$MODEL_SPACE
 70
     0
 10
0.0
 20
0.0
 30
0.0
  3
$MODEL_SPACE
  1

  0
ENDBLK
  5
2B15
  8
0
  0
BLOCK
 67
     1
  8
0
  2
$PAPER_SPACE
 70
     0
 10
0.0
 20
0.0
 30
0.0
  3
$PAPER_SPACE
  1

  0
ENDBLK
  5
2B11
 67
     1
  8
0
  0
BLOCK
  8
0
  2
GENAXEH
 70
     0
 10
0.0
 20
0.0
 30
0.0
  3
GENAXEH
  1

  0
LINE
  5
291E
  8
0
 10
-1.0
 20
0.0
 30
0.0
 11
1.0
 21
0.0
 31
0.0
  0
ENDBLK
  5
291F
  8
0
  0
BLOCK
  8
0
  2
_OPEN30
 70
     0
 10
0.0
 20
0.0
 30
0.0
  3
_OPEN30
  1

  0
LINE
  5
2922
  8
0
 62
     0
 10
-1.0
 20
0.26794919
 30
0.0
 11
0.0
 21
0.0
 31
0.0
  0
LINE
  5
2923
  8
0
 62
     0
 10
0.0
 20
0.0
 30
0.0
 11
-1.0
 21
-0.26794919
 31
0.0
  0
LINE
  5
2924
  8
0
 62
     0
 10
0.0
 20
0.0
 30
0.0
 11
-1.0
 21
0.0
 31
0.0
  0
ENDBLK
  5
2925
  8
0
  0
BLOCK
  8
0
  2
_NONE
 70
     0
 10
0.0
 20
0.0
 30
0.0
  3
_NONE
  1

  0
ENDBLK
  5
2928
  8
0
  0
BLOCK
  8
0
  2
*U5
 70
     1
 10
0.0
 20
0.0
 30
0.0
  3
*U5
  1

  0
TEXT
  5
292B
  8
AM_0
 62
     4
 10
471.78167853991681
 20
243.7537355
 30
0.0
 40
7.5
  1
\U+2205
 50
90.0
 41
0.8299999999999999
  0
TEXT
  5
292C
  8
AM_0
 62
     4
 10
471.78167853991681
 20
249.9787355
 30
0.0
 40
7.5
  1
210
 50
90.0
 41
0.8299999999999999
  0
TEXT
  5
292D
  8
AM_0
 62
     4
 10
471.78167853991681
 20
265.54123550000008
 30
0.0
 40
6.0
  1
h7
 50
90.0
 41
0.8299999999999999
  0
ENDBLK
  5
292E
  8
0
  0
BLOCK
  8
0
  2
*U6
 70
     1
 10
0.0
 20
0.0
 30
0.0
  3
*U6
  1

  0
TEXT
  5
2931
  8
AM_0
 62
     4
 10
617.02578777005806
 20
415.871488729921
 30
0.0
 40
7.5
  1
o
 41
0.8299999999999999
  0
TEXT
  5
2932
  8
AM_0
 62
     4
 10
624.43650205577251
 20
415.871488729921
 30
0.0
 40
7.5
  1
 235
 41
0.8299999999999999
  0
ENDBLK
  5
2933
  8
0
  0
BLOCK
  8
0
  2
_ACMFILLEDHALF
 70
     0
 10
0.0
 20
0.0
 30
0.0
  3
_ACMFILLEDHALF
  1

  0
TRACE
  5
2C0F
  8
AM_0
 62
     0
 10
-0.8
 20
0.0
 30
0.0
 11
-1.0
 21
0.166666666
 31
0.0
 12
0.0
 22
0.0
 32
0.0
 13
0.0
 23
0.0
 33
0.0
  0
LINE
  5
2C10
  8
AM_0
 62
     0
 10
-1.0
 20
0.0
 30
0.0
 11
-0.8
 21
0.0
 31
0.0
  0
ENDBLK
  5
2C0E
  8
0
  0
ENDSEC
  0
SECTION
  2
ENTITIES
  0
LINE
  5
2934
  8
AM_0
 10
433.59285398434389
 20
277.79746499999987
 30
0.0
 11
388.59285398434389
 21
277.79746499999987
 31
0.0
  0
LINE
  5
2935
  8
AM_0
 10
433.59285398434389
 20
274.7974650000001
 30
0.0
 11
375.59283398434371
 21
274.7974650000001
 31
0.0
  0
LINE
  5
2936
  8
AM_0
 10
433.59285398434389
 20
242.79747900000001
 30
0.0
 11
375.59283398434371
 21
242.79747900000001
 31
0.0
  0
LINE
  5
2937
  8
ﾁｭｳｼﾝｾﾝ
 10
436.71114398434372
 20
258.79746299999999
 30
0.0
 11
242.26933123380161
 21
258.79746299999999
 31
0.0
  0
LINE
  5
2938
  8
AM_0
 10
375.59283398434371
 20
153.79749000000001
 30
0.0
 11
375.59283398434371
 21
363.79748100000018
 31
0.0
  0
LINE
  5
2939
  8
AM_0
 10
344.48064398434383
 20
307.83454499999999
 30
0.0
 11
340.05993398434367
 21
265.23066
 31
0.0
  0
LINE
  5
293A
  8
AM_0
 10
356.59287398434373
 20
230.03321099999991
 30
0.0
 11
356.59287398434373
 21
317.70821100000001
 31
0.0
  0
LINE
  5
293B
  8
AM_0
 10
371.59287398434373
 20
258.79746299999999
 30
0.0
 11
371.59287398434373
 21
376.297461
 31
0.0
  0
LINE
  5
293C
  8
AM_0
 10
363.59283398434371
 20
258.79746299999999
 30
0.0
 11
363.59283398434371
 21
349.39721100000008
 31
0.0
  0
LINE
  5
293D
  8
AM_0
 10
233.59287398434381
 20
158.86855200000011
 30
0.0
 11
233.59287398434381
 21
302.72638799999999
 31
0.0
  0
LINE
  5
293E
  8
AM_0
 10
248.5928739843437
 20
133.57806900000011
 30
0.0
 11
248.5928739843437
 21
328.01690100000002
 31
0.0
  0
LINE
  5
293F
  8
AM_0
 10
258.59286398434392
 20
131.297481
 30
0.0
 11
258.59286398434392
 21
330.29747099999992
 31
0.0
  0
LINE
  5
2940
  8
AM_0
 10
388.59285398434389
 20
274.7974650000001
 30
0.0
 11
388.59285398434389
 21
277.79746499999987
 31
0.0
  0
LINE
  5
2941
  8
AM_0
 10
211.09286398434381
 20
293.79747900000001
 30
0.0
 11
211.09286398434381
 21
167.7974790000001
 31
0.0
  0
LINE
  5
2942
  8
AM_0
 10
209.6283978902766
 20
286.8330052765383
 30
0.0
 11
183.52180380187261
 21
260.7264111881347
 31
0.0
  0
LINE
  5
2943
  8
AM_0
 10
221.09286398434381
 20
294.79747900000001
 30
0.0
 11
221.09286398434381
 21
166.7974790000001
 31
0.0
  0
LINE
  5
2944
  8
AM_0
 10
157.59287614369131
 20
257.79747900000001
 30
0.0
 11
176.45073599000739
 21
257.79747900000001
 31
0.0
  0
LINE
  5
2945
  8
AM_0
 10
157.59287614369131
 20
203.79747900000001
 30
0.0
 11
176.45073599000739
 21
203.79747900000001
 31
0.0
  0
LINE
  5
2946
  8
ﾁｭｳｼﾝｾﾝ
 10
115.2901778755765
 20
230.79747900000001
 30
0.0
 11
254.69784745507221
 21
230.79747900000001
 31
0.0
  0
LINE
  5
2947
  8
AM_0
 10
155.59287614369131
 20
205.79747900000001
 30
0.0
 11
155.59287614369131
 21
255.79747900000001
 31
0.0
  0
LINE
  5
2948
  8
AM_0
 10
153.59287614369131
 20
247.8832654376269
 30
0.0
 11
153.59287614369131
 21
213.7116925623732
 31
0.0
  0
LINE
  5
2949
  8
AM_0
 10
151.5928761436914
 20
239.29747900000001
 30
0.0
 11
151.5928761436914
 21
222.29747900000001
 31
0.0
  0
LINE
  5
294A
  8
AM_0
 10
123.5928761436914
 20
240.79747900000001
 30
0.0
 11
123.5928761436914
 21
222.79747900000001
 31
0.0
  0
LINE
  5
294B
  8
AM_0
 10
123.5928761436914
 20
222.79747900000001
 30
0.0
 11
151.5928761436914
 21
222.79747900000001
 31
0.0
  0
LINE
  5
294C
  8
AM_0
 10
153.88576936250479
 20
213.00458578118651
 30
0.0
 11
155.2999829248775
 21
211.59037221881351
 31
0.0
  0
ARC
  5
294D
  8
AM_0
 10
157.59287614369131
 20
205.79747900000001
 30
0.0
 40
2.0
 50
180.0
 51
270.0
1001
GENIUS_GENOBJ-N-FIL_13
1002
{
1000
OWNER
1000
GEN
1002
}
1001
GENIUS_GENODEF_13
1002
{
1000
HIER
1070
     0
1002
}
1002
{
1000
MANEDIT
1070
     0
1002
}
1002
{
1000
NOSEL
1070
     0
1002
}
1002
{
1000
BEHIND
1070
     0
1002
}
1002
{
1000
OTHER
1070
     0
1002
}
1002
{
1000
REACTOR
1002
}
  0
ARC
  5
294E
  8
AM_0
 10
154.59287614369131
 20
210.8832654376269
 30
0.0
 40
1.0
 50
0.0
 51
45.0
1001
GENIUS_GENODEF_13
1002
{
1000
HIER
1070
     0
1002
}
1002
{
1000
MANEDIT
1070
     0
1002
}
1002
{
1000
NOSEL
1070
     0
1002
}
1002
{
1000
BEHIND
1070
     0
1002
}
1002
{
1000
OTHER
1070
     0
1002
}
1002
{
1000
REACTOR
1002
}
1001
GENIUS_GENOBJ-N-FIL_13
1002
{
1000
OWNER
1000
GEN
1002
}
  0
LINE
  5
294F
  8
AM_0
 10
151.5928761436914
 20
222.29748433304991
 30
0.0
 11
153.59287614369131
 21
222.29748326644
 31
0.0
  0
ARC
  5
2950
  8
AM_0
 10
154.59287614369131
 20
213.7116925623732
 30
0.0
 40
1.0
 50
180.0
 51
225.0
1001
GENIUS_GENODEF_13
1002
{
1000
HIER
1070
     0
1002
}
1002
{
1000
MANEDIT
1070
     0
1002
}
1002
{
1000
NOSEL
1070
     0
1002
}
1002
{
1000
BEHIND
1070
     0
1002
}
1002
{
1000
OTHER
1070
     0
1002
}
1002
{
1000
REACTOR
1002
}
1001
GENIUS_GENOBJ-N-FIL_13
1002
{
1000
OWNER
1000
GEN
1002
}
  0
LINE
  5
2951
  8
AM_0
 10
123.5928761436914
 20
240.79747900000001
 30
0.0
 11
145.5928761436914
 21
240.79747900000001
 31
0.0
  0
LINE
  5
2952
  8
AM_0
 10
123.5928761436914
 20
238.79747900000001
 30
0.0
 11
151.5928761436914
 21
238.79747900000001
 31
0.0
  0
ARC
  5
2953
  8
AM_0
 10
157.59287614369131
 20
255.79747900000001
 30
0.0
 40
2.0
 50
90.0
 51
180.0
1001
GENIUS_GENOBJ-N-FIL_13
1002
{
1000
OWNER
1000
GEN
1002
}
1001
GENIUS_GENODEF_13
1002
{
1000
HIER
1070
     0
1002
}
1002
{
1000
MANEDIT
1070
     0
1002
}
1002
{
1000
NOSEL
1070
     0
1002
}
1002
{
1000
BEHIND
1070
     0
1002
}
1002
{
1000
OTHER
1070
     0
1002
}
1002
{
1000
REACTOR
1002
}
  0
LINE
  5
2954
  8
AM_0
 10
151.5928761436914
 20
239.29747900000001
 30
0.0
 11
153.59287614369131
 21
239.29747900000001
 31
0.0
  0
LINE
  5
2955
  8
AM_0
 10
145.5928761436914
 20
238.79747900000001
 30
0.0
 11
145.5928761436914
 21
240.79747900000001
 31
0.0
  0
LINE
  5
2956
  8
AM_0
 10
153.88576936250479
 20
248.59037221881351
 30
0.0
 11
155.2999829248775
 21
250.00458578118651
 31
0.0
  0
ARC
  5
2957
  8
AM_0
 10
154.59287614369131
 20
247.8832654376269
 30
0.0
 40
1.0
 50
135.0
 51
180.0
1001
GENIUS_GENODEF_13
1002
{
1000
HIER
1070
     0
1002
}
1002
{
1000
MANEDIT
1070
     0
1002
}
1002
{
1000
NOSEL
1070
     0
1002
}
1002
{
1000
BEHIND
1070
     0
1002
}
1002
{
1000
OTHER
1070
     0
1002
}
1002
{
1000
REACTOR
1002
}
1001
GENIUS_GENOBJ-N-FIL_13
1002
{
1000
OWNER
1000
GEN
1002
}
  0
ARC
  5
2958
  8
AM_0
 10
154.59287614369131
 20
250.7116925623732
 30
0.0
 40
1.0
 50
315.0
 51
0.0
1001
GENIUS_GENODEF_13
1002
{
1000
HIER
1070
     0
1002
}
1002
{
1000
MANEDIT
1070
     0
1002
}
1002
{
1000
NOSEL
1070
     0
1002
}
1002
{
1000
BEHIND
1070
     0
1002
}
1002
{
1000
OTHER
1070
     0
1002
}
1002
{
1000
REACTOR
1002
}
1001
GENIUS_GENOBJ-N-FIL_13
1002
{
1000
OWNER
1000
GEN
1002
}
  0
LINE
  5
2959
  8
AM_0
 10
248.5928739843437
 20
170.4172410000001
 30
0.0
 11
354.85638398434372
 21
170.4172410000001
 31
0.0
  0
LINE
  5
295A
  8
AM_0
 10
248.5928739843437
 20
150.379704
 30
0.0
 11
354.85638398434372
 21
150.379704
 31
0.0
  0
LINE
  5
295B
  8
AM_0
 10
258.59286398434392
 20
131.297481
 30
0.0
 11
343.82973398434382
 21
129.06547200000011
 31
0.0
  0
LINE
  5
295C
  8
AM_0
 10
209.6283978902766
 20
174.76195272346169
 30
0.0
 11
183.52180380187261
 21
200.8685468118656
 31
0.0
  0
LINE
  5
295D
  8
AM_0
 10
221.09286398434381
 20
167.29747500000011
 30
0.0
 11
228.76737398434369
 21
167.02947000000009
 31
0.0
  0
LINE
  5
295E
  8
AM_0
 10
221.09286398434381
 20
179.29749000000001
 30
0.0
 11
233.59287398434381
 21
179.29749000000001
 31
0.0
  0
LINE
  5
295F
  8
AM_0
 10
221.09286398434381
 20
166.7974790000001
 30
0.0
 11
212.09286398434381
 21
166.7974790000001
 31
0.0
  0
ARC
  5
2960
  8
AM_0
 10
212.09286398434381
 20
167.7974790000001
 30
0.0
 40
1.0
 50
180.0
 51
270.0
1001
GENIUS_GENODEF_13
1002
{
1000
HIER
1070
     0
1002
}
1002
{
1000
MANEDIT
1070
     0
1002
}
1002
{
1000
NOSEL
1070
     0
1002
}
1002
{
1000
BEHIND
1070
     0
1002
}
1002
{
1000
OTHER
1070
     0
1002
}
1002
{
1000
REACTOR
1002
}
1001
GENIUS_GENOBJ-N-FIL_13
1002
{
1000
OWNER
1000
GEN
1002
}
  0
ARC
  5
2961
  8
AM_0
 10
206.09286398434381
 20
171.2264188175289
 30
0.0
 40
5.0
 50
0.0
 51
45.0
1001
GENIUS_GENODEF_13
1002
{
1000
HIER
1070
     0
1002
}
1002
{
1000
MANEDIT
1070
     0
1002
}
1002
{
1000
NOSEL
1070
     0
1002
}
1002
{
1000
BEHIND
1070
     0
1002
}
1002
{
1000
OTHER
1070
     0
1002
}
1002
{
1000
REACTOR
1002
}
1001
GENIUS_GENOBJ-N-FIL_13
1002
{
1000
OWNER
1000
GEN
1002
}
  0
LINE
  5
2962
  8
AM_0
 10
221.09286398434381
 20
179.297448
 30
0.0
 11
211.09286398434381
 21
179.297448
 31
0.0
  0
LINE
  5
2963
  8
AM_0
 10
235.0573239843437
 20
155.33298300000001
 30
0.0
 11
247.7142039843439
 21
142.67612100000011
 31
0.0
  0
LINE
  5
2964
  8
AM_0
 10
250.52310398434381
 20
131.57928300000009
 30
0.0
 11
258.59286398434392
 21
131.29747500000011
 31
0.0
  0
ARC
  5
2965
  8
AM_0
 10
250.5928539843438
 20
133.57806900000011
 30
0.0
 40
2.00000007
 50
179.99998999999991
 51
268.00000999999992
  0
ARC
  5
2966
  8
AM_0
 10
245.5928739843439
 20
140.55484500000011
 30
0.0
 40
3.0
 50
0.0
 51
45.00000099999999
  0
ARC
  5
2967
  8
AM_0
 10
238.5928539843438
 20
158.86855200000011
 30
0.0
 40
5.0000001000000003
 50
179.99998999999991
 51
225.0
  0
ARC
  5
2968
  8
AM_0
 10
228.59286398434381
 20
162.0325380000001
 30
0.0
 40
5.0000001000000003
 50
0.0
 51
88.0
  0
LINE
  5
2969
  8
AM_0
 10
221.09286398434381
 20
267.94541400000003
 30
0.0
 11
233.59287398434381
 21
267.94541400000003
 31
0.0
  0
LINE
  5
296A
  8
AM_0
 10
221.09286398434381
 20
193.64954399999999
 30
0.0
 11
233.59287398434381
 21
193.64954399999999
 31
0.0
  0
LINE
  5
296B
  8
AM_0
 10
180.59287161373831
 20
257.79747900000001
 30
0.0
 11
180.59287161373831
 21
203.79747900000001
 31
0.0
  0
ARC
  5
296C
  8
AM_0
 10
176.45073599000739
 20
193.79747900000001
 30
0.0
 40
10.0
 50
45.0
 51
90.0
1001
GENIUS_GENODEF_13
1002
{
1000
HIER
1070
     0
1002
}
1002
{
1000
MANEDIT
1070
     0
1002
}
1002
{
1000
NOSEL
1070
     0
1002
}
1002
{
1000
BEHIND
1070
     0
1002
}
1002
{
1000
OTHER
1070
     0
1002
}
1002
{
1000
REACTOR
1002
}
1001
GENIUS_GENOBJ-N-FIL_13
1002
{
1000
OWNER
1000
GEN
1002
}
  0
LINE
  5
296D
  8
AM_0
 10
221.09286398434381
 20
193.64949899999999
 30
0.0
 11
211.09286398434381
 21
193.64949899999999
 31
0.0
  0
ARC
  5
296E
  8
AM_0
 10
176.45073599000739
 20
267.79747900000001
 30
0.0
 40
10.0
 50
270.0
 51
315.0
1001
GENIUS_GENODEF_13
1002
{
1000
HIER
1070
     0
1002
}
1002
{
1000
MANEDIT
1070
     0
1002
}
1002
{
1000
NOSEL
1070
     0
1002
}
1002
{
1000
BEHIND
1070
     0
1002
}
1002
{
1000
OTHER
1070
     0
1002
}
1002
{
1000
REACTOR
1002
}
1001
GENIUS_GENOBJ-N-FIL_13
1002
{
1000
OWNER
1000
GEN
1002
}
  0
LINE
  5
296F
  8
AM_0
 10
221.09286398434381
 20
267.94539900000001
 30
0.0
 11
211.09286398434381
 21
267.94539900000001
 31
0.0
  0
LINE
  5
2970
  8
AM_0
 10
258.59280398434367
 20
260.982798
 30
0.0
 11
258.59439398434392
 21
260.982798
 31
0.0
  0
LINE
  5
2971
  8
AM_0
 10
356.59287398434373
 20
143.88027000000011
 30
0.0
 11
356.59287398434373
 21
194.10820799999999
 31
0.0
  0
LINE
  5
2972
  8
AM_0
 10
371.59287398434373
 20
141.29748900000001
 30
0.0
 11
371.59287398434373
 21
258.79746299999999
 31
0.0
  0
LINE
  5
2973
  8
AM_0
 10
363.59283398434371
 20
167.42951099999991
 30
0.0
 11
363.59283398434371
 21
258.79746299999999
 31
0.0
  0
LINE
  5
2974
  8
AM_0
 10
358.8774039843438
 20
164.36775900000001
 30
0.0
 11
360.69753398434381
 21
164.43132600000001
 31
0.0
  0
LINE
  5
2975
  8
AM_0
 10
359.69754398434372
 20
140.8820850000001
 30
0.0
 11
371.59287398434373
 21
141.29747400000011
 31
0.0
  0
LINE
  5
2976
  8
AM_0
 10
343.82979398434389
 20
129.06548100000001
 30
0.0
 11
364.59285398434389
 21
141.05304300000009
 31
0.0
  0
ARC
  5
2977
  8
AM_0
 10
359.5928739843439
 20
143.88027000000011
 30
0.0
 40
3.0
 50
179.99998999999991
 51
271.99998999999991
  0
LINE
  5
2978
  8
AM_0
 10
371.59287398434373
 20
153.79749000000001
 30
0.0
 11
375.59283398434371
 21
153.79749000000001
 31
0.0
  0
ARC
  5
2979
  8
AM_0
 10
360.59283398434371
 20
167.42951099999991
 30
0.0
 40
3.0
 50
272.0
 51
0.0
  0
LINE
  5
297A
  8
AM_0
 10
359.5928739843439
 20
227.03321099999999
 30
0.0
 11
363.59283398434371
 21
227.03321099999999
 31
0.0
  0
LINE
  5
297B
  8
AM_0
 10
359.5928739843439
 20
197.10820799999999
 30
0.0
 11
363.59283398434371
 21
197.10820799999999
 31
0.0
  0
ARC
  5
297C
  8
AM_0
 10
379.84638398434362
 20
261.10222800000003
 30
0.0
 40
40.000001999999981
 50
174.07597999999999
 51
234.45533999999989
  0
ARC
  5
297D
  8
AM_0
 10
359.5928739843439
 20
194.10820799999999
 30
0.0
 40
3.0
 50
90.000003000000007
 51
180.00001
  0
ARC
  5
297E
  8
AM_0
 10
359.5928739843439
 20
230.03321099999991
 30
0.0
 40
3.0
 50
179.99998999999991
 51
270.0
  0
LINE
  5
297F
  8
AM_0
 10
258.59286398434392
 20
330.29750100000001
 30
0.0
 11
317.69877398434357
 21
331.84523100000013
 31
0.0
  0
LINE
  5
2980
  8
AM_0
 10
248.5928739843437
 20
310.00190099999998
 30
0.0
 11
343.58637398434371
 21
310.00190099999998
 31
0.0
  0
LINE
  5
2981
  8
AM_0
 10
221.09286398434381
 20
282.2974650000001
 30
0.0
 11
233.59287398434381
 21
282.2974650000001
 31
0.0
  0
LINE
  5
2982
  8
AM_0
 10
221.09286398434381
 20
294.29746499999999
 30
0.0
 11
228.76737398434369
 21
294.56544000000002
 31
0.0
  0
ARC
  5
2983
  8
AM_0
 10
206.09286398434381
 20
290.36853918247112
 30
0.0
 40
5.0
 50
315.0
 51
0.0
1001
GENIUS_GENODEF_13
1002
{
1000
HIER
1070
     0
1002
}
1002
{
1000
MANEDIT
1070
     0
1002
}
1002
{
1000
NOSEL
1070
     0
1002
}
1002
{
1000
BEHIND
1070
     0
1002
}
1002
{
1000
OTHER
1070
     0
1002
}
1002
{
1000
REACTOR
1002
}
1001
GENIUS_GENOBJ-N-FIL_13
1002
{
1000
OWNER
1000
GEN
1002
}
  0
LINE
  5
2984
  8
AM_0
 10
221.09286398434381
 20
282.29745000000008
 30
0.0
 11
211.09286398434381
 21
282.29745000000008
 31
0.0
  0
LINE
  5
2985
  8
AM_0
 10
221.09286398434381
 20
294.79747900000001
 30
0.0
 11
212.09286398434381
 21
294.79747900000001
 31
0.0
  0
ARC
  5
2986
  8
AM_0
 10
212.09286398434381
 20
293.79747900000001
 30
0.0
 40
1.0
 50
90.0
 51
180.0
1001
GENIUS_GENODEF_13
1002
{
1000
HIER
1070
     0
1002
}
1002
{
1000
MANEDIT
1070
     0
1002
}
1002
{
1000
NOSEL
1070
     0
1002
}
1002
{
1000
BEHIND
1070
     0
1002
}
1002
{
1000
OTHER
1070
     0
1002
}
1002
{
1000
REACTOR
1002
}
1001
GENIUS_GENOBJ-N-FIL_13
1002
{
1000
OWNER
1000
GEN
1002
}
  0
ARC
  5
2987
  8
AM_0
 10
245.5928739843439
 20
321.04010099999999
 30
0.0
 40
3.0
 50
315.0
 51
0.0
  0
ARC
  5
2988
  8
AM_0
 10
228.59286398434381
 20
299.5624170000001
 30
0.0
 40
5.0000001000000003
 50
272.0
 51
0.0
  0
LINE
  5
2989
  8
AM_0
 10
235.0573239843437
 20
306.26194199999992
 30
0.0
 11
247.7142039843439
 21
318.91880099999997
 31
0.0
  0
ARC
  5
298A
  8
AM_0
 10
238.5928539843438
 20
302.72638799999999
 30
0.0
 40
5.0000001000000003
 50
135.0
 51
180.00001
  0
LINE
  5
298B
  8
AM_0
 10
250.52304398434359
 20
330.01568099999997
 30
0.0
 11
258.59286398434392
 21
330.29747099999992
 31
0.0
  0
ARC
  5
298C
  8
AM_0
 10
250.5928539843438
 20
328.01690100000002
 30
0.0
 40
2.00000007
 50
91.999997999999948
 51
180.00001
  0
LINE
  5
298D
  8
AM_0
 10
356.59287398434373
 20
317.70821100000001
 30
0.0
 11
356.59287398434373
 21
372.87656099999992
 31
0.0
  0
LINE
  5
298E
  8
AM_0
 10
321.10335398434393
 20
333.3080010000001
 30
0.0
 11
356.59287398434373
 21
368.79749100000009
 31
0.0
  0
LINE
  5
298F
  8
AM_0
 10
359.5928739843439
 20
314.70821100000001
 30
0.0
 11
363.59283398434371
 21
314.70821100000001
 31
0.0
  0
ARC
  5
2990
  8
AM_0
 10
323.59287398434378
 20
310.00190099999998
 30
0.0
 40
21.000000600000011
 50
354.07597999999979
 51
80.875524999999996
  0
ARC
  5
2991
  8
AM_0
 10
359.5928739843439
 20
317.70821100000001
 30
0.0
 40
3.0
 50
179.99998999999991
 51
270.0
  0
LINE
  5
2992
  8
AM_0
 10
319.69281398434362
 20
331.8974310000001
 30
0.0
 11
326.9230239843439
 21
330.73619100000002
 31
0.0
  0
ARC
  5
2993
  8
AM_0
 10
317.56779398434378
 20
336.843501
 30
0.0
 40
5.0000001000000003
 50
271.49999999999972
 51
315.0
  0
ARC
  5
2994
  8
AM_0
 10
360.59283398434371
 20
349.39721100000008
 30
0.0
 40
3.0
 50
0.0
 51
91.999997999999948
  0
LINE
  5
2995
  8
AM_0
 10
360.30828398434397
 20
352.38908100000009
 30
0.0
 11
360.48816398434371
 21
352.39532100000008
 31
0.0
  0
LINE
  5
2996
  8
AM_0
 10
371.59287398434373
 20
363.79748100000018
 30
0.0
 11
375.59283398434371
 21
363.79748100000018
 31
0.0
  0
LINE
  5
2997
  8
AM_0
 10
359.4881739843438
 20
375.87476099999992
 30
0.0
 11
371.59287398434373
 21
376.29749099999998
 31
0.0
  0
ARC
  5
2998
  8
AM_0
 10
359.5928739843439
 20
372.87656099999992
 30
0.0
 40
3.0
 50
91.999997999999948
 51
180.00001
  0
CIRCLE
  5
2999
  8
AM_0
 10
651.73167740299209
 20
258.79746299999999
 30
0.0
 40
105.00000299999979
  0
CIRCLE
  5
299A
  8
AM_0
 10
651.73167740299209
 20
258.79746299999999
 30
0.0
 40
99.000003000000021
  0
ARC
  5
299B
  8
AM_0
 10
651.73167740299209
 20
258.79746299999999
 30
0.0
 40
48.0
 50
0.0
 51
35.223151999999992
  0
ARC
  5
299C
  8
AM_0
 10
651.73167740299209
 20
258.79746299999999
 30
0.0
 40
89.000003999999961
 50
0.42822786
 51
13.875764
  0
CIRCLE
  5
299D
  8
AM_0
 10
651.73167740299209
 20
258.79746299999999
 30
0.0
 40
29.000001000000001
  0
ARC
  5
299E
  8
AM_0
 10
651.73167740299209
 20
258.79746299999999
 30
0.0
 40
48.0
 50
144.77683999999991
 51
180.00001
  0
ARC
  5
299F
  8
AM_0
 10
651.73167740299209
 20
258.79746299999999
 30
0.0
 40
89.000003999999961
 50
166.12423000000001
 51
179.57176999999999
  0
LINE
  5
29A0
  8
ﾁｭｳｼﾝｾﾝ
 10
651.73167740299209
 20
126.026754
 30
0.0
 11
651.73167740299209
 21
381.89489100000009
 31
0.0
  0
LINE
  5
29A1
  8
AM_0
 10
769.2316754029921
 20
258.79746299999999
 30
0.0
 11
769.2316754029921
 21
288.79746299999999
 31
0.0
  0
LINE
  5
29A2
  8
AM_0
 10
534.23167640299221
 20
258.79746299999999
 30
0.0
 11
534.23167640299221
 21
288.79746299999999
 31
0.0
  0
LINE
  5
29A3
  8
AM_0
 10
646.73166440299212
 20
269.7974640000001
 30
0.0
 11
646.73166440299212
 21
277.79746499999987
 31
0.0
  0
LINE
  5
29A4
  8
AM_0
 10
656.73166340299213
 20
269.7974640000001
 30
0.0
 11
656.73166340299213
 21
277.79746499999987
 31
0.0
  0
LINE
  5
29A5
  8
AM_0
 10
433.59285398434389
 20
242.79747900000001
 30
0.0
 11
433.59285398434389
 21
277.79746499999987
 31
0.0
  0
LINE
  5
29A6
  8
AM_0
 10
704.73168140299208
 20
215.79747599999999
 30
0.0
 11
737.70841040299194
 21
215.79747599999999
 31
0.0
  0
LINE
  5
29A7
  8
AM_0
 10
681.73166540299212
 20
141.29747399999991
 30
0.0
 11
746.8909454029922
 21
144.712332
 31
0.0
  0
LINE
  5
29A8
  8
ﾁｭｳｼﾝｾﾝ
 10
529.06402640299211
 20
258.79746299999999
 30
0.0
 11
773.54140640299215
 21
258.79746299999999
 31
0.0
  0
LINE
  5
29A9
  8
AM_0
 10
598.73166140299213
 20
215.79747599999999
 30
0.0
 11
565.75492940299205
 21
215.79747599999999
 31
0.0
  0
LINE
  5
29AA
  8
AM_0
 10
621.73166240299201
 20
141.29747399999991
 30
0.0
 11
556.57237340299196
 21
144.71231700000001
 31
0.0
  0
LINE
  5
29AB
  8
AM_0
 10
534.23164640299206
 20
228.79747800000001
 30
0.0
 11
537.64648640299185
 21
163.63818900000001
 31
0.0
  0
ARC
  5
29AC
  8
AM_0
 10
557.61912740299215
 20
164.68492800000001
 30
0.0
 40
20.000000700000001
 50
183.00001
 51
267.0
  0
ARC
  5
29AD
  8
ﾁｭｳｼﾝｾﾝ1
 10
651.73167740300005
 20
258.79746300000818
 30
0.0
 40
135.0000030000113
 50
218.89434376363801
 51
231.39772629616991
  0
LINE
  5
29AE
  8
ﾁｭｳｼﾝｾﾝ1
 10
566.18946762538906
 20
173.25528322239711
 30
0.0
 11
546.63662665365985
 21
153.7024422506679
 31
0.0
  0
CIRCLE
  5
29AF
  8
AM_0
 10
556.27226540299205
 20
163.33807800000011
 30
0.0
 40
7.5000002999999982
  0
ARC
  5
29B0
  8
AM_0
 10
651.73167740299209
 20
230.79747900000001
 30
0.0
 40
93.500003999999976
 50
162.14678999999981
 51
183.00788
  0
LINE
  5
29B1
  8
AM_0
 10
534.23167640299221
 20
258.79746299999999
 30
0.0
 11
534.23167640299221
 21
228.79746299999999
 31
0.0
  0
ARC
  5
29B2
  8
AM_0
 10
565.75492940299205
 20
220.797462
 30
0.0
 40
5.0000001000000003
 50
203.8444699999998
 51
270.0
  0
LINE
  5
29B3
  8
AM_0
 10
651.73167740299209
 20
141.29748900000001
 30
0.0
 11
621.73166240299201
 21
141.29748900000001
 31
0.0
  0
ARC
  5
29B4
  8
AM_0
 10
651.73167740299209
 20
230.79747900000001
 30
0.0
 40
99.500004000000004
 50
242.88566
 51
297.11435
  0
LINE
  5
29B5
  8
AM_0
 10
651.73167740299209
 20
141.29748900000001
 30
0.0
 11
681.73168040299186
 21
141.29748900000001
 31
0.0
  0
LINE
  5
29B6
  8
AM_0
 10
646.73166440299212
 20
269.7974640000001
 30
0.0
 11
656.73166340299213
 21
269.7974640000001
 31
0.0
  0
ARC
  5
29B7
  8
AM_0
 10
651.73167740299209
 20
258.79746299999999
 30
0.0
 40
16.000000499999999
 50
108.20996
 51
71.790052000000003
  0
ARC
  5
29B8
  8
AM_0
 10
651.73167740299209
 20
258.79746299999999
 30
0.0
 40
16.000000499999999
 50
108.20996
 51
71.790052000000003
  0
LINE
  5
29B9
  8
ﾁｭｳｼﾝｾﾝ
 10
593.43871437353891
 20
230.79747900000001
 30
0.0
 11
708.95354569766619
 21
230.79747900000001
 31
0.0
  0
LINE
  5
29BA
  8
AM_0
 10
603.73166240299167
 20
258.79746299999999
 30
0.0
 11
603.73166240299167
 21
220.797462
 31
0.0
  0
ARC
  5
29BB
  8
AM_0
 10
598.73166140299213
 20
220.797462
 30
0.0
 40
5.0000001000000003
 50
270.0
 51
0.0
  0
LINE
  5
29BC
  8
AM_0
 10
699.7316804029922
 20
258.79746299999999
 30
0.0
 11
699.7316804029922
 21
220.797462
 31
0.0
  0
ARC
  5
29BD
  8
AM_0
 10
704.73168140299208
 20
220.797462
 30
0.0
 40
5.0000001000000003
 50
179.99998999999991
 51
270.0
  0
CIRCLE
  5
29BE
  8
AM_5
 10
651.73167740299209
 20
258.79746299999999
 30
0.0
 40
4.000000199999997
  0
CIRCLE
  5
29BF
  8
AM_0
 10
651.73167740299209
 20
258.79746299999999
 30
0.0
 40
2.75000007
  0
CIRCLE
  5
29C0
  8
AM_0
 10
651.73167740299209
 20
258.79746299999999
 30
0.0
 40
2.75000007
  0
CIRCLE
  5
29C1
  8
AM_0
 10
651.73167740299209
 20
258.79746299999999
 30
0.0
 40
2.75000007
  0
LINE
  5
29C2
  8
AM_0
 10
769.2316754029921
 20
228.79746299999999
 30
0.0
 11
765.81682640299209
 21
163.63818900000001
 31
0.0
  0
ARC
  5
29C3
  8
AM_0
 10
745.84423040299191
 20
164.68492800000001
 30
0.0
 40
20.000000700000001
 50
273.0
 51
357.0
  0
CIRCLE
  5
29C4
  8
AM_0
 10
747.19108640299214
 20
163.33807800000011
 30
0.0
 40
7.5000002999999982
  0
LINE
  5
29C5
  8
AM_0
 10
769.2316754029921
 20
258.79746299999999
 30
0.0
 11
769.2316754029921
 21
228.79746299999999
 31
0.0
  0
ARC
  5
29C6
  8
AM_0
 10
651.73167740299209
 20
230.79747900000001
 30
0.0
 40
93.500003999999976
 50
356.99212
 51
17.853213
  0
ARC
  5
29C7
  8
AM_0
 10
737.70841040299194
 20
220.797462
 30
0.0
 40
5.0000001000000003
 50
270.0
 51
336.15553
  0
ARC
  5
29C8
  8
AM_0
 10
651.73167740299209
 20
230.79747900000001
 30
0.0
 40
99.500004000000004
 50
29.730242999999991
 51
54.136312000000011
  0
LINE
  5
29C9
  8
AM_0
 10
691.49246840299213
 20
292.90140600000001
 30
0.0
 11
720.72279140299179
 21
322.131711
 31
0.0
  0
LINE
  5
29CA
  8
AM_0
 10
685.83562340299227
 20
298.558269
 30
0.0
 11
715.06594040299228
 21
327.78857099999999
 31
0.0
  0
LINE
  5
29CB
  8
AM_0
 10
681.73166540299212
 20
376.297461
 30
0.0
 11
746.8909454029922
 21
372.88262100000009
 31
0.0
  0
ARC
  5
29CC
  8
AM_0
 10
579.20503340299194
 20
318.596181
 30
0.0
 40
5.0000001000000003
 50
45.00000099999999
 51
140.49418
  0
ARC
  5
29CD
  8
AM_0
 10
651.73167740299209
 20
230.79747900000001
 30
0.0
 40
99.500004000000004
 50
125.86368999999991
 51
150.26975999999991
  0
LINE
  5
29CE
  8
AM_0
 10
621.73166240299201
 20
376.297461
 30
0.0
 11
556.57240340299222
 21
372.88262100000009
 31
0.0
  0
ARC
  5
29CF
  8
AM_0
 10
557.61912740299215
 20
352.91000100000002
 30
0.0
 40
20.000000700000001
 50
92.999999000000017
 51
176.99999
  0
LINE
  5
29D0
  8
AM_0
 10
534.23167640299221
 20
288.79746299999999
 30
0.0
 11
537.64651640299212
 21
353.95676100000009
 31
0.0
  0
CIRCLE
  5
29D1
  8
AM_0
 10
556.27226540299205
 20
354.25688100000008
 30
0.0
 40
7.5000002999999982
  0
ARC
  5
29D2
  8
AM_0
 10
645.73166240299201
 20
333.12170099999997
 30
0.0
 40
3.0
 50
273.35581999999999
 51
0.0
  0
ARC
  5
29D3
  8
AM_0
 10
645.73166240299201
 20
339.31217099999992
 30
0.0
 40
3.0
 50
0.0
 51
90.000003000000007
  0
LINE
  5
29D4
  8
AM_0
 10
646.73166440299212
 20
277.79746499999987
 30
0.0
 11
656.73166340299213
 21
277.79746499999987
 31
0.0
  0
ARC
  5
29D5
  8
AM_0
 10
651.73167740299209
 20
258.79746299999999
 30
0.0
 40
48.0
 50
54.77685000000001
 51
125.22314
  0
LINE
  5
29D6
  8
AM_0
 10
611.97088940299204
 20
292.90140600000001
 30
0.0
 11
582.74058740299211
 21
322.131711
 31
0.0
  0
LINE
  5
29D7
  8
AM_0
 10
617.62774940299175
 20
298.558269
 30
0.0
 11
588.39743240299185
 21
327.78854100000001
 31
0.0
  0
ARC
  5
29D8
  8
AM_0
 10
608.43533540299211
 20
289.36588499999988
 30
0.0
 40
5.0000001000000003
 50
324.77685000000002
 51
45.00000099999999
  0
ARC
  5
29D9
  8
AM_0
 10
621.16325840299214
 20
302.09379000000013
 30
0.0
 40
5.0000001000000003
 50
225.0
 51
305.22314999999992
  0
ARC
  5
29DA
  8
AM_0
 10
591.93294140299213
 20
331.32410099999998
 30
0.0
 40
5.0000001000000003
 50
129.5058199999998
 51
225.0
  0
ARC
  5
29DB
  8
AM_0
 10
651.73167740299209
 20
230.79747900000001
 30
0.0
 40
99.500004000000004
 50
93.355817999999985
 51
121.1615
  0
ARC
  5
29DC
  8
AM_0
 10
651.73167740299209
 20
230.79747900000001
 30
0.0
 40
99.500004000000004
 50
58.838493999999997
 51
86.644180000000006
  0
ARC
  5
29DD
  8
AM_0
 10
682.30008440299207
 20
302.09379000000013
 30
0.0
 40
5.0000001000000003
 50
234.77686
 51
315.0
  0
ARC
  5
29DE
  8
AM_0
 10
695.02800440299211
 20
289.36588499999988
 30
0.0
 40
5.0000001000000003
 50
135.0
 51
215.22315
  0
ARC
  5
29DF
  8
AM_0
 10
657.73167740299175
 20
339.31217099999992
 30
0.0
 40
3.0
 50
90.000003000000007
 51
180.00001
  0
ARC
  5
29E0
  8
AM_0
 10
657.73167740299175
 20
333.12170099999997
 30
0.0
 40
3.0
 50
179.99998999999991
 51
266.64418999999992
  0
LINE
  5
29E1
  8
AM_0
 10
654.73167740299209
 20
339.31217099999992
 30
0.0
 11
654.73167740299209
 21
333.12170099999997
 31
0.0
  0
LINE
  5
29E2
  8
AM_0
 10
648.73167740299198
 20
339.31217099999992
 30
0.0
 11
648.73167740299198
 21
333.12170099999997
 31
0.0
  0
LINE
  5
29E3
  8
AM_0
 10
651.73167740299209
 20
376.297461
 30
0.0
 11
621.73166240299201
 21
376.297461
 31
0.0
  0
LINE
  5
29E4
  8
AM_0
 10
651.73167740299209
 20
376.297461
 30
0.0
 11
681.73168040299186
 21
376.297461
 31
0.0
  0
ARC
  5
29E5
  8
ﾁｭｳｼﾝｾﾝ1
 10
651.73167740299164
 20
258.79746299999982
 30
0.0
 40
135.0000030000005
 50
38.368392999999926
 51
51.610202479561217
  0
ARC
  5
29E6
  8
AM_0
 10
745.84423040299191
 20
352.91000100000002
 30
0.0
 40
20.000000700000001
 50
3.0000000999999981
 51
86.999998999999988
  0
LINE
  5
29E7
  8
AM_0
 10
769.23166640299166
 20
288.79746299999999
 30
0.0
 11
765.81681740299211
 21
353.95676100000009
 31
0.0
  0
LINE
  5
29E8
  8
ﾁｭｳｼﾝｾﾝ1
 10
736.88221258105727
 20
343.94799551635452
 30
0.0
 11
756.35028214833619
 21
363.4160884037928
 31
0.0
  0
CIRCLE
  5
29E9
  8
AM_0
 10
747.19108640299214
 20
354.25688100000008
 30
0.0
 40
7.5000002999999982
  0
ARC
  5
29EA
  8
AM_0
 10
711.53040140299208
 20
331.32410099999998
 30
0.0
 40
5.0000001000000003
 50
315.0
 51
50.494182000000002
  0
ARC
  5
29EB
  8
AM_0
 10
724.25830640299193
 20
318.596181
 30
0.0
 40
5.0000001000000003
 50
39.505817999999998
 51
135.0
  0
LINE
  5
29EC
  8
AM_0
 10
153.59277614369151
 20
598.13316958770497
 30
0.0
 11
153.59277614369151
 21
563.96159671245152
 31
0.0
  0
LINE
  5
29ED
  8
AM_0
 10
155.5927761436914
 20
556.04738315007819
 30
0.0
 11
155.5927761436914
 21
606.04738315007808
 31
0.0
  0
LINE
  5
29EE
  8
AM_0
 10
211.0927639843438
 20
644.04738315007808
 30
0.0
 11
211.0927639843438
 21
518.04738315007819
 31
0.0
  0
LINE
  5
29EF
  8
AM_0
 10
180.59277161373831
 20
608.0473831500783
 30
0.0
 11
180.59277161373831
 21
554.0473831500783
 31
0.0
  0
LINE
  5
29F0
  8
AM_0
 10
209.62829789027671
 20
525.01185687353995
 30
0.0
 11
183.5217038018728
 21
551.11845096194395
 31
0.0
  0
ARC
  5
29F1
  8
AM_0
 10
176.45063599000741
 20
544.04738315007808
 30
0.0
 40
10.0
 50
45.0
 51
90.0
1001
GENIUS_GENODEF_13
1002
{
1000
HIER
1070
     0
1002
}
1002
{
1000
MANEDIT
1070
     0
1002
}
1002
{
1000
NOSEL
1070
     0
1002
}
1002
{
1000
BEHIND
1070
     0
1002
}
1002
{
1000
OTHER
1070
     0
1002
}
1002
{
1000
REACTOR
1002
}
1001
GENIUS_GENOBJ-N-FIL_13
1002
{
1000
OWNER
1000
GEN
1002
}
  0
LINE
  5
29F2
  8
AM_0
 10
157.5927761436914
 20
554.0473831500783
 30
0.0
 11
176.45063599000741
 21
554.0473831500783
 31
0.0
  0
ARC
  5
29F3
  8
AM_0
 10
157.5927761436914
 20
556.04738315007819
 30
0.0
 40
2.0
 50
180.0
 51
270.0
1001
GENIUS_GENOBJ-N-FIL_13
1002
{
1000
OWNER
1000
GEN
1002
}
1001
GENIUS_GENODEF_13
1002
{
1000
HIER
1070
     0
1002
}
1002
{
1000
MANEDIT
1070
     0
1002
}
1002
{
1000
NOSEL
1070
     0
1002
}
1002
{
1000
BEHIND
1070
     0
1002
}
1002
{
1000
OTHER
1070
     0
1002
}
1002
{
1000
REACTOR
1002
}
  0
LINE
  5
29F4
  8
AM_0
 10
153.88566936250481
 20
563.25448993126486
 30
0.0
 11
155.29988292487801
 21
561.84027636889175
 31
0.0
  0
ARC
  5
29F5
  8
AM_0
 10
154.59277614369159
 20
561.13316958770497
 30
0.0
 40
1.0
 50
0.0
 51
45.0
1001
GENIUS_GENODEF_13
1002
{
1000
HIER
1070
     0
1002
}
1002
{
1000
MANEDIT
1070
     0
1002
}
1002
{
1000
NOSEL
1070
     0
1002
}
1002
{
1000
BEHIND
1070
     0
1002
}
1002
{
1000
OTHER
1070
     0
1002
}
1002
{
1000
REACTOR
1002
}
1001
GENIUS_GENOBJ-N-FIL_13
1002
{
1000
OWNER
1000
GEN
1002
}
  0
ARC
  5
29F6
  8
AM_0
 10
154.59277614369151
 20
563.96159671245152
 30
0.0
 40
1.0
 50
180.0
 51
225.0
1001
GENIUS_GENODEF_13
1002
{
1000
HIER
1070
     0
1002
}
1002
{
1000
MANEDIT
1070
     0
1002
}
1002
{
1000
NOSEL
1070
     0
1002
}
1002
{
1000
BEHIND
1070
     0
1002
}
1002
{
1000
OTHER
1070
     0
1002
}
1002
{
1000
REACTOR
1002
}
1001
GENIUS_GENOBJ-N-FIL_13
1002
{
1000
OWNER
1000
GEN
1002
}
  0
ARC
  5
29F7
  8
AM_0
 10
206.0927639843438
 20
521.4763229676073
 30
0.0
 40
5.0
 50
0.0
 51
45.0
1001
GENIUS_GENODEF_13
1002
{
1000
HIER
1070
     0
1002
}
1002
{
1000
MANEDIT
1070
     0
1002
}
1002
{
1000
NOSEL
1070
     0
1002
}
1002
{
1000
BEHIND
1070
     0
1002
}
1002
{
1000
OTHER
1070
     0
1002
}
1002
{
1000
REACTOR
1002
}
1001
GENIUS_GENOBJ-N-FIL_13
1002
{
1000
OWNER
1000
GEN
1002
}
  0
LINE
  5
29F8
  8
AM_0
 10
221.0927639843438
 20
517.0473831500783
 30
0.0
 11
212.09276398434389
 21
517.0473831500783
 31
0.0
  0
ARC
  5
29F9
  8
AM_0
 10
212.09276398434389
 20
518.04738315007819
 30
0.0
 40
1.0
 50
180.0
 51
270.0
1001
GENIUS_GENODEF_13
1002
{
1000
HIER
1070
     0
1002
}
1002
{
1000
MANEDIT
1070
     0
1002
}
1002
{
1000
NOSEL
1070
     0
1002
}
1002
{
1000
BEHIND
1070
     0
1002
}
1002
{
1000
OTHER
1070
     0
1002
}
1002
{
1000
REACTOR
1002
}
1001
GENIUS_GENOBJ-N-FIL_13
1002
{
1000
OWNER
1000
GEN
1002
}
  0
LINE
  5
29FA
  8
AM_0
 10
221.0927639843438
 20
543.05107815007841
 30
0.0
 11
211.09276398434409
 21
543.05107815007841
 31
0.0
  0
LINE
  5
29FB
  8
AM_0
 10
221.0927639843438
 20
529.5473831500783
 30
0.0
 11
211.09276398434409
 21
529.5473831500783
 31
0.0
  0
LINE
  5
29FC
  8
AM_0
 10
209.62829789027671
 20
637.08290942661665
 30
0.0
 11
183.5217038018728
 21
610.976315338213
 31
0.0
  0
ARC
  5
29FD
  8
AM_0
 10
176.45063599000741
 20
618.04738315007808
 30
0.0
 40
10.0
 50
270.0
 51
315.0
1001
GENIUS_GENODEF_13
1002
{
1000
HIER
1070
     0
1002
}
1002
{
1000
MANEDIT
1070
     0
1002
}
1002
{
1000
NOSEL
1070
     0
1002
}
1002
{
1000
BEHIND
1070
     0
1002
}
1002
{
1000
OTHER
1070
     0
1002
}
1002
{
1000
REACTOR
1002
}
1001
GENIUS_GENOBJ-N-FIL_13
1002
{
1000
OWNER
1000
GEN
1002
}
  0
ARC
  5
29FE
  8
AM_0
 10
157.5927761436914
 20
606.04738315007808
 30
0.0
 40
2.0
 50
90.0
 51
180.0
1001
GENIUS_GENOBJ-N-FIL_13
1002
{
1000
OWNER
1000
GEN
1002
}
1001
GENIUS_GENODEF_13
1002
{
1000
HIER
1070
     0
1002
}
1002
{
1000
MANEDIT
1070
     0
1002
}
1002
{
1000
NOSEL
1070
     0
1002
}
1002
{
1000
BEHIND
1070
     0
1002
}
1002
{
1000
OTHER
1070
     0
1002
}
1002
{
1000
REACTOR
1002
}
  0
LINE
  5
29FF
  8
AM_0
 10
123.5927761436914
 20
589.04738315007808
 30
0.0
 11
151.59277614369151
 21
589.04738315007808
 31
0.0
  0
LINE
  5
2A00
  8
AM_0
 10
123.5927761436914
 20
573.04738315007808
 30
0.0
 11
151.59277614369151
 21
573.04738315007808
 31
0.0
  0
LINE
  5
2A01
  8
AM_0
 10
123.5927761436914
 20
589.04738315007808
 30
0.0
 11
123.5927761436914
 21
573.04738315007808
 31
0.0
  0
LINE
  5
2A02
  8
AM_0
 10
123.5927761436914
 20
578.5473831500783
 30
0.0
 11
145.59277614369151
 21
578.5473831500783
 31
0.0
  0
LINE
  5
2A03
  8
AM_0
 10
123.5927761436914
 20
583.5473831500783
 30
0.0
 11
145.59277614369151
 21
583.5473831500783
 31
0.0
  0
LINE
  5
2A04
  8
AM_0
 10
145.59277614369151
 20
583.5473831500783
 30
0.0
 11
145.59277614369151
 21
578.5473831500783
 31
0.0
  0
ARC
  5
2A05
  8
AM_0
 10
145.59277614369151
 20
581.04738315007808
 30
0.0
 40
2.5
 50
270.0
 51
90.0
  0
LINE
  5
2A06
  8
AM_0
 10
151.59277614369151
 20
589.54738315007808
 30
0.0
 11
151.59277614369151
 21
572.54738315007808
 31
0.0
  0
LINE
  5
2A07
  8
AM_0
 10
151.59277614369131
 20
572.5473884831282
 30
0.0
 11
153.59277614369151
 21
572.54738741651829
 31
0.0
  0
LINE
  5
2A08
  8
AM_0
 10
157.5927761436914
 20
608.0473831500783
 30
0.0
 11
176.45063599000741
 21
608.0473831500783
 31
0.0
  0
LINE
  5
2A09
  8
AM_0
 10
151.59277614369151
 20
589.54738315007808
 30
0.0
 11
153.59277614369151
 21
589.54738315007808
 31
0.0
  0
ARC
  5
2A0A
  8
AM_0
 10
154.59277614369151
 20
598.13316958770497
 30
0.0
 40
1.0
 50
135.0
 51
180.0
1001
GENIUS_GENODEF_13
1002
{
1000
HIER
1070
     0
1002
}
1002
{
1000
MANEDIT
1070
     0
1002
}
1002
{
1000
NOSEL
1070
     0
1002
}
1002
{
1000
BEHIND
1070
     0
1002
}
1002
{
1000
OTHER
1070
     0
1002
}
1002
{
1000
REACTOR
1002
}
1001
GENIUS_GENOBJ-N-FIL_13
1002
{
1000
OWNER
1000
GEN
1002
}
  0
ARC
  5
2A0B
  8
AM_0
 10
154.59277614369159
 20
600.9615967124513
 30
0.0
 40
1.0
 50
315.0
 51
0.0
1001
GENIUS_GENODEF_13
1002
{
1000
HIER
1070
     0
1002
}
1002
{
1000
MANEDIT
1070
     0
1002
}
1002
{
1000
NOSEL
1070
     0
1002
}
1002
{
1000
BEHIND
1070
     0
1002
}
1002
{
1000
OTHER
1070
     0
1002
}
1002
{
1000
REACTOR
1002
}
1001
GENIUS_GENOBJ-N-FIL_13
1002
{
1000
OWNER
1000
GEN
1002
}
  0
LINE
  5
2A0C
  8
AM_0
 10
153.88566936250481
 20
598.84027636889175
 30
0.0
 11
155.29988292487801
 21
600.25448993126486
 31
0.0
  0
LINE
  5
2A0D
  8
AM_0
 10
221.0927639843438
 20
645.0473831500783
 30
0.0
 11
212.09276398434389
 21
645.0473831500783
 31
0.0
  0
LINE
  5
2A0E
  8
AM_0
 10
221.0927639843438
 20
632.5473831500783
 30
0.0
 11
211.09276398434409
 21
632.5473831500783
 31
0.0
  0
LINE
  5
2A0F
  8
AM_0
 10
221.0927639843438
 20
619.0436931500783
 30
0.0
 11
211.09276398434409
 21
619.0436931500783
 31
0.0
  0
ARC
  5
2A10
  8
AM_0
 10
206.0927639843438
 20
640.6184433325493
 30
0.0
 40
5.0
 50
315.0
 51
0.0
1001
GENIUS_GENODEF_13
1002
{
1000
HIER
1070
     0
1002
}
1002
{
1000
MANEDIT
1070
     0
1002
}
1002
{
1000
NOSEL
1070
     0
1002
}
1002
{
1000
BEHIND
1070
     0
1002
}
1002
{
1000
OTHER
1070
     0
1002
}
1002
{
1000
REACTOR
1002
}
1001
GENIUS_GENOBJ-N-FIL_13
1002
{
1000
OWNER
1000
GEN
1002
}
  0
ARC
  5
2A11
  8
AM_0
 10
212.09276398434389
 20
644.04738315007808
 30
0.0
 40
1.0
 50
90.0
 51
180.0
1001
GENIUS_GENODEF_13
1002
{
1000
HIER
1070
     0
1002
}
1002
{
1000
MANEDIT
1070
     0
1002
}
1002
{
1000
NOSEL
1070
     0
1002
}
1002
{
1000
BEHIND
1070
     0
1002
}
1002
{
1000
OTHER
1070
     0
1002
}
1002
{
1000
REACTOR
1002
}
1001
GENIUS_GENOBJ-N-FIL_13
1002
{
1000
OWNER
1000
GEN
1002
}
  0
ARC
  5
2A13
  8
ﾁｭｳｼﾝｾﾝ1
 10
651.73167740299175
 20
258.7974630000005
 30
0.0
 40
135.0000030000005
 50
308.36839299999991
 51
321.61020247956122
  0
LINE
  5
2A14
  8
ﾁｭｳｼﾝｾﾝ1
 10
736.88220991934634
 20
173.64692782193481
 30
0.0
 11
756.35030280678484
 21
154.17885825465541
 31
0.0
  0
ARC
  5
2A15
  8
ﾁｭｳｼﾝｾﾝ1
 10
651.73167740300005
 20
258.79746299999209
 30
0.0
 40
135.0000030000113
 50
128.89434376363769
 51
141.39772629616999
  0
LINE
  5
2A16
  8
ﾁｭｳｼﾝｾﾝ1
 10
566.18949762538875
 20
344.33967277760308
 30
0.0
 11
546.63665665365966
 21
363.89251374933218
 31
0.0
  0
LINE
  5
2A17
  8
AM_0
 10
388.59282398434402
 20
576.0474281500783
 30
0.0
 11
433.59285398434389
 21
576.0474281500783
 31
0.0
  0
LINE
  5
2A18
  8
AM_0
 10
388.59282398434402
 20
586.04739815007827
 30
0.0
 11
433.59285398434389
 21
586.04739815007827
 31
0.0
  0
LINE
  5
2A19
  8
AM_0
 10
433.59285398434389
 20
565.04745815007846
 30
0.0
 11
375.59282398434402
 21
565.04745815007846
 31
0.0
  0
LINE
  5
2A1A
  8
AM_0
 10
433.59285398434389
 20
597.04745815007846
 30
0.0
 11
375.59282398434402
 21
597.04745815007846
 31
0.0
  0
LINE
  5
2A1B
  8
ﾁｭｳｼﾝｾﾝ
 10
115.2901778755765
 20
581.04739815007827
 30
0.0
 11
441.50563398434389
 21
581.04739815007827
 31
0.0
  0
POLYLINE
  5
2A1C
  8
AM_0
 66
     1
 10
0.0
 20
0.0
 30
0.0
  0
VERTEX
  5
2A1D
  8
AM_0
 10
349.25893398434403
 20
683.71352815007845
 30
0.0
 42
0.079826728
  0
VERTEX
  5
2A1E
  8
AM_0
 10
323.4171039843439
 20
616.80708815007824
 30
0.0
 42
0.10414858
  0
VERTEX
  5
2A1F
  8
AM_0
 10
323.41717398434372
 20
545.28735815007815
 30
0.0
 42
0.079826255
  0
VERTEX
  5
2A20
  8
AM_0
 10
349.25893398434403
 20
478.38128815007821
 30
0.0
  0
SEQEND
  5
2A21
  8
AM_0
  0
ARC
  5
2A22
  8
AM_0
 10
388.59282398434402
 20
581.04739815007827
 30
0.0
 40
5.0
 50
90.000003000000945
 51
270.0
  0
LINE
  5
2A23
  8
AM_0
 10
388.59282398434402
 20
586.04739815007827
 30
0.0
 11
388.59282398434402
 21
576.0474281500783
 31
0.0
  0
LINE
  5
2A24
  8
AM_0
 10
356.59282398434402
 20
466.96829815007823
 30
0.0
 11
356.59282398434402
 21
695.12655815007827
 31
0.0
  0
LINE
  5
2A25
  8
AM_0
 10
363.59282398434402
 20
490.44769815007822
 30
0.0
 11
363.59282398434402
 21
671.64718815007825
 31
0.0
  0
LINE
  5
2A26
  8
AM_0
 10
371.59282398434402
 20
463.5474281500783
 30
0.0
 11
371.59282398434402
 21
698.54745815007846
 31
0.0
  0
LINE
  5
2A27
  8
AM_0
 10
375.59282398434402
 20
476.04739815007832
 30
0.0
 11
375.59282398434402
 21
686.04745815007846
 31
0.0
  0
LINE
  5
2A28
  8
AM_0
 10
221.0927639843438
 20
645.0473831500783
 30
0.0
 11
221.0927639843438
 21
517.0473831500783
 31
0.0
  0
LINE
  5
2A29
  8
AM_0
 10
248.5927639843438
 20
483.82803815007833
 30
0.0
 11
248.5927639843438
 21
678.26681815007851
 31
0.0
  0
LINE
  5
2A2A
  8
AM_0
 10
233.5927639843438
 20
509.11849815007832
 30
0.0
 11
233.5927639843438
 21
652.97634815007837
 31
0.0
  0
LINE
  5
2A2B
  8
AM_0
 10
258.59276398434378
 20
481.54742815007847
 30
0.0
 11
258.59276398434378
 21
680.54739815007827
 31
0.0
  0
LINE
  5
2A2C
  8
AM_0
 10
258.59288398434398
 20
481.54742815007847
 30
0.0
 11
347.29058398434398
 21
478.4500481500782
 31
0.0
  0
ARC
  5
2A2D
  8
AM_0
 10
250.5927639843438
 20
483.82803815007833
 30
0.0
 40
2.0
 50
179.9999899999988
 51
268.00000999999861
  0
LINE
  5
2A2E
  8
AM_0
 10
250.52294398434381
 20
481.82925815007832
 30
0.0
 11
258.59276398434378
 21
481.54742815007847
 31
0.0
  0
LINE
  5
2A2F
  8
AM_0
 10
221.09282398434391
 20
517.54736815007846
 30
0.0
 11
228.7673239843439
 21
517.27941815007819
 31
0.0
  0
LINE
  5
2A30
  8
AM_0
 10
221.0927639843438
 20
529.00741815007825
 30
0.0
 11
233.5927639843438
 21
529.00741815007825
 31
0.0
  0
ARC
  5
2A31
  8
AM_0
 10
238.59276398434389
 20
509.11849815007832
 30
0.0
 40
5.0
 50
179.9999899999988
 51
225.0
  0
LINE
  5
2A32
  8
AM_0
 10
235.0572439843439
 20
505.5829781500783
 30
0.0
 11
247.71410398434381
 21
492.92614815007818
 31
0.0
  0
ARC
  5
2A33
  8
AM_0
 10
245.5927639843438
 20
490.80477815007828
 30
0.0
 40
3.0
 50
0.0
 51
44.999998000001611
  0
ARC
  5
2A34
  8
AM_0
 10
228.59276398434389
 20
512.28246815007833
 30
0.0
 40
5.0
 50
0.0
 51
87.999999999999503
  0
LINE
  5
2A35
  8
AM_0
 10
221.0927639843438
 20
543.89742815007833
 30
0.0
 11
233.5927639843438
 21
543.89742815007833
 31
0.0
  0
LINE
  5
2A36
  8
AM_0
 10
359.48815398434402
 20
463.97012815007838
 30
0.0
 11
371.59282398434402
 21
463.5474281500783
 31
0.0
  0
LINE
  5
2A37
  8
AM_0
 10
350.65163398434368
 20
476.98858815007821
 30
0.0
 11
356.59285398434372
 21
471.04736815007851
 31
0.0
  0
ARC
  5
2A38
  8
AM_0
 10
347.11608398434367
 20
473.45306815007842
 30
0.0
 40
5.0
 50
45.000000999996892
 51
87.999999999999503
  0
ARC
  5
2A39
  8
AM_0
 10
359.59282398434402
 20
466.96829815007823
 30
0.0
 40
3.0
 50
179.9999899999988
 51
268.00000999999861
  0
LINE
  5
2A3A
  8
AM_0
 10
371.59282398434402
 20
476.04739815007832
 30
0.0
 11
375.59282398434402
 21
476.04739815007832
 31
0.0
  0
ARC
  5
2A3B
  8
AM_0
 10
360.59282398434402
 20
490.44769815007822
 30
0.0
 40
3.0
 50
267.99999999999932
 51
0.0
  0
LINE
  5
2A3C
  8
AM_0
 10
360.30828398434397
 20
487.45580815007821
 30
0.0
 11
360.48812398434387
 21
487.44952815007838
 31
0.0
  0
LINE
  5
2A3D
  8
AM_0
 10
359.59282398434402
 20
525.1366881500785
 30
0.0
 11
363.59282398434402
 21
525.1366881500785
 31
0.0
  0
ARC
  5
2A3E
  8
AM_0
 10
359.59282398434402
 20
522.13668815007838
 30
0.0
 40
3.0
 50
90.000003000000945
 51
180.00001000000091
  0
LINE
  5
2A3F
  8
AM_0
 10
258.59282398434391
 20
680.54739815007827
 30
0.0
 11
347.29061398434391
 21
683.64480815007835
 31
0.0
  0
ARC
  5
2A40
  8
AM_0
 10
250.5927639843438
 20
678.26681815007851
 30
0.0
 40
2.0
 50
91.999998000000545
 51
180.00001000000091
  0
LINE
  5
2A41
  8
AM_0
 10
221.0927639843438
 20
618.19741815007831
 30
0.0
 11
233.5927639843438
 21
618.19741815007831
 31
0.0
  0
LINE
  5
2A42
  8
AM_0
 10
221.09282398434391
 20
644.54739815007827
 30
0.0
 11
228.76726398434391
 21
644.81539815007841
 31
0.0
  0
LINE
  5
2A43
  8
AM_0
 10
221.0927639843438
 20
633.08743815007836
 30
0.0
 11
233.5927639843438
 21
633.08743815007836
 31
0.0
  0
ARC
  5
2A44
  8
AM_0
 10
238.59276398434389
 20
652.97634815007837
 30
0.0
 40
5.0
 50
135.0
 51
180.00001000000091
  0
ARC
  5
2A45
  8
AM_0
 10
228.59276398434389
 20
649.81240815007845
 30
0.0
 40
5.0
 50
272.0000000000004
 51
0.0
  0
LINE
  5
2A46
  8
AM_0
 10
235.0572439843439
 20
656.51186815007827
 30
0.0
 11
247.71410398434381
 21
669.16873815007852
 31
0.0
  0
ARC
  5
2A47
  8
AM_0
 10
245.5927639843438
 20
671.29006815007847
 30
0.0
 40
3.0
 50
315.0
 51
0.0
  0
LINE
  5
2A48
  8
AM_0
 10
250.5230039843438
 20
680.26565815007848
 30
0.0
 11
258.59276398434378
 21
680.54745815007846
 31
0.0
  0
LINE
  5
2A49
  8
AM_0
 10
359.59282398434402
 20
636.95815815007825
 30
0.0
 11
363.59282398434402
 21
636.95815815007825
 31
0.0
  0
ARC
  5
2A4A
  8
AM_0
 10
359.59282398434402
 20
639.95815815007825
 30
0.0
 40
3.0
 50
179.9999899999988
 51
270.0
  0
ARC
  5
2A4B
  8
AM_0
 10
360.59282398434402
 20
671.64718815007825
 30
0.0
 40
3.0
 50
0.0
 51
91.999998000000545
  0
LINE
  5
2A4C
  8
AM_0
 10
360.30831398434373
 20
674.63900815007855
 30
0.0
 11
360.48812398434387
 21
674.64529815007825
 31
0.0
  0
LINE
  5
2A4D
  8
AM_0
 10
359.48815398434402
 20
698.12472815007845
 30
0.0
 11
371.592853984344
 21
698.54739815007827
 31
0.0
  0
LINE
  5
2A4E
  8
AM_0
 10
350.65163398434368
 20
685.10623815007852
 30
0.0
 11
356.59285398434372
 21
691.04745815007846
 31
0.0
  0
ARC
  5
2A4F
  8
AM_0
 10
347.11608398434367
 20
688.64175815007843
 30
0.0
 40
5.0
 50
272.0000000000004
 51
315.0
  0
ARC
  5
2A50
  8
AM_0
 10
359.59282398434402
 20
695.12655815007827
 30
0.0
 40
3.0
 50
91.999998000000545
 51
180.00001000000091
  0
LINE
  5
2A51
  8
AM_0
 10
371.59282398434402
 20
686.04745815007846
 30
0.0
 11
375.59282398434402
 21
686.04745815007846
 31
0.0
  0
LINE
  5
2A52
  8
AM_0
 10
433.59285398434389
 20
565.04745815007846
 30
0.0
 11
433.59285398434389
 21
597.04745815007846
 31
0.0
  0
TEXT
  5
2C36
  8
AM_0
 10
514.7717464299343
 20
606.29993183041302
 30
0.0
 40
15.0
  1
VX04-120GF~VX04-200GF
  0
ENDSEC
  0
EOF
