  0
SECTION
  2
HEADER
  9
$ACADVER
  1
AC1009
  9
$INSBASE
 10
0.0
 20
0.0
 30
0.0
  9
$EXTMIN
 10
257.05974939984662
 20
255.2535373008632
 30
-0.0000000000112498
  9
$EXTMAX
 10
1147.5331145641769
 20
987.57408954539687
 30
0.0000000000002956
  9
$LIMMIN
 10
0.0
 20
0.0
  9
$LIMMAX
 10
1422.5
 20
925.0
  9
$ORTHOMODE
 70
     0
  9
$REGENMODE
 70
     1
  9
$FILLMODE
 70
     1
  9
$QTEXTMODE
 70
     0
  9
$MIRRTEXT
 70
     1
  9
$DRAGMODE
 70
     2
  9
$LTSCALE
 40
5.0
  9
$OSMODE
 70
   551
  9
$ATTMODE
 70
     1
  9
$TEXTSIZE
 40
2.5
  9
$TRACEWID
 40
1.0
  9
$TEXTSTYLE
  7
STANDARD
  9
$CLAYER
  8
AM_0
  9
$CELTYPE
  6
BYLAYER
  9
$CECOLOR
 62
   256
  9
$DIMSCALE
 40
1.0
  9
$DIMASZ
 40
2.5
  9
$DIMEXO
 40
1.0
  9
$DIMDLI
 40
8.0
  9
$DIMRND
 40
0.0
  9
$DIMDLE
 40
0.0
  9
$DIMEXE
 40
0.6
  9
$DIMTP
 40
0.1
  9
$DIMTM
 40
0.1
  9
$DIMTXT
 40
2.5
  9
$DIMCEN
 40
0.0
  9
$DIMTSZ
 40
0.0
  9
$DIMTOL
 70
     0
  9
$DIMLIM
 70
     0
  9
$DIMTIH
 70
     0
  9
$DIMTOH
 70
     0
  9
$DIMSE1
 70
     0
  9
$DIMSE2
 70
     0
  9
$DIMTAD
 70
     1
  9
$DIMZIN
 70
     8
  9
$DIMBLK
  1

  9
$DIMASO
 70
     1
  9
$DIMSHO
 70
     1
  9
$DIMPOST
  1

  9
$DIMAPOST
  1
"
  9
$DIMALT
 70
     0
  9
$DIMALTD
 70
     2
  9
$DIMALTF
 40
0.0393701
  9
$DIMLFAC
 40
1.0
  9
$DIMTOFL
 70
     1
  9
$DIMTVP
 40
0.0
  9
$DIMTIX
 70
     0
  9
$DIMSOXD
 70
     0
  9
$DIMSAH
 70
     0
  9
$DIMBLK1
  1

  9
$DIMBLK2
  1

  9
$DIMSTYLE
  2
AM_ISO
  9
$DIMCLRD
 70
   256
  9
$DIMCLRE
 70
   256
  9
$DIMCLRT
 70
     4
  9
$DIMTFAC
 40
0.71
  9
$DIMGAP
 40
0.8
  9
$LUNITS
 70
     2
  9
$LUPREC
 70
     2
  9
$SKETCHINC
 40
1.0
  9
$FILLETRAD
 40
25.0
  9
$AUNITS
 70
     0
  9
$AUPREC
 70
     0
  9
$MENU
  1
.
  9
$ELEVATION
 40
0.0
  9
$PELEVATION
 40
0.0
  9
$THICKNESS
 40
0.0
  9
$LIMCHECK
 70
     0
  9
$BLIPMODE
 70
     0
  9
$CHAMFERA
 40
10.0
  9
$CHAMFERB
 40
5.0
  9
$SKPOLY
 70
     0
  9
$TDCREATE
 40
2452066.4161684369
  9
$TDUPDATE
 40
2458541.4423945029
  9
$TDINDWG
 40
0.1261241898
  9
$TDUSRTIMER
 40
0.1261239931
  9
$USRTIMER
 70
     1
  9
$ANGBASE
 50
0.0
  9
$ANGDIR
 70
     0
  9
$PDMODE
 70
     0
  9
$PDSIZE
 40
0.0
  9
$PLINEWID
 40
0.0
  9
$COORDS
 70
     1
  9
$SPLFRAME
 70
     0
  9
$SPLINETYPE
 70
     6
  9
$SPLINESEGS
 70
     8
  9
$ATTDIA
 70
     1
  9
$ATTREQ
 70
     1
  9
$HANDLING
 70
     1
  9
$HANDSEED
  5
2EA7
  9
$SURFTAB1
 70
     6
  9
$SURFTAB2
 70
     6
  9
$SURFTYPE
 70
     6
  9
$SURFU
 70
     6
  9
$SURFV
 70
     6
  9
$UCSNAME
  2

  9
$UCSORG
 10
0.0
 20
0.0
 30
0.0
  9
$UCSXDIR
 10
1.0
 20
0.0
 30
0.0
  9
$UCSYDIR
 10
0.0
 20
1.0
 30
0.0
  9
$PUCSNAME
  2

  9
$PUCSORG
 10
0.0
 20
0.0
 30
0.0
  9
$PUCSXDIR
 10
1.0
 20
0.0
 30
0.0
  9
$PUCSYDIR
 10
0.0
 20
1.0
 30
0.0
  9
$USERI1
 70
     0
  9
$USERI2
 70
     0
  9
$USERI3
 70
     0
  9
$USERI4
 70
     0
  9
$USERI5
 70
     0
  9
$USERR1
 40
0.0
  9
$USERR2
 40
0.0
  9
$USERR3
 40
0.0
  9
$USERR4
 40
0.0
  9
$USERR5
 40
0.0
  9
$WORLDVIEW
 70
     1
  9
$SHADEDGE
 70
     3
  9
$SHADEDIF
 70
    70
  9
$TILEMODE
 70
     1
  9
$MAXACTVP
 70
    64
  9
$PLIMCHECK
 70
     0
  9
$PEXTMIN
 10
1.0000000000000000E+020
 20
1.0000000000000000E+020
 30
1.0000000000000000E+020
  9
$PEXTMAX
 10
-1.0000000000000000E+020
 20
-1.0000000000000000E+020
 30
-1.0000000000000000E+020
  9
$PLIMMIN
 10
0.0
 20
0.0
  9
$PLIMMAX
 10
420.0
 20
297.0
  9
$UNITMODE
 70
     0
  9
$VISRETAIN
 70
     1
  9
$PLINEGEN
 70
     0
  9
$PSLTSCALE
 70
     1
  0
ENDSEC
  0
SECTION
  2
TABLES
  0
TABLE
  2
VPORT
 70
     1
  0
VPORT
  2
*ACTIVE
 70
     0
 10
0.0
 20
0.0
 11
1.0
 21
1.0
 12
702.29643198201222
 22
621.41381342313002
 13
0.0
 23
0.0
 14
12.5
 24
12.5
 15
50.0
 25
50.0
 16
0.0
 26
0.0
 36
1.0
 17
0.0
 27
0.0
 37
0.0
 40
737.34792445673884
 41
1.7571592210767459
 42
50.0
 43
0.0
 44
0.0
 50
0.0
 51
0.0
 71
     0
 72
   100
 73
     1
 74
     3
 75
     0
 76
     0
 77
     0
 78
     0
  0
ENDTAB
  0
TABLE
  2
LTYPE
 70
    25
  0
LTYPE
  2
CONTINUOUS
 70
     0
  3
Solid line
 72
    65
 73
     0
 40
0.0
  0
LTYPE
  2
AM_ISO02W050
 70
     0
  3
__ __ __ __ __ __ __ __ __ __ __ __ __ __ __
 72
    65
 73
     2
 40
7.5
 49
6.0
 49
-1.5
  0
LTYPE
  2
AM_ISO08W050
 70
     0
  3
____ . ____ . ____ . ____ . ____ . ____ . ____
 72
    65
 73
     4
 40
18.0
 49
12.0
 49
-1.5
 49
3.0
 49
-1.5
  0
LTYPE
  2
AM_ISO09W050
 70
     0
  3
_____ . . _____ . . _____ . . ____ .. ____
 72
    65
 73
     6
 40
22.5
 49
12.0
 49
-1.5
 49
3.0
 49
-1.5
 49
3.0
 49
-1.5
  0
LTYPE
  2
AMCONSTR
 70
     0
  3
_______________________
 72
    65
 73
     2
 40
9999.0
 49
9999.0
 49
0.0
  0
LTYPE
  2
AM_ISO08W050X2
 70
     0
  3
__ . __ . __ . __ . __ . __
 72
    65
 73
     4
 40
9.0
 49
6.0
 49
-0.75
 49
1.5
 49
-0.75
  0
LTYPE
  2
AM_ISO02W050X2
 70
     0
  3
 _ _ _ _ _ _ _ _ _ _ _ _
 72
    65
 73
     2
 40
3.75
 49
3.0
 49
-0.75
  0
LTYPE
  2
AMZIGZAG
 70
     0
  3
/\/-/\/-/\/-/\/-/\/-/\/
 72
    65
 73
     2
 40
11.000099999999991
 49
0.0001
 49
-11.0
  0
LTYPE
  2
ACISOWELD
 70
     0
  3
_ _ _ _ _
 72
    65
 73
     2
 40
2.0
 49
2.0
 49
-1.0
  0
LTYPE
  2
ACISOTGB
 70
     0
  3
__ . . __ . .
 72
    65
 73
     6
 40
9.0
 49
4.0
 49
-1.0
 49
1.0
 49
-1.0
 49
1.0
 49
-1.0
  0
LTYPE
  2
ACISOTGL
 70
     0
  3
_ _ _ _ _
 72
    65
 73
     2
 40
3.0
 49
2.0
 49
-1.0
  0
LTYPE
  2
CENTER
 70
     0
  3
__ . __
 72
    65
 73
     4
 40
7.0
 49
4.0
 49
-1.0
 49
1.0
 49
-1.0
  0
LTYPE
  2
PHANTOM2
 70
     0
  3
Phantom (.5x) ___ _ _ ___ _ _ ___ _ _ ___ _ _
 72
    65
 73
     6
 40
31.75
 49
15.875
 49
-3.174999999999998
 49
3.174999999999998
 49
-3.174999999999998
 49
3.174999999999998
 49
-3.174999999999998
  0
LTYPE
  2
ACANSTGBM
 70
     0
  3
__ . . __ . .
 72
    65
 73
     6
 40
9.0
 49
4.0
 49
-1.0
 49
1.0
 49
-1.0
 49
1.0
 49
-1.0
  0
LTYPE
  2
ACANSTGLM
 70
     0
  3
_ _ _ _ _
 72
    65
 73
     2
 40
3.0
 49
2.0
 49
-1.0
  0
LTYPE
  2
GEN7A
 70
     0
  3
__ . __ . __
 72
    65
 73
     4
 40
7.375
 49
4.75
 49
-0.875
 49
0.875
 49
-0.875
  0
LTYPE
  2
ACJISTGB
 70
     0
  3
__ . . __ . .
 72
    65
 73
     6
 40
9.0
 49
4.0
 49
-1.0
 49
1.0
 49
-1.0
 49
1.0
 49
-1.0
  0
LTYPE
  2
ACJISTGL
 70
     0
  3
_ _ _ _ _
 72
    65
 73
     2
 40
3.0
 49
2.0
 49
-1.0
  0
LTYPE
  2
HIDDEN
 70
     0
  3
Hidden __ __ __ __ __ __ __ __ __ __ __ __ __ _
 72
    65
 73
     2
 40
0.375
 49
0.25
 49
-0.125
  0
LTYPE
  2
CENTER2
 70
     0
  3
Center (.5x) ___ _ ___ _ ___ _ ___ _ ___ _ ___
 72
    65
 73
     4
 40
1.125
 49
0.75
 49
-0.125
 49
0.125
 49
-0.125
  0
LTYPE
  2
HIDDEN2
 70
     0
  3
Hidden (.5x) _ _ _ _ _ _ _ _ _ _ _ _ _ _ _ _ _
 72
    65
 73
     2
 40
0.1875
 49
0.125
 49
-0.0625
  0
LTYPE
  2
AMZIGZAG2
 70
     0
  3
/\/-/\/-/\/-/\/-/\/-/\/
 72
    65
 73
     2
 40
0.4401
 49
0.0001
 49
-0.4400000000000002
  0
LTYPE
  2
ACANSTGB
 70
     0
  3
__ . . __ . .
 72
    65
 73
     6
 40
0.35433070866
 49
0.15748031496
 49
-0.03937007874
 49
0.03937007874
 49
-0.03937007874
 49
0.03937007874
 49
-0.03937007874
  0
LTYPE
  2
ACANSTGL
 70
     0
  3
_ _ _ _ _
 72
    65
 73
     2
 40
0.11811023622
 49
0.07874015748
 49
-0.03937007874
  0
ENDTAB
  0
TABLE
  2
LAYER
 70
     5
  0
LAYER
  2
0
 70
     0
 62
     7
  6
CONTINUOUS
  0
LAYER
  2
AM_0
 70
     0
 62
     7
  6
CONTINUOUS
  0
LAYER
  2
AM_5
 70
     0
 62
     2
  6
CONTINUOUS
  0
LAYER
  2
DEFPOINTS
 70
     0
 62
     7
  6
CONTINUOUS
  0
LAYER
  2
ﾁｭｳｼﾝｾﾝ1
 70
     0
 62
     1
  6
GEN7A
  0
ENDTAB
  0
TABLE
  2
STYLE
 70
     9
  0
STYLE
  2
STANDARD
 70
     0
 40
0.0
 41
0.8299999999999999
 50
0.0
 71
     0
 42
2.5
  3
txt.shx
  4
bigfont.shx
  0
STYLE
  2
ANNOTATIVE
 70
     0
 40
0.0
 41
1.0
 50
0.0
 71
     0
 42
0.2
  3
txt
  4

  0
STYLE
  2

 70
     1
 40
0.0
 41
1.0
 50
0.0
 71
     0
 42
2.5
  3
ltypeshp.shx
  4

  0
STYLE
  2
ACISOTS
 70
     0
 40
1.0
 41
1.0
 50
0.0
 71
     0
 42
2.5
  3
isocp.shx
  4
extfont.shx
  0
STYLE
  2
ACISOGDT
 70
     0
 40
0.0
 41
1.0
 50
0.0
 71
     0
 42
2.5
  3
amgdt.shx
  4

  0
STYLE
  2
ACANSTS
 70
     0
 40
1.0
 41
1.0
 50
0.0
 71
     0
 42
2.5
  3
romans.shx
  4
bigfont.shx
  0
STYLE
  2
ACANSGDT
 70
     0
 40
0.0
 41
1.0
 50
0.0
 71
     0
 42
2.5
  3
amgdt.shx
  4

  0
STYLE
  2
ACJISTS
 70
     0
 40
1.0
 41
1.0
 50
0.0
 71
     0
 42
2.5
  3
isocp.shx
  4
bigfont.shx
  0
STYLE
  2
ACJISGDT
 70
     0
 40
0.0
 41
1.0
 50
0.0
 71
     0
 42
2.5
  3
amgdt.shx
  4

  0
ENDTAB
  0
TABLE
  2
VIEW
 70
     6
  0
VIEW
  2
AM_VIEW1
 70
     0
 40
462.5
 10
416.07965009208078
 20
693.75
 41
832.15930018416213
 11
0.0
 21
0.0
 31
1.0
 12
0.0
 22
0.0
 32
0.0
 42
50.0
 43
0.0
 44
0.0
 50
0.0
 71
     0
  0
VIEW
  2
AM_VIEW2
 70
     0
 40
462.5
 10
1006.420349907918
 20
693.75
 41
832.15930018416213
 11
0.0
 21
0.0
 31
1.0
 12
0.0
 22
0.0
 32
0.0
 42
50.0
 43
0.0
 44
0.0
 50
0.0
 71
     0
  0
VIEW
  2
AM_VIEW3
 70
     0
 40
462.5
 10
416.07965009208078
 20
231.25
 41
832.15930018416213
 11
0.0
 21
0.0
 31
1.0
 12
0.0
 22
0.0
 32
0.0
 42
50.0
 43
0.0
 44
0.0
 50
0.0
 71
     0
  0
VIEW
  2
AM_VIEW4
 70
     0
 40
462.5
 10
1006.420349907918
 20
231.25
 41
832.15930018416213
 11
0.0
 21
0.0
 31
1.0
 12
0.0
 22
0.0
 32
0.0
 42
50.0
 43
0.0
 44
0.0
 50
0.0
 71
     0
  0
VIEW
  2
AM_VIEW5
 70
     0
 40
462.5
 10
711.24999999999966
 20
462.5
 41
832.15930018416179
 11
0.0
 21
0.0
 31
1.0
 12
0.0
 22
0.0
 32
0.0
 42
50.0
 43
0.0
 44
0.0
 50
0.0
 71
     0
  0
VIEW
  2
AM_VIEW6
 70
     0
 40
924.99075000000005
 10
711.24999999999966
 20
462.5
 41
1664.3019571823199
 11
0.0
 21
0.0
 31
1.0
 12
0.0
 22
0.0
 32
0.0
 42
50.0
 43
0.0
 44
0.0
 50
0.0
 71
     0
  0
ENDTAB
  0
TABLE
  2
UCS
 70
     0
  0
ENDTAB
  0
TABLE
  2
APPID
 70
    95
  0
APPID
  2
ACAD
 70
     0
  0
APPID
  2
ACADANNOTATIVE
 70
     0
  0
APPID
  2
MCAD_NO_VIS
 70
     0
  0
APPID
  2
ACAD_TEMP_GRAPHIC
 70
     0
  0
APPID
  2
ACATTRIBSERVICES
 70
     0
  0
APPID
  2
GENIUS_GENREC_14
 70
     0
  0
APPID
  2
GENIUS_GENOBJ-N-REC_13
 70
     0
  0
APPID
  2
GENIUS_GENODEF_13
 70
     0
  0
APPID
  2
GENIUS_GENOLIS_13
 70
     0
  0
APPID
  2
GENIUS_GENOBJ-N-TIT_13
 70
     0
  0
APPID
  2
GENIUS_GENOENT_13
 70
     0
  0
APPID
  2
GENIUS_GENTITLE_13
 70
     0
  0
APPID
  2
GENIUS_GENOREF_13
 70
     0
  0
APPID
  2
GENIUS_GENSCREG_15
 70
     0
  0
APPID
  2
GENIUS_GENOBJ-N-SDF_13
 70
     0
  0
APPID
  2
GENIUS_GENFIL_13
 70
     0
  0
APPID
  2
GENIUS_GENOBJ-N-CHA_13
 70
     0
  0
APPID
  2
GENIUS_GENDTOL_13
 70
     0
  0
APPID
  2
GENIUS_GENOBJ-N-FIL_13
 70
     0
  0
APPID
  2
AD_DRAW
 70
     0
  0
APPID
  2
DESIGNERASSEMBLIES
 70
     0
  0
APPID
  2
ASURF_PCURVE_APPNAME
 70
     0
  0
APPID
  2
GENIUS_GE3SECT_13
 70
     0
  0
APPID
  2
GENIUS_GENCFG_13
 70
     0
  0
APPID
  2
GENIUS_GE3CFG0_13
 70
     0
  0
APPID
  2
GENIUS_GENCFG0_13
 70
     0
  0
APPID
  2
GENIUS_GENCFG1_13
 70
     0
  0
APPID
  2
GENIUS_GENCFG2_13
 70
     0
  0
APPID
  2
GENIUS_GENCFG3_13
 70
     0
  0
APPID
  2
GENIUS_GENCFG4_13
 70
     0
  0
APPID
  2
GENIUS_GEVCFG0_13
 70
     0
  0
APPID
  2
GENIUS_GENHINW_13
 70
     0
  0
APPID
  2
GENIUS_FIRSTVISTXT_14
 70
     0
  0
APPID
  2
GENIUS_GENOBJ-N-LEADER_13
 70
     0
  0
APPID
  2
GEV_VCCNULL_SWITCH_OFF
 70
     0
  0
APPID
  2
GENIUS_GEFCFG0_13
 70
     0
  0
APPID
  2
GENIUS_GENZVEED_13
 70
     0
  0
APPID
  2
GENIUS_GENSCREG_13
 70
     0
  0
APPID
  2
GENIUS_DUMCFG0_13
 70
     0
  0
APPID
  2
GEVID936201362
 70
     0
  0
APPID
  2
GEVDC
 70
     0
  0
APPID
  2
GEVCON
 70
     0
  0
APPID
  2
VCC
 70
     0
  0
APPID
  2
GEVPT
 70
     0
  0
APPID
  2
GEVIT
 70
     0
  0
APPID
  2
GENBH
 70
     0
  0
APPID
  2
GEVMK
 70
     0
  0
APPID
  2
GENIUS_GENBH_13
 70
     0
  0
APPID
  2
GENIUS_GENOBJ-NBEHI-BHF_13
 70
     0
  0
APPID
  2
GENIUS_GENOBJ-NBEHI-BHB_13
 70
     0
  0
APPID
  2
GENIUS_GENOBJ-F-DESC_13
 70
     0
  0
APPID
  2
GENIUS_GEFDESC_14
 70
     0
  0
APPID
  2
GENIUS_GENOBJ-F-PART_13
 70
     0
  0
APPID
  2
GENIUS_GEFSTDP_13
 70
     0
  0
APPID
  2
GENIUS_GEFPARTINS_13
 70
     0
  0
APPID
  2
GENIUS_GENTRA_14
 70
     0
  0
APPID
  2
GENIUS_GENINF13_13
 70
     0
  0
APPID
  2
GENIUS_GENOBJ-N-INFOPT_13
 70
     0
  0
APPID
  2
GENIUS_GENOBJ-N-RSSYM_13
 70
     0
  0
APPID
  2
GENIUS_GENSYMENT_13
 70
     0
  0
APPID
  2
GENIUS_GENSCSYM_13
 70
     0
  0
APPID
  2
GENIUS_GEFINFNAM_13
 70
     0
  0
APPID
  2
GENIUS_GENOBJ-N-CEN_13
 70
     0
  0
APPID
  2
GENIUS_GENOBJ-N-CRS_13
 70
     0
  0
APPID
  2
GENIUS_GENOBJ-N-CRC_13
 70
     0
  0
APPID
  2
GENIUS_GENCRC_14
 70
     0
  0
APPID
  2
GEVID942827039
 70
     0
  0
APPID
  2
GEVID942827040
 70
     0
  0
APPID
  2
GEVID942827041
 70
     0
  0
APPID
  2
GENIUS_GENOBJ-F-SCPASSM_13
 70
     0
  0
APPID
  2
GENIUS_GENDIMSH_14
 70
     0
  0
APPID
  2
GEVID942827042
 70
     0
  0
APPID
  2
GEVID946020473
 70
     0
  0
APPID
  2
GEVID946020474
 70
     0
  0
APPID
  2
GEVID946020475
 70
     0
  0
APPID
  2
GENIUS_GENOBJ-N-HTC_13
 70
     0
  0
APPID
  2
GENIUS_GENHATCH_13
 70
     0
  0
APPID
  2
GEVID948854295
 70
     0
  0
APPID
  2
GEVID939402019
 70
     0
  0
APPID
  2
GEVID952919491
 70
     0
  0
APPID
  2
GEVID952919492
 70
     0
  0
APPID
  2
GENIUS_GEFWELD_13
 70
     0
  0
APPID
  2
GENIUS_GENOBJ-F-WELS_13
 70
     0
  0
APPID
  2
GEVID952919493
 70
     0
  0
APPID
  2
GENIUS_GENOBJ-N-RSBK_13
 70
     0
  0
APPID
  2
GENIUS_GENOBJ-N-LIB_13
 70
     0
  0
APPID
  2
GENIUS_GENSCALE_13
 70
     0
  0
APPID
  2
GEVID986376691
 70
     0
  0
APPID
  2
DCO15
 70
     0
  0
APPID
  2
ACAD_DSTYLE_DIMBREAK
 70
     0
  0
APPID
  2
ACAD_DSTYLE_DIMJAG
 70
     0
  0
APPID
  2
ACAD_NAV_VCDISPLAY
 70
     0
  0
APPID
  2
ACADANNOPO
 70
     0
  0
APPID
  2
ACAD_EXEMPT_FROM_CAD_STANDARDS
 70
     0
  0
APPID
  2
ACAD_MLEADERVER
 70
     0
  0
ENDTAB
  0
TABLE
  2
DIMSTYLE
 70
    22
  0
DIMSTYLE
  2
STANDARD
 70
     0
  3

  4

  5

  6

  7

 40
1.0
 41
0.18
 42
0.0625
 43
0.38
 44
0.18
 45
0.0
 46
0.0
 47
0.0
 48
0.0
140
0.18
141
0.09
142
0.0
143
25.399999999999999
144
1.0
145
0.0
146
1.0
147
0.09
 71
     0
 72
     0
 73
     1
 74
     1
 75
     0
 76
     0
 77
     0
 78
     0
170
     0
171
     2
172
     0
173
     0
174
     0
175
     0
176
     0
177
     0
178
     0
  0
DIMSTYLE
  2
ANNOTATIVE
 70
     0
  3

  4

  5

  6

  7

 40
1.0
 41
0.18
 42
0.0625
 43
0.38
 44
0.18
 45
0.0
 46
0.0
 47
0.0
 48
0.0
140
0.18
141
0.09
142
0.0
143
25.399999999999999
144
1.0
145
0.0
146
1.0
147
0.09
 71
     0
 72
     0
 73
     1
 74
     1
 75
     0
 76
     0
 77
     0
 78
     0
170
     0
171
     2
172
     0
173
     0
174
     0
175
     0
176
     0
177
     0
178
     0
  0
DIMSTYLE
  2
AM_ISO
 70
     0
  3

  4
"
  5

  6

  7

 40
1.0
 41
2.5
 42
1.0
 43
8.0
 44
0.6
 45
0.0
 46
0.0
 47
0.1
 48
0.1
140
2.5
141
0.0
142
0.0
143
0.0393701
144
1.0
145
0.0
146
0.71
147
0.8
 71
     0
 72
     0
 73
     0
 74
     0
 75
     0
 76
     0
 77
     1
 78
     8
170
     0
171
     2
172
     1
173
     0
174
     0
175
     0
176
   256
177
   256
178
     4
  0
DIMSTYLE
  2
AM_ISO$3
 70
     0
  3

  4
"
  5

  6

  7

 40
1.0
 41
2.5
 42
1.0
 43
8.0
 44
0.6
 45
0.0
 46
0.0
 47
0.1
 48
0.1
140
2.5
141
0.0
142
0.0
143
0.0393701
144
1.0
145
0.0
146
0.71
147
0.8
 71
     0
 72
     0
 73
     0
 74
     1
 75
     0
 76
     0
 77
     1
 78
     8
170
     0
171
     2
172
     0
173
     0
174
     0
175
     0
176
   256
177
   256
178
     4
  0
DIMSTYLE
  2
AM_ISO$4
 70
     0
  3

  4
"
  5

  6

  7

 40
1.0
 41
2.5
 42
1.0
 43
8.0
 44
0.6
 45
0.0
 46
0.0
 47
0.1
 48
0.1
140
2.5
141
0.0
142
0.0
143
0.0393701
144
1.0
145
0.0
146
0.71
147
0.8
 71
     0
 72
     0
 73
     0
 74
     1
 75
     0
 76
     0
 77
     1
 78
     8
170
     0
171
     2
172
     0
173
     0
174
     0
175
     0
176
   256
177
   256
178
     4
  0
DIMSTYLE
  2
AM_ISO$6
 70
     0
  3

  4
"
  5

  6

  7

 40
1.0
 41
2.5
 42
1.0
 43
8.0
 44
0.6
 45
0.0
 46
0.0
 47
0.1
 48
0.1
140
2.5
141
0.0
142
0.0
143
0.0393701
144
1.0
145
0.0
146
0.71
147
0.8
 71
     0
 72
     0
 73
     0
 74
     0
 75
     0
 76
     0
 77
     0
 78
     8
170
     0
171
     2
172
     1
173
     0
174
     0
175
     0
176
   256
177
   256
178
     4
  0
DIMSTYLE
  2
AM_ISO$7
 70
     0
  3

  4
"
  5

  6

  7

 40
1.0
 41
2.5
 42
1.0
 43
8.0
 44
0.6
 45
0.0
 46
0.0
 47
0.1
 48
0.1
140
2.5
141
0.0
142
0.0
143
0.0393701
144
1.0
145
0.0
146
0.71
147
0.8
 71
     0
 72
     0
 73
     0
 74
     0
 75
     0
 76
     0
 77
     1
 78
     8
170
     0
171
     2
172
     1
173
     0
174
     0
175
     0
176
   256
177
   256
178
     4
  0
DIMSTYLE
  2
AM_ISO$SF
 70
     0
  3

  4
"
  5

  6

  7

 40
1.0
 41
2.5
 42
1.0
 43
10.0
 44
1.0
 45
0.0
 46
0.0
 47
0.1
 48
0.1
140
3.5
141
0.0
142
0.0
143
0.0393701
144
1.0
145
0.0
146
0.71
147
1.5
 71
     0
 72
     0
 73
     0
 74
     0
 75
     1
 76
     1
 77
     1
 78
     8
170
     0
171
     2
172
     1
173
     0
174
     0
175
     0
176
   256
177
   256
178
     2
  0
DIMSTYLE
  2
AM_ISO$SH
 70
     0
  3

  4
"
  5

  6

  7

 40
1.0
 41
2.5
 42
1.0
 43
10.0
 44
1.0
 45
0.0
 46
0.0
 47
0.1
 48
0.1
140
3.5
141
0.0
142
0.0
143
0.0393701
144
2.0
145
0.0
146
0.71
147
1.5
 71
     0
 72
     0
 73
     0
 74
     0
 75
     1
 76
     1
 77
     1
 78
     8
170
     0
171
     2
172
     1
173
     1
174
     0
175
     0
176
   256
177
   256
178
     2
  0
DIMSTYLE
  2
AM_JIS
 70
     0
  3

  4
"
  5

  6

  7

 40
1.0
 41
2.5
 42
1.0
 43
7.0
 44
1.0
 45
0.0
 46
0.0
 47
0.1
 48
0.1000000001
140
2.5
141
0.0
142
0.0
143
0.0393701
144
1.0
145
0.0
146
0.71
147
1.0
 71
     0
 72
     0
 73
     0
 74
     0
 75
     0
 76
     0
 77
     3
 78
     8
170
     0
171
     2
172
     1
173
     0
174
     0
175
     0
176
   256
177
   256
178
     4
  0
DIMSTYLE
  2
AM_JIS$3
 70
     0
  3

  4
"
  5

  6

  7

 40
1.0
 41
2.5
 42
1.0
 43
7.0
 44
1.0
 45
0.0
 46
0.0
 47
0.1
 48
0.1000000001
140
2.5
141
0.0
142
0.0
143
0.0393701
144
1.0
145
0.0
146
0.71
147
1.0
 71
     0
 72
     0
 73
     0
 74
     1
 75
     0
 76
     0
 77
     3
 78
     8
170
     0
171
     2
172
     0
173
     0
174
     0
175
     0
176
   256
177
   256
178
     4
  0
DIMSTYLE
  2
AM_JIS$4
 70
     0
  3

  4
"
  5

  6

  7

 40
1.0
 41
2.5
 42
1.0
 43
7.0
 44
1.0
 45
0.0
 46
0.0
 47
0.1
 48
0.1000000001
140
2.5
141
0.0
142
0.0
143
0.0393701
144
1.0
145
0.0
146
0.71
147
1.0
 71
     0
 72
     0
 73
     0
 74
     0
 75
     0
 76
     0
 77
     3
 78
     8
170
     0
171
     2
172
     0
173
     0
174
     0
175
     0
176
   256
177
   256
178
     4
  0
DIMSTYLE
  2
AM_JIS$6
 70
     0
  3

  4
"
  5

  6

  7

 40
1.0
 41
2.5
 42
1.0
 43
7.0
 44
1.0
 45
0.0
 46
0.0
 47
0.1
 48
0.1000000001
140
2.5
141
0.0
142
0.0
143
0.0393701
144
1.0
145
0.0
146
0.71
147
1.0
 71
     0
 72
     0
 73
     0
 74
     0
 75
     0
 76
     0
 77
     0
 78
     8
170
     0
171
     2
172
     1
173
     0
174
     0
175
     0
176
   256
177
   256
178
     4
  0
DIMSTYLE
  2
AM_JIS$7
 70
     0
  3

  4
"
  5

  6

  7

 40
1.0
 41
2.5
 42
1.0
 43
7.0
 44
1.0
 45
0.0
 46
0.0
 47
0.1
 48
0.1000000001
140
2.5
141
0.0
142
0.0
143
0.0393701
144
1.0
145
0.0
146
0.71
147
1.0
 71
     0
 72
     0
 73
     0
 74
     0
 75
     0
 76
     0
 77
     3
 78
     8
170
     0
171
     2
172
     1
173
     0
174
     0
175
     0
176
   256
177
   256
178
     4
  0
DIMSTYLE
  2
AM_JIS$SF
 70
     0
  3

  4
"
  5

  6

  7

 40
1.0
 41
2.5
 42
1.0
 43
10.0
 44
1.0
 45
0.0
 46
0.0
 47
0.1
 48
0.1
140
3.5
141
0.0
142
0.0
143
0.0393701
144
1.0
145
0.0
146
0.71
147
1.5
 71
     0
 72
     0
 73
     0
 74
     0
 75
     1
 76
     1
 77
     3
 78
     8
170
     0
171
     2
172
     1
173
     0
174
     0
175
     0
176
   256
177
   256
178
     4
  0
DIMSTYLE
  2
AM_JIS$SH
 70
     0
  3

  4
"
  5

  6

  7

 40
1.0
 41
2.5
 42
1.0
 43
10.0
 44
1.0
 45
0.0
 46
0.0
 47
0.1
 48
0.1
140
3.5
141
0.0
142
0.0
143
0.0393701
144
1.0
145
0.0
146
0.71
147
1.5
 71
     0
 72
     0
 73
     0
 74
     0
 75
     1
 76
     0
 77
     3
 78
     8
170
     0
171
     2
172
     1
173
     1
174
     0
175
     0
176
   256
177
   256
178
     4
  0
DIMSTYLE
  2
AM_ANSI
 70
     0
  3

  4
mm
  5

  6

  7

 40
1.0
 41
0.1
 42
0.05
 43
0.5
 44
0.1
 45
0.0
 46
0.0
 47
0.1
 48
0.1
140
0.12
141
0.0
142
0.0
143
25.399999999999999
144
1.0
145
0.0
146
0.71
147
0.06
 71
     0
 72
     0
 73
     1
 74
     1
 75
     0
 76
     0
 77
     0
 78
     7
170
     0
171
     2
172
     0
173
     0
174
     0
175
     0
176
   256
177
   256
178
     2
  0
DIMSTYLE
  2
AM_ANSI$3
 70
     0
  3

  4
mm
  5

  6

  7

 40
1.0
 41
0.1
 42
0.05
 43
0.5
 44
0.1
 45
0.0
 46
0.0
 47
0.1
 48
0.1
140
0.12
141
0.0
142
0.0
143
25.399999999999999
144
1.0
145
0.0
146
0.71
147
0.06
 71
     0
 72
     0
 73
     1
 74
     1
 75
     0
 76
     0
 77
     0
 78
     7
170
     0
171
     2
172
     0
173
     0
174
     0
175
     0
176
   256
177
   256
178
     2
  0
DIMSTYLE
  2
AM_ANSI$4
 70
     0
  3

  4
mm
  5

  6

  7

 40
1.0
 41
0.1
 42
0.05
 43
0.5
 44
0.1
 45
0.0
 46
0.0
 47
0.1
 48
0.1
140
0.12
141
0.0
142
0.0
143
25.399999999999999
144
1.0
145
0.0
146
0.71
147
0.06
 71
     0
 72
     0
 73
     1
 74
     1
 75
     0
 76
     0
 77
     0
 78
     7
170
     0
171
     2
172
     0
173
     0
174
     0
175
     0
176
   256
177
   256
178
     2
  0
DIMSTYLE
  2
AM_ANSI$7
 70
     0
  3

  4
mm
  5

  6

  7

 40
1.0
 41
0.1
 42
0.05
 43
0.5
 44
0.1
 45
0.0
 46
0.0
 47
0.1
 48
0.1
140
0.24
141
0.0
142
0.0
143
25.399999999999999
144
1.0
145
0.0
146
0.71
147
0.06
 71
     0
 72
     0
 73
     1
 74
     1
 75
     0
 76
     0
 77
     0
 78
     7
170
     0
171
     2
172
     0
173
     0
174
     0
175
     0
176
   256
177
   256
178
     2
  0
DIMSTYLE
  2
AM_ANSI$SF
 70
     0
  3

  4
mm
  5

  6

  7

 40
1.0
 41
0.1
 42
0.05
 43
0.5
 44
0.1
 45
0.0
 46
0.0
 47
0.1
 48
0.1
140
0.12
141
0.0
142
0.0
143
25.399999999999999
144
1.0
145
0.0
146
0.71
147
0.06
 71
     0
 72
     0
 73
     1
 74
     1
 75
     1
 76
     1
 77
     0
 78
     7
170
     0
171
     2
172
     0
173
     0
174
     0
175
     0
176
   256
177
   256
178
     2
  0
DIMSTYLE
  2
AM_ANSI$SH
 70
     0
  3

  4
mm
  5

  6

  7

 40
1.0
 41
0.1
 42
0.05
 43
0.5
 44
0.1
 45
0.0
 46
0.0
 47
0.1
 48
0.1
140
0.12
141
0.0
142
0.0
143
25.399999999999999
144
1.0
145
0.0
146
0.71
147
0.06
 71
     0
 72
     0
 73
     1
 74
     1
 75
     1
 76
     1
 77
     0
 78
     7
170
     0
171
     2
172
     0
173
     1
174
     0
175
     0
176
   256
177
   256
178
     2
  0
ENDTAB
  0
ENDSEC
  0
SECTION
  2
BLOCKS
  0
BLOCK
  8
0
  2
$MODEL_SPACE
 70
     0
 10
0.0
 20
0.0
 30
0.0
  3
$MODEL_SPACE
  1

  0
ENDBLK
  5
2D1F
  8
0
  0
BLOCK
 67
     1
  8
0
  2
$PAPER_SPACE
 70
     0
 10
0.0
 20
0.0
 30
0.0
  3
$PAPER_SPACE
  1

  0
ENDBLK
  5
2D1B
 67
     1
  8
0
  0
BLOCK
  8
0
  2
GENAXEH
 70
     0
 10
0.0
 20
0.0
 30
0.0
  3
GENAXEH
  1

  0
LINE
  5
2AA5
  8
0
 10
-1.0
 20
0.0
 30
0.0
 11
1.0
 21
0.0
 31
0.0
  0
ENDBLK
  5
2AA6
  8
0
  0
BLOCK
  8
0
  2
_OPEN30
 70
     0
 10
0.0
 20
0.0
 30
0.0
  3
_OPEN30
  1

  0
LINE
  5
2AA9
  8
0
 62
     0
 10
-1.0
 20
0.26794919
 30
0.0
 11
0.0
 21
0.0
 31
0.0
  0
LINE
  5
2AAA
  8
0
 62
     0
 10
0.0
 20
0.0
 30
0.0
 11
-1.0
 21
-0.26794919
 31
0.0
  0
LINE
  5
2AAB
  8
0
 62
     0
 10
0.0
 20
0.0
 30
0.0
 11
-1.0
 21
0.0
 31
0.0
  0
ENDBLK
  5
2AAC
  8
0
  0
BLOCK
  8
0
  2
_NONE
 70
     0
 10
0.0
 20
0.0
 30
0.0
  3
_NONE
  1

  0
ENDBLK
  5
2AAF
  8
0
  0
BLOCK
  8
0
  2
_ACMFILLEDHALF
 70
     0
 10
0.0
 20
0.0
 30
0.0
  3
_ACMFILLEDHALF
  1

  0
TRACE
  5
2E13
  8
AM_0
 62
     0
 10
-0.8
 20
0.0
 30
0.0
 11
-1.0
 21
0.166666666
 31
0.0
 12
0.0
 22
0.0
 32
0.0
 13
0.0
 23
0.0
 33
0.0
  0
LINE
  5
2E14
  8
AM_0
 62
     0
 10
-1.0
 20
0.0
 30
0.0
 11
-0.8
 21
0.0
 31
0.0
  0
ENDBLK
  5
2E12
  8
0
  0
ENDSEC
  0
SECTION
  2
ENTITIES
  0
LINE
  5
2AB0
  8
AM_0
 10
643.97713549003993
 20
448.05173500000001
 30
0.0
 11
713.97713549003981
 21
448.05173500000001
 31
0.0
  0
LINE
  5
2AB1
  8
AM_0
 10
643.97713549003993
 20
406.05170500000003
 30
0.0
 11
713.97713549003981
 21
406.05170500000003
 31
0.0
  0
LINE
  5
2AB2
  8
AM_0
 10
657.97713549003993
 20
451.05170500000003
 30
0.0
 11
713.97713549003981
 21
451.05170500000003
 31
0.0
  0
LINE
  5
2AB3
  8
ﾁｭｳｼﾝｾﾝ1
 10
477.96483549004
 20
427.05170500000008
 30
0.0
 11
721.92153549003979
 21
427.05170500000008
 31
0.0
  0
ARC
  5
2AB4
  8
AM_0
 10
454.35963549003992
 20
458.83564000000013
 30
0.0
 40
4.000000049999997
 50
91.999997999999948
 51
170.16762
  0
LINE
  5
2AB5
  8
AM_0
 10
460.47713549003993
 20
315.05173000000002
 30
0.0
 11
460.47713549003993
 21
463.05173499999989
 31
0.0
  0
LINE
  5
2AB6
  8
AM_0
 10
641.97713549003993
 20
427.05170500000008
 30
0.0
 11
641.97713549003993
 21
547.05169999999998
 31
0.0
  0
LINE
  5
2AB7
  8
AM_0
 10
627.97713549003993
 20
427.05170500000008
 30
0.0
 11
627.97713549003993
 21
538.00900000000013
 31
0.0
  0
LINE
  5
2AB8
  8
AM_0
 10
618.84258549004005
 20
445.40464000000009
 30
0.0
 11
602.5896854900401
 21
494.54065500000002
 31
0.0
  0
LINE
  5
2AB9
  8
AM_0
 10
637.97713549003993
 20
284.55170000000021
 30
0.0
 11
637.97713549003993
 21
569.5517000000001
 31
0.0
  0
LINE
  5
2ABA
  8
AM_0
 10
619.97718549004003
 20
448.5385500000001
 30
0.0
 11
619.97718549004003
 21
566.02605000000005
 31
0.0
  0
LINE
  5
2ABB
  8
AM_0
 10
521.97713549003993
 20
259.0517000000001
 30
0.0
 11
521.97713549003993
 21
519.05169999999987
 31
0.0
  0
LINE
  5
2ABC
  8
AM_0
 10
508.97713549003993
 20
261.43704500000013
 30
0.0
 11
508.97713549003993
 21
516.66639999999995
 31
0.0
  0
LINE
  5
2ABD
  8
AM_0
 10
494.97718549003991
 20
274.92719
 30
0.0
 11
494.97718549003991
 21
517.0517000000001
 31
0.0
  0
LINE
  5
2ABE
  8
AM_0
 10
262.97709764938787
 20
360.84171000000009
 30
0.0
 11
290.97709764938782
 21
360.84171000000009
 31
0.0
  0
LINE
  5
2ABF
  8
AM_0
 10
262.97709764938787
 20
362.84171000000009
 30
0.0
 11
284.97709764938782
 21
362.84171000000009
 31
0.0
  0
LINE
  5
2AC0
  8
AM_0
 10
262.97709764938787
 20
344.84171000000009
 30
0.0
 11
290.97709764938782
 21
344.84171000000009
 31
0.0
  0
LINE
  5
2AC1
  8
ﾁｭｳｼﾝｾﾝ1
 10
491.5680995442633
 20
352.84171000000009
 30
0.0
 11
257.07179274145528
 21
352.84171000000009
 31
0.0
  0
LINE
  5
2AC2
  8
AM_0
 10
262.97709764938787
 20
362.84171000000009
 30
0.0
 11
262.97709764938787
 21
344.84171000000009
 31
0.0
  0
LINE
  5
2AC3
  8
AM_0
 10
450.47713549003993
 20
326.05169999999998
 30
0.0
 11
494.97718549003991
 21
326.05169999999998
 31
0.0
  0
LINE
  5
2AC4
  8
AM_0
 10
450.47713549003993
 20
350.2316350000001
 30
0.0
 11
494.97718549003991
 21
350.2316350000001
 31
0.0
  0
LINE
  5
2AC5
  8
AM_0
 10
450.47713549003993
 20
427.87183500000009
 30
0.0
 11
494.97718549003991
 21
427.87183500000009
 31
0.0
  0
LINE
  5
2AC6
  8
AM_0
 10
450.47713549003993
 20
452.05170500000008
 30
0.0
 11
494.97718549003991
 21
452.05170500000008
 31
0.0
  0
LINE
  5
2AC7
  8
AM_0
 10
468.2155854900401
 20
306.31214
 30
0.0
 11
492.23853549003991
 21
304.21039500000001
 31
0.0
  0
ARC
  5
2AC8
  8
AM_0
 10
385.47708549003988
 20
316.8043550000001
 30
0.0
 40
5.0
 50
88.0
 51
180.00001
  0
ARC
  5
2AC9
  8
AM_0
 10
447.34258549003999
 20
315.644565
 30
0.0
 40
4.000000049999997
 50
26.896937000000001
 51
88.0
  0
LINE
  5
2ACA
  8
AM_0
 10
380.47708549004
 20
354.84482500000013
 30
0.0
 11
380.47708549004
 21
293.40286500000008
 31
0.0
  0
LINE
  5
2ACB
  8
AM_0
 10
465.47713549003993
 20
309.30069500000019
 30
0.0
 11
465.47713549003993
 21
326.05169999999998
 31
0.0
  0
LINE
  5
2ACC
  8
AM_0
 10
360.47708549004
 20
288.84171000000009
 30
0.0
 11
360.47708549004
 21
416.84170999999998
 31
0.0
  0
LINE
  5
2ACD
  8
AM_0
 10
350.47708549004028
 20
415.84171000000009
 30
0.0
 11
350.47708549004028
 21
289.84171000000021
 31
0.0
  0
LINE
  5
2ACE
  8
AM_0
 10
349.01261939597282
 20
296.80618372346208
 30
0.0
 11
322.90602530756922
 21
322.91277781186579
 31
0.0
  0
ARC
  5
2ACF
  8
AM_0
 10
376.47708549004
 20
293.40286500000008
 30
0.0
 40
4.000000049999997
 50
272.0
 51
0.0
  0
LINE
  5
2AD0
  8
AM_0
 10
360.47708549004
 20
301.34171000000021
 30
0.0
 11
380.47708549004
 21
301.34171000000021
 31
0.0
  0
LINE
  5
2AD1
  8
AM_0
 10
360.47708549004
 20
314.8454050000002
 30
0.0
 11
380.47708549004
 21
314.8454050000002
 31
0.0
  0
ARC
  5
2AD2
  8
AM_0
 10
345.47708549004028
 20
293.2706498175292
 30
0.0
 40
5.0
 50
0.0
 51
45.000000000004363
1001
GENIUS_GENODEF_13
1002
{
1000
HIER
1070
     0
1002
}
1002
{
1000
MANEDIT
1070
     0
1002
}
1002
{
1000
NOSEL
1070
     0
1002
}
1002
{
1000
BEHIND
1070
     0
1002
}
1002
{
1000
OTHER
1070
     0
1002
}
1002
{
1000
REACTOR
1002
}
1001
GENIUS_GENOBJ-N-FIL_13
1002
{
1000
OWNER
1000
GEN
1002
}
  0
LINE
  5
2AD3
  8
AM_0
 10
360.47708549004
 20
288.84171000000009
 30
0.0
 11
376.61668549003991
 21
289.4053100000001
 31
0.0
  0
LINE
  5
2AD4
  8
AM_0
 10
360.47708549004022
 20
288.84171000000009
 30
0.0
 11
351.47708549004028
 21
288.84171000000009
 31
0.0
  0
ARC
  5
2AD5
  8
AM_0
 10
351.47708549004028
 20
289.84171000000021
 30
0.0
 40
1.0
 50
180.0
 51
270.0
1001
GENIUS_GENODEF_13
1002
{
1000
HIER
1070
     0
1002
}
1002
{
1000
MANEDIT
1070
     0
1002
}
1002
{
1000
NOSEL
1070
     0
1002
}
1002
{
1000
BEHIND
1070
     0
1002
}
1002
{
1000
OTHER
1070
     0
1002
}
1002
{
1000
REACTOR
1002
}
1001
GENIUS_GENOBJ-N-FIL_13
1002
{
1000
OWNER
1000
GEN
1002
}
  0
LINE
  5
2AD6
  8
AM_0
 10
360.47708549004
 20
314.8454050000002
 30
0.0
 11
350.47708549004028
 21
314.8454050000002
 31
0.0
  0
LINE
  5
2AD7
  8
AM_0
 10
360.47708549004
 20
301.34171000000021
 30
0.0
 11
350.47708549004028
 21
301.34171000000021
 31
0.0
  0
LINE
  5
2AD8
  8
AM_0
 10
382.70843549003968
 20
294.23929500000008
 30
0.0
 11
449.82648549004
 21
315.19772999999998
 31
0.0
  0
ARC
  5
2AD9
  8
AM_0
 10
383.90063549003992
 20
290.42114500000002
 30
0.0
 40
4.000000049999997
 50
107.3416099999999
 51
158.11661000000001
  0
LINE
  5
2ADA
  8
AM_0
 10
460.47713549003993
 20
315.5517000000001
 30
0.0
 11
462.58183549003991
 21
315.478185
 31
0.0
  0
LINE
  5
2ADB
  8
AM_0
 10
451.15838549004002
 20
315.37711000000002
 30
0.0
 11
460.47713549003993
 21
315.0517000000001
 31
0.0
  0
ARC
  5
2ADC
  8
AM_0
 10
454.47713549003993
 20
319.26367500000009
 30
0.0
 40
4.000000049999997
 50
206.8969399999998
 51
268.0
  0
ARC
  5
2ADD
  8
AM_0
 10
451.01873549004
 20
311.37954999999999
 30
0.0
 40
4.000000049999997
 50
88.0
 51
107.3416099999999
  0
ARC
  5
2ADE
  8
AM_0
 10
468.47713549003993
 20
309.30069500000019
 30
0.0
 40
3.0000000500000001
 50
179.99998999999991
 51
265.0
  0
ARC
  5
2ADF
  8
AM_0
 10
462.47718549003997
 20
312.48004500000002
 30
0.0
 40
3.0000000500000001
 50
0.0
 51
88.0
  0
ARC
  5
2AE0
  8
AM_0
 10
378.47708549004
 20
450.82291500000002
 30
0.0
 40
3.0000000500000001
 50
91.999997999999948
 51
180.00001
  0
ARC
  5
2AE1
  8
AM_0
 10
380.47708549004
 20
429.22324000000009
 30
0.0
 40
5.0
 50
91.999997999999948
 51
180.00001
  0
LINE
  5
2AE2
  8
AM_0
 10
360.47708549004
 20
390.83801999999997
 30
0.0
 11
436.36793549004
 21
390.83801999999997
 31
0.0
  0
LINE
  5
2AE3
  8
AM_0
 10
360.47708549004
 20
404.34170999999998
 30
0.0
 11
440.21478549003967
 21
404.34170999999998
 31
0.0
  0
LINE
  5
2AE4
  8
AM_0
 10
349.01261939597282
 20
408.87723627653833
 30
0.0
 11
322.90602530756922
 21
382.77064218813479
 31
0.0
  0
ARC
  5
2AE5
  8
AM_0
 10
315.83495749570358
 20
389.84171000000009
 30
0.0
 40
10.0
 50
270.0
 51
314.99999999999562
1001
GENIUS_GENODEF_13
1002
{
1000
HIER
1070
     0
1002
}
1002
{
1000
MANEDIT
1070
     0
1002
}
1002
{
1000
NOSEL
1070
     0
1002
}
1002
{
1000
BEHIND
1070
     0
1002
}
1002
{
1000
OTHER
1070
     0
1002
}
1002
{
1000
REACTOR
1002
}
1001
GENIUS_GENOBJ-N-FIL_13
1002
{
1000
OWNER
1000
GEN
1002
}
  0
ARC
  5
2AE6
  8
AM_0
 10
315.83495749570358
 20
315.84171000000021
 30
0.0
 40
10.0
 50
45.000000000004363
 51
90.0
1001
GENIUS_GENODEF_13
1002
{
1000
HIER
1070
     0
1002
}
1002
{
1000
MANEDIT
1070
     0
1002
}
1002
{
1000
NOSEL
1070
     0
1002
}
1002
{
1000
BEHIND
1070
     0
1002
}
1002
{
1000
OTHER
1070
     0
1002
}
1002
{
1000
REACTOR
1002
}
1001
GENIUS_GENOBJ-N-FIL_13
1002
{
1000
OWNER
1000
GEN
1002
}
  0
LINE
  5
2AE7
  8
AM_0
 10
319.97709311943481
 20
379.84171000000009
 30
0.0
 11
319.97709311943481
 21
325.84170999999998
 31
0.0
  0
LINE
  5
2AE8
  8
AM_0
 10
294.97709764938782
 20
327.84171000000021
 30
0.0
 11
294.97709764938782
 21
377.84171000000009
 31
0.0
  0
LINE
  5
2AE9
  8
AM_0
 10
292.97709764938782
 20
369.9274964376271
 30
0.0
 11
292.97709764938782
 21
335.7559235623732
 31
0.0
  0
LINE
  5
2AEA
  8
AM_0
 10
290.97709764938782
 20
361.34171000000009
 30
0.0
 11
290.97709764938782
 21
344.34171000000009
 31
0.0
  0
LINE
  5
2AEB
  8
AM_0
 10
293.26999086820138
 20
335.04881678118682
 30
0.0
 11
294.68420443057408
 21
333.63460321881371
 31
0.0
  0
ARC
  5
2AEC
  8
AM_0
 10
293.97709764938782
 20
335.7559235623732
 30
0.0
 40
1.0
 50
180.0
 51
225.00000000000421
1001
GENIUS_GENODEF_13
1002
{
1000
HIER
1070
     0
1002
}
1002
{
1000
MANEDIT
1070
     0
1002
}
1002
{
1000
NOSEL
1070
     0
1002
}
1002
{
1000
BEHIND
1070
     0
1002
}
1002
{
1000
OTHER
1070
     0
1002
}
1002
{
1000
REACTOR
1002
}
1001
GENIUS_GENOBJ-N-FIL_13
1002
{
1000
OWNER
1000
GEN
1002
}
  0
LINE
  5
2AED
  8
AM_0
 10
290.97709764938782
 20
344.34171533305022
 30
0.0
 11
292.97709764938782
 21
344.34171426644002
 31
0.0
  0
LINE
  5
2AEE
  8
AM_0
 10
296.97709764938782
 20
325.84171000000021
 30
0.0
 11
315.83495749570358
 21
325.84171000000021
 31
0.0
  0
ARC
  5
2AEF
  8
AM_0
 10
296.97709764938782
 20
327.84171000000021
 30
0.0
 40
2.0
 50
180.0
 51
270.0
1001
GENIUS_GENOBJ-N-FIL_13
1002
{
1000
OWNER
1000
GEN
1002
}
1001
GENIUS_GENODEF_13
1002
{
1000
HIER
1070
     0
1002
}
1002
{
1000
MANEDIT
1070
     0
1002
}
1002
{
1000
NOSEL
1070
     0
1002
}
1002
{
1000
BEHIND
1070
     0
1002
}
1002
{
1000
OTHER
1070
     0
1002
}
1002
{
1000
REACTOR
1002
}
  0
ARC
  5
2AF0
  8
AM_0
 10
293.97709764938782
 20
332.92749643762721
 30
0.0
 40
1.0
 50
0.0
 51
45.000000000004363
1001
GENIUS_GENODEF_13
1002
{
1000
HIER
1070
     0
1002
}
1002
{
1000
MANEDIT
1070
     0
1002
}
1002
{
1000
NOSEL
1070
     0
1002
}
1002
{
1000
BEHIND
1070
     0
1002
}
1002
{
1000
OTHER
1070
     0
1002
}
1002
{
1000
REACTOR
1002
}
1001
GENIUS_GENOBJ-N-FIL_13
1002
{
1000
OWNER
1000
GEN
1002
}
  0
LINE
  5
2AF1
  8
AM_0
 10
293.26999086820138
 20
370.6346032188136
 30
0.0
 11
294.68420443057408
 21
372.04881678118682
 31
0.0
  0
LINE
  5
2AF2
  8
AM_0
 10
284.97709764938782
 20
360.84171000000009
 30
0.0
 11
284.97709764938782
 21
362.84171000000009
 31
0.0
  0
LINE
  5
2AF3
  8
AM_0
 10
290.97709764938782
 20
361.34171000000009
 30
0.0
 11
292.97709764938782
 21
361.34171000000009
 31
0.0
  0
ARC
  5
2AF4
  8
AM_0
 10
293.97709764938782
 20
369.9274964376271
 30
0.0
 40
1.0
 50
134.99999999999551
 51
180.0
1001
GENIUS_GENODEF_13
1002
{
1000
HIER
1070
     0
1002
}
1002
{
1000
MANEDIT
1070
     0
1002
}
1002
{
1000
NOSEL
1070
     0
1002
}
1002
{
1000
BEHIND
1070
     0
1002
}
1002
{
1000
OTHER
1070
     0
1002
}
1002
{
1000
REACTOR
1002
}
1001
GENIUS_GENOBJ-N-FIL_13
1002
{
1000
OWNER
1000
GEN
1002
}
  0
ARC
  5
2AF5
  8
AM_0
 10
293.97709764938782
 20
372.7559235623732
 30
0.0
 40
1.0
 50
314.99999999999562
 51
0.0
1001
GENIUS_GENODEF_13
1002
{
1000
HIER
1070
     0
1002
}
1002
{
1000
MANEDIT
1070
     0
1002
}
1002
{
1000
NOSEL
1070
     0
1002
}
1002
{
1000
BEHIND
1070
     0
1002
}
1002
{
1000
OTHER
1070
     0
1002
}
1002
{
1000
REACTOR
1002
}
1001
GENIUS_GENOBJ-N-FIL_13
1002
{
1000
OWNER
1000
GEN
1002
}
  0
LINE
  5
2AF6
  8
AM_0
 10
296.97709764938782
 20
379.84171000000009
 30
0.0
 11
315.83495749570358
 21
379.84171000000009
 31
0.0
  0
ARC
  5
2AF7
  8
AM_0
 10
296.97709764938782
 20
377.84171000000009
 30
0.0
 40
2.0
 50
90.0
 51
180.0
1001
GENIUS_GENOBJ-N-FIL_13
1002
{
1000
OWNER
1000
GEN
1002
}
1001
GENIUS_GENODEF_13
1002
{
1000
HIER
1070
     0
1002
}
1002
{
1000
MANEDIT
1070
     0
1002
}
1002
{
1000
NOSEL
1070
     0
1002
}
1002
{
1000
BEHIND
1070
     0
1002
}
1002
{
1000
OTHER
1070
     0
1002
}
1002
{
1000
REACTOR
1002
}
  0
LINE
  5
2AF8
  8
AM_0
 10
375.47708549003988
 20
450.82291500000002
 30
0.0
 11
375.47708549003988
 21
407.34174000000007
 31
0.0
  0
ARC
  5
2AF9
  8
AM_0
 10
345.47708549004028
 20
412.41277018247109
 30
0.0
 40
5.0
 50
314.99999999999562
 51
0.0
1001
GENIUS_GENODEF_13
1002
{
1000
HIER
1070
     0
1002
}
1002
{
1000
MANEDIT
1070
     0
1002
}
1002
{
1000
NOSEL
1070
     0
1002
}
1002
{
1000
BEHIND
1070
     0
1002
}
1002
{
1000
OTHER
1070
     0
1002
}
1002
{
1000
REACTOR
1002
}
1001
GENIUS_GENOBJ-N-FIL_13
1002
{
1000
OWNER
1000
GEN
1002
}
  0
LINE
  5
2AFA
  8
AM_0
 10
360.47708549004
 20
404.34170999999998
 30
0.0
 11
350.47708549004028
 21
404.34170999999998
 31
0.0
  0
LINE
  5
2AFB
  8
AM_0
 10
360.47708549004
 20
390.83801999999997
 30
0.0
 11
350.47708549004028
 21
390.83801999999997
 31
0.0
  0
ARC
  5
2AFC
  8
AM_0
 10
372.47718549003991
 20
407.34174000000007
 30
0.0
 40
3.0000000500000001
 50
270.0
 51
0.0
  0
LINE
  5
2AFD
  8
AM_0
 10
360.47708549004
 20
416.84170999999998
 30
0.0
 11
370.65158549004002
 21
417.19699500000007
 31
0.0
  0
LINE
  5
2AFE
  8
AM_0
 10
360.47708549004022
 20
416.84170999999998
 30
0.0
 11
351.47708549004028
 21
416.84170999999998
 31
0.0
  0
ARC
  5
2AFF
  8
AM_0
 10
351.47708549004028
 20
415.84171000000009
 30
0.0
 40
1.0
 50
90.0
 51
180.0
1001
GENIUS_GENODEF_13
1002
{
1000
HIER
1070
     0
1002
}
1002
{
1000
MANEDIT
1070
     0
1002
}
1002
{
1000
NOSEL
1070
     0
1002
}
1002
{
1000
BEHIND
1070
     0
1002
}
1002
{
1000
OTHER
1070
     0
1002
}
1002
{
1000
REACTOR
1002
}
1001
GENIUS_GENOBJ-N-FIL_13
1002
{
1000
OWNER
1000
GEN
1002
}
  0
ARC
  5
2B00
  8
AM_0
 10
370.47708549004
 20
422.1939450000001
 30
0.0
 40
5.0
 50
272.0
 51
0.0
  0
LINE
  5
2B01
  8
AM_0
 10
450.47713549003993
 20
318.12943000000018
 30
0.0
 11
450.47713549003993
 21
459.7980399999999
 31
0.0
  0
LINE
  5
2B02
  8
AM_0
 10
436.3679854900401
 20
390.83801999999997
 30
0.0
 11
450.47718549003997
 21
363.65589
 31
0.0
  0
LINE
  5
2B03
  8
AM_0
 10
385.65158549004008
 20
321.80133500000028
 30
0.0
 11
447.48218549003991
 21
319.642155
 31
0.0
  0
LINE
  5
2B04
  8
AM_0
 10
385.47708549003988
 20
359.84482500000013
 30
0.0
 11
450.47713549003993
 21
359.84482500000013
 31
0.0
  0
ARC
  5
2B05
  8
AM_0
 10
385.47708549003988
 20
354.84482500000013
 30
0.0
 40
5.0
 50
90.000003000000007
 51
180.00001
  0
LINE
  5
2B06
  8
AM_0
 10
430.47288549004003
 20
437.0474000000001
 30
0.0
 11
449.3055854900399
 21
455.88007500000009
 31
0.0
  0
LINE
  5
2B07
  8
AM_0
 10
378.37243549004
 20
453.8210499999999
 30
0.0
 11
446.61668549003991
 21
456.2041999999999
 31
0.0
  0
LINE
  5
2B08
  8
AM_0
 10
429.3586854900397
 20
435.9332950000001
 30
0.0
 11
429.3586854900397
 21
404.34170999999998
 31
0.0
  0
LINE
  5
2B09
  8
AM_0
 10
380.30258549003992
 20
434.2202200000001
 30
0.0
 11
427.7839854900401
 21
435.87830000000002
 31
0.0
  0
ARC
  5
2B0A
  8
AM_0
 10
427.64438549003972
 20
439.8758600000001
 30
0.0
 40
4.000000049999997
 50
272.0
 51
315.0
  0
ARC
  5
2B0B
  8
AM_0
 10
440.21478549003967
 20
400.34170999999998
 30
0.0
 40
4.000000049999997
 50
315.0
 51
90.000003000000007
  0
LINE
  5
2B0C
  8
AM_0
 10
436.3679854900401
 20
390.83799000000022
 30
0.0
 11
443.04323549004022
 21
397.51328000000001
 31
0.0
  0
ARC
  5
2B0D
  8
AM_0
 10
446.47713549003993
 20
460.20175999999992
 30
0.0
 40
4.000000049999997
 50
272.0
 51
350.16761000000002
  0
ARC
  5
2B0E
  8
AM_0
 10
446.47713549003993
 20
458.70856500000002
 30
0.0
 40
4.000000049999997
 50
315.0
 51
0.0
  0
LINE
  5
2B0F
  8
AM_0
 10
627.97713549003993
 20
427.05170500000008
 30
0.0
 11
627.97713549003993
 21
316.09439500000002
 31
0.0
  0
LINE
  5
2B10
  8
AM_0
 10
641.97713549003993
 20
427.05170500000008
 30
0.0
 11
641.97713549003993
 21
307.05170000000021
 31
0.0
  0
LINE
  5
2B11
  8
AM_0
 10
619.97718549004003
 20
287.02972999999997
 30
0.0
 11
619.97718549004003
 21
335.54486500000002
 31
0.0
  0
ARC
  5
2B12
  8
AM_0
 10
549.97718549004003
 20
315.96860000000009
 30
0.0
 40
9.7211409999999994
 50
90.000003000000007
 51
270.0
  0
LINE
  5
2B13
  8
AM_0
 10
549.97718549004003
 20
308.09409000000028
 30
0.0
 11
549.97718549004003
 21
324.194095
 31
0.0
  0
LINE
  5
2B14
  8
AM_0
 10
549.97718549004003
 20
306.2474400000001
 30
0.0
 11
619.97718549004003
 21
306.2474400000001
 31
0.0
  0
LINE
  5
2B15
  8
AM_0
 10
508.97713549003993
 20
281.79123499999997
 30
0.0
 11
623.80058549004025
 21
281.79123499999997
 31
0.0
  0
LINE
  5
2B16
  8
AM_0
 10
581.70568549003985
 20
257.48764499999999
 30
0.0
 11
627.97713549003993
 21
284.20249000000013
 31
0.0
  0
LINE
  5
2B17
  8
AM_0
 10
521.97703549004007
 20
259.0517000000001
 30
0.0
 11
581.70568549003985
 21
257.48767500000002
 31
0.0
  0
LINE
  5
2B18
  8
AM_0
 10
508.97713549003993
 20
267.33441500000009
 30
0.0
 11
598.76078549003978
 21
267.33441500000009
 31
0.0
  0
LINE
  5
2B19
  8
AM_0
 10
510.90733549003988
 20
259.438265
 30
0.0
 11
521.97713549003993
 21
259.0517000000001
 31
0.0
  0
ARC
  5
2B1A
  8
AM_0
 10
510.97713549003993
 20
261.43704500000013
 30
0.0
 40
2.0000000500000001
 50
179.99998999999991
 51
268.00000999999992
  0
LINE
  5
2B1B
  8
AM_0
 10
497.45618549003979
 20
271.97275000000008
 30
0.0
 11
506.49803549003991
 21
270.37842000000001
 31
0.0
  0
ARC
  5
2B1C
  8
AM_0
 10
497.97713549003993
 20
274.92719
 30
0.0
 40
3.0000000500000001
 50
179.99998999999991
 51
260.0
  0
ARC
  5
2B1D
  8
AM_0
 10
505.97713549003993
 20
267.42398500000002
 30
0.0
 40
3.0000000500000001
 50
0.0
 51
79.999998000000005
  0
ARC
  5
2B1E
  8
AM_0
 10
491.97713549003993
 20
301.22180500000002
 30
0.0
 40
3.0000000500000001
 50
0.0
 51
84.999996999999979
  0
ARC
  5
2B1F
  8
AM_0
 10
622.97713549003993
 20
316.09439500000002
 30
0.0
 40
5.0
 50
268.0
 51
0.0
  0
LINE
  5
2B20
  8
AM_0
 10
623.08178549003935
 20
284.03156000000018
 30
0.0
 11
637.97713549003993
 21
284.55170000000021
 31
0.0
  0
ARC
  5
2B21
  8
AM_0
 10
622.97713549003993
 20
287.02972999999997
 30
0.0
 40
3.0000000500000001
 50
179.99998999999991
 51
271.99998999999991
  0
LINE
  5
2B22
  8
AM_0
 10
637.97713549003993
 20
307.05170000000021
 30
0.0
 11
641.97713549003993
 21
307.05170000000021
 31
0.0
  0
LINE
  5
2B23
  8
AM_0
 10
549.97718549004003
 20
325.68973499999998
 30
0.0
 11
619.97718549004003
 21
325.68973499999998
 31
0.0
  0
LINE
  5
2B24
  8
AM_0
 10
508.97713549003993
 20
399.03272000000021
 30
0.0
 11
627.97713549003993
 21
399.03272000000021
 31
0.0
  0
LINE
  5
2B25
  8
AM_0
 10
508.97713549003993
 20
379.07071500000018
 30
0.0
 11
627.97713549003993
 21
379.07071500000018
 31
0.0
  0
ARC
  5
2B26
  8
AM_0
 10
624.97718549004003
 20
335.54486500000002
 30
0.0
 40
5.0
 50
90.000003000000007
 51
180.00001
  0
LINE
  5
2B27
  8
AM_0
 10
643.97713549003993
 20
404.55170499999991
 30
0.0
 11
643.97713549003993
 21
449.55170500000008
 31
0.0
  0
LINE
  5
2B28
  8
AM_0
 10
641.97713549003993
 20
404.55170499999991
 30
0.0
 11
643.97713549003993
 21
404.55170499999991
 31
0.0
  0
LINE
  5
2B29
  8
AM_0
 10
623.5896854900401
 20
441.97486000000009
 30
0.0
 11
627.97713549003993
 21
441.97486000000009
 31
0.0
  0
ARC
  5
2B2A
  8
AM_0
 10
623.5896854900401
 20
446.97485999999992
 30
0.0
 40
5.0
 50
198.30292
 51
270.0
  0
LINE
  5
2B2B
  8
AM_0
 10
641.97713549003993
 20
449.55170500000008
 30
0.0
 11
643.97713549003993
 21
449.55170500000008
 31
0.0
  0
LINE
  5
2B2C
  8
AM_0
 10
657.97713549003993
 20
451.05170500000003
 30
0.0
 11
657.97713549003993
 21
448.05173500000001
 31
0.0
  0
ARC
  5
2B2D
  8
AM_0
 10
505.97713549003993
 20
539.55169999999987
 30
0.0
 40
20.500000499999992
 50
304.61363999999992
 51
235.38634999999999
  0
LINE
  5
2B2E
  8
AM_0
 10
460.4770354900399
 20
462.55173499999989
 30
0.0
 11
490.15153549003992
 21
463.5879900000001
 31
0.0
  0
LINE
  5
2B2F
  8
AM_0
 10
454.2199854900399
 20
462.83316499999989
 30
0.0
 11
460.4770354900399
 21
463.05167499999988
 31
0.0
  0
LINE
  5
2B30
  8
AM_0
 10
595.27003549003985
 20
522.34450000000015
 30
0.0
 11
618.51268549003964
 21
545.58725000000015
 31
0.0
  0
LINE
  5
2B31
  8
AM_0
 10
617.82978549003985
 20
524.05534999999986
 30
0.0
 11
576.07173549004017
 21
499.08252500000009
 31
0.0
  0
LINE
  5
2B32
  8
AM_0
 10
617.54338549004012
 20
530.29835000000026
 30
0.0
 11
580.48448549004002
 21
508.13575000000009
 31
0.0
  0
LINE
  5
2B33
  8
AM_0
 10
573.47713549003993
 20
494.54062500000009
 30
0.0
 11
600.9301354900399
 21
494.54062500000009
 31
0.0
  0
CIRCLE
  5
2B34
  8
AM_0
 10
505.97713549003993
 20
539.55169999999987
 30
0.0
 40
12.5
  0
LINE
  5
2B35
  8
AM_0
 10
508.97713549003993
 20
510.76899999999989
 30
0.0
 11
584.88763549003954
 21
510.76899999999989
 31
0.0
  0
LINE
  5
2B36
  8
AM_0
 10
508.97713549003993
 20
496.3122350000001
 30
0.0
 11
571.03863549004018
 21
496.3122350000001
 31
0.0
  0
LINE
  5
2B37
  8
AM_0
 10
521.97713549003993
 20
519.05169999999987
 30
0.0
 11
591.86533549004025
 21
520.88179999999988
 31
0.0
  0
ARC
  5
2B38
  8
AM_0
 10
489.97718549003991
 20
468.58493499999997
 30
0.0
 40
5.0
 50
272.0
 51
0.0
  0
LINE
  5
2B39
  8
AM_0
 10
510.90728549003978
 20
518.66515000000015
 30
0.0
 11
521.97703549004007
 21
519.05169999999987
 31
0.0
  0
ARC
  5
2B3A
  8
AM_0
 10
519.89403549003998
 20
519.3882000000001
 30
0.0
 40
4.000000049999997
 50
124.61365000000001
 51
187.86824999999999
  0
ARC
  5
2B3B
  8
AM_0
 10
510.97713549003993
 20
516.66639999999995
 30
0.0
 40
2.0000000500000001
 50
91.999997999999948
 51
180.00001
  0
LINE
  5
2B3C
  8
AM_0
 10
497.45618549003979
 20
506.13060000000002
 30
0.0
 11
506.49808549003978
 21
507.72494999999992
 31
0.0
  0
ARC
  5
2B3D
  8
AM_0
 10
497.97713549003993
 20
503.17630000000003
 30
0.0
 40
3.0000000500000001
 50
100.0
 51
180.00001
  0
ARC
  5
2B3E
  8
AM_0
 10
505.97713549003993
 20
510.67945000000009
 30
0.0
 40
3.0000000500000001
 50
280.0
 51
0.0
  0
LINE
  5
2B3F
  8
AM_0
 10
498.4737354900401
 20
525.66639999999995
 30
0.0
 11
505.9771854900398
 21
527.05169999999987
 31
0.0
  0
LINE
  5
2B40
  8
AM_0
 10
498.15998549004013
 20
525.55174999999986
 30
0.0
 11
513.79418549003992
 21
525.55174999999986
 31
0.0
  0
LINE
  5
2B41
  8
AM_0
 10
495.65423549003992
 20
518.55175000000031
 30
0.0
 11
510.3098354900398
 21
518.55175000000031
 31
0.0
  0
ARC
  5
2B42
  8
AM_0
 10
498.65528549004
 20
524.68299999999999
 30
0.0
 40
1.0
 50
100.4607199999999
 51
164.99999
  0
ARC
  5
2B43
  8
AM_0
 10
492.0601354900399
 20
519.3882000000001
 30
0.0
 40
4.000000049999997
 50
347.92932999999999
 51
55.386358999999992
  0
ARC
  5
2B44
  8
AM_0
 10
496.97713549003993
 20
517.0517000000001
 30
0.0
 40
2.0000000500000001
 50
131.4096199999999
 51
180.00001
  0
LINE
  5
2B45
  8
AM_0
 10
495.97718549003997
 20
518.55169999999987
 30
0.0
 11
497.6893854900398
 21
524.94180000000028
 31
0.0
  0
LINE
  5
2B46
  8
AM_0
 10
505.97713549003993
 20
527.05175000000008
 30
0.0
 11
513.48053549003976
 21
525.66639999999995
 31
0.0
  0
ARC
  5
2B47
  8
AM_0
 10
513.29903549004007
 20
524.68299999999999
 30
0.0
 40
1.0
 50
15.0
 51
79.539281000000003
  0
LINE
  5
2B48
  8
AM_0
 10
515.89998549003985
 20
518.83955000000014
 30
0.0
 11
514.26483549004001
 21
524.94180000000028
 31
0.0
  0
LINE
  5
2B49
  8
AM_0
 10
519.97718549004003
 20
518.98189999999988
 30
0.0
 11
519.97718549004003
 21
519.05175000000008
 31
0.0
  0
LINE
  5
2B4A
  8
AM_0
 10
519.97718549004003
 20
519.05175000000008
 30
0.0
 11
521.97713549003993
 21
519.05175000000008
 31
0.0
  0
ARC
  5
2B4B
  8
AM_0
 10
552.17693549004002
 20
520.84680000000014
 30
0.0
 40
30.946884499999999
 50
307.55230999999992
 51
335.5961299999999
  0
ARC
  5
2B4C
  8
AM_0
 10
573.47713549003993
 20
499.54062500000009
 30
0.0
 40
5.0
 50
229.76332999999991
 51
270.0
  0
ARC
  5
2B4D
  8
AM_0
 10
591.73443549004014
 20
525.8800500000001
 30
0.0
 40
5.0
 50
271.49999999999972
 51
315.0
  0
LINE
  5
2B4E
  8
AM_0
 10
595.18483549004031
 20
516.92700000000002
 30
0.0
 11
593.85938549003993
 21
520.93404999999996
 31
0.0
  0
LINE
  5
2B4F
  8
AM_0
 10
603.91988549003997
 20
495.53296500000022
 30
0.0
 11
619.97713549003981
 21
507.51179999999988
 31
0.0
  0
ARC
  5
2B50
  8
AM_0
 10
600.9301354900399
 20
499.54062500000009
 30
0.0
 40
5.0
 50
270.0
 51
306.72320999999999
  0
ARC
  5
2B51
  8
AM_0
 10
614.97718549004003
 20
534.58950000000027
 30
0.0
 40
5.0
 50
300.88097999999979
 51
0.0
  0
LINE
  5
2B52
  8
AM_0
 10
622.87243549003995
 20
569.02425000000005
 30
0.0
 11
637.97713549003993
 21
569.5517000000001
 31
0.0
  0
ARC
  5
2B53
  8
AM_0
 10
622.97713549003993
 20
538.00900000000013
 30
0.0
 40
5.0
 50
0.0
 51
91.999997999999948
  0
ARC
  5
2B54
  8
AM_0
 10
614.97718549004003
 20
549.12274999999988
 30
0.0
 40
5.0
 50
315.0
 51
0.0
  0
ARC
  5
2B55
  8
AM_0
 10
622.97713549003993
 20
566.02605000000005
 30
0.0
 40
3.0000000500000001
 50
91.999997999999948
 51
180.00001
  0
LINE
  5
2B56
  8
AM_0
 10
637.97713549003993
 20
547.05169999999998
 30
0.0
 11
641.97713549003993
 21
547.05169999999998
 31
0.0
  0
CIRCLE
  5
2B57
  8
AM_0
 10
989.29757926843922
 20
427.05170500000008
 30
0.0
 40
120.0
  0
CIRCLE
  5
2B58
  8
AM_0
 10
989.29757926843922
 20
427.05170500000008
 30
0.0
 40
113.0
  0
ARC
  5
2B59
  8
AM_0
 10
989.29757926843922
 20
427.05170500000008
 30
0.0
 40
61.999994999999998
 50
0.0
 51
36.416317999999983
  0
ARC
  5
2B5A
  8
AM_0
 10
989.29757926843922
 20
427.05170500000008
 30
0.0
 40
61.999994999999998
 50
142.11498999999981
 51
180.00001
  0
ARC
  5
2B5B
  8
AM_0
 10
989.29757926843922
 20
389.05170500000008
 30
0.0
 40
122.0
 50
22.571981999999991
 51
55.326820000000012
  0
ARC
  5
2B5C
  8
AM_0
 10
989.29757926843922
 20
389.05170500000008
 30
0.0
 40
122.0
 50
124.67318
 51
157.42802
  0
CIRCLE
  5
2B5D
  8
AM_0
 10
989.29757926843922
 20
427.05170500000008
 30
0.0
 40
41.000000499999992
  0
LINE
  5
2B5E
  8
ﾁｭｳｼﾝｾﾝ1
 10
989.29757926843922
 20
573.53647520026425
 30
0.0
 11
989.29757926843922
 21
255.31853193373789
 31
0.0
  0
LINE
  5
2B5F
  8
AM_0
 10
846.79756426843903
 20
477.05170500000008
 30
0.0
 11
846.79756426843903
 21
427.05170500000008
 31
0.0
  0
LINE
  5
2B60
  8
AM_0
 10
1131.7975942684391
 20
477.05170500000008
 30
0.0
 11
1131.7975942684391
 21
427.05170500000008
 31
0.0
  0
LINE
  5
2B61
  8
AM_0
 10
1094.8200992684381
 20
399.05170500000008
 30
0.0
 11
1059.297579268439
 21
399.05170500000008
 31
0.0
  0
LINE
  5
2B62
  8
AM_0
 10
1110.9693942684371
 20
287.05454000000009
 30
0.0
 11
1039.297579268439
 21
284.55170000000021
 31
0.0
  0
LINE
  5
2B63
  8
ﾁｭｳｼﾝｾﾝ1
 10
839.98051966873629
 20
427.05170500000008
 30
0.0
 11
1138.2770899008519
 21
427.05170500000008
 31
0.0
  0
CIRCLE
  5
2B64
  8
AM_0
 10
869.08941426843921
 20
306.84357
 30
0.0
 40
9.5
  0
LINE
  5
2B65
  8
ﾁｭｳｼﾝｾﾝ1
 10
857.81254950508105
 20
295.56661364361349
 30
0.0
 11
879.75909554983912
 21
317.51318512602228
 31
0.0
  0
LINE
  5
2B66
  8
AM_0
 10
867.62571426843886
 20
287.05454000000009
 30
0.0
 11
939.29757426843923
 21
284.55173000000002
 31
0.0
  0
ARC
  5
2B67
  8
ﾁｭｳｼﾝｾﾝ1
 10
989.29757926843513
 20
427.05170499999628
 30
0.0
 40
170.00000499999459
 50
218.83636504934839
 51
231.01461
  0
LINE
  5
2B68
  8
AM_0
 10
849.3004642684391
 20
305.37985500000002
 30
0.0
 11
846.79756426843903
 21
377.05170000000021
 31
0.0
  0
ARC
  5
2B69
  8
AM_0
 10
868.28881926843928
 20
306.04297500000013
 30
0.0
 40
19.000000499999999
 50
182.0
 51
268.0
  0
LINE
  5
2B6A
  8
AM_0
 10
713.97713549003981
 20
406.05170500000003
 30
0.0
 11
713.97713549003981
 21
451.05170500000003
 31
0.0
  0
LINE
  5
2B6B
  8
AM_0
 10
846.79756426843903
 20
377.05170000000021
 30
0.0
 11
846.79756426843903
 21
427.05170500000008
 31
0.0
  0
ARC
  5
2B6C
  8
AM_0
 10
989.29757926843922
 20
389.05170500000008
 30
0.0
 40
130.0
 50
246.6310399999999
 51
293.36896000000002
  0
LINE
  5
2B6D
  8
AM_0
 10
939.29757426843923
 20
284.55170000000021
 30
0.0
 11
989.29757926843922
 21
284.55170000000021
 31
0.0
  0
ARC
  5
2B6E
  8
AM_0
 10
924.29757426843912
 20
276.46839
 30
0.0
 40
10.0
 50
195.00001
 51
285.0
  0
LINE
  5
2B6F
  8
AM_0
 10
914.63833426843928
 20
273.880225
 30
0.0
 11
911.51900926843928
 21
285.52176500000002
 31
0.0
  0
LINE
  5
2B70
  8
AM_0
 10
926.88580426843919
 20
266.80918000000003
 30
0.0
 11
937.73299926843913
 21
269.7156700000001
 31
0.0
  0
LINE
  5
2B71
  8
AM_0
 10
1039.297579268439
 20
284.55170000000021
 30
0.0
 11
989.29757926843922
 21
284.55170000000021
 31
0.0
  0
LINE
  5
2B72
  8
AM_0
 10
1063.9568492684391
 20
273.88019000000003
 30
0.0
 11
1067.0761742684369
 21
285.52173500000009
 31
0.0
  0
ARC
  5
2B73
  8
AM_0
 10
1054.297579268439
 20
276.46839
 30
0.0
 40
10.0
 50
255.0
 51
345.0
  0
LINE
  5
2B74
  8
AM_0
 10
1051.7093842684369
 20
266.809145
 30
0.0
 11
1040.8621542684391
 21
269.71564000000001
 31
0.0
  0
LINE
  5
2B75
  8
ﾁｭｳｼﾝｾﾝ1
 10
927.29757426843923
 20
389.05170500000008
 30
0.0
 11
1051.297579268439
 21
389.05170500000008
 31
0.0
  0
ARC
  5
2B76
  8
AM_0
 10
989.29757926843922
 20
427.05170500000008
 30
0.0
 40
20.9999985
 50
106.60155
 51
73.398452000000006
  0
ARC
  5
2B77
  8
AM_0
 10
919.29757426843923
 20
407.05170500000008
 30
0.0
 40
8.0
 50
270.0
 51
0.0
  0
LINE
  5
2B78
  8
AM_0
 10
883.77508426843906
 20
399.05170500000008
 30
0.0
 11
919.29757426843923
 21
399.05170500000008
 31
0.0
  0
ARC
  5
2B79
  8
AM_0
 10
883.77508426843906
 20
404.05170500000003
 30
0.0
 40
5.0
 50
192.29603999999981
 51
270.0
  0
LINE
  5
2B7A
  8
AM_0
 10
927.29757426843923
 20
427.05170500000008
 30
0.0
 11
927.29757426843923
 21
407.05170500000008
 31
0.0
  0
CIRCLE
  5
2B7B
  8
AM_5
 10
989.29757926843922
 20
427.05170500000008
 30
0.0
 40
5.0
  0
CIRCLE
  5
2B7C
  8
AM_0
 10
989.29757926843922
 20
427.05170500000008
 30
0.0
 40
3.5000000500000001
  0
LINE
  5
2B7D
  8
AM_0
 10
995.29757926843934
 20
451.05170500000003
 30
0.0
 11
995.29757926843934
 21
443.05173500000001
 31
0.0
  0
LINE
  5
2B7E
  8
AM_0
 10
983.29757926843922
 20
451.05170500000003
 30
0.0
 11
983.29757926843922
 21
443.05173500000001
 31
0.0
  0
LINE
  5
2B7F
  8
AM_0
 10
983.29757926843922
 20
443.05173500000001
 30
0.0
 11
995.29757926843934
 21
443.05173500000001
 31
0.0
  0
LINE
  5
2B80
  8
AM_0
 10
983.29757926843922
 20
451.05170500000003
 30
0.0
 11
995.29757926843934
 21
451.05170500000003
 31
0.0
  0
LINE
  5
2B81
  8
AM_0
 10
1051.297579268439
 20
427.05170500000008
 30
0.0
 11
1051.297579268439
 21
407.05170500000008
 31
0.0
  0
ARC
  5
2B82
  8
AM_0
 10
1059.297579268439
 20
407.05170500000008
 30
0.0
 40
8.0
 50
179.99998999999991
 51
270.0
  0
LINE
  5
2B83
  8
AM_0
 10
1129.294739268438
 20
305.379885
 30
0.0
 11
1131.7975792684381
 21
377.05170000000021
 31
0.0
  0
CIRCLE
  5
2B84
  8
AM_0
 10
1109.505739268438
 20
306.84357
 30
0.0
 40
9.5
  0
ARC
  5
2B85
  8
AM_0
 10
1110.306339268438
 20
306.04297500000013
 30
0.0
 40
19.000000499999999
 50
272.0
 51
358.0
  0
LINE
  5
2B86
  8
AM_0
 10
1131.7975942684391
 20
377.05170000000021
 30
0.0
 11
1131.7975942684391
 21
427.05170500000008
 31
0.0
  0
ARC
  5
2B87
  8
AM_0
 10
1094.8200992684381
 20
404.05170500000003
 30
0.0
 40
5.0
 50
270.0
 51
347.70395000000002
  0
LINE
  5
2B88
  8
AM_0
 10
1110.9694242684391
 20
567.04890000000012
 30
0.0
 11
1039.297579268439
 21
569.5517000000001
 31
0.0
  0
CIRCLE
  5
2B89
  8
AM_0
 10
869.08941426843921
 20
547.25985000000014
 30
0.0
 40
9.5
  0
LINE
  5
2B8A
  8
AM_0
 10
867.62576426843873
 20
567.04890000000012
 30
0.0
 11
939.29760926843903
 21
569.5517000000001
 31
0.0
  0
LINE
  5
2B8B
  8
AM_0
 10
849.30036426843935
 20
548.72349999999994
 30
0.0
 11
846.79756426843903
 21
477.0516750000001
 31
0.0
  0
ARC
  5
2B8C
  8
AM_0
 10
868.28881926843928
 20
548.06044999999995
 30
0.0
 40
19.000000499999999
 50
91.999997999999948
 51
178.0
  0
ARC
  5
2B8D
  8
AM_0
 10
989.29757926843922
 20
389.05170500000008
 30
0.0
 40
122.0
 50
93.837626000003567
 51
119.8569400000037
  0
ARC
  5
2B8E
  8
AM_0
 10
989.29757926843922
 20
427.05170500000008
 30
0.0
 40
61.999994999999998
 50
53.583680999999999
 51
126.41632
  0
LINE
  5
2B8F
  8
AM_0
 10
939.29757426843923
 20
569.5517000000001
 30
0.0
 11
989.29757926843922
 21
569.5517000000001
 31
0.0
  0
LINE
  5
2B90
  8
AM_0
 10
916.7936692684392
 20
506.62670000000003
 30
0.0
 11
945.98763926843912
 21
477.43274500000001
 31
0.0
  0
LINE
  5
2B91
  8
AM_0
 10
909.72259426843902
 20
499.5556400000001
 30
0.0
 11
938.91656426843929
 21
470.36167000000017
 31
0.0
  0
ARC
  5
2B92
  8
AM_0
 10
906.18703926843875
 20
496.02009000000021
 30
0.0
 40
5.0
 50
45.00000099999999
 51
140.31278
  0
ARC
  5
2B93
  8
AM_0
 10
920.32919426843921
 20
510.16225000000009
 30
0.0
 40
5.0
 50
129.68721999999991
 51
225.0
  0
ARC
  5
2B94
  8
AM_0
 10
949.52316426843913
 20
480.96829999999989
 30
0.0
 40
5.0
 50
225.0
 51
306.41631999999993
  0
ARC
  5
2B95
  8
AM_0
 10
935.3810442684387
 20
466.8261500000001
 30
0.0
 40
5.0
 50
323.5836799999999
 51
45.00000099999999
  0
ARC
  5
2B96
  8
AM_0
 10
980.79757926843911
 20
534.71669999999995
 30
0.0
 40
5.0
 50
0.0
 51
94.514060999999984
  0
ARC
  5
2B97
  8
AM_0
 10
997.79757926843911
 20
534.71669999999995
 30
0.0
 40
5.0
 50
85.485943999999975
 51
180.00001
  0
LINE
  5
2B98
  8
AM_0
 10
1061.801514268439
 20
506.62670000000003
 30
0.0
 11
1032.607544268438
 21
477.43271500000009
 31
0.0
  0
ARC
  5
2B99
  8
AM_0
 10
989.29757926843922
 20
389.05170500000008
 30
0.0
 40
122.0
 50
60.143059999999998
 51
86.162371999999962
  0
ARC
  5
2B9A
  8
AM_0
 10
1029.0719942684379
 20
480.96829999999989
 30
0.0
 40
5.0
 50
233.5836799999999
 51
315.0
  0
LINE
  5
2B9B
  8
AM_0
 10
985.79757926843922
 20
534.71669999999995
 30
0.0
 11
985.79757926843922
 21
515.76690000000008
 31
0.0
  0
LINE
  5
2B9C
  8
AM_0
 10
992.79757926843922
 20
534.71669999999995
 30
0.0
 11
992.79757926843922
 21
515.76690000000008
 31
0.0
  0
ARC
  5
2B9D
  8
AM_0
 10
997.79757926843911
 20
515.76690000000008
 30
0.0
 40
5.0
 50
179.99998999999991
 51
266.16235999999992
  0
ARC
  5
2B9E
  8
AM_0
 10
980.79757926843911
 20
515.76690000000008
 30
0.0
 40
5.0
 50
273.83762999999999
 51
0.0
  0
LINE
  5
2B9F
  8
AM_0
 10
1068.8725892684381
 20
499.5556400000001
 30
0.0
 11
1039.678619268439
 21
470.36164000000002
 31
0.0
  0
ARC
  5
2BA0
  8
AM_0
 10
1043.214144268439
 20
466.8261500000001
 30
0.0
 40
5.0
 50
135.0
 51
216.41632000000001
  0
ARC
  5
2BA1
  8
AM_0
 10
1058.265994268439
 20
510.16225000000009
 30
0.0
 40
5.0
 50
315.0
 51
50.312775000000002
  0
ARC
  5
2BA2
  8
AM_0
 10
1072.408114268439
 20
496.02009000000021
 30
0.0
 40
5.0
 50
39.687224000000001
 51
135.0
  0
LINE
  5
2BA3
  8
AM_0
 10
1039.297579268439
 20
569.5517000000001
 30
0.0
 11
989.29757926843922
 21
569.5517000000001
 31
0.0
  0
ARC
  5
2BA4
  8
ﾁｭｳｼﾝｾﾝ1
 10
989.29757926843513
 20
427.05170499999639
 30
0.0
 40
170.0000050000053
 50
39.036100604447547
 51
51.014603999999679
  0
LINE
  5
2BA5
  8
AM_0
 10
1129.294739268438
 20
548.72349999999994
 30
0.0
 11
1131.7975792684381
 21
477.0516750000001
 31
0.0
  0
CIRCLE
  5
2BA6
  8
AM_0
 10
1109.505739268438
 20
547.25985000000014
 30
0.0
 40
9.5
  0
LINE
  5
2BA7
  8
ﾁｭｳｼﾝｾﾝ1
 10
1120.5174949857931
 20
558.27159639345041
 30
0.0
 11
1097.888771034186
 21
535.6428974262883
 31
0.0
  0
ARC
  5
2BA8
  8
AM_0
 10
1110.306339268438
 20
548.06044999999995
 30
0.0
 40
19.000000499999999
 50
2.0
 51
88.0
  0
LINE
  5
2BA9
  8
AM_0
 10
292.9771776493875
 20
862.08737050485092
 30
0.0
 11
292.9771776493875
 21
827.91579762959748
 31
0.0
  0
LINE
  5
2BAA
  8
AM_0
 10
294.9771776493875
 20
820.00158406722414
 30
0.0
 11
294.9771776493875
 21
870.00158406722414
 31
0.0
  0
LINE
  5
2BAB
  8
AM_0
 10
350.47716549003991
 20
908.0015840672238
 30
0.0
 11
350.47716549003991
 21
782.00158406722414
 31
0.0
  0
LINE
  5
2BAC
  8
AM_0
 10
319.9771731194345
 20
872.00158406722414
 30
0.0
 11
319.9771731194345
 21
818.00158406722414
 31
0.0
  0
LINE
  5
2BAD
  8
AM_0
 10
349.01269939597267
 20
788.96605779068614
 30
0.0
 11
322.90610530756891
 21
815.07265187908979
 31
0.0
  0
ARC
  5
2BAE
  8
AM_0
 10
315.8350374957032
 20
808.00158406722414
 30
0.0
 40
10.0
 50
45.0
 51
90.0
1001
GENIUS_GENODEF_13
1002
{
1000
HIER
1070
     0
1002
}
1002
{
1000
MANEDIT
1070
     0
1002
}
1002
{
1000
NOSEL
1070
     0
1002
}
1002
{
1000
BEHIND
1070
     0
1002
}
1002
{
1000
OTHER
1070
     0
1002
}
1002
{
1000
REACTOR
1002
}
1001
GENIUS_GENOBJ-N-FIL_13
1002
{
1000
OWNER
1000
GEN
1002
}
  0
LINE
  5
2BAF
  8
AM_0
 10
296.9771776493875
 20
818.00158406722414
 30
0.0
 11
315.8350374957032
 21
818.00158406722414
 31
0.0
  0
ARC
  5
2BB0
  8
AM_0
 10
296.9771776493875
 20
820.00158406722414
 30
0.0
 40
2.0
 50
180.0
 51
270.0
1001
GENIUS_GENOBJ-N-FIL_13
1002
{
1000
OWNER
1000
GEN
1002
}
1001
GENIUS_GENODEF_13
1002
{
1000
HIER
1070
     0
1002
}
1002
{
1000
MANEDIT
1070
     0
1002
}
1002
{
1000
NOSEL
1070
     0
1002
}
1002
{
1000
BEHIND
1070
     0
1002
}
1002
{
1000
OTHER
1070
     0
1002
}
1002
{
1000
REACTOR
1002
}
  0
LINE
  5
2BB1
  8
AM_0
 10
293.27007086820089
 20
827.20869084841092
 30
0.0
 11
294.684284430574
 21
825.79447728603759
 31
0.0
  0
ARC
  5
2BB2
  8
AM_0
 10
293.97717764938739
 20
825.08737050485104
 30
0.0
 40
1.0
 50
0.0
 51
45.0
1001
GENIUS_GENODEF_13
1002
{
1000
HIER
1070
     0
1002
}
1002
{
1000
MANEDIT
1070
     0
1002
}
1002
{
1000
NOSEL
1070
     0
1002
}
1002
{
1000
BEHIND
1070
     0
1002
}
1002
{
1000
OTHER
1070
     0
1002
}
1002
{
1000
REACTOR
1002
}
1001
GENIUS_GENOBJ-N-FIL_13
1002
{
1000
OWNER
1000
GEN
1002
}
  0
ARC
  5
2BB3
  8
AM_0
 10
293.97717764938739
 20
827.91579762959748
 30
0.0
 40
1.0
 50
180.0
 51
225.0
1001
GENIUS_GENODEF_13
1002
{
1000
HIER
1070
     0
1002
}
1002
{
1000
MANEDIT
1070
     0
1002
}
1002
{
1000
NOSEL
1070
     0
1002
}
1002
{
1000
BEHIND
1070
     0
1002
}
1002
{
1000
OTHER
1070
     0
1002
}
1002
{
1000
REACTOR
1002
}
1001
GENIUS_GENOBJ-N-FIL_13
1002
{
1000
OWNER
1000
GEN
1002
}
  0
ARC
  5
2BB4
  8
AM_0
 10
345.47716549003991
 20
785.43052388475326
 30
0.0
 40
5.0
 50
0.0
 51
45.0
1001
GENIUS_GENODEF_13
1002
{
1000
HIER
1070
     0
1002
}
1002
{
1000
MANEDIT
1070
     0
1002
}
1002
{
1000
NOSEL
1070
     0
1002
}
1002
{
1000
BEHIND
1070
     0
1002
}
1002
{
1000
OTHER
1070
     0
1002
}
1002
{
1000
REACTOR
1002
}
1001
GENIUS_GENOBJ-N-FIL_13
1002
{
1000
OWNER
1000
GEN
1002
}
  0
LINE
  5
2BB5
  8
AM_0
 10
360.47716549003991
 20
781.00158406722414
 30
0.0
 11
351.47716549003991
 21
781.00158406722414
 31
0.0
  0
ARC
  5
2BB6
  8
AM_0
 10
351.47716549003991
 20
782.00158406722414
 30
0.0
 40
1.0
 50
180.0
 51
270.0
1001
GENIUS_GENODEF_13
1002
{
1000
HIER
1070
     0
1002
}
1002
{
1000
MANEDIT
1070
     0
1002
}
1002
{
1000
NOSEL
1070
     0
1002
}
1002
{
1000
BEHIND
1070
     0
1002
}
1002
{
1000
OTHER
1070
     0
1002
}
1002
{
1000
REACTOR
1002
}
1001
GENIUS_GENOBJ-N-FIL_13
1002
{
1000
OWNER
1000
GEN
1002
}
  0
LINE
  5
2BB7
  8
AM_0
 10
360.47716549003991
 20
807.00527906722436
 30
0.0
 11
350.47716549004019
 21
807.00527906722436
 31
0.0
  0
LINE
  5
2BB8
  8
AM_0
 10
360.47716549003991
 20
793.50158406722414
 30
0.0
 11
350.47716549004019
 21
793.50158406722414
 31
0.0
  0
LINE
  5
2BB9
  8
AM_0
 10
349.01269939597267
 20
901.03711034376249
 30
0.0
 11
322.90610530756879
 21
874.93051625535884
 31
0.0
  0
ARC
  5
2BBA
  8
AM_0
 10
315.8350374957032
 20
882.00158406722392
 30
0.0
 40
10.0
 50
270.0
 51
315.0
1001
GENIUS_GENODEF_13
1002
{
1000
HIER
1070
     0
1002
}
1002
{
1000
MANEDIT
1070
     0
1002
}
1002
{
1000
NOSEL
1070
     0
1002
}
1002
{
1000
BEHIND
1070
     0
1002
}
1002
{
1000
OTHER
1070
     0
1002
}
1002
{
1000
REACTOR
1002
}
1001
GENIUS_GENOBJ-N-FIL_13
1002
{
1000
OWNER
1000
GEN
1002
}
  0
ARC
  5
2BBB
  8
AM_0
 10
296.9771776493875
 20
870.00158406722414
 30
0.0
 40
2.0
 50
90.0
 51
180.0
1001
GENIUS_GENOBJ-N-FIL_13
1002
{
1000
OWNER
1000
GEN
1002
}
1001
GENIUS_GENODEF_13
1002
{
1000
HIER
1070
     0
1002
}
1002
{
1000
MANEDIT
1070
     0
1002
}
1002
{
1000
NOSEL
1070
     0
1002
}
1002
{
1000
BEHIND
1070
     0
1002
}
1002
{
1000
OTHER
1070
     0
1002
}
1002
{
1000
REACTOR
1002
}
  0
LINE
  5
2BBC
  8
AM_0
 10
262.97717764938727
 20
853.00158406722414
 30
0.0
 11
290.97717764938727
 21
853.00158406722414
 31
0.0
  0
LINE
  5
2BBD
  8
AM_0
 10
262.97717764938727
 20
837.00158406722414
 30
0.0
 11
290.97717764938727
 21
837.00158406722414
 31
0.0
  0
LINE
  5
2BBE
  8
AM_0
 10
262.97717764938727
 20
853.00158406722414
 30
0.0
 11
262.97717764938727
 21
837.00158406722414
 31
0.0
  0
LINE
  5
2BBF
  8
AM_0
 10
262.97717764938727
 20
842.50158406722414
 30
0.0
 11
284.9771776493875
 21
842.50158406722414
 31
0.0
  0
LINE
  5
2BC0
  8
AM_0
 10
262.97717764938727
 20
847.50158406722414
 30
0.0
 11
284.9771776493875
 21
847.50158406722414
 31
0.0
  0
LINE
  5
2BC1
  8
AM_0
 10
284.9771776493875
 20
847.50158406722414
 30
0.0
 11
284.9771776493875
 21
842.50158406722414
 31
0.0
  0
ARC
  5
2BC2
  8
AM_0
 10
284.9771776493875
 20
845.00158406722414
 30
0.0
 40
2.5
 50
270.0
 51
90.0
  0
LINE
  5
2BC3
  8
AM_0
 10
290.97717764938727
 20
853.50158406722414
 30
0.0
 11
290.97717764938727
 21
836.50158406722392
 31
0.0
  0
LINE
  5
2BC4
  8
AM_0
 10
290.97717764938727
 20
836.50158940027416
 30
0.0
 11
292.9771776493875
 21
836.50158833366436
 31
0.0
  0
LINE
  5
2BC5
  8
AM_0
 10
296.9771776493875
 20
872.00158406722414
 30
0.0
 11
315.8350374957032
 21
872.00158406722414
 31
0.0
  0
LINE
  5
2BC6
  8
AM_0
 10
290.97717764938727
 20
853.50158406722414
 30
0.0
 11
292.9771776493875
 21
853.50158406722414
 31
0.0
  0
ARC
  5
2BC7
  8
AM_0
 10
293.97717764938739
 20
862.08737050485092
 30
0.0
 40
1.0
 50
135.0
 51
180.0
1001
GENIUS_GENODEF_13
1002
{
1000
HIER
1070
     0
1002
}
1002
{
1000
MANEDIT
1070
     0
1002
}
1002
{
1000
NOSEL
1070
     0
1002
}
1002
{
1000
BEHIND
1070
     0
1002
}
1002
{
1000
OTHER
1070
     0
1002
}
1002
{
1000
REACTOR
1002
}
1001
GENIUS_GENOBJ-N-FIL_13
1002
{
1000
OWNER
1000
GEN
1002
}
  0
ARC
  5
2BC8
  8
AM_0
 10
293.97717764938739
 20
864.91579762959736
 30
0.0
 40
1.0
 50
315.0
 51
0.0
1001
GENIUS_GENODEF_13
1002
{
1000
HIER
1070
     0
1002
}
1002
{
1000
MANEDIT
1070
     0
1002
}
1002
{
1000
NOSEL
1070
     0
1002
}
1002
{
1000
BEHIND
1070
     0
1002
}
1002
{
1000
OTHER
1070
     0
1002
}
1002
{
1000
REACTOR
1002
}
1001
GENIUS_GENOBJ-N-FIL_13
1002
{
1000
OWNER
1000
GEN
1002
}
  0
LINE
  5
2BC9
  8
AM_0
 10
293.27007086820089
 20
862.7944772860377
 30
0.0
 11
294.684284430574
 21
864.20869084841104
 31
0.0
  0
LINE
  5
2BCA
  8
AM_0
 10
360.47716549003991
 20
909.0015840672238
 30
0.0
 11
351.47716549003991
 21
909.0015840672238
 31
0.0
  0
LINE
  5
2BCB
  8
AM_0
 10
360.47716549003991
 20
896.50158406722414
 30
0.0
 11
350.47716549004019
 21
896.50158406722414
 31
0.0
  0
LINE
  5
2BCC
  8
AM_0
 10
360.47716549003991
 20
882.99789406722414
 30
0.0
 11
350.47716549004019
 21
882.99789406722414
 31
0.0
  0
ARC
  5
2BCD
  8
AM_0
 10
345.47716549003991
 20
904.57264424969526
 30
0.0
 40
5.0
 50
315.0
 51
0.0
1001
GENIUS_GENODEF_13
1002
{
1000
HIER
1070
     0
1002
}
1002
{
1000
MANEDIT
1070
     0
1002
}
1002
{
1000
NOSEL
1070
     0
1002
}
1002
{
1000
BEHIND
1070
     0
1002
}
1002
{
1000
OTHER
1070
     0
1002
}
1002
{
1000
REACTOR
1002
}
1001
GENIUS_GENOBJ-N-FIL_13
1002
{
1000
OWNER
1000
GEN
1002
}
  0
ARC
  5
2BCE
  8
AM_0
 10
351.47716549003991
 20
908.0015840672238
 30
0.0
 40
1.0
 50
90.0
 51
180.0
1001
GENIUS_GENODEF_13
1002
{
1000
HIER
1070
     0
1002
}
1002
{
1000
MANEDIT
1070
     0
1002
}
1002
{
1000
NOSEL
1070
     0
1002
}
1002
{
1000
BEHIND
1070
     0
1002
}
1002
{
1000
OTHER
1070
     0
1002
}
1002
{
1000
REACTOR
1002
}
1001
GENIUS_GENOBJ-N-FIL_13
1002
{
1000
OWNER
1000
GEN
1002
}
  0
ARC
  5
2BD0
  8
ﾁｭｳｼﾝｾﾝ1
 10
989.29757926843513
 20
427.0517050000044
 30
0.0
 40
170.0000050000053
 50
309.03610060444748
 51
321.01460399999968
  0
LINE
  5
2BD1
  8
ﾁｭｳｼﾝｾﾝ1
 10
1120.5174706618891
 20
295.83178928264482
 30
0.0
 11
1097.8887716947261
 21
318.46051323425348
 31
0.0
  0
ARC
  5
2BD2
  8
ﾁｭｳｼﾝｾﾝ1
 10
989.29757926843513
 20
427.05170500000389
 30
0.0
 40
170.00000499999459
 50
128.8363650493483
 51
141.01461
  0
LINE
  5
2BD3
  8
ﾁｭｳｼﾝｾﾝ1
 10
857.81248791205223
 20
558.53673476335871
 30
0.0
 11
879.75905939446102
 21
536.59018871860042
 31
0.0
  0
LINE
  5
2BD4
  8
AM_0
 10
657.97716549003985
 20
839.0015240672243
 30
0.0
 11
713.97713549003981
 21
839.0015240672243
 31
0.0
  0
LINE
  5
2BD5
  8
AM_0
 10
657.97716549003985
 20
851.00152406722441
 30
0.0
 11
713.97713549003981
 21
851.00152406722441
 31
0.0
  0
LINE
  5
2BD6
  8
AM_0
 10
643.97716549003985
 20
824.00158406722392
 30
0.0
 11
713.97713549003981
 21
824.00158406722392
 31
0.0
  0
LINE
  5
2BD7
  8
AM_0
 10
643.97716549003985
 20
866.00158406722414
 30
0.0
 11
713.97713549003981
 21
866.00158406722414
 31
0.0
  0
LINE
  5
2BD8
  8
ﾁｭｳｼﾝｾﾝ1
 10
257.07179274145528
 20
845.00158406722414
 30
0.0
 11
725.49110549003967
 21
845.00158406722414
 31
0.0
  0
LINE
  5
2BD9
  8
AM_0
 10
375.47716549003991
 20
887.86016406722422
 30
0.0
 11
437.87071549003991
 21
887.86016406722422
 31
0.0
  0
LINE
  5
2BDA
  8
AM_0
 10
375.47716549003991
 20
802.67883406722444
 30
0.0
 11
437.6641754900399
 21
802.67883406722444
 31
0.0
  0
LINE
  5
2BDB
  8
AM_0
 10
360.47716549003991
 20
793.50122406722437
 30
0.0
 11
441.55174549003982
 21
793.50122406722437
 31
0.0
  0
LINE
  5
2BDC
  8
AM_0
 10
360.47716549003991
 20
896.50158406722414
 30
0.0
 11
441.5515054900398
 21
896.50158406722414
 31
0.0
  0
LINE
  5
2BDD
  8
AM_0
 10
447.58183549004002
 20
827.48364406722442
 30
0.0
 11
378.37248549003999
 21
829.90051406722409
 31
0.0
  0
LINE
  5
2BDE
  8
AM_0
 10
447.58183549004002
 20
862.5195340672243
 30
0.0
 11
378.37242549003992
 21
860.10266406722428
 31
0.0
  0
LINE
  5
2BDF
  8
AM_0
 10
447.58189549003993
 20
912.04333406722401
 30
0.0
 11
360.47722549003993
 21
909.0015840672238
 31
0.0
  0
LINE
  5
2BE0
  8
AM_0
 10
447.58183549004002
 20
777.95983406722439
 30
0.0
 11
360.47716549003991
 21
781.00158406722414
 31
0.0
  0
ARC
  5
2BE1
  8
AM_0
 10
378.47716549003991
 20
832.89862406722455
 30
0.0
 40
3.0
 50
180.00001000000091
 51
267.99999999999631
  0
LINE
  5
2BE2
  8
AM_0
 10
375.47716549003991
 20
802.67883406722444
 30
0.0
 11
375.47716549003991
 21
887.86016406722422
 31
0.0
  0
LINE
  5
2BE3
  8
AM_0
 10
360.47716549003991
 20
781.00158406722414
 30
0.0
 11
360.47716549003991
 21
909.0015840672238
 31
0.0
  0
LINE
  5
2BE4
  8
AM_0
 10
360.47716549003991
 20
806.94665406722413
 30
0.0
 11
375.47716549003991
 21
806.94665406722413
 31
0.0
  0
ARC
  5
2BE5
  8
AM_0
 10
378.47716549003991
 20
857.1044940672241
 30
0.0
 40
3.0
 50
91.999998000000545
 51
180.00001000000091
  0
LINE
  5
2BE6
  8
AM_0
 10
360.47716549003991
 20
883.86084406722443
 30
0.0
 11
375.47716549003991
 21
883.86084406722443
 31
0.0
  0
POLYLINE
  5
2BE7
  8
AM_0
 66
     1
 10
0.0
 20
0.0
 30
0.0
  0
VERTEX
  5
2BE8
  8
AM_0
 10
598.84136549003995
 20
896.56607406722446
 30
0.0
 42
0.030646501
  0
VERTEX
  5
2BE9
  8
AM_0
 10
594.43181549003998
 20
862.28267406722455
 30
0.0
 42
0.064801596
  0
VERTEX
  5
2BEA
  8
AM_0
 10
598.84136549003995
 20
793.43706406722413
 30
0.0
  0
SEQEND
  5
2BEB
  8
AM_0
  0
LINE
  5
2BEC
  8
AM_0
 10
641.9770954900398
 20
725.00158406722414
 30
0.0
 11
641.9770954900398
 21
965.00152406722395
 31
0.0
  0
LINE
  5
2BED
  8
AM_0
 10
627.97709549003957
 20
734.0442540672243
 30
0.0
 11
627.97709549003957
 21
955.95886406722423
 31
0.0
  0
LINE
  5
2BEE
  8
AM_0
 10
637.9770954900398
 20
702.50158406722414
 30
0.0
 11
637.9770954900398
 21
987.50152406722384
 31
0.0
  0
LINE
  5
2BEF
  8
AM_0
 10
619.97716549003985
 20
706.01056406722444
 30
0.0
 11
619.97716549003985
 21
983.97595406722428
 31
0.0
  0
LINE
  5
2BF0
  8
AM_0
 10
643.97716549003985
 20
822.50158406722414
 30
0.0
 11
643.97716549003985
 21
867.50158406722414
 31
0.0
  0
LINE
  5
2BF1
  8
AM_0
 10
450.47716549003991
 20
774.74780406722414
 30
0.0
 11
450.47716549003991
 21
915.25531406722394
 31
0.0
  0
LINE
  5
2BF2
  8
AM_0
 10
460.4770354900399
 20
771.5015240672243
 30
0.0
 11
460.4770354900399
 21
918.50158406722392
 31
0.0
  0
LINE
  5
2BF3
  8
AM_0
 10
521.97716549003985
 20
705.26355406722405
 30
0.0
 11
521.97716549003985
 21
841.00152406722441
 31
0.0
  0
LINE
  5
2BF4
  8
AM_0
 10
508.9770354900399
 20
708.79174406722404
 30
0.0
 11
508.9770354900399
 21
835.46215406722411
 31
0.0
  0
LINE
  5
2BF5
  8
AM_0
 10
494.97716549003968
 20
730.89355406722416
 30
0.0
 11
494.97716549003968
 21
841.00152406722441
 31
0.0
  0
LINE
  5
2BF6
  8
AM_0
 10
521.97716549003985
 20
793.43701406722414
 30
0.0
 11
619.97716549003985
 21
793.43701406722414
 31
0.0
  0
LINE
  5
2BF7
  8
AM_0
 10
521.97716549003985
 20
767.43579406722415
 30
0.0
 11
573.77287549003995
 21
767.43579406722415
 31
0.0
  0
LINE
  5
2BF8
  8
AM_0
 10
521.9770954900398
 20
705.26361406722413
 30
0.0
 11
622.91069549003976
 21
703.0279540672243
 31
0.0
  0
LINE
  5
2BF9
  8
AM_0
 10
521.97716549003985
 20
715.87121406722429
 30
0.0
 11
619.97716549003985
 21
712.4489740672243
 31
0.0
  0
LINE
  5
2BFA
  8
AM_0
 10
460.47709549003991
 20
771.5015240672243
 30
0.0
 11
490.1516654900397
 21
770.46527406722441
 31
0.0
  0
LINE
  5
2BFB
  8
AM_0
 10
460.47716549003991
 20
805.52685406722412
 30
0.0
 11
494.97716549003968
 21
805.52685406722412
 31
0.0
  0
LINE
  5
2BFC
  8
AM_0
 10
460.47716549003991
 20
783.42291406722416
 30
0.0
 11
494.97716549003968
 21
783.42291406722416
 31
0.0
  0
POLYLINE
  5
2BFD
  8
AM_0
 66
     1
 10
0.0
 20
0.0
 30
0.0
  0
VERTEX
  5
2BFE
  8
AM_0
 10
450.47716549003991
 20
777.00158406722414
 30
0.0
  0
VERTEX
  5
2BFF
  8
AM_0
 10
430.74073549003998
 20
828.07157406722445
 30
0.0
 42
-1.0
  0
SEQEND
  5
2C00
  8
AM_0
  0
ARC
  5
2C01
  8
AM_0
 10
447.47716549003991
 20
774.96160406722413
 30
0.0
 40
3.0
 50
0.0
 51
87.999999999996248
  0
LINE
  5
2C02
  8
AM_0
 10
460.47716549003991
 20
783.42291406722416
 30
0.0
 11
450.47716549003991
 21
783.42291406722416
 31
0.0
  0
LINE
  5
2C03
  8
AM_0
 10
460.47709549003991
 20
771.5015240672243
 30
0.0
 11
453.37248549003971
 21
771.74963406722429
 31
0.0
  0
ARC
  5
2C04
  8
AM_0
 10
453.47716549003968
 20
774.74780406722414
 30
0.0
 40
3.0
 50
180.00001000000091
 51
267.99999999999631
  0
ARC
  5
2C05
  8
AM_0
 10
447.47716549003991
 20
824.48541406722416
 30
0.0
 40
3.0
 50
0.0
 51
87.999999999996248
  0
LINE
  5
2C06
  8
AM_0
 10
460.47716549003991
 20
805.52685406722412
 30
0.0
 11
450.47716549003991
 21
805.52685406722412
 31
0.0
  0
ARC
  5
2C07
  8
AM_0
 10
489.97716549003991
 20
765.46832406722444
 30
0.0
 40
5.0
 50
0.0
 51
87.999999999996248
  0
ARC
  5
2C08
  8
AM_0
 10
511.97703549003973
 20
708.79174406722404
 30
0.0
 40
3.0
 50
180.00001000000091
 51
266.99999000000008
  0
ARC
  5
2C09
  8
AM_0
 10
505.97716549003991
 20
723.37384406722447
 30
0.0
 40
3.0
 50
0.0
 51
79.999998000001099
  0
ARC
  5
2C0A
  8
AM_0
 10
510.97716549003991
 20
718.25659406722446
 30
0.0
 40
2.0
 50
179.9999899999988
 51
268.00000999999861
  0
LINE
  5
2C0B
  8
AM_0
 10
497.45616549003989
 20
727.92254406722429
 30
0.0
 11
506.49809549003987
 21
726.32818406722413
 31
0.0
  0
ARC
  5
2C0C
  8
AM_0
 10
497.97716549003991
 20
730.87695406722435
 30
0.0
 40
3.0
 50
179.9999899999988
 51
260.00000000000119
  0
LINE
  5
2C0D
  8
AM_0
 10
521.97716549003985
 20
705.26355406722405
 30
0.0
 11
511.82005549003992
 21
705.79589406722425
 31
0.0
  0
LINE
  5
2C0E
  8
AM_0
 10
510.90733549004011
 20
716.25781406722388
 30
0.0
 11
521.97716549003985
 21
715.87121406722429
 31
0.0
  0
LINE
  5
2C0F
  8
AM_0
 10
508.9770354900399
 20
767.43579406722415
 30
0.0
 11
521.97716549003985
 21
767.43579406722415
 31
0.0
  0
LINE
  5
2C10
  8
AM_0
 10
508.9770354900399
 20
793.43701406722414
 30
0.0
 11
521.97716549003985
 21
793.43701406722414
 31
0.0
  0
ARC
  5
2C11
  8
AM_0
 10
622.9770954900398
 20
706.02716406722425
 30
0.0
 40
3.0
 50
179.9999899999988
 51
268.00000999999861
  0
LINE
  5
2C12
  8
AM_0
 10
622.87242549003997
 20
703.02899406722418
 30
0.0
 11
637.9770954900398
 21
702.50152406722407
 31
0.0
  0
ARC
  5
2C13
  8
AM_0
 10
573.77287549003995
 20
764.43579406722415
 30
0.0
 40
3.0
 50
59.11902300000196
 51
90.00000299999769
  0
ARC
  5
2C14
  8
AM_0
 10
577.66466549003985
 20
769.09948406722413
 30
0.0
 40
3.0
 50
90.00000299999769
 51
239.11901999999981
  0
LINE
  5
2C15
  8
AM_0
 10
617.82976549004002
 20
747.9979240672244
 30
0.0
 11
585.32695549003995
 21
767.43579406722415
 31
0.0
  0
LINE
  5
2C16
  8
AM_0
 10
609.84575549003989
 20
772.09948406722413
 30
0.0
 11
619.97716549003985
 21
764.54138406722393
 31
0.0
  0
LINE
  5
2C17
  8
AM_0
 10
617.54338549004001
 20
741.75494406722441
 30
0.0
 11
576.12486549003995
 21
766.52478406722435
 31
0.0
  0
POLYLINE
  5
2C18
  8
AM_0
 66
     1
 10
0.0
 20
0.0
 30
0.0
  0
VERTEX
  5
2C19
  8
AM_0
 10
612.31826549003995
 20
744.87960406722414
 30
0.0
 42
0.0052467293
  0
VERTEX
  5
2C1A
  8
AM_0
 10
614.73848549003992
 20
738.46977406722442
 30
0.0
 42
0.0052066122
  0
VERTEX
  5
2C1B
  8
AM_0
 10
617.29215549003993
 20
732.11194406722393
 30
0.0
 42
0.0051740405
  0
VERTEX
  5
2C1C
  8
AM_0
 10
619.97716549003985
 20
725.8087140672244
 30
0.0
  0
SEQEND
  5
2C1D
  8
AM_0
  0
ARC
  5
2C1E
  8
AM_0
 10
622.9770954900398
 20
734.0442540672243
 30
0.0
 40
5.0
 50
267.99999999999631
 51
0.0
  0
ARC
  5
2C1F
  8
AM_0
 10
614.97716549003985
 20
737.4637440672243
 30
0.0
 40
5.0
 50
0.0
 51
59.11901699999779
  0
LINE
  5
2C20
  8
AM_0
 10
577.66466549003985
 20
772.09948406722413
 30
0.0
 11
619.97716549003985
 21
772.09948406722413
 31
0.0
  0
ARC
  5
2C21
  8
AM_0
 10
624.97716549003985
 20
778.86712406722415
 30
0.0
 40
5.0
 50
90.00000299999769
 51
180.00001000000091
  0
LINE
  5
2C22
  8
AM_0
 10
637.9770954900398
 20
725.00158406722414
 30
0.0
 11
641.9770954900398
 21
725.00158406722414
 31
0.0
  0
LINE
  5
2C23
  8
AM_0
 10
641.9770954900398
 20
822.50158406722414
 30
0.0
 11
643.97716549003985
 21
822.50158406722414
 31
0.0
  0
LINE
  5
2C24
  8
AM_0
 10
521.97716549003985
 20
896.56610406722393
 30
0.0
 11
619.97716549003985
 21
896.56610406722393
 31
0.0
  0
LINE
  5
2C25
  8
AM_0
 10
521.97716549003985
 20
974.13195406722446
 30
0.0
 11
619.97716549003985
 21
977.55413406722391
 31
0.0
  0
LINE
  5
2C26
  8
AM_0
 10
521.9770954900398
 20
984.7395040672244
 30
0.0
 11
622.91069549003976
 21
986.97522406722442
 31
0.0
  0
LINE
  5
2C27
  8
AM_0
 10
521.97716549003985
 20
922.56732406722392
 30
0.0
 11
573.77287549003995
 21
922.56732406722392
 31
0.0
  0
ARC
  5
2C28
  8
AM_0
 10
497.97716549003991
 20
959.12609406722436
 30
0.0
 40
3.0
 50
99.999999999998593
 51
180.00001000000091
  0
LINE
  5
2C29
  8
AM_0
 10
508.9770354900399
 20
854.54095406722445
 30
0.0
 11
508.9770354900399
 21
981.21130406722398
 31
0.0
  0
LINE
  5
2C2A
  8
AM_0
 10
521.97716549003985
 20
849.00152406722441
 30
0.0
 11
521.97716549003985
 21
984.7395040672244
 31
0.0
  0
LINE
  5
2C2B
  8
AM_0
 10
460.47716549003991
 20
918.50158406722392
 30
0.0
 11
490.15159549003982
 21
919.53784406722446
 31
0.0
  0
LINE
  5
2C2C
  8
AM_0
 10
460.47716549003991
 20
884.47619406722436
 30
0.0
 11
494.97716549003968
 21
884.47619406722436
 31
0.0
  0
LINE
  5
2C2D
  8
AM_0
 10
460.47716549003991
 20
906.5802040672238
 30
0.0
 11
494.97716549003968
 21
906.5802040672238
 31
0.0
  0
POLYLINE
  5
2C2E
  8
AM_0
 66
     1
 10
0.0
 20
0.0
 30
0.0
  0
VERTEX
  5
2C2F
  8
AM_0
 10
430.74069549003991
 20
861.93131406722455
 30
0.0
 42
-0.037107926
  0
VERTEX
  5
2C30
  8
AM_0
 10
435.01889549003982
 20
879.77752406722436
 30
0.0
 42
-0.032389855
  0
VERTEX
  5
2C31
  8
AM_0
 10
441.72137549003997
 20
896.86604406722415
 30
0.0
 42
-0.029578605
  0
VERTEX
  5
2C32
  8
AM_0
 10
450.47716549003991
 20
913.00158406722392
 30
0.0
  0
SEQEND
  5
2C33
  8
AM_0
  0
ARC
  5
2C34
  8
AM_0
 10
447.47716549003991
 20
865.51770406722392
 30
0.0
 40
3.0
 50
272.00000000000369
 51
0.0
  0
LINE
  5
2C35
  8
AM_0
 10
460.47716549003991
 20
884.47619406722436
 30
0.0
 11
450.47716549003991
 21
884.47619406722436
 31
0.0
  0
ARC
  5
2C36
  8
AM_0
 10
447.47716549003991
 20
915.04150406722442
 30
0.0
 40
3.0
 50
272.00000000000369
 51
0.0
  0
LINE
  5
2C37
  8
AM_0
 10
460.47716549003991
 20
906.5802040672238
 30
0.0
 11
450.47716549003991
 21
906.5802040672238
 31
0.0
  0
LINE
  5
2C38
  8
AM_0
 10
460.47709549003991
 20
918.50158406722392
 30
0.0
 11
453.37248549003971
 21
918.25348406722446
 31
0.0
  0
ARC
  5
2C39
  8
AM_0
 10
453.47716549003968
 20
915.25531406722394
 30
0.0
 40
3.0
 50
91.999998000000545
 51
180.00001000000091
  0
LINE
  5
2C3A
  8
AM_0
 10
494.97716549003968
 20
849.00152406722441
 30
0.0
 11
494.97716549003968
 21
959.14270406722403
 31
0.0
  0
ARC
  5
2C3B
  8
AM_0
 10
505.97716549003991
 20
845.00158406722414
 30
0.0
 40
10.0
 50
203.5782699999985
 51
336.4217200000013
  0
ARC
  5
2C3C
  8
AM_0
 10
505.97716549003991
 20
845.00158406722414
 30
0.0
 40
10.0
 50
23.57803699999776
 51
156.42196000000081
  0
LINE
  5
2C3D
  8
AM_0
 10
489.47716549003991
 20
849.00152406722441
 30
0.0
 11
522.47716549003985
 21
849.00152406722441
 31
0.0
  0
LINE
  5
2C3E
  8
AM_0
 10
489.47716549003991
 20
841.00152406722441
 30
0.0
 11
522.47716549003985
 21
841.00152406722441
 31
0.0
  0
ARC
  5
2C3F
  8
AM_0
 10
489.47716549003991
 20
845.0015240672243
 30
0.0
 40
3.9999962
 50
90.00000299999769
 51
270.0
  0
ARC
  5
2C40
  8
AM_0
 10
522.47716549003985
 20
845.0015240672243
 30
0.0
 40
3.9999962
 50
270.0
 51
90.00000299999769
  0
LINE
  5
2C41
  8
AM_0
 10
508.9770354900399
 20
896.56610406722393
 30
0.0
 11
521.97716549003985
 21
896.56610406722393
 31
0.0
  0
ARC
  5
2C42
  8
AM_0
 10
489.97716549003991
 20
924.5347940672242
 30
0.0
 40
5.0
 50
272.00000000000369
 51
0.0
  0
LINE
  5
2C43
  8
AM_0
 10
508.9770354900399
 20
922.56732406722392
 30
0.0
 11
521.97716549003985
 21
922.56732406722392
 31
0.0
  0
ARC
  5
2C44
  8
AM_0
 10
511.97703549003973
 20
981.21130406722398
 30
0.0
 40
3.0
 50
92.999999000001679
 51
180.00001000000091
  0
ARC
  5
2C45
  8
AM_0
 10
505.97716549003991
 20
966.62927406722429
 30
0.0
 40
3.0
 50
280.00001000000128
 51
0.0
  0
ARC
  5
2C46
  8
AM_0
 10
510.97716549003991
 20
971.7465240672243
 30
0.0
 40
2.0
 50
91.999998000000545
 51
180.00001000000091
  0
LINE
  5
2C47
  8
AM_0
 10
497.45622549004003
 20
962.08056406722392
 30
0.0
 11
506.49809549003987
 21
963.67492406722442
 31
0.0
  0
LINE
  5
2C48
  8
AM_0
 10
510.90739549004002
 20
973.74536406722393
 30
0.0
 11
521.97716549003985
 21
974.13195406722446
 31
0.0
  0
LINE
  5
2C49
  8
AM_0
 10
521.9770954900398
 20
984.7395040672244
 30
0.0
 11
511.82005549003992
 21
984.2072140672243
 31
0.0
  0
POLYLINE
  5
2C4A
  8
AM_0
 66
     1
 10
0.0
 20
0.0
 30
0.0
  0
VERTEX
  5
2C4B
  8
AM_0
 10
619.97716549003985
 20
964.19439406722404
 30
0.0
  0
VERTEX
  5
2C4C
  8
AM_0
 10
612.31833549003977
 20
945.12370406722391
 30
0.0
 42
-1.0
  0
SEQEND
  5
2C4D
  8
AM_0
  0
ARC
  5
2C4E
  8
AM_0
 10
622.9770954900398
 20
955.95886406722423
 30
0.0
 40
5.0
 50
0.0
 51
91.999998000000545
  0
LINE
  5
2C4F
  8
AM_0
 10
617.82976549004002
 20
942.00518406722404
 30
0.0
 11
585.32695549003995
 21
922.56738406722445
 31
0.0
  0
LINE
  5
2C50
  8
AM_0
 10
617.54338549004001
 20
948.24817406722445
 30
0.0
 11
576.12486549003995
 21
923.47833406722395
 31
0.0
  0
LINE
  5
2C51
  8
AM_0
 10
577.66466549003985
 20
917.9036240672242
 30
0.0
 11
619.97716549003985
 21
917.9036240672242
 31
0.0
  0
ARC
  5
2C52
  8
AM_0
 10
573.77287549003995
 20
925.56732406722438
 30
0.0
 40
3.0
 50
270.0
 51
300.88098000000002
  0
ARC
  5
2C53
  8
AM_0
 10
577.66466549003985
 20
920.90362406722443
 30
0.0
 40
3.0
 50
120.8809700000043
 51
270.0
  0
LINE
  5
2C54
  8
AM_0
 10
609.84575549003989
 20
917.90368406722394
 30
0.0
 11
619.97709549003957
 21
925.46173406722426
 31
0.0
  0
ARC
  5
2C55
  8
AM_0
 10
624.97716549003985
 20
911.1359840672244
 30
0.0
 40
5.0
 50
179.9999899999988
 51
270.0
  0
ARC
  5
2C56
  8
AM_0
 10
614.97716549003985
 20
952.53936406722391
 30
0.0
 40
5.0
 50
300.88098000000002
 51
0.0
  0
ARC
  5
2C57
  8
AM_0
 10
657.97716549003985
 20
845.0015240672243
 30
0.0
 40
6.0000037999999991
 50
90.00000299999769
 51
270.0
  0
LINE
  5
2C58
  8
AM_0
 10
657.97716549003985
 20
851.00152406722441
 30
0.0
 11
657.97716549003985
 21
839.0015240672243
 31
0.0
  0
LINE
  5
2C59
  8
AM_0
 10
641.9770954900398
 20
867.50158406722414
 30
0.0
 11
643.97716549003985
 21
867.50158406722414
 31
0.0
  0
LINE
  5
2C5A
  8
AM_0
 10
622.87236549004001
 20
986.97412406722435
 30
0.0
 11
637.9770954900398
 21
987.5015840672238
 31
0.0
  0
ARC
  5
2C5B
  8
AM_0
 10
622.9770954900398
 20
983.97595406722428
 30
0.0
 40
3.0
 50
91.999998000000545
 51
180.00001000000091
  0
LINE
  5
2C5C
  8
AM_0
 10
637.9770954900398
 20
965.00152406722395
 30
0.0
 11
641.9770954900398
 21
965.00152406722395
 31
0.0
  0
LINE
  5
2C5D
  8
AM_0
 10
713.97713549003981
 20
824.00158406722392
 30
0.0
 11
713.97713549003981
 21
866.00158406722414
 31
0.0
  0
TEXT
  5
2E3A
  8
AM_0
 10
839.92924699236607
 20
844.90442166848516
 30
0.0
 40
15.0
  1
VX04-240GF~VX04-600GF
  0
ENDSEC
  0
EOF
