  0
SECTION
  2
HEADER
  9
$ACADVER
  1
AC1009
  9
$INSBASE
 10
0.0
 20
0.0
 30
0.0
  9
$EXTMIN
 10
194.8731267078233
 20
217.89247181857851
 30
-0.0000000000112498
  9
$EXTMAX
 10
1206.246836861533
 20
1054.4237968667519
 30
0.0000000000002956
  9
$LIMMIN
 10
0.0
 20
0.0
  9
$LIMMAX
 10
1422.5
 20
925.0
  9
$ORTHOMODE
 70
     0
  9
$REGENMODE
 70
     1
  9
$FILLMODE
 70
     1
  9
$QTEXTMODE
 70
     0
  9
$MIRRTEXT
 70
     1
  9
$DRAGMODE
 70
     2
  9
$LTSCALE
 40
5.0
  9
$OSMODE
 70
   551
  9
$ATTMODE
 70
     1
  9
$TEXTSIZE
 40
2.5
  9
$TRACEWID
 40
1.0
  9
$TEXTSTYLE
  7
STANDARD
  9
$CLAYER
  8
AM_0
  9
$CELTYPE
  6
BYLAYER
  9
$CECOLOR
 62
   256
  9
$DIMSCALE
 40
1.0
  9
$DIMASZ
 40
2.5
  9
$DIMEXO
 40
1.0
  9
$DIMDLI
 40
8.0
  9
$DIMRND
 40
0.0
  9
$DIMDLE
 40
0.0
  9
$DIMEXE
 40
0.6
  9
$DIMTP
 40
0.1
  9
$DIMTM
 40
0.1
  9
$DIMTXT
 40
2.5
  9
$DIMCEN
 40
0.0
  9
$DIMTSZ
 40
0.0
  9
$DIMTOL
 70
     0
  9
$DIMLIM
 70
     0
  9
$DIMTIH
 70
     0
  9
$DIMTOH
 70
     0
  9
$DIMSE1
 70
     0
  9
$DIMSE2
 70
     0
  9
$DIMTAD
 70
     1
  9
$DIMZIN
 70
     8
  9
$DIMBLK
  1

  9
$DIMASO
 70
     1
  9
$DIMSHO
 70
     1
  9
$DIMPOST
  1

  9
$DIMAPOST
  1
"
  9
$DIMALT
 70
     0
  9
$DIMALTD
 70
     2
  9
$DIMALTF
 40
0.0393701
  9
$DIMLFAC
 40
1.0
  9
$DIMTOFL
 70
     1
  9
$DIMTVP
 40
0.0
  9
$DIMTIX
 70
     0
  9
$DIMSOXD
 70
     0
  9
$DIMSAH
 70
     0
  9
$DIMBLK1
  1

  9
$DIMBLK2
  1

  9
$DIMSTYLE
  2
AM_ISO
  9
$DIMCLRD
 70
   256
  9
$DIMCLRE
 70
   256
  9
$DIMCLRT
 70
     4
  9
$DIMTFAC
 40
0.71
  9
$DIMGAP
 40
0.8
  9
$LUNITS
 70
     2
  9
$LUPREC
 70
     2
  9
$SKETCHINC
 40
1.0
  9
$FILLETRAD
 40
25.0
  9
$AUNITS
 70
     0
  9
$AUPREC
 70
     0
  9
$MENU
  1
.
  9
$ELEVATION
 40
0.0
  9
$PELEVATION
 40
0.0
  9
$THICKNESS
 40
0.0
  9
$LIMCHECK
 70
     0
  9
$BLIPMODE
 70
     0
  9
$CHAMFERA
 40
10.0
  9
$CHAMFERB
 40
5.0
  9
$SKPOLY
 70
     0
  9
$TDCREATE
 40
2452066.4260472679
  9
$TDUPDATE
 40
2458541.4428859139
  9
$TDINDWG
 40
0.1383944444
  9
$TDUSRTIMER
 40
0.1383944213
  9
$USRTIMER
 70
     1
  9
$ANGBASE
 50
0.0
  9
$ANGDIR
 70
     0
  9
$PDMODE
 70
     0
  9
$PDSIZE
 40
0.0
  9
$PLINEWID
 40
0.0
  9
$COORDS
 70
     1
  9
$SPLFRAME
 70
     0
  9
$SPLINETYPE
 70
     6
  9
$SPLINESEGS
 70
     8
  9
$ATTDIA
 70
     1
  9
$ATTREQ
 70
     1
  9
$HANDLING
 70
     1
  9
$HANDSEED
  5
2F17
  9
$SURFTAB1
 70
     6
  9
$SURFTAB2
 70
     6
  9
$SURFTYPE
 70
     6
  9
$SURFU
 70
     6
  9
$SURFV
 70
     6
  9
$UCSNAME
  2

  9
$UCSORG
 10
0.0
 20
0.0
 30
0.0
  9
$UCSXDIR
 10
1.0
 20
0.0
 30
0.0
  9
$UCSYDIR
 10
0.0
 20
1.0
 30
0.0
  9
$PUCSNAME
  2

  9
$PUCSORG
 10
0.0
 20
0.0
 30
0.0
  9
$PUCSXDIR
 10
1.0
 20
0.0
 30
0.0
  9
$PUCSYDIR
 10
0.0
 20
1.0
 30
0.0
  9
$USERI1
 70
     0
  9
$USERI2
 70
     0
  9
$USERI3
 70
     0
  9
$USERI4
 70
     0
  9
$USERI5
 70
     0
  9
$USERR1
 40
0.0
  9
$USERR2
 40
0.0
  9
$USERR3
 40
0.0
  9
$USERR4
 40
0.0
  9
$USERR5
 40
0.0
  9
$WORLDVIEW
 70
     1
  9
$SHADEDGE
 70
     3
  9
$SHADEDIF
 70
    70
  9
$TILEMODE
 70
     1
  9
$MAXACTVP
 70
    64
  9
$PLIMCHECK
 70
     0
  9
$PEXTMIN
 10
1.0000000000000000E+020
 20
1.0000000000000000E+020
 30
1.0000000000000000E+020
  9
$PEXTMAX
 10
-1.0000000000000000E+020
 20
-1.0000000000000000E+020
 30
-1.0000000000000000E+020
  9
$PLIMMIN
 10
0.0
 20
0.0
  9
$PLIMMAX
 10
420.0
 20
297.0
  9
$UNITMODE
 70
     0
  9
$VISRETAIN
 70
     1
  9
$PLINEGEN
 70
     0
  9
$PSLTSCALE
 70
     1
  0
ENDSEC
  0
SECTION
  2
TABLES
  0
TABLE
  2
VPORT
 70
     1
  0
VPORT
  2
*ACTIVE
 70
     0
 10
0.0
 20
0.0
 11
1.0
 21
1.0
 12
700.55998178467837
 22
636.15813434266499
 13
0.0
 23
0.0
 14
12.5
 24
12.5
 15
50.0
 25
50.0
 16
0.0
 26
0.0
 36
1.0
 17
0.0
 27
0.0
 37
0.0
 40
842.27410302333215
 41
1.7571592210767459
 42
50.0
 43
0.0
 44
0.0
 50
0.0
 51
0.0
 71
     0
 72
   100
 73
     1
 74
     3
 75
     0
 76
     0
 77
     0
 78
     0
  0
ENDTAB
  0
TABLE
  2
LTYPE
 70
    26
  0
LTYPE
  2
CONTINUOUS
 70
     0
  3
Solid line
 72
    65
 73
     0
 40
0.0
  0
LTYPE
  2
AM_ISO02W050
 70
     0
  3
__ __ __ __ __ __ __ __ __ __ __ __ __ __ __
 72
    65
 73
     2
 40
7.5
 49
6.0
 49
-1.5
  0
LTYPE
  2
AM_ISO08W050
 70
     0
  3
____ . ____ . ____ . ____ . ____ . ____ . ____
 72
    65
 73
     4
 40
18.0
 49
12.0
 49
-1.5
 49
3.0
 49
-1.5
  0
LTYPE
  2
AM_ISO09W050
 70
     0
  3
_____ . . _____ . . _____ . . ____ .. ____
 72
    65
 73
     6
 40
22.5
 49
12.0
 49
-1.5
 49
3.0
 49
-1.5
 49
3.0
 49
-1.5
  0
LTYPE
  2
AMCONSTR
 70
     0
  3
_______________________
 72
    65
 73
     2
 40
9999.0
 49
9999.0
 49
0.0
  0
LTYPE
  2
AM_ISO08W050X2
 70
     0
  3
__ . __ . __ . __ . __ . __
 72
    65
 73
     4
 40
9.0
 49
6.0
 49
-0.75
 49
1.5
 49
-0.75
  0
LTYPE
  2
AM_ISO02W050X2
 70
     0
  3
 _ _ _ _ _ _ _ _ _ _ _ _
 72
    65
 73
     2
 40
3.75
 49
3.0
 49
-0.75
  0
LTYPE
  2
AMZIGZAG
 70
     0
  3
/\/-/\/-/\/-/\/-/\/-/\/
 72
    65
 73
     2
 40
11.000099999999991
 49
0.0001
 49
-11.0
  0
LTYPE
  2
ACISOWELD
 70
     0
  3
_ _ _ _ _
 72
    65
 73
     2
 40
2.0
 49
2.0
 49
-1.0
  0
LTYPE
  2
ACISOTGB
 70
     0
  3
__ . . __ . .
 72
    65
 73
     6
 40
9.0
 49
4.0
 49
-1.0
 49
1.0
 49
-1.0
 49
1.0
 49
-1.0
  0
LTYPE
  2
ACISOTGL
 70
     0
  3
_ _ _ _ _
 72
    65
 73
     2
 40
3.0
 49
2.0
 49
-1.0
  0
LTYPE
  2
CENTER
 70
     0
  3
__ . __
 72
    65
 73
     4
 40
7.0
 49
4.0
 49
-1.0
 49
1.0
 49
-1.0
  0
LTYPE
  2
PHANTOM2
 70
     0
  3
Phantom (.5x) ___ _ _ ___ _ _ ___ _ _ ___ _ _
 72
    65
 73
     6
 40
31.75
 49
15.875
 49
-3.174999999999998
 49
3.174999999999998
 49
-3.174999999999998
 49
3.174999999999998
 49
-3.174999999999998
  0
LTYPE
  2
ACANSTGBM
 70
     0
  3
__ . . __ . .
 72
    65
 73
     6
 40
9.0
 49
4.0
 49
-1.0
 49
1.0
 49
-1.0
 49
1.0
 49
-1.0
  0
LTYPE
  2
ACANSTGLM
 70
     0
  3
_ _ _ _ _
 72
    65
 73
     2
 40
3.0
 49
2.0
 49
-1.0
  0
LTYPE
  2
GEN7
 70
     0
  3
____ . ____ . ____ . ____ . ____ . ____ . ____
 72
    65
 73
     4
 40
14.25
 49
9.75
 49
-1.5
 49
1.5
 49
-1.5
  0
LTYPE
  2
GEN7A
 70
     0
  3
__ . __ . __
 72
    65
 73
     4
 40
7.375
 49
4.75
 49
-0.875
 49
0.875
 49
-0.875
  0
LTYPE
  2
ACJISTGB
 70
     0
  3
__ . . __ . .
 72
    65
 73
     6
 40
9.0
 49
4.0
 49
-1.0
 49
1.0
 49
-1.0
 49
1.0
 49
-1.0
  0
LTYPE
  2
ACJISTGL
 70
     0
  3
_ _ _ _ _
 72
    65
 73
     2
 40
3.0
 49
2.0
 49
-1.0
  0
LTYPE
  2
HIDDEN
 70
     0
  3
Hidden __ __ __ __ __ __ __ __ __ __ __ __ __ _
 72
    65
 73
     2
 40
0.375
 49
0.25
 49
-0.125
  0
LTYPE
  2
CENTER2
 70
     0
  3
Center (.5x) ___ _ ___ _ ___ _ ___ _ ___ _ ___
 72
    65
 73
     4
 40
1.125
 49
0.75
 49
-0.125
 49
0.125
 49
-0.125
  0
LTYPE
  2
HIDDEN2
 70
     0
  3
Hidden (.5x) _ _ _ _ _ _ _ _ _ _ _ _ _ _ _ _ _
 72
    65
 73
     2
 40
0.1875
 49
0.125
 49
-0.0625
  0
LTYPE
  2
AMZIGZAG2
 70
     0
  3
/\/-/\/-/\/-/\/-/\/-/\/
 72
    65
 73
     2
 40
0.4401
 49
0.0001
 49
-0.4400000000000002
  0
LTYPE
  2
ACANSTGB
 70
     0
  3
__ . . __ . .
 72
    65
 73
     6
 40
0.35433070866
 49
0.15748031496
 49
-0.03937007874
 49
0.03937007874
 49
-0.03937007874
 49
0.03937007874
 49
-0.03937007874
  0
LTYPE
  2
ACANSTGL
 70
     0
  3
_ _ _ _ _
 72
    65
 73
     2
 40
0.11811023622
 49
0.07874015748
 49
-0.03937007874
  0
ENDTAB
  0
TABLE
  2
LAYER
 70
     6
  0
LAYER
  2
0
 70
     0
 62
     7
  6
CONTINUOUS
  0
LAYER
  2
AM_0
 70
     0
 62
     7
  6
CONTINUOUS
  0
LAYER
  2
AM_5
 70
     0
 62
     2
  6
CONTINUOUS
  0
LAYER
  2
DEFPOINTS
 70
     0
 62
     7
  6
CONTINUOUS
  0
LAYER
  2
ﾁｭｳｼﾝｾﾝ
 70
     0
 62
     1
  6
GEN7
  0
LAYER
  2
ﾁｭｳｼﾝｾﾝ1
 70
     0
 62
     1
  6
GEN7A
  0
ENDTAB
  0
TABLE
  2
STYLE
 70
     9
  0
STYLE
  2
STANDARD
 70
     0
 40
0.0
 41
0.8299999999999999
 50
0.0
 71
     0
 42
2.5
  3
txt.shx
  4
bigfont.shx
  0
STYLE
  2
ANNOTATIVE
 70
     0
 40
0.0
 41
1.0
 50
0.0
 71
     0
 42
0.2
  3
txt
  4

  0
STYLE
  2

 70
     1
 40
0.0
 41
1.0
 50
0.0
 71
     0
 42
2.5
  3
ltypeshp.shx
  4

  0
STYLE
  2
ACISOTS
 70
     0
 40
1.0
 41
1.0
 50
0.0
 71
     0
 42
2.5
  3
isocp.shx
  4
extfont.shx
  0
STYLE
  2
ACISOGDT
 70
     0
 40
0.0
 41
1.0
 50
0.0
 71
     0
 42
2.5
  3
amgdt.shx
  4

  0
STYLE
  2
ACANSTS
 70
     0
 40
1.0
 41
1.0
 50
0.0
 71
     0
 42
2.5
  3
romans.shx
  4
bigfont.shx
  0
STYLE
  2
ACANSGDT
 70
     0
 40
0.0
 41
1.0
 50
0.0
 71
     0
 42
2.5
  3
amgdt.shx
  4

  0
STYLE
  2
ACJISTS
 70
     0
 40
1.0
 41
1.0
 50
0.0
 71
     0
 42
2.5
  3
isocp.shx
  4
bigfont.shx
  0
STYLE
  2
ACJISGDT
 70
     0
 40
0.0
 41
1.0
 50
0.0
 71
     0
 42
2.5
  3
amgdt.shx
  4

  0
ENDTAB
  0
TABLE
  2
VIEW
 70
     6
  0
VIEW
  2
AM_VIEW1
 70
     0
 40
462.5
 10
416.07965009208078
 20
693.75
 41
832.15930018416213
 11
0.0
 21
0.0
 31
1.0
 12
0.0
 22
0.0
 32
0.0
 42
50.0
 43
0.0
 44
0.0
 50
0.0
 71
     0
  0
VIEW
  2
AM_VIEW2
 70
     0
 40
462.5
 10
1006.420349907918
 20
693.75
 41
832.15930018416213
 11
0.0
 21
0.0
 31
1.0
 12
0.0
 22
0.0
 32
0.0
 42
50.0
 43
0.0
 44
0.0
 50
0.0
 71
     0
  0
VIEW
  2
AM_VIEW3
 70
     0
 40
462.5
 10
416.07965009208078
 20
231.25
 41
832.15930018416213
 11
0.0
 21
0.0
 31
1.0
 12
0.0
 22
0.0
 32
0.0
 42
50.0
 43
0.0
 44
0.0
 50
0.0
 71
     0
  0
VIEW
  2
AM_VIEW4
 70
     0
 40
462.5
 10
1006.420349907918
 20
231.25
 41
832.15930018416213
 11
0.0
 21
0.0
 31
1.0
 12
0.0
 22
0.0
 32
0.0
 42
50.0
 43
0.0
 44
0.0
 50
0.0
 71
     0
  0
VIEW
  2
AM_VIEW5
 70
     0
 40
462.5
 10
711.24999999999966
 20
462.5
 41
832.15930018416179
 11
0.0
 21
0.0
 31
1.0
 12
0.0
 22
0.0
 32
0.0
 42
50.0
 43
0.0
 44
0.0
 50
0.0
 71
     0
  0
VIEW
  2
AM_VIEW6
 70
     0
 40
924.99075000000005
 10
711.24999999999966
 20
462.5
 41
1664.3019571823199
 11
0.0
 21
0.0
 31
1.0
 12
0.0
 22
0.0
 32
0.0
 42
50.0
 43
0.0
 44
0.0
 50
0.0
 71
     0
  0
ENDTAB
  0
TABLE
  2
UCS
 70
     0
  0
ENDTAB
  0
TABLE
  2
APPID
 70
    95
  0
APPID
  2
ACAD
 70
     0
  0
APPID
  2
ACADANNOTATIVE
 70
     0
  0
APPID
  2
MCAD_NO_VIS
 70
     0
  0
APPID
  2
ACAD_TEMP_GRAPHIC
 70
     0
  0
APPID
  2
ACATTRIBSERVICES
 70
     0
  0
APPID
  2
GENIUS_GENREC_14
 70
     0
  0
APPID
  2
GENIUS_GENOBJ-N-REC_13
 70
     0
  0
APPID
  2
GENIUS_GENODEF_13
 70
     0
  0
APPID
  2
GENIUS_GENOLIS_13
 70
     0
  0
APPID
  2
GENIUS_GENOBJ-N-TIT_13
 70
     0
  0
APPID
  2
GENIUS_GENOENT_13
 70
     0
  0
APPID
  2
GENIUS_GENTITLE_13
 70
     0
  0
APPID
  2
GENIUS_GENOREF_13
 70
     0
  0
APPID
  2
GENIUS_GENSCREG_15
 70
     0
  0
APPID
  2
GENIUS_GENOBJ-N-SDF_13
 70
     0
  0
APPID
  2
GENIUS_GENFIL_13
 70
     0
  0
APPID
  2
GENIUS_GENOBJ-N-CHA_13
 70
     0
  0
APPID
  2
GENIUS_GENDTOL_13
 70
     0
  0
APPID
  2
GENIUS_GENOBJ-N-FIL_13
 70
     0
  0
APPID
  2
AD_DRAW
 70
     0
  0
APPID
  2
DESIGNERASSEMBLIES
 70
     0
  0
APPID
  2
ASURF_PCURVE_APPNAME
 70
     0
  0
APPID
  2
GENIUS_GE3SECT_13
 70
     0
  0
APPID
  2
GENIUS_GENCFG_13
 70
     0
  0
APPID
  2
GENIUS_GE3CFG0_13
 70
     0
  0
APPID
  2
GENIUS_GENCFG0_13
 70
     0
  0
APPID
  2
GENIUS_GENCFG1_13
 70
     0
  0
APPID
  2
GENIUS_GENCFG2_13
 70
     0
  0
APPID
  2
GENIUS_GENCFG3_13
 70
     0
  0
APPID
  2
GENIUS_GENCFG4_13
 70
     0
  0
APPID
  2
GENIUS_GEVCFG0_13
 70
     0
  0
APPID
  2
GENIUS_GENHINW_13
 70
     0
  0
APPID
  2
GENIUS_FIRSTVISTXT_14
 70
     0
  0
APPID
  2
GENIUS_GENOBJ-N-LEADER_13
 70
     0
  0
APPID
  2
GEV_VCCNULL_SWITCH_OFF
 70
     0
  0
APPID
  2
GENIUS_GEFCFG0_13
 70
     0
  0
APPID
  2
GENIUS_GENZVEED_13
 70
     0
  0
APPID
  2
GENIUS_GENSCREG_13
 70
     0
  0
APPID
  2
GENIUS_DUMCFG0_13
 70
     0
  0
APPID
  2
GEVID936201362
 70
     0
  0
APPID
  2
GEVDC
 70
     0
  0
APPID
  2
GEVCON
 70
     0
  0
APPID
  2
VCC
 70
     0
  0
APPID
  2
GEVPT
 70
     0
  0
APPID
  2
GEVIT
 70
     0
  0
APPID
  2
GENBH
 70
     0
  0
APPID
  2
GEVMK
 70
     0
  0
APPID
  2
GENIUS_GENBH_13
 70
     0
  0
APPID
  2
GENIUS_GENOBJ-NBEHI-BHF_13
 70
     0
  0
APPID
  2
GENIUS_GENOBJ-NBEHI-BHB_13
 70
     0
  0
APPID
  2
GENIUS_GENOBJ-F-DESC_13
 70
     0
  0
APPID
  2
GENIUS_GEFDESC_14
 70
     0
  0
APPID
  2
GENIUS_GENOBJ-F-PART_13
 70
     0
  0
APPID
  2
GENIUS_GEFSTDP_13
 70
     0
  0
APPID
  2
GENIUS_GEFPARTINS_13
 70
     0
  0
APPID
  2
GENIUS_GENTRA_14
 70
     0
  0
APPID
  2
GENIUS_GENINF13_13
 70
     0
  0
APPID
  2
GENIUS_GENOBJ-N-INFOPT_13
 70
     0
  0
APPID
  2
GENIUS_GENOBJ-N-RSSYM_13
 70
     0
  0
APPID
  2
GENIUS_GENSYMENT_13
 70
     0
  0
APPID
  2
GENIUS_GENSCSYM_13
 70
     0
  0
APPID
  2
GENIUS_GEFINFNAM_13
 70
     0
  0
APPID
  2
GENIUS_GENOBJ-N-CEN_13
 70
     0
  0
APPID
  2
GENIUS_GENOBJ-N-CRS_13
 70
     0
  0
APPID
  2
GENIUS_GENOBJ-N-CRC_13
 70
     0
  0
APPID
  2
GENIUS_GENCRC_14
 70
     0
  0
APPID
  2
GEVID942827039
 70
     0
  0
APPID
  2
GEVID942827040
 70
     0
  0
APPID
  2
GEVID942827041
 70
     0
  0
APPID
  2
GENIUS_GENOBJ-F-SCPASSM_13
 70
     0
  0
APPID
  2
GENIUS_GENDIMSH_14
 70
     0
  0
APPID
  2
GEVID942827042
 70
     0
  0
APPID
  2
GEVID946020473
 70
     0
  0
APPID
  2
GEVID946020474
 70
     0
  0
APPID
  2
GEVID946020475
 70
     0
  0
APPID
  2
GENIUS_GENOBJ-N-HTC_13
 70
     0
  0
APPID
  2
GENIUS_GENHATCH_13
 70
     0
  0
APPID
  2
GEVID948854295
 70
     0
  0
APPID
  2
GEVID939402019
 70
     0
  0
APPID
  2
GEVID952919491
 70
     0
  0
APPID
  2
GEVID952919492
 70
     0
  0
APPID
  2
GENIUS_GEFWELD_13
 70
     0
  0
APPID
  2
GENIUS_GENOBJ-F-WELS_13
 70
     0
  0
APPID
  2
GEVID952919493
 70
     0
  0
APPID
  2
GENIUS_GENOBJ-N-RSBK_13
 70
     0
  0
APPID
  2
GENIUS_GENOBJ-N-LIB_13
 70
     0
  0
APPID
  2
GENIUS_GENSCALE_13
 70
     0
  0
APPID
  2
GEVID986376691
 70
     0
  0
APPID
  2
DCO15
 70
     0
  0
APPID
  2
ACAD_DSTYLE_DIMBREAK
 70
     0
  0
APPID
  2
ACAD_DSTYLE_DIMJAG
 70
     0
  0
APPID
  2
ACAD_NAV_VCDISPLAY
 70
     0
  0
APPID
  2
ACADANNOPO
 70
     0
  0
APPID
  2
ACAD_EXEMPT_FROM_CAD_STANDARDS
 70
     0
  0
APPID
  2
ACAD_MLEADERVER
 70
     0
  0
ENDTAB
  0
TABLE
  2
DIMSTYLE
 70
    22
  0
DIMSTYLE
  2
STANDARD
 70
     0
  3

  4

  5

  6

  7

 40
1.0
 41
0.18
 42
0.0625
 43
0.38
 44
0.18
 45
0.0
 46
0.0
 47
0.0
 48
0.0
140
0.18
141
0.09
142
0.0
143
25.399999999999999
144
1.0
145
0.0
146
1.0
147
0.09
 71
     0
 72
     0
 73
     1
 74
     1
 75
     0
 76
     0
 77
     0
 78
     0
170
     0
171
     2
172
     0
173
     0
174
     0
175
     0
176
     0
177
     0
178
     0
  0
DIMSTYLE
  2
ANNOTATIVE
 70
     0
  3

  4

  5

  6

  7

 40
1.0
 41
0.18
 42
0.0625
 43
0.38
 44
0.18
 45
0.0
 46
0.0
 47
0.0
 48
0.0
140
0.18
141
0.09
142
0.0
143
25.399999999999999
144
1.0
145
0.0
146
1.0
147
0.09
 71
     0
 72
     0
 73
     1
 74
     1
 75
     0
 76
     0
 77
     0
 78
     0
170
     0
171
     2
172
     0
173
     0
174
     0
175
     0
176
     0
177
     0
178
     0
  0
DIMSTYLE
  2
AM_ISO
 70
     0
  3

  4
"
  5

  6

  7

 40
1.0
 41
2.5
 42
1.0
 43
8.0
 44
0.6
 45
0.0
 46
0.0
 47
0.1
 48
0.1
140
2.5
141
0.0
142
0.0
143
0.0393701
144
1.0
145
0.0
146
0.71
147
0.8
 71
     0
 72
     0
 73
     0
 74
     0
 75
     0
 76
     0
 77
     1
 78
     8
170
     0
171
     2
172
     1
173
     0
174
     0
175
     0
176
   256
177
   256
178
     4
  0
DIMSTYLE
  2
AM_ISO$3
 70
     0
  3

  4
"
  5

  6

  7

 40
1.0
 41
2.5
 42
1.0
 43
8.0
 44
0.6
 45
0.0
 46
0.0
 47
0.1
 48
0.1
140
2.5
141
0.0
142
0.0
143
0.0393701
144
1.0
145
0.0
146
0.71
147
0.8
 71
     0
 72
     0
 73
     0
 74
     1
 75
     0
 76
     0
 77
     1
 78
     8
170
     0
171
     2
172
     0
173
     0
174
     0
175
     0
176
   256
177
   256
178
     4
  0
DIMSTYLE
  2
AM_ISO$4
 70
     0
  3

  4
"
  5

  6

  7

 40
1.0
 41
2.5
 42
1.0
 43
8.0
 44
0.6
 45
0.0
 46
0.0
 47
0.1
 48
0.1
140
2.5
141
0.0
142
0.0
143
0.0393701
144
1.0
145
0.0
146
0.71
147
0.8
 71
     0
 72
     0
 73
     0
 74
     1
 75
     0
 76
     0
 77
     1
 78
     8
170
     0
171
     2
172
     0
173
     0
174
     0
175
     0
176
   256
177
   256
178
     4
  0
DIMSTYLE
  2
AM_ISO$6
 70
     0
  3

  4
"
  5

  6

  7

 40
1.0
 41
2.5
 42
1.0
 43
8.0
 44
0.6
 45
0.0
 46
0.0
 47
0.1
 48
0.1
140
2.5
141
0.0
142
0.0
143
0.0393701
144
1.0
145
0.0
146
0.71
147
0.8
 71
     0
 72
     0
 73
     0
 74
     0
 75
     0
 76
     0
 77
     0
 78
     8
170
     0
171
     2
172
     1
173
     0
174
     0
175
     0
176
   256
177
   256
178
     4
  0
DIMSTYLE
  2
AM_ISO$7
 70
     0
  3

  4
"
  5

  6

  7

 40
1.0
 41
2.5
 42
1.0
 43
8.0
 44
0.6
 45
0.0
 46
0.0
 47
0.1
 48
0.1
140
2.5
141
0.0
142
0.0
143
0.0393701
144
1.0
145
0.0
146
0.71
147
0.8
 71
     0
 72
     0
 73
     0
 74
     0
 75
     0
 76
     0
 77
     1
 78
     8
170
     0
171
     2
172
     1
173
     0
174
     0
175
     0
176
   256
177
   256
178
     4
  0
DIMSTYLE
  2
AM_ISO$SF
 70
     0
  3

  4
"
  5

  6

  7

 40
1.0
 41
2.5
 42
1.0
 43
10.0
 44
1.0
 45
0.0
 46
0.0
 47
0.1
 48
0.1
140
3.5
141
0.0
142
0.0
143
0.0393701
144
1.0
145
0.0
146
0.71
147
1.5
 71
     0
 72
     0
 73
     0
 74
     0
 75
     1
 76
     1
 77
     1
 78
     8
170
     0
171
     2
172
     1
173
     0
174
     0
175
     0
176
   256
177
   256
178
     2
  0
DIMSTYLE
  2
AM_ISO$SH
 70
     0
  3

  4
"
  5

  6

  7

 40
1.0
 41
2.5
 42
1.0
 43
10.0
 44
1.0
 45
0.0
 46
0.0
 47
0.1
 48
0.1
140
3.5
141
0.0
142
0.0
143
0.0393701
144
2.0
145
0.0
146
0.71
147
1.5
 71
     0
 72
     0
 73
     0
 74
     0
 75
     1
 76
     1
 77
     1
 78
     8
170
     0
171
     2
172
     1
173
     1
174
     0
175
     0
176
   256
177
   256
178
     2
  0
DIMSTYLE
  2
AM_JIS
 70
     0
  3

  4
"
  5

  6

  7

 40
1.0
 41
2.5
 42
1.0
 43
7.0
 44
1.0
 45
0.0
 46
0.0
 47
0.1
 48
0.1000000001
140
2.5
141
0.0
142
0.0
143
0.0393701
144
1.0
145
0.0
146
0.71
147
1.0
 71
     0
 72
     0
 73
     0
 74
     0
 75
     0
 76
     0
 77
     3
 78
     8
170
     0
171
     2
172
     1
173
     0
174
     0
175
     0
176
   256
177
   256
178
     4
  0
DIMSTYLE
  2
AM_JIS$3
 70
     0
  3

  4
"
  5

  6

  7

 40
1.0
 41
2.5
 42
1.0
 43
7.0
 44
1.0
 45
0.0
 46
0.0
 47
0.1
 48
0.1000000001
140
2.5
141
0.0
142
0.0
143
0.0393701
144
1.0
145
0.0
146
0.71
147
1.0
 71
     0
 72
     0
 73
     0
 74
     1
 75
     0
 76
     0
 77
     3
 78
     8
170
     0
171
     2
172
     0
173
     0
174
     0
175
     0
176
   256
177
   256
178
     4
  0
DIMSTYLE
  2
AM_JIS$4
 70
     0
  3

  4
"
  5

  6

  7

 40
1.0
 41
2.5
 42
1.0
 43
7.0
 44
1.0
 45
0.0
 46
0.0
 47
0.1
 48
0.1000000001
140
2.5
141
0.0
142
0.0
143
0.0393701
144
1.0
145
0.0
146
0.71
147
1.0
 71
     0
 72
     0
 73
     0
 74
     0
 75
     0
 76
     0
 77
     3
 78
     8
170
     0
171
     2
172
     0
173
     0
174
     0
175
     0
176
   256
177
   256
178
     4
  0
DIMSTYLE
  2
AM_JIS$6
 70
     0
  3

  4
"
  5

  6

  7

 40
1.0
 41
2.5
 42
1.0
 43
7.0
 44
1.0
 45
0.0
 46
0.0
 47
0.1
 48
0.1000000001
140
2.5
141
0.0
142
0.0
143
0.0393701
144
1.0
145
0.0
146
0.71
147
1.0
 71
     0
 72
     0
 73
     0
 74
     0
 75
     0
 76
     0
 77
     0
 78
     8
170
     0
171
     2
172
     1
173
     0
174
     0
175
     0
176
   256
177
   256
178
     4
  0
DIMSTYLE
  2
AM_JIS$7
 70
     0
  3

  4
"
  5

  6

  7

 40
1.0
 41
2.5
 42
1.0
 43
7.0
 44
1.0
 45
0.0
 46
0.0
 47
0.1
 48
0.1000000001
140
2.5
141
0.0
142
0.0
143
0.0393701
144
1.0
145
0.0
146
0.71
147
1.0
 71
     0
 72
     0
 73
     0
 74
     0
 75
     0
 76
     0
 77
     3
 78
     8
170
     0
171
     2
172
     1
173
     0
174
     0
175
     0
176
   256
177
   256
178
     4
  0
DIMSTYLE
  2
AM_JIS$SF
 70
     0
  3

  4
"
  5

  6

  7

 40
1.0
 41
2.5
 42
1.0
 43
10.0
 44
1.0
 45
0.0
 46
0.0
 47
0.1
 48
0.1
140
3.5
141
0.0
142
0.0
143
0.0393701
144
1.0
145
0.0
146
0.71
147
1.5
 71
     0
 72
     0
 73
     0
 74
     0
 75
     1
 76
     1
 77
     3
 78
     8
170
     0
171
     2
172
     1
173
     0
174
     0
175
     0
176
   256
177
   256
178
     4
  0
DIMSTYLE
  2
AM_JIS$SH
 70
     0
  3

  4
"
  5

  6

  7

 40
1.0
 41
2.5
 42
1.0
 43
10.0
 44
1.0
 45
0.0
 46
0.0
 47
0.1
 48
0.1
140
3.5
141
0.0
142
0.0
143
0.0393701
144
1.0
145
0.0
146
0.71
147
1.5
 71
     0
 72
     0
 73
     0
 74
     0
 75
     1
 76
     0
 77
     3
 78
     8
170
     0
171
     2
172
     1
173
     1
174
     0
175
     0
176
   256
177
   256
178
     4
  0
DIMSTYLE
  2
AM_ANSI
 70
     0
  3

  4
mm
  5

  6

  7

 40
1.0
 41
0.1
 42
0.05
 43
0.5
 44
0.1
 45
0.0
 46
0.0
 47
0.1
 48
0.1
140
0.12
141
0.0
142
0.0
143
25.399999999999999
144
1.0
145
0.0
146
0.71
147
0.06
 71
     0
 72
     0
 73
     1
 74
     1
 75
     0
 76
     0
 77
     0
 78
     7
170
     0
171
     2
172
     0
173
     0
174
     0
175
     0
176
   256
177
   256
178
     2
  0
DIMSTYLE
  2
AM_ANSI$3
 70
     0
  3

  4
mm
  5

  6

  7

 40
1.0
 41
0.1
 42
0.05
 43
0.5
 44
0.1
 45
0.0
 46
0.0
 47
0.1
 48
0.1
140
0.12
141
0.0
142
0.0
143
25.399999999999999
144
1.0
145
0.0
146
0.71
147
0.06
 71
     0
 72
     0
 73
     1
 74
     1
 75
     0
 76
     0
 77
     0
 78
     7
170
     0
171
     2
172
     0
173
     0
174
     0
175
     0
176
   256
177
   256
178
     2
  0
DIMSTYLE
  2
AM_ANSI$4
 70
     0
  3

  4
mm
  5

  6

  7

 40
1.0
 41
0.1
 42
0.05
 43
0.5
 44
0.1
 45
0.0
 46
0.0
 47
0.1
 48
0.1
140
0.12
141
0.0
142
0.0
143
25.399999999999999
144
1.0
145
0.0
146
0.71
147
0.06
 71
     0
 72
     0
 73
     1
 74
     1
 75
     0
 76
     0
 77
     0
 78
     7
170
     0
171
     2
172
     0
173
     0
174
     0
175
     0
176
   256
177
   256
178
     2
  0
DIMSTYLE
  2
AM_ANSI$7
 70
     0
  3

  4
mm
  5

  6

  7

 40
1.0
 41
0.1
 42
0.05
 43
0.5
 44
0.1
 45
0.0
 46
0.0
 47
0.1
 48
0.1
140
0.24
141
0.0
142
0.0
143
25.399999999999999
144
1.0
145
0.0
146
0.71
147
0.06
 71
     0
 72
     0
 73
     1
 74
     1
 75
     0
 76
     0
 77
     0
 78
     7
170
     0
171
     2
172
     0
173
     0
174
     0
175
     0
176
   256
177
   256
178
     2
  0
DIMSTYLE
  2
AM_ANSI$SF
 70
     0
  3

  4
mm
  5

  6

  7

 40
1.0
 41
0.1
 42
0.05
 43
0.5
 44
0.1
 45
0.0
 46
0.0
 47
0.1
 48
0.1
140
0.12
141
0.0
142
0.0
143
25.399999999999999
144
1.0
145
0.0
146
0.71
147
0.06
 71
     0
 72
     0
 73
     1
 74
     1
 75
     1
 76
     1
 77
     0
 78
     7
170
     0
171
     2
172
     0
173
     0
174
     0
175
     0
176
   256
177
   256
178
     2
  0
DIMSTYLE
  2
AM_ANSI$SH
 70
     0
  3

  4
mm
  5

  6

  7

 40
1.0
 41
0.1
 42
0.05
 43
0.5
 44
0.1
 45
0.0
 46
0.0
 47
0.1
 48
0.1
140
0.12
141
0.0
142
0.0
143
25.399999999999999
144
1.0
145
0.0
146
0.71
147
0.06
 71
     0
 72
     0
 73
     1
 74
     1
 75
     1
 76
     1
 77
     0
 78
     7
170
     0
171
     2
172
     0
173
     1
174
     0
175
     0
176
   256
177
   256
178
     2
  0
ENDTAB
  0
ENDSEC
  0
SECTION
  2
BLOCKS
  0
BLOCK
  8
0
  2
$MODEL_SPACE
 70
     0
 10
0.0
 20
0.0
 30
0.0
  3
$MODEL_SPACE
  1

  0
ENDBLK
  5
2D8B
  8
0
  0
BLOCK
 67
     1
  8
0
  2
$PAPER_SPACE
 70
     0
 10
0.0
 20
0.0
 30
0.0
  3
$PAPER_SPACE
  1

  0
ENDBLK
  5
2D87
 67
     1
  8
0
  0
BLOCK
  8
0
  2
GENAXEH
 70
     0
 10
0.0
 20
0.0
 30
0.0
  3
GENAXEH
  1

  0
LINE
  5
2B23
  8
0
 10
-1.0
 20
0.0
 30
0.0
 11
1.0
 21
0.0
 31
0.0
  0
ENDBLK
  5
2B24
  8
0
  0
BLOCK
  8
0
  2
_OPEN30
 70
     0
 10
0.0
 20
0.0
 30
0.0
  3
_OPEN30
  1

  0
LINE
  5
2B27
  8
0
 62
     0
 10
-1.0
 20
0.26794919
 30
0.0
 11
0.0
 21
0.0
 31
0.0
  0
LINE
  5
2B28
  8
0
 62
     0
 10
0.0
 20
0.0
 30
0.0
 11
-1.0
 21
-0.26794919
 31
0.0
  0
LINE
  5
2B29
  8
0
 62
     0
 10
0.0
 20
0.0
 30
0.0
 11
-1.0
 21
0.0
 31
0.0
  0
ENDBLK
  5
2B2A
  8
0
  0
BLOCK
  8
0
  2
_NONE
 70
     0
 10
0.0
 20
0.0
 30
0.0
  3
_NONE
  1

  0
ENDBLK
  5
2B2D
  8
0
  0
BLOCK
  8
0
  2
_ACMFILLEDHALF
 70
     0
 10
0.0
 20
0.0
 30
0.0
  3
_ACMFILLEDHALF
  1

  0
TRACE
  5
2E81
  8
AM_0
 62
     0
 10
-0.8
 20
0.0
 30
0.0
 11
-1.0
 21
0.166666666
 31
0.0
 12
0.0
 22
0.0
 32
0.0
 13
0.0
 23
0.0
 33
0.0
  0
LINE
  5
2E82
  8
AM_0
 62
     0
 10
-1.0
 20
0.0
 30
0.0
 11
-0.8
 21
0.0
 31
0.0
  0
ENDBLK
  5
2E80
  8
0
  0
ENDSEC
  0
SECTION
  2
ENTITIES
  0
LINE
  5
2B2E
  8
AM_0
 10
415.66595329160282
 20
484.62726500000008
 30
0.0
 11
415.66595329160282
 21
276.06723499999998
 31
0.0
  0
LINE
  5
2B2F
  8
AM_0
 10
436.16595329160282
 20
544.06275000000028
 30
0.0
 11
436.16595329160282
 21
234.87062499999999
 31
0.0
  0
LINE
  5
2B30
  8
AM_0
 10
464.16595329160288
 20
546.96145000000001
 30
0.0
 11
464.16595329160288
 21
231.96145999999999
 31
0.0
  0
LINE
  5
2B31
  8
AM_0
 10
587.1659532916027
 20
584.36475000000019
 30
0.0
 11
587.1659532916027
 21
390.69809500000002
 31
0.0
  0
LINE
  5
2B32
  8
AM_0
 10
609.16595329160282
 20
589.96150000000011
 30
0.0
 11
609.16595329160282
 21
259.9614600000001
 31
0.0
  0
LINE
  5
2B33
  8
AM_0
 10
614.16595329160282
 20
564.96150000000011
 30
0.0
 11
614.16595329160282
 21
284.96146000000027
 31
0.0
  0
LINE
  5
2B34
  8
AM_0
 10
596.16595329160282
 20
549.31060000000002
 30
0.0
 11
596.16595329160282
 21
300.61234000000019
 31
0.0
  0
LINE
  5
2B35
  8
AM_0
 10
586.49255329160314
 20
382.47333500000008
 30
0.0
 11
574.5888032916032
 21
510.83499999999998
 31
0.0
  0
LINE
  5
2B36
  8
AM_0
 10
288.70153719753569
 20
399.78696627653852
 30
0.0
 11
262.59494310913198
 21
373.6803721881347
 31
0.0
  0
LINE
  5
2B37
  8
AM_0
 10
288.70153719753569
 20
287.71591372346188
 30
0.0
 11
262.59494310913198
 21
313.82250781186571
 31
0.0
  0
LINE
  5
2B38
  8
ﾁｭｳｼﾝｾﾝ
 10
470.64502551057188
 20
343.75144
 30
0.0
 11
194.94486794226481
 21
343.75144
 31
0.0
  0
LINE
  5
2B39
  8
AM_0
 10
259.66601092099768
 20
370.75144000000012
 30
0.0
 11
259.66601092099768
 21
316.75144
 31
0.0
  0
ARC
  5
2B3A
  8
AM_0
 10
236.6660154509506
 20
318.75144000000012
 30
0.0
 40
2.0
 50
180.0
 51
270.0
1001
GENIUS_GENOBJ-N-FIL_13
1002
{
1000
OWNER
1000
GEN
1002
}
1001
GENIUS_GENODEF_13
1002
{
1000
HIER
1070
     0
1002
}
1002
{
1000
MANEDIT
1070
     0
1002
}
1002
{
1000
NOSEL
1070
     0
1002
}
1002
{
1000
BEHIND
1070
     0
1002
}
1002
{
1000
OTHER
1070
     0
1002
}
1002
{
1000
REACTOR
1002
}
  0
LINE
  5
2B3B
  8
AM_0
 10
236.6660154509506
 20
316.75144000000012
 30
0.0
 11
255.52387529726661
 21
316.75144
 31
0.0
  0
ARC
  5
2B3C
  8
AM_0
 10
255.52387529726661
 20
306.75144
 30
0.0
 40
10.0
 50
45.000000000004363
 51
90.0
1001
GENIUS_GENODEF_13
1002
{
1000
HIER
1070
     0
1002
}
1002
{
1000
MANEDIT
1070
     0
1002
}
1002
{
1000
NOSEL
1070
     0
1002
}
1002
{
1000
BEHIND
1070
     0
1002
}
1002
{
1000
OTHER
1070
     0
1002
}
1002
{
1000
REACTOR
1002
}
1001
GENIUS_GENOBJ-N-FIL_13
1002
{
1000
OWNER
1000
GEN
1002
}
  0
LINE
  5
2B3D
  8
AM_0
 10
202.6660154509506
 20
351.75144
 30
0.0
 11
230.6660154509506
 21
351.75144
 31
0.0
  0
LINE
  5
2B3E
  8
AM_0
 10
202.6660154509506
 20
353.75144
 30
0.0
 11
224.66601545095051
 21
353.75144
 31
0.0
  0
LINE
  5
2B3F
  8
AM_0
 10
202.6660154509506
 20
335.75144000000012
 30
0.0
 11
230.6660154509506
 21
335.75144000000012
 31
0.0
  0
LINE
  5
2B40
  8
AM_0
 10
202.6660154509506
 20
353.75144
 30
0.0
 11
202.6660154509506
 21
335.75144000000012
 31
0.0
  0
LINE
  5
2B41
  8
AM_0
 10
234.6660154509506
 20
318.75144000000012
 30
0.0
 11
234.6660154509506
 21
368.75144000000012
 31
0.0
  0
LINE
  5
2B42
  8
AM_0
 10
232.6660154509506
 20
360.83722643762701
 30
0.0
 11
232.6660154509506
 21
326.66565356237322
 31
0.0
  0
LINE
  5
2B43
  8
AM_0
 10
230.6660154509506
 20
352.25144000000012
 30
0.0
 11
230.6660154509506
 21
335.25144
 31
0.0
  0
ARC
  5
2B44
  8
AM_0
 10
233.66601545095051
 20
323.83722643762712
 30
0.0
 40
1.0
 50
0.0
 51
45.000000000004363
1001
GENIUS_GENODEF_13
1002
{
1000
HIER
1070
     0
1002
}
1002
{
1000
MANEDIT
1070
     0
1002
}
1002
{
1000
NOSEL
1070
     0
1002
}
1002
{
1000
BEHIND
1070
     0
1002
}
1002
{
1000
OTHER
1070
     0
1002
}
1002
{
1000
REACTOR
1002
}
1001
GENIUS_GENOBJ-N-FIL_13
1002
{
1000
OWNER
1000
GEN
1002
}
  0
LINE
  5
2B45
  8
AM_0
 10
230.6660154509506
 20
335.25144533305013
 30
0.0
 11
232.6660154509506
 21
335.25144426644022
 31
0.0
  0
ARC
  5
2B46
  8
AM_0
 10
233.66601545095051
 20
326.66565356237322
 30
0.0
 40
1.0
 50
180.0
 51
225.00000000000421
1001
GENIUS_GENODEF_13
1002
{
1000
HIER
1070
     0
1002
}
1002
{
1000
MANEDIT
1070
     0
1002
}
1002
{
1000
NOSEL
1070
     0
1002
}
1002
{
1000
BEHIND
1070
     0
1002
}
1002
{
1000
OTHER
1070
     0
1002
}
1002
{
1000
REACTOR
1002
}
1001
GENIUS_GENOBJ-N-FIL_13
1002
{
1000
OWNER
1000
GEN
1002
}
  0
LINE
  5
2B47
  8
AM_0
 10
232.9589086697641
 20
325.95854678118673
 30
0.0
 11
234.37312223213709
 21
324.54433321881362
 31
0.0
  0
LINE
  5
2B48
  8
AM_0
 10
224.66601545095051
 20
351.75144
 30
0.0
 11
224.66601545095051
 21
353.75144
 31
0.0
  0
LINE
  5
2B49
  8
AM_0
 10
230.6660154509506
 20
352.25144000000012
 30
0.0
 11
232.6660154509506
 21
352.25144000000012
 31
0.0
  0
LINE
  5
2B4A
  8
AM_0
 10
236.6660154509506
 20
370.75144000000012
 30
0.0
 11
255.52387529726661
 21
370.75144000000012
 31
0.0
  0
ARC
  5
2B4B
  8
AM_0
 10
233.66601545095051
 20
363.66565356237322
 30
0.0
 40
1.0
 50
314.99999999999562
 51
0.0
1001
GENIUS_GENODEF_13
1002
{
1000
HIER
1070
     0
1002
}
1002
{
1000
MANEDIT
1070
     0
1002
}
1002
{
1000
NOSEL
1070
     0
1002
}
1002
{
1000
BEHIND
1070
     0
1002
}
1002
{
1000
OTHER
1070
     0
1002
}
1002
{
1000
REACTOR
1002
}
1001
GENIUS_GENOBJ-N-FIL_13
1002
{
1000
OWNER
1000
GEN
1002
}
  0
ARC
  5
2B4C
  8
AM_0
 10
233.66601545095051
 20
360.83722643762701
 30
0.0
 40
1.0
 50
134.99999999999551
 51
180.0
1001
GENIUS_GENODEF_13
1002
{
1000
HIER
1070
     0
1002
}
1002
{
1000
MANEDIT
1070
     0
1002
}
1002
{
1000
NOSEL
1070
     0
1002
}
1002
{
1000
BEHIND
1070
     0
1002
}
1002
{
1000
OTHER
1070
     0
1002
}
1002
{
1000
REACTOR
1002
}
1001
GENIUS_GENOBJ-N-FIL_13
1002
{
1000
OWNER
1000
GEN
1002
}
  0
LINE
  5
2B4D
  8
AM_0
 10
232.9589086697641
 20
361.54433321881362
 30
0.0
 11
234.37312223213709
 21
362.95854678118673
 31
0.0
  0
ARC
  5
2B4E
  8
AM_0
 10
236.6660154509506
 20
368.75144000000012
 30
0.0
 40
2.0
 50
90.0
 51
180.0
1001
GENIUS_GENOBJ-N-FIL_13
1002
{
1000
OWNER
1000
GEN
1002
}
1001
GENIUS_GENODEF_13
1002
{
1000
HIER
1070
     0
1002
}
1002
{
1000
MANEDIT
1070
     0
1002
}
1002
{
1000
NOSEL
1070
     0
1002
}
1002
{
1000
BEHIND
1070
     0
1002
}
1002
{
1000
OTHER
1070
     0
1002
}
1002
{
1000
REACTOR
1002
}
  0
ARC
  5
2B4F
  8
AM_0
 10
255.52387529726661
 20
380.75144
 30
0.0
 40
10.0
 50
270.0
 51
314.99999999999562
1001
GENIUS_GENODEF_13
1002
{
1000
HIER
1070
     0
1002
}
1002
{
1000
MANEDIT
1070
     0
1002
}
1002
{
1000
NOSEL
1070
     0
1002
}
1002
{
1000
BEHIND
1070
     0
1002
}
1002
{
1000
OTHER
1070
     0
1002
}
1002
{
1000
REACTOR
1002
}
1001
GENIUS_GENOBJ-N-FIL_13
1002
{
1000
OWNER
1000
GEN
1002
}
  0
LINE
  5
2B50
  8
AM_0
 10
436.16595329160282
 20
433.427865
 30
0.0
 11
581.76725329160308
 21
433.427865
 31
0.0
  0
LINE
  5
2B51
  8
AM_0
 10
436.16595329160282
 20
331.63227000000001
 30
0.0
 11
587.1659532916027
 21
331.63227000000001
 31
0.0
  0
LINE
  5
2B52
  8
AM_0
 10
464.16590329160272
 20
231.96147500000001
 30
0.0
 11
546.00930329160246
 21
229.81833000000009
 31
0.0
  0
LINE
  5
2B53
  8
ﾁｭｳｼﾝｾﾝ
 10
450.35926547040481
 20
424.96146499999998
 30
0.0
 11
704.59480329160294
 21
424.96146499999998
 31
0.0
  0
LINE
  5
2B54
  8
AM_0
 10
290.16600329160292
 20
406.75144000000017
 30
0.0
 11
290.16600329160292
 21
280.75144
 31
0.0
  0
LINE
  5
2B55
  8
AM_0
 10
320.16600329160281
 20
345.75454999999999
 30
0.0
 11
320.16600329160281
 21
284.31262500000008
 31
0.0
  0
LINE
  5
2B56
  8
AM_0
 10
300.16600329160281
 20
279.7514700000001
 30
0.0
 11
300.16600329160281
 21
407.7514700000001
 31
0.0
  0
LINE
  5
2B57
  8
AM_0
 10
400.16600329160281
 20
305.9614600000001
 30
0.0
 11
400.16600329160281
 21
453.96146499999992
 31
0.0
  0
LINE
  5
2B58
  8
AM_0
 10
390.16600329160281
 20
309.03916000000009
 30
0.0
 11
390.16600329160281
 21
450.70782999999989
 31
0.0
  0
LINE
  5
2B59
  8
AM_0
 10
322.39720329160269
 20
285.14904999999999
 30
0.0
 11
389.51530329160278
 21
306.10752000000019
 31
0.0
  0
LINE
  5
2B5A
  8
AM_0
 10
325.34045329160278
 20
312.71103500000009
 30
0.0
 11
387.17095329160281
 21
310.55188500000008
 31
0.0
  0
ARC
  5
2B5B
  8
AM_0
 10
325.16600329160281
 20
307.71411499999999
 30
0.0
 40
5.0
 50
88.0
 51
180.00001
  0
ARC
  5
2B5C
  8
AM_0
 10
323.589603291603
 20
281.33087499999999
 30
0.0
 40
4.000000049999997
 50
107.3416099999999
 51
158.11661000000001
  0
ARC
  5
2B5D
  8
AM_0
 10
316.16600329160281
 20
284.31262500000008
 30
0.0
 40
4.000000049999997
 50
272.0
 51
0.0
  0
LINE
  5
2B5E
  8
AM_0
 10
300.16600329160292
 20
279.75144000000012
 30
0.0
 11
291.16600329160292
 21
279.75144000000012
 31
0.0
  0
ARC
  5
2B5F
  8
AM_0
 10
291.16600329160292
 20
280.75144
 30
0.0
 40
1.0
 50
180.0
 51
270.0
1001
GENIUS_GENODEF_13
1002
{
1000
HIER
1070
     0
1002
}
1002
{
1000
MANEDIT
1070
     0
1002
}
1002
{
1000
NOSEL
1070
     0
1002
}
1002
{
1000
BEHIND
1070
     0
1002
}
1002
{
1000
OTHER
1070
     0
1002
}
1002
{
1000
REACTOR
1002
}
1001
GENIUS_GENOBJ-N-FIL_13
1002
{
1000
OWNER
1000
GEN
1002
}
  0
LINE
  5
2B60
  8
AM_0
 10
300.16600329160281
 20
279.7514700000001
 30
0.0
 11
316.30555329160308
 21
280.31510000000009
 31
0.0
  0
LINE
  5
2B61
  8
AM_0
 10
300.16600329160281
 20
305.755135
 30
0.0
 11
290.16600329160292
 21
305.755135
 31
0.0
  0
LINE
  5
2B62
  8
AM_0
 10
300.16600329160281
 20
292.25144
 30
0.0
 11
290.16600329160292
 21
292.25144
 31
0.0
  0
ARC
  5
2B63
  8
AM_0
 10
285.16600329160292
 20
284.18037981752911
 30
0.0
 40
5.0
 50
0.0
 51
45.000000000004363
1001
GENIUS_GENODEF_13
1002
{
1000
HIER
1070
     0
1002
}
1002
{
1000
MANEDIT
1070
     0
1002
}
1002
{
1000
NOSEL
1070
     0
1002
}
1002
{
1000
BEHIND
1070
     0
1002
}
1002
{
1000
OTHER
1070
     0
1002
}
1002
{
1000
REACTOR
1002
}
1001
GENIUS_GENOBJ-N-FIL_13
1002
{
1000
OWNER
1000
GEN
1002
}
  0
LINE
  5
2B64
  8
AM_0
 10
300.16600329160281
 20
292.2514700000001
 30
0.0
 11
320.16600329160281
 21
292.2514700000001
 31
0.0
  0
LINE
  5
2B65
  8
AM_0
 10
300.16600329160281
 20
305.75515999999999
 30
0.0
 11
320.16600329160281
 21
305.75515999999999
 31
0.0
  0
ARC
  5
2B66
  8
AM_0
 10
431.1659532916027
 20
244.4847900000002
 30
0.0
 40
5.0
 50
0.0
 51
37.77724400000001
  0
LINE
  5
2B67
  8
AM_0
 10
438.096153291603
 20
232.871815
 30
0.0
 11
464.16595329160288
 21
231.96143000000001
 31
0.0
  0
ARC
  5
2B68
  8
AM_0
 10
438.16595329160259
 20
234.87062499999999
 30
0.0
 40
2.0000000500000001
 50
179.99998999999991
 51
268.00000999999992
  0
LINE
  5
2B69
  8
AM_0
 10
435.11790329160289
 20
247.54777999999999
 30
0.0
 11
417.76195329160282
 21
269.94132000000002
 31
0.0
  0
ARC
  5
2B6A
  8
AM_0
 10
425.66595329160259
 20
276.06723499999998
 30
0.0
 40
10.0
 50
179.99998999999991
 51
217.77722999999989
  0
LINE
  5
2B6B
  8
AM_0
 10
390.16600329160281
 20
316.96143000000001
 30
0.0
 11
415.66595329160282
 21
316.96143000000001
 31
0.0
  0
LINE
  5
2B6C
  8
AM_0
 10
400.16595329160248
 20
306.46143000000001
 30
0.0
 11
410.84045329160273
 21
306.0886900000001
 31
0.0
  0
ARC
  5
2B6D
  8
AM_0
 10
394.16595329160288
 20
310.173405
 30
0.0
 40
4.000000049999997
 50
206.8969399999998
 51
268.0
  0
LINE
  5
2B6E
  8
AM_0
 10
390.84715329160292
 20
306.28687000000002
 30
0.0
 11
400.16595329160248
 21
305.96143000000001
 31
0.0
  0
ARC
  5
2B6F
  8
AM_0
 10
390.70760329160288
 20
302.28931
 30
0.0
 40
4.000000049999997
 50
88.0
 51
107.3416099999999
  0
ARC
  5
2B70
  8
AM_0
 10
387.03135329160278
 20
306.55432500000001
 30
0.0
 40
4.000000049999997
 50
26.896937000000001
 51
88.0
  0
ARC
  5
2B71
  8
AM_0
 10
410.6659532916027
 20
301.09174000000019
 30
0.0
 40
5.0
 50
0.0
 51
88.0
  0
LINE
  5
2B72
  8
AM_0
 10
370.16170329160281
 20
427.95719000000003
 30
0.0
 11
388.99440329160308
 21
446.78989500000017
 31
0.0
  0
LINE
  5
2B73
  8
AM_0
 10
376.05680329160288
 20
381.74771500000008
 30
0.0
 11
382.73210329160281
 21
388.42300999999998
 31
0.0
  0
LINE
  5
2B74
  8
AM_0
 10
376.05675329160277
 20
381.74771500000008
 30
0.0
 11
390.1659532916027
 21
354.56559000000021
 31
0.0
  0
LINE
  5
2B75
  8
AM_0
 10
325.16600329160281
 20
350.75454999999999
 30
0.0
 11
390.16600329160281
 21
350.75454999999999
 31
0.0
  0
LINE
  5
2B76
  8
AM_0
 10
300.16600329160281
 20
395.25147000000021
 30
0.0
 11
379.90360329160279
 21
395.25147000000021
 31
0.0
  0
LINE
  5
2B77
  8
AM_0
 10
318.0612532916029
 20
444.73084
 30
0.0
 11
386.30560329160278
 21
447.11399
 31
0.0
  0
ARC
  5
2B78
  8
AM_0
 10
325.16600329160281
 20
345.75454999999999
 30
0.0
 40
5.0
 50
90.000003000000007
 51
180.00001
  0
LINE
  5
2B79
  8
AM_0
 10
300.16600329160281
 20
381.74778000000009
 30
0.0
 11
376.05680329160288
 21
381.74778000000009
 31
0.0
  0
LINE
  5
2B7A
  8
AM_0
 10
300.16600329160281
 20
381.74775
 30
0.0
 11
290.16600329160292
 21
381.74775
 31
0.0
  0
LINE
  5
2B7B
  8
AM_0
 10
319.9914532916028
 20
425.13000999999991
 30
0.0
 11
367.47295329160301
 21
426.78809000000001
 31
0.0
  0
LINE
  5
2B7C
  8
AM_0
 10
315.16600329160281
 20
441.73264000000017
 30
0.0
 11
315.16600329160281
 21
398.25147000000021
 31
0.0
  0
LINE
  5
2B7D
  8
AM_0
 10
300.16600329160292
 20
407.75144
 30
0.0
 11
291.16600329160292
 21
407.75144
 31
0.0
  0
LINE
  5
2B7E
  8
AM_0
 10
300.16600329160281
 20
395.25144
 30
0.0
 11
290.16600329160292
 21
395.25144
 31
0.0
  0
ARC
  5
2B7F
  8
AM_0
 10
285.16600329160292
 20
403.32250018247112
 30
0.0
 40
5.0
 50
314.99999999999562
 51
0.0
1001
GENIUS_GENODEF_13
1002
{
1000
HIER
1070
     0
1002
}
1002
{
1000
MANEDIT
1070
     0
1002
}
1002
{
1000
NOSEL
1070
     0
1002
}
1002
{
1000
BEHIND
1070
     0
1002
}
1002
{
1000
OTHER
1070
     0
1002
}
1002
{
1000
REACTOR
1002
}
1001
GENIUS_GENOBJ-N-FIL_13
1002
{
1000
OWNER
1000
GEN
1002
}
  0
ARC
  5
2B80
  8
AM_0
 10
291.16600329160292
 20
406.75144000000017
 30
0.0
 40
1.0
 50
90.0
 51
180.0
1001
GENIUS_GENODEF_13
1002
{
1000
HIER
1070
     0
1002
}
1002
{
1000
MANEDIT
1070
     0
1002
}
1002
{
1000
NOSEL
1070
     0
1002
}
1002
{
1000
BEHIND
1070
     0
1002
}
1002
{
1000
OTHER
1070
     0
1002
}
1002
{
1000
REACTOR
1002
}
1001
GENIUS_GENOBJ-N-FIL_13
1002
{
1000
OWNER
1000
GEN
1002
}
  0
ARC
  5
2B81
  8
AM_0
 10
310.16600329160281
 20
413.1037050000001
 30
0.0
 40
5.0
 50
272.0
 51
0.0
  0
LINE
  5
2B82
  8
AM_0
 10
300.16600329160281
 20
407.75150000000002
 30
0.0
 11
310.3405532916031
 21
408.10678500000012
 31
0.0
  0
ARC
  5
2B83
  8
AM_0
 10
312.16600329160281
 20
398.25147000000021
 30
0.0
 40
3.0000000500000001
 50
270.0
 51
0.0
  0
ARC
  5
2B84
  8
AM_0
 10
320.16600329160281
 20
420.13303000000002
 30
0.0
 40
5.0
 50
91.999997999999948
 51
180.00001
  0
ARC
  5
2B85
  8
AM_0
 10
318.16600329160281
 20
441.73264000000017
 30
0.0
 40
3.0000000500000001
 50
91.999997999999948
 51
180.00001
  0
LINE
  5
2B86
  8
AM_0
 10
369.04755329160281
 20
426.84302500000001
 30
0.0
 11
369.04755329160281
 21
395.25147000000021
 31
0.0
  0
ARC
  5
2B87
  8
AM_0
 10
367.33325329160311
 20
430.78564999999998
 30
0.0
 40
4.000000049999997
 50
272.0
 51
315.0
  0
ARC
  5
2B88
  8
AM_0
 10
379.90360329160279
 20
391.25144
 30
0.0
 40
4.000000049999997
 50
315.0
 51
90.000003000000007
  0
LINE
  5
2B89
  8
AM_0
 10
390.16600329160281
 20
341.14136500000001
 30
0.0
 11
415.66595329160282
 21
341.14136500000001
 31
0.0
  0
LINE
  5
2B8A
  8
AM_0
 10
390.16600329160281
 20
418.78156000000001
 30
0.0
 11
415.66595329160282
 21
418.78156000000001
 31
0.0
  0
LINE
  5
2B8B
  8
AM_0
 10
400.16600329160281
 20
453.4614949999999
 30
0.0
 11
410.840503291603
 21
453.83423499999992
 31
0.0
  0
LINE
  5
2B8C
  8
AM_0
 10
390.16600329160281
 20
442.96146500000032
 30
0.0
 11
415.66595329160282
 21
442.96146500000032
 31
0.0
  0
ARC
  5
2B8D
  8
AM_0
 10
394.04845329160293
 20
449.74540000000007
 30
0.0
 40
4.000000049999997
 50
91.999997999999948
 51
170.16762
  0
ARC
  5
2B8E
  8
AM_0
 10
386.1659532916027
 20
449.6182950000001
 30
0.0
 40
4.000000049999997
 50
315.0
 51
0.0
  0
ARC
  5
2B8F
  8
AM_0
 10
386.1659532916027
 20
451.1115200000001
 30
0.0
 40
4.000000049999997
 50
272.0
 51
350.16761000000002
  0
LINE
  5
2B90
  8
AM_0
 10
393.90895329160293
 20
453.74295499999999
 30
0.0
 11
400.16600329160281
 21
453.96146499999992
 31
0.0
  0
ARC
  5
2B91
  8
AM_0
 10
410.6659532916027
 20
458.83118500000012
 30
0.0
 40
5.0
 50
272.0
 51
0.0
  0
LINE
  5
2B92
  8
AM_0
 10
587.1659532916027
 20
332.68756500000001
 30
0.0
 11
587.1659532916027
 21
264.96146000000027
 31
0.0
  0
LINE
  5
2B93
  8
AM_0
 10
592.16595329160282
 20
259.9614600000001
 30
0.0
 11
609.16595329160282
 21
259.9614600000001
 31
0.0
  0
LINE
  5
2B94
  8
AM_0
 10
551.27110329160314
 20
231.15465
 30
0.0
 11
601.16595329160282
 21
259.9614600000001
 31
0.0
  0
ARC
  5
2B95
  8
AM_0
 10
546.27110329160314
 20
239.81489999999999
 30
0.0
 40
10.0
 50
268.5
 51
300.0
  0
LINE
  5
2B96
  8
AM_0
 10
509.16595329160282
 20
305.20737000000008
 30
0.0
 11
587.1659532916027
 21
305.20737000000008
 31
0.0
  0
LINE
  5
2B97
  8
AM_0
 10
509.16595329160282
 20
280.5625050000001
 30
0.0
 11
587.1659532916027
 21
280.5625050000001
 31
0.0
  0
ARC
  5
2B98
  8
AM_0
 10
509.16595329160282
 20
285.56250499999999
 30
0.0
 40
5.0
 50
179.99998999999991
 51
270.0
  0
LINE
  5
2B99
  8
AM_0
 10
504.16595329160282
 20
300.2073700000002
 30
0.0
 11
504.16595329160282
 21
285.56250499999999
 31
0.0
  0
ARC
  5
2B9A
  8
AM_0
 10
509.16595329160282
 20
300.2073700000002
 30
0.0
 40
5.0
 50
90.000003000000007
 51
180.00001
  0
ARC
  5
2B9B
  8
AM_0
 10
592.16595329160282
 20
264.96146000000027
 30
0.0
 40
5.0
 50
179.99998999999991
 51
270.0
  0
ARC
  5
2B9C
  8
AM_0
 10
588.16595329160282
 20
300.61234000000019
 30
0.0
 40
8.0
 50
270.0
 51
0.0
  0
LINE
  5
2B9D
  8
AM_0
 10
609.16595329160282
 20
284.96146000000027
 30
0.0
 11
614.16595329160282
 21
284.96146000000027
 31
0.0
  0
ARC
  5
2B9E
  8
AM_0
 10
588.16595329160282
 20
340.62482
 30
0.0
 40
8.0
 50
270.0
 51
0.0
  0
ARC
  5
2B9F
  8
AM_0
 10
594.45835329160309
 20
383.21210500000012
 30
0.0
 40
8.0
 50
185.29823999999991
 51
270.0
  0
LINE
  5
2BA0
  8
AM_0
 10
637.1659532916027
 20
456.46146500000009
 30
0.0
 11
699.16595329160282
 21
456.46146500000009
 31
0.0
  0
LINE
  5
2BA1
  8
AM_0
 10
617.16595329160282
 20
397.46146000000022
 30
0.0
 11
699.16595329160282
 21
397.46146000000022
 31
0.0
  0
LINE
  5
2BA2
  8
AM_0
 10
617.16595329160282
 20
452.46146500000009
 30
0.0
 11
699.16595329160282
 21
452.46146500000009
 31
0.0
  0
LINE
  5
2BA3
  8
AM_0
 10
617.16595329160282
 20
454.96146500000009
 30
0.0
 11
617.16595329160282
 21
394.96146000000022
 31
0.0
  0
LINE
  5
2BA4
  8
AM_0
 10
614.16595329160282
 20
394.96146000000022
 30
0.0
 11
617.16595329160282
 21
394.96146000000022
 31
0.0
  0
LINE
  5
2BA5
  8
AM_0
 10
614.16595329160282
 20
454.96146500000009
 30
0.0
 11
617.16595329160282
 21
454.96146500000009
 31
0.0
  0
LINE
  5
2BA6
  8
AM_0
 10
637.1659532916027
 20
456.46146500000009
 30
0.0
 11
637.1659532916027
 21
452.46146500000009
 31
0.0
  0
LINE
  5
2BA7
  8
AM_0
 10
699.16595329160282
 20
456.46146500000009
 30
0.0
 11
699.16595329160282
 21
397.46146000000022
 31
0.0
  0
LINE
  5
2BA8
  8
AM_0
 10
464.16595329160288
 20
546.96145000000001
 30
0.0
 11
565.94740329160322
 21
549.62665000000015
 31
0.0
  0
LINE
  5
2BA9
  8
AM_0
 10
431.1659532916027
 20
544.96150000000011
 30
0.0
 11
431.1659532916027
 21
514.89415000000008
 31
0.0
  0
LINE
  5
2BAA
  8
AM_0
 10
430.46740329160281
 20
512.34514999999976
 30
0.0
 11
435.46740329160292
 21
520.7826500000001
 31
0.0
  0
LINE
  5
2BAB
  8
AM_0
 10
417.06305329160273
 20
489.72532000000001
 30
0.0
 11
430.46740329160281
 21
512.34514999999976
 31
0.0
  0
ARC
  5
2BAC
  8
AM_0
 10
425.66595329160259
 20
484.62726500000008
 30
0.0
 40
10.0
 50
149.34933000000001
 51
180.00001
  0
ARC
  5
2BAD
  8
AM_0
 10
426.16595329160259
 20
514.89415000000008
 30
0.0
 40
5.0
 50
329.34933000000001
 51
0.0
  0
ARC
  5
2BAE
  8
AM_0
 10
431.1659532916027
 20
523.33164999999985
 30
0.0
 40
5.0
 50
329.34933000000001
 51
0.0
  0
ARC
  5
2BAF
  8
AM_0
 10
427.74090329160282
 20
548.03120000000013
 30
0.0
 40
6.0
 50
349.72994999999997
 51
53.533291000000013
  0
LINE
  5
2BB0
  8
AM_0
 10
433.1659532916027
 20
546.96145000000001
 30
0.0
 11
464.16595329160288
 21
546.96145000000001
 31
0.0
  0
CIRCLE
  5
2BB1
  8
AM_0
 10
446.16595329160259
 20
572.96145000000013
 30
0.0
 40
15.0
  0
ARC
  5
2BB2
  8
AM_0
 10
446.16595329160259
 20
572.96145000000013
 30
0.0
 40
25.000000499999999
 50
306.46672000000001
 51
233.53328999999999
  0
ARC
  5
2BB3
  8
AM_0
 10
433.1659532916027
 20
544.96150000000011
 30
0.0
 40
2.0000000500000001
 50
90.000003000000007
 51
180.00001
  0
LINE
  5
2BB4
  8
AM_0
 10
438.09620329160288
 20
546.06159999999988
 30
0.0
 11
463.86600329160268
 21
546.96150000000011
 31
0.0
  0
LINE
  5
2BB5
  8
AM_0
 10
458.66595329160259
 20
546.96150000000011
 30
0.0
 11
456.41545329160277
 21
555.36040000000025
 31
0.0
  0
ARC
  5
2BB6
  8
AM_0
 10
464.590953291603
 20
548.03120000000013
 30
0.0
 40
6.0
 50
126.4666999999999
 51
190.27006
  0
LINE
  5
2BB7
  8
AM_0
 10
433.66595329160259
 20
546.96150000000011
 30
0.0
 11
435.91645329160281
 21
555.36040000000025
 31
0.0
  0
ARC
  5
2BB8
  8
AM_0
 10
438.16595329160259
 20
544.06275000000028
 30
0.0
 40
2.0000000500000001
 50
91.999997999999948
 51
180.00001
  0
LINE
  5
2BB9
  8
AM_0
 10
446.16595329160259
 20
557.96145000000013
 30
0.0
 11
455.64400329160281
 21
556.08245000000011
 31
0.0
  0
LINE
  5
2BBA
  8
AM_0
 10
436.37190329160302
 20
555.96145000000001
 30
0.0
 11
455.95995329160291
 21
555.96145000000001
 31
0.0
  0
ARC
  5
2BBB
  8
AM_0
 10
436.88240329160288
 20
555.10155000000032
 30
0.0
 40
1.0
 50
101.21329
 51
164.99999
  0
LINE
  5
2BBC
  8
AM_0
 10
436.68785329160312
 20
556.08245000000011
 30
0.0
 11
446.16595329160259
 21
557.96150000000011
 31
0.0
  0
ARC
  5
2BBD
  8
AM_0
 10
455.44960329160313
 20
555.10155000000032
 30
0.0
 40
1.0
 50
15.0
 51
78.786709999999999
  0
LINE
  5
2BBE
  8
AM_0
 10
591.99150329160329
 20
589.36175000000026
 30
0.0
 11
609.16600329160281
 21
589.96150000000011
 31
0.0
  0
LINE
  5
2BBF
  8
AM_0
 10
546.51545329160285
 20
522.32550000000015
 30
0.0
 11
584.75475329160315
 21
545.46795000000009
 31
0.0
  0
ARC
  5
2BC0
  8
AM_0
 10
549.10435329160282
 20
518.04785000000015
 30
0.0
 40
5.0
 50
121.18236
 51
180.00001
  0
ARC
  5
2BC1
  8
AM_0
 10
549.10435329160282
 20
515.83495000000005
 30
0.0
 40
5.0
 50
179.99998999999991
 51
270.0
  0
LINE
  5
2BC2
  8
AM_0
 10
544.10435329160282
 20
518.04785000000015
 30
0.0
 11
544.10435329160282
 21
515.83495000000005
 31
0.0
  0
ARC
  5
2BC3
  8
AM_0
 10
588.16595329160282
 20
491.29810499999991
 30
0.0
 40
8.0
 50
0.0
 51
90.000003000000007
  0
LINE
  5
2BC4
  8
AM_0
 10
549.10435329160282
 20
510.83499999999998
 30
0.0
 11
572.85920329160285
 21
510.83499999999998
 31
0.0
  0
LINE
  5
2BC5
  8
AM_0
 10
549.09505329160311
 20
512.61189999999999
 30
0.0
 11
584.66410329160306
 21
534.1383000000003
 31
0.0
  0
LINE
  5
2BC6
  8
AM_0
 10
575.8161032916031
 20
511.80310000000009
 30
0.0
 11
587.1659532916027
 21
520.12690000000021
 31
0.0
  0
ARC
  5
2BC7
  8
AM_0
 10
572.85920329160285
 20
515.83495000000005
 30
0.0
 40
5.0
 50
270.0
 51
306.25555000000008
  0
ARC
  5
2BC8
  8
AM_0
 10
565.685603291603
 20
559.6232500000001
 30
0.0
 40
10.0
 50
271.49999999999972
 51
315.0
  0
LINE
  5
2BC9
  8
AM_0
 10
571.96380329160274
 20
539.14080000000013
 30
0.0
 11
570.89295329160268
 21
550.68840000000012
 31
0.0
  0
ARC
  5
2BCA
  8
AM_0
 10
588.16595329160282
 20
549.31060000000002
 30
0.0
 40
8.0
 50
0.0
 51
90.000003000000007
  0
LINE
  5
2BCB
  8
AM_0
 10
572.75670329160312
 20
552.55220000000008
 30
0.0
 11
587.1659532916027
 21
566.96145000000001
 31
0.0
  0
ARC
  5
2BCC
  8
AM_0
 10
582.16595329160282
 20
549.74554999999998
 30
0.0
 40
5.0
 50
301.18236000000002
 51
0.0
  0
ARC
  5
2BCD
  8
AM_0
 10
592.16595329160282
 20
584.36475000000019
 30
0.0
 40
5.0
 50
91.999997999999948
 51
180.00001
  0
LINE
  5
2BCE
  8
AM_0
 10
609.16595329160282
 20
564.96150000000011
 30
0.0
 11
614.16595329160282
 21
564.96150000000011
 31
0.0
  0
LINE
  5
2BCF
  8
ﾁｭｳｼﾝｾﾝ
 10
1028.7657237916021
 20
217.936285
 30
0.0
 11
1028.7657237916021
 21
604.41415000000018
 31
0.0
  0
LINE
  5
2BD0
  8
AM_0
 10
863.76570379160296
 20
369.96146000000022
 30
0.0
 11
863.76570379160296
 21
479.96146500000009
 31
0.0
  0
LINE
  5
2BD1
  8
AM_0
 10
1193.765698791603
 20
369.96146000000022
 30
0.0
 11
1193.765698791603
 21
479.96146500000009
 31
0.0
  0
ARC
  5
2BD2
  8
AM_0
 10
1028.7657237916021
 20
424.96146499999998
 30
0.0
 40
75.0
 50
142.90321
 51
180.00001
  0
CIRCLE
  5
2BD3
  8
AM_0
 10
1028.7657237916021
 20
424.96146499999998
 30
0.0
 40
132.0
  0
ARC
  5
2BD4
  8
AM_0
 10
1028.7657237916021
 20
424.96146499999998
 30
0.0
 40
60.0
 50
90.000003000000007
 51
270.0
  0
ARC
  5
2BD5
  8
AM_0
 10
1028.7657237916021
 20
424.96146499999998
 30
0.0
 40
60.0
 50
270.0
 51
90.000003000000007
  0
CIRCLE
  5
2BD6
  8
AM_0
 10
1028.7657237916021
 20
424.96146499999998
 30
0.0
 40
140.0
  0
ARC
  5
2BD7
  8
AM_0
 10
1028.7657237916021
 20
424.96146499999998
 30
0.0
 40
75.0
 50
0.0
 51
37.096792999999991
  0
ARC
  5
2BD8
  8
AM_0
 10
1155.371393791602
 20
414.9614600000001
 30
0.0
 40
5.0
 50
270.0
 51
355.48385000000002
  0
LINE
  5
2BD9
  8
ﾁｭｳｼﾝｾﾝ
 10
852.7840037916028
 20
424.96146499999998
 30
0.0
 11
1206.192288791603
 21
424.96146499999998
 31
0.0
  0
LINE
  5
2BDA
  8
AM_0
 10
1083.7657237916021
 20
259.9614600000001
 30
0.0
 11
1170.304528791602
 21
264.49677000000003
 31
0.0
  0
ARC
  5
2BDB
  8
AM_0
 10
995.76569379160242
 20
331.63227000000001
 30
0.0
 40
102.81999499999991
 50
222.01517999999999
 51
235.0
  0
LINE
  5
2BDC
  8
AM_0
 10
973.7656937916023
 20
259.9614600000001
 30
0.0
 11
887.22685379160293
 21
264.49677000000003
 31
0.0
  0
LINE
  5
2BDD
  8
AM_0
 10
902.16003879160269
 20
409.9614600000001
 30
0.0
 11
948.7657237916028
 21
409.9614600000001
 31
0.0
  0
LINE
  5
2BDE
  8
AM_0
 10
863.76570379160296
 20
369.96143000000001
 30
0.0
 11
868.30105379160295
 21
283.42264
 31
0.0
  0
LINE
  5
2BDF
  8
ﾁｭｳｼﾝｾﾝ1
 10
904.26081991575245
 20
300.4565929824833
 30
0.0
 11
876.64915379160277
 21
272.844945
 31
0.0
  0
ARC
  5
2BE0
  8
ﾁｭｳｼﾝｾﾝ1
 10
1028.7657237916021
 20
424.96146499999998
 30
0.0
 40
195.0000049999999
 50
218.16531999999989
 51
232.12885999999989
  0
ARC
  5
2BE1
  8
AM_0
 10
888.2736037916028
 20
284.46933500000029
 30
0.0
 40
20.000000499999999
 50
183.00001
 51
267.0
  0
CIRCLE
  5
2BE2
  8
AM_0
 10
890.87988879160275
 20
287.0756550000001
 30
0.0
 40
9.5
  0
ARC
  5
2BE3
  8
AM_0
 10
902.16003879160269
 20
414.9614600000001
 30
0.0
 40
5.0
 50
184.51616000000001
 51
270.0
  0
LINE
  5
2BE4
  8
AM_0
 10
966.91867879160293
 20
229.14147
 30
0.0
 11
1090.612708791602
 21
229.14147
 31
0.0
  0
LINE
  5
2BE5
  8
AM_0
 10
973.7657237916028
 20
259.9614600000001
 30
0.0
 11
1083.765693791602
 21
259.9614600000001
 31
0.0
  0
LINE
  5
2BE6
  8
AM_0
 10
959.56543879160245
 20
231.459935
 30
0.0
 11
936.79056379160295
 21
247.40708000000001
 31
0.0
  0
ARC
  5
2BE7
  8
AM_0
 10
966.91867879160293
 20
241.96145999999999
 30
0.0
 40
12.82
 50
235.0
 51
270.0
  0
LINE
  5
2BE8
  8
AM_0
 10
1097.965953791602
 20
231.45996500000001
 30
0.0
 11
1120.740823791602
 21
247.40709500000011
 31
0.0
  0
ARC
  5
2BE9
  8
AM_0
 10
1090.612708791602
 20
241.96145999999999
 30
0.0
 40
12.82
 50
270.0
 51
305.0
  0
ARC
  5
2BEA
  8
AM_0
 10
1061.765693791602
 20
331.63227000000001
 30
0.0
 40
102.81999499999991
 50
305.0
 51
317.98482000000001
  0
LINE
  5
2BEB
  8
ﾁｭｳｼﾝｾﾝ
 10
955.67766712385833
 20
379.96146000000022
 30
0.0
 11
1101.853780459347
 21
379.96146000000022
 31
0.0
  0
ARC
  5
2BEC
  8
AM_0
 10
1028.7657237916021
 20
424.96146499999998
 30
0.0
 40
27.500000499999999
 50
106.91239
 51
73.087597000000002
  0
LINE
  5
2BED
  8
AM_0
 10
953.76572379160245
 20
424.96146499999998
 30
0.0
 11
953.76572379160245
 21
414.9614600000001
 31
0.0
  0
ARC
  5
2BEE
  8
AM_0
 10
948.7657237916028
 20
414.9614600000001
 30
0.0
 40
5.0
 50
270.0
 51
0.0
  0
CIRCLE
  5
2BEF
  8
AM_5
 10
1028.7657237916021
 20
424.96146499999998
 30
0.0
 40
6.0
  0
CIRCLE
  5
2BF0
  8
AM_0
 10
1028.7657237916021
 20
424.96146499999998
 30
0.0
 40
4.500000049999997
  0
LINE
  5
2BF1
  8
AM_0
 10
1020.765693791602
 20
446.46146499999992
 30
0.0
 11
1036.765693791602
 21
446.46146499999992
 31
0.0
  0
LINE
  5
2BF2
  8
AM_0
 10
1020.765693791602
 20
456.46146500000009
 30
0.0
 11
1036.765693791602
 21
456.46146500000009
 31
0.0
  0
LINE
  5
2BF3
  8
AM_0
 10
1020.765693791602
 20
446.46146499999992
 30
0.0
 11
1020.765693791602
 21
456.46146500000009
 31
0.0
  0
LINE
  5
2BF4
  8
AM_0
 10
1036.765693791602
 20
446.46146499999992
 30
0.0
 11
1036.765693791602
 21
456.46146500000009
 31
0.0
  0
LINE
  5
2BF5
  8
AM_0
 10
1155.371393791602
 20
409.9614600000001
 30
0.0
 11
1108.7656937916011
 21
409.9614600000001
 31
0.0
  0
LINE
  5
2BF6
  8
AM_0
 10
1103.765693791602
 20
424.96146499999998
 30
0.0
 11
1103.765693791602
 21
414.9614600000001
 31
0.0
  0
ARC
  5
2BF7
  8
AM_0
 10
1108.7656937916011
 20
414.9614600000001
 30
0.0
 40
5.0
 50
179.99998999999991
 51
270.0
  0
LINE
  5
2BF8
  8
AM_0
 10
1193.765698791603
 20
369.96146000000022
 30
0.0
 11
1189.230388791603
 21
283.42261000000002
 31
0.0
  0
CIRCLE
  5
2BF9
  8
AM_0
 10
1166.651528791602
 20
287.0756550000001
 30
0.0
 40
9.5
  0
ARC
  5
2BFA
  8
AM_0
 10
1169.257808791602
 20
284.46933500000029
 30
0.0
 40
20.000000499999999
 50
273.0
 51
357.0
  0
LINE
  5
2BFB
  8
ﾁｭｳｼﾝｾﾝ1
 10
1153.78035867527
 20
549.97615282178822
 30
0.0
 11
1178.4941859329031
 21
574.6899591624599
 31
0.0
  0
ARC
  5
2BFC
  8
ﾁｭｳｼﾝｾﾝ1
 10
1028.7657237916021
 20
424.96146499999998
 30
0.0
 40
195.0000049999999
 50
39.367218999999999
 51
50.896189000000007
  0
LINE
  5
2BFD
  8
AM_0
 10
1083.765663791602
 20
589.96145000000013
 30
0.0
 11
1170.304513791601
 21
585.42615000000012
 31
0.0
  0
ARC
  5
2BFE
  8
AM_0
 10
931.52243879160324
 20
506.64839999999992
 30
0.0
 40
5.0
 50
45.00000099999999
 51
139.96885
  0
LINE
  5
2BFF
  8
AM_0
 10
973.7656937916023
 20
589.96145000000013
 30
0.0
 11
887.22685379160293
 21
585.42615000000012
 31
0.0
  0
LINE
  5
2C00
  8
AM_0
 10
863.76570379160296
 20
479.96146500000009
 30
0.0
 11
868.30095379160275
 21
566.50025000000005
 31
0.0
  0
ARC
  5
2C01
  8
AM_0
 10
888.2736037916028
 20
565.45355000000006
 30
0.0
 40
20.000000499999999
 50
92.999999000000017
 51
176.99999
  0
CIRCLE
  5
2C02
  8
AM_0
 10
890.87988879160275
 20
562.84730000000013
 30
0.0
 40
9.5
  0
LINE
  5
2C03
  8
AM_0
 10
973.7657237916028
 20
589.96150000000011
 30
0.0
 11
1083.765693791602
 21
589.96150000000011
 31
0.0
  0
ARC
  5
2C04
  8
AM_0
 10
1028.7657237916021
 20
424.96146499999998
 30
0.0
 40
75.0
 50
52.903206000000019
 51
127.0967899999999
  0
LINE
  5
2C05
  8
AM_0
 10
968.49182879160298
 20
476.75004000000013
 30
0.0
 11
935.05798879160295
 21
510.18389999999999
 31
0.0
  0
LINE
  5
2C06
  8
AM_0
 10
976.97711879160295
 20
485.23532999999992
 30
0.0
 11
943.54327879160292
 21
518.66920000000005
 31
0.0
  0
ARC
  5
2C07
  8
AM_0
 10
964.95627379160305
 20
473.2145450000001
 30
0.0
 40
5.0
 50
322.90320999999989
 51
45.00000099999999
  0
ARC
  5
2C08
  8
AM_0
 10
980.5126087916027
 20
488.77088000000009
 30
0.0
 40
5.0
 50
225.0
 51
307.09678999999983
  0
ARC
  5
2C09
  8
AM_0
 10
947.07880379160224
 20
522.20470000000012
 30
0.0
 40
5.0
 50
130.03115
 51
225.0
  0
ARC
  5
2C0A
  8
AM_0
 10
1028.7657237916021
 20
592.96145000000013
 30
0.0
 40
5.0
 50
359.99998999999991
 51
179.99998999999991
  0
LINE
  5
2C0B
  8
AM_0
 10
1023.765723791602
 20
592.96145000000013
 30
0.0
 11
1023.765723791602
 21
589.96150000000011
 31
0.0
  0
LINE
  5
2C0C
  8
AM_0
 10
1033.7657237916021
 20
592.96145000000013
 30
0.0
 11
1033.7657237916021
 21
589.96150000000011
 31
0.0
  0
LINE
  5
2C0D
  8
AM_0
 10
1089.0395587916021
 20
476.75007000000022
 30
0.0
 11
1122.473398791602
 21
510.18389999999999
 31
0.0
  0
LINE
  5
2C0E
  8
AM_0
 10
1080.5542987916031
 20
485.23532999999992
 30
0.0
 11
1113.988138791603
 21
518.66920000000005
 31
0.0
  0
ARC
  5
2C0F
  8
AM_0
 10
1092.575113791602
 20
473.2145450000001
 30
0.0
 40
5.0
 50
135.0
 51
217.0967999999998
  0
ARC
  5
2C10
  8
AM_0
 10
1077.018778791602
 20
488.77088000000009
 30
0.0
 40
5.0
 50
232.9032099999998
 51
315.0
  0
ARC
  5
2C11
  8
AM_0
 10
1126.0089487916021
 20
506.64839999999992
 30
0.0
 40
5.0
 50
40.031147999999973
 51
135.0
  0
ARC
  5
2C12
  8
AM_0
 10
1110.4526137916021
 20
522.20470000000012
 30
0.0
 40
5.0
 50
315.0
 51
49.968851000000001
  0
LINE
  5
2C13
  8
AM_0
 10
1193.765698791603
 20
479.96146500000009
 30
0.0
 11
1189.230388791603
 21
566.50025000000005
 31
0.0
  0
CIRCLE
  5
2C14
  8
AM_0
 10
1166.651528791602
 20
562.84730000000013
 30
0.0
 40
9.5
  0
ARC
  5
2C15
  8
AM_0
 10
1169.257808791602
 20
565.45355000000006
 30
0.0
 40
20.000000499999999
 50
3.0000000999999981
 51
86.999998999999988
  0
LINE
  5
2C16
  8
AM_0
 10
232.66608545095011
 20
906.44035247343072
 30
0.0
 11
232.66608545095011
 21
872.26877959817693
 31
0.0
  0
LINE
  5
2C17
  8
AM_0
 10
234.66608545095011
 20
864.35456603580394
 30
0.0
 11
234.66608545095011
 21
914.35456603580394
 31
0.0
  0
LINE
  5
2C18
  8
AM_0
 10
290.16607329160269
 20
952.35456603580383
 30
0.0
 11
290.16607329160269
 21
826.35456603580417
 31
0.0
  0
LINE
  5
2C19
  8
AM_0
 10
259.66608092099722
 20
916.35456603580394
 30
0.0
 11
259.66608092099722
 21
862.35456603580417
 31
0.0
  0
LINE
  5
2C1A
  8
AM_0
 10
288.70160719753522
 20
833.31903975926593
 30
0.0
 11
262.59501310913163
 21
859.4256338476697
 31
0.0
  0
ARC
  5
2C1B
  8
AM_0
 10
255.52394529726621
 20
852.35456603580417
 30
0.0
 40
10.0
 50
45.0
 51
90.0
1001
GENIUS_GENODEF_13
1002
{
1000
HIER
1070
     0
1002
}
1002
{
1000
MANEDIT
1070
     0
1002
}
1002
{
1000
NOSEL
1070
     0
1002
}
1002
{
1000
BEHIND
1070
     0
1002
}
1002
{
1000
OTHER
1070
     0
1002
}
1002
{
1000
REACTOR
1002
}
1001
GENIUS_GENOBJ-N-FIL_13
1002
{
1000
OWNER
1000
GEN
1002
}
  0
LINE
  5
2C1C
  8
AM_0
 10
236.66608545095011
 20
862.35456603580417
 30
0.0
 11
255.52394529726621
 21
862.35456603580417
 31
0.0
  0
ARC
  5
2C1D
  8
AM_0
 10
236.66608545095011
 20
864.35456603580394
 30
0.0
 40
2.0
 50
180.0
 51
270.0
1001
GENIUS_GENOBJ-N-FIL_13
1002
{
1000
OWNER
1000
GEN
1002
}
1001
GENIUS_GENODEF_13
1002
{
1000
HIER
1070
     0
1002
}
1002
{
1000
MANEDIT
1070
     0
1002
}
1002
{
1000
NOSEL
1070
     0
1002
}
1002
{
1000
BEHIND
1070
     0
1002
}
1002
{
1000
OTHER
1070
     0
1002
}
1002
{
1000
REACTOR
1002
}
  0
LINE
  5
2C1E
  8
AM_0
 10
232.95897866976361
 20
871.56167281699095
 30
0.0
 11
234.3731922321368
 21
870.14745925461762
 31
0.0
  0
ARC
  5
2C1F
  8
AM_0
 10
233.66608545095011
 20
869.44035247343095
 30
0.0
 40
1.0
 50
0.0
 51
45.0
1001
GENIUS_GENODEF_13
1002
{
1000
HIER
1070
     0
1002
}
1002
{
1000
MANEDIT
1070
     0
1002
}
1002
{
1000
NOSEL
1070
     0
1002
}
1002
{
1000
BEHIND
1070
     0
1002
}
1002
{
1000
OTHER
1070
     0
1002
}
1002
{
1000
REACTOR
1002
}
1001
GENIUS_GENOBJ-N-FIL_13
1002
{
1000
OWNER
1000
GEN
1002
}
  0
ARC
  5
2C20
  8
AM_0
 10
233.66608545095011
 20
872.26877959817693
 30
0.0
 40
1.0
 50
180.0
 51
225.0
1001
GENIUS_GENODEF_13
1002
{
1000
HIER
1070
     0
1002
}
1002
{
1000
MANEDIT
1070
     0
1002
}
1002
{
1000
NOSEL
1070
     0
1002
}
1002
{
1000
BEHIND
1070
     0
1002
}
1002
{
1000
OTHER
1070
     0
1002
}
1002
{
1000
REACTOR
1002
}
1001
GENIUS_GENOBJ-N-FIL_13
1002
{
1000
OWNER
1000
GEN
1002
}
  0
ARC
  5
2C21
  8
AM_0
 10
285.16607329160257
 20
829.78350585333317
 30
0.0
 40
5.0
 50
0.0
 51
45.0
1001
GENIUS_GENODEF_13
1002
{
1000
HIER
1070
     0
1002
}
1002
{
1000
MANEDIT
1070
     0
1002
}
1002
{
1000
NOSEL
1070
     0
1002
}
1002
{
1000
BEHIND
1070
     0
1002
}
1002
{
1000
OTHER
1070
     0
1002
}
1002
{
1000
REACTOR
1002
}
1001
GENIUS_GENOBJ-N-FIL_13
1002
{
1000
OWNER
1000
GEN
1002
}
  0
LINE
  5
2C22
  8
AM_0
 10
300.16607329160257
 20
825.35456603580394
 30
0.0
 11
291.16607329160257
 21
825.35456603580394
 31
0.0
  0
ARC
  5
2C23
  8
AM_0
 10
291.16607329160257
 20
826.35456603580417
 30
0.0
 40
1.0
 50
180.0
 51
270.0
1001
GENIUS_GENODEF_13
1002
{
1000
HIER
1070
     0
1002
}
1002
{
1000
MANEDIT
1070
     0
1002
}
1002
{
1000
NOSEL
1070
     0
1002
}
1002
{
1000
BEHIND
1070
     0
1002
}
1002
{
1000
OTHER
1070
     0
1002
}
1002
{
1000
REACTOR
1002
}
1001
GENIUS_GENOBJ-N-FIL_13
1002
{
1000
OWNER
1000
GEN
1002
}
  0
LINE
  5
2C24
  8
AM_0
 10
300.16607329160257
 20
851.35826103580393
 30
0.0
 11
290.1660732916028
 21
851.35826103580393
 31
0.0
  0
LINE
  5
2C25
  8
AM_0
 10
300.16607329160257
 20
837.85456603580394
 30
0.0
 11
290.1660732916028
 21
837.85456603580394
 31
0.0
  0
LINE
  5
2C26
  8
AM_0
 10
288.70160719753522
 20
945.39009231234229
 30
0.0
 11
262.59501310913163
 21
919.28349822393875
 31
0.0
  0
ARC
  5
2C27
  8
AM_0
 10
255.52394529726621
 20
926.35456603580394
 30
0.0
 40
10.0
 50
270.0
 51
315.0
1001
GENIUS_GENODEF_13
1002
{
1000
HIER
1070
     0
1002
}
1002
{
1000
MANEDIT
1070
     0
1002
}
1002
{
1000
NOSEL
1070
     0
1002
}
1002
{
1000
BEHIND
1070
     0
1002
}
1002
{
1000
OTHER
1070
     0
1002
}
1002
{
1000
REACTOR
1002
}
1001
GENIUS_GENOBJ-N-FIL_13
1002
{
1000
OWNER
1000
GEN
1002
}
  0
ARC
  5
2C28
  8
AM_0
 10
236.66608545095011
 20
914.35456603580394
 30
0.0
 40
2.0
 50
90.0
 51
180.0
1001
GENIUS_GENOBJ-N-FIL_13
1002
{
1000
OWNER
1000
GEN
1002
}
1001
GENIUS_GENODEF_13
1002
{
1000
HIER
1070
     0
1002
}
1002
{
1000
MANEDIT
1070
     0
1002
}
1002
{
1000
NOSEL
1070
     0
1002
}
1002
{
1000
BEHIND
1070
     0
1002
}
1002
{
1000
OTHER
1070
     0
1002
}
1002
{
1000
REACTOR
1002
}
  0
LINE
  5
2C29
  8
AM_0
 10
202.66608545095011
 20
897.35456603580394
 30
0.0
 11
230.66608545095011
 21
897.35456603580394
 31
0.0
  0
LINE
  5
2C2A
  8
AM_0
 10
202.66608545095011
 20
881.35456603580394
 30
0.0
 11
230.66608545095011
 21
881.35456603580394
 31
0.0
  0
LINE
  5
2C2B
  8
AM_0
 10
202.66608545095011
 20
897.35456603580394
 30
0.0
 11
202.66608545095011
 21
881.35456603580394
 31
0.0
  0
LINE
  5
2C2C
  8
AM_0
 10
202.66608545095011
 20
886.85456603580394
 30
0.0
 11
224.66608545095031
 21
886.85456603580394
 31
0.0
  0
LINE
  5
2C2D
  8
AM_0
 10
202.66608545095011
 20
891.85456603580405
 30
0.0
 11
224.66608545095031
 21
891.85456603580405
 31
0.0
  0
LINE
  5
2C2E
  8
AM_0
 10
224.66608545095031
 20
891.85456603580405
 30
0.0
 11
224.66608545095031
 21
886.85456603580394
 31
0.0
  0
ARC
  5
2C2F
  8
AM_0
 10
224.66608545095031
 20
889.35456603580394
 30
0.0
 40
2.5
 50
270.0
 51
90.0
  0
LINE
  5
2C30
  8
AM_0
 10
230.66608545095011
 20
897.85456603580417
 30
0.0
 11
230.66608545095011
 21
880.85456603580417
 31
0.0
  0
LINE
  5
2C31
  8
AM_0
 10
230.66608545095011
 20
880.85457136885429
 30
0.0
 11
232.66608545095011
 21
880.85457030224461
 31
0.0
  0
LINE
  5
2C32
  8
AM_0
 10
236.66608545095011
 20
916.35456603580394
 30
0.0
 11
255.52394529726621
 21
916.35456603580394
 31
0.0
  0
LINE
  5
2C33
  8
AM_0
 10
230.66608545095011
 20
897.85456603580417
 30
0.0
 11
232.66608545095011
 21
897.85456603580417
 31
0.0
  0
ARC
  5
2C34
  8
AM_0
 10
233.66608545095011
 20
906.44035247343072
 30
0.0
 40
1.0
 50
135.0
 51
180.0
1001
GENIUS_GENODEF_13
1002
{
1000
HIER
1070
     0
1002
}
1002
{
1000
MANEDIT
1070
     0
1002
}
1002
{
1000
NOSEL
1070
     0
1002
}
1002
{
1000
BEHIND
1070
     0
1002
}
1002
{
1000
OTHER
1070
     0
1002
}
1002
{
1000
REACTOR
1002
}
1001
GENIUS_GENOBJ-N-FIL_13
1002
{
1000
OWNER
1000
GEN
1002
}
  0
ARC
  5
2C35
  8
AM_0
 10
233.66608545095011
 20
909.26877959817739
 30
0.0
 40
1.0
 50
315.0
 51
0.0
1001
GENIUS_GENODEF_13
1002
{
1000
HIER
1070
     0
1002
}
1002
{
1000
MANEDIT
1070
     0
1002
}
1002
{
1000
NOSEL
1070
     0
1002
}
1002
{
1000
BEHIND
1070
     0
1002
}
1002
{
1000
OTHER
1070
     0
1002
}
1002
{
1000
REACTOR
1002
}
1001
GENIUS_GENOBJ-N-FIL_13
1002
{
1000
OWNER
1000
GEN
1002
}
  0
LINE
  5
2C36
  8
AM_0
 10
232.95897866976361
 20
907.1474592546175
 30
0.0
 11
234.3731922321368
 21
908.56167281699084
 31
0.0
  0
LINE
  5
2C37
  8
AM_0
 10
300.16607329160257
 20
953.35456603580405
 30
0.0
 11
291.16607329160257
 21
953.35456603580405
 31
0.0
  0
LINE
  5
2C38
  8
AM_0
 10
300.16607329160257
 20
940.85456603580405
 30
0.0
 11
290.1660732916028
 21
940.85456603580405
 31
0.0
  0
LINE
  5
2C39
  8
AM_0
 10
300.16607329160257
 20
927.35087603580394
 30
0.0
 11
290.1660732916028
 21
927.35087603580394
 31
0.0
  0
ARC
  5
2C3A
  8
AM_0
 10
285.16607329160257
 20
948.92562621827517
 30
0.0
 40
5.0
 50
315.0
 51
0.0
1001
GENIUS_GENODEF_13
1002
{
1000
HIER
1070
     0
1002
}
1002
{
1000
MANEDIT
1070
     0
1002
}
1002
{
1000
NOSEL
1070
     0
1002
}
1002
{
1000
BEHIND
1070
     0
1002
}
1002
{
1000
OTHER
1070
     0
1002
}
1002
{
1000
REACTOR
1002
}
1001
GENIUS_GENOBJ-N-FIL_13
1002
{
1000
OWNER
1000
GEN
1002
}
  0
ARC
  5
2C3B
  8
AM_0
 10
291.16607329160257
 20
952.35456603580383
 30
0.0
 40
1.0
 50
90.0
 51
180.0
1001
GENIUS_GENODEF_13
1002
{
1000
HIER
1070
     0
1002
}
1002
{
1000
MANEDIT
1070
     0
1002
}
1002
{
1000
NOSEL
1070
     0
1002
}
1002
{
1000
BEHIND
1070
     0
1002
}
1002
{
1000
OTHER
1070
     0
1002
}
1002
{
1000
REACTOR
1002
}
1001
GENIUS_GENOBJ-N-FIL_13
1002
{
1000
OWNER
1000
GEN
1002
}
  0
ARC
  5
2C3D
  8
ﾁｭｳｼﾝｾﾝ1
 10
1028.7657237916021
 20
424.96146499999992
 30
0.0
 40
195.0000049999999
 50
309.36721899999992
 51
320.89618899999982
  0
LINE
  5
2C3E
  8
ﾁｭｳｼﾝｾﾝ1
 10
1153.78041161339
 20
299.94683011633123
 30
0.0
 11
1178.4942179540619
 21
275.23300285870027
 31
0.0
  0
ARC
  5
2C3F
  8
ﾁｭｳｼﾝｾﾝ1
 10
1028.7657237916021
 20
424.96146499999992
 30
0.0
 40
195.0000049999999
 50
128.16531999999981
 51
142.1288599999998
  0
LINE
  5
2C40
  8
ﾁｭｳｼﾝｾﾝ1
 10
904.26085177408606
 20
549.46636887585055
 30
0.0
 11
876.64920379160253
 21
577.07803499999989
 31
0.0
  0
LINE
  5
2C41
  8
AM_0
 10
617.16595329160282
 20
916.85456603580405
 30
0.0
 11
699.16595329160282
 21
916.85456603580405
 31
0.0
  0
LINE
  5
2C42
  8
AM_0
 10
617.16595329160282
 20
861.85456603580394
 30
0.0
 11
699.16595329160282
 21
861.85456603580394
 31
0.0
  0
LINE
  5
2C43
  8
AM_0
 10
637.16601329160244
 20
881.35450603580409
 30
0.0
 11
699.16595329160282
 21
881.35450603580409
 31
0.0
  0
LINE
  5
2C44
  8
AM_0
 10
637.16601329160244
 20
897.35456603580394
 30
0.0
 11
699.16595329160282
 21
897.35456603580394
 31
0.0
  0
LINE
  5
2C45
  8
ﾁｭｳｼﾝｾﾝ
 10
194.94486794226481
 20
889.35456603580394
 30
0.0
 11
704.59480329160294
 21
889.35456603580394
 31
0.0
  0
LINE
  5
2C46
  8
AM_0
 10
315.16607329160269
 20
932.21314603580424
 30
0.0
 11
377.5596832916026
 21
932.21314603580424
 31
0.0
  0
LINE
  5
2C47
  8
AM_0
 10
315.16607329160269
 20
847.03180603580415
 30
0.0
 11
377.3530832916025
 21
847.03180603580415
 31
0.0
  0
LINE
  5
2C48
  8
AM_0
 10
300.16607329160257
 20
837.85425603580416
 30
0.0
 11
381.24065329160283
 21
837.85425603580416
 31
0.0
  0
LINE
  5
2C49
  8
AM_0
 10
300.16607329160257
 20
940.85456603580405
 30
0.0
 11
381.24047329160283
 21
940.85456603580405
 31
0.0
  0
LINE
  5
2C4A
  8
AM_0
 10
387.2707432916028
 20
822.312756035804
 30
0.0
 11
300.16607329160257
 21
825.35450603580409
 31
0.0
  0
LINE
  5
2C4B
  8
AM_0
 10
387.27080329160248
 20
956.3963060358044
 30
0.0
 11
300.16613329160248
 21
953.35456603580405
 31
0.0
  0
LINE
  5
2C4C
  8
AM_0
 10
387.2707432916028
 20
906.87250603580401
 30
0.0
 11
318.06139329160283
 21
904.45563603580422
 31
0.0
  0
LINE
  5
2C4D
  8
AM_0
 10
387.27080329160248
 20
871.83655603580371
 30
0.0
 11
318.06139329160283
 21
874.25342603580384
 31
0.0
  0
LINE
  5
2C4E
  8
AM_0
 10
315.16607329160269
 20
847.03180603580415
 30
0.0
 11
315.16607329160269
 21
932.21314603580424
 31
0.0
  0
LINE
  5
2C4F
  8
AM_0
 10
300.16607329160257
 20
825.35456603580394
 30
0.0
 11
300.16607329160257
 21
953.35456603580405
 31
0.0
  0
ARC
  5
2C50
  8
AM_0
 10
318.16607329160257
 20
877.25159603580425
 30
0.0
 40
3.0
 50
180.00001000000091
 51
268.00000000000261
  0
LINE
  5
2C51
  8
AM_0
 10
300.16607329160257
 20
851.29969603580435
 30
0.0
 11
315.16607329160269
 21
851.29969603580435
 31
0.0
  0
ARC
  5
2C52
  8
AM_0
 10
318.16607329160257
 20
901.45746603580392
 30
0.0
 40
3.0
 50
91.999998000000545
 51
180.00001000000091
  0
LINE
  5
2C53
  8
AM_0
 10
300.16607329160257
 20
928.21381603580414
 30
0.0
 11
315.16607329160269
 21
928.21381603580414
 31
0.0
  0
POLYLINE
  5
2C54
  8
AM_0
 66
     1
 10
0.0
 20
0.0
 30
0.0
  0
VERTEX
  5
2C55
  8
AM_0
 10
575.06884329160243
 20
975.74281603580425
 30
0.0
 42
0.01720808
  0
VERTEX
  5
2C56
  8
AM_0
 10
570.65257329160283
 20
918.36762603580394
 30
0.0
 42
0.0088311605
  0
VERTEX
  5
2C57
  8
AM_0
 10
569.9357232916027
 20
889.35456603580394
 30
0.0
 42
0.025919753
  0
VERTEX
  5
2C58
  8
AM_0
 10
573.80455329160282
 20
803.39087603580413
 30
0.0
  0
SEQEND
  5
2C59
  8
AM_0
  0
ARC
  5
2C5A
  8
AM_0
 10
446.16601329160272
 20
889.35456603580394
 30
0.0
 40
12.5
 50
203.5781799999973
 51
336.42183000000068
  0
ARC
  5
2C5B
  8
AM_0
 10
431.16601329160278
 20
876.12580603580409
 30
0.0
 40
5.0
 50
0.0
 51
41.409624000000257
  0
LINE
  5
2C5C
  8
AM_0
 10
596.16607329160274
 20
1013.703686035804
 30
0.0
 11
596.16607329160274
 21
765.00544603580443
 31
0.0
  0
LINE
  5
2C5D
  8
AM_0
 10
614.16601329160278
 20
1029.3545660358041
 30
0.0
 11
614.16601329160278
 21
749.35456603580417
 31
0.0
  0
LINE
  5
2C5E
  8
AM_0
 10
609.16601329160244
 20
1054.3545660358041
 30
0.0
 11
609.16601329160244
 21
724.35450603580409
 31
0.0
  0
LINE
  5
2C5F
  8
AM_0
 10
587.16601329160244
 20
1048.757826035803
 30
0.0
 11
587.16601329160244
 21
729.95130603580412
 31
0.0
  0
LINE
  5
2C60
  8
AM_0
 10
617.16595329160282
 20
919.35456603580383
 30
0.0
 11
617.16595329160282
 21
859.35456603580417
 31
0.0
  0
LINE
  5
2C61
  8
AM_0
 10
390.16607329160257
 20
819.10077603580442
 30
0.0
 11
390.16607329160257
 21
959.60828603580376
 31
0.0
  0
LINE
  5
2C62
  8
AM_0
 10
464.16601329160278
 20
884.35456603580417
 30
0.0
 11
464.16601329160278
 21
756.35456603580394
 31
0.0
  0
LINE
  5
2C63
  8
AM_0
 10
415.66595329160282
 20
782.89887603580416
 30
0.0
 11
415.66595329160282
 21
995.81025603580395
 31
0.0
  0
LINE
  5
2C64
  8
AM_0
 10
400.16601329160272
 20
815.85456603580417
 30
0.0
 11
400.16601329160272
 21
962.85456603580394
 31
0.0
  0
LINE
  5
2C65
  8
AM_0
 10
464.16601329160278
 20
756.35456603580394
 30
0.0
 11
580.32275329160279
 21
752.29822603580408
 31
0.0
  0
LINE
  5
2C66
  8
AM_0
 10
431.34051329160258
 20
777.52301603580418
 30
0.0
 11
420.49145329160251
 21
777.90186603580412
 31
0.0
  0
ARC
  5
2C67
  8
AM_0
 10
420.6659532916027
 20
782.89887603580416
 30
0.0
 40
5.0
 50
180.00001000000091
 51
268.00000000000261
  0
POLYLINE
  5
2C68
  8
AM_0
 66
     1
 10
0.0
 20
0.0
 30
0.0
  0
VERTEX
  5
2C69
  8
AM_0
 10
390.16607329160257
 20
821.35456603580405
 30
0.0
  0
VERTEX
  5
2C6A
  8
AM_0
 10
370.42970329160278
 20
872.42455603580402
 30
0.0
 42
-1.0
  0
SEQEND
  5
2C6B
  8
AM_0
  0
LINE
  5
2C6C
  8
AM_0
 10
400.16595329160248
 20
815.85450603580375
 30
0.0
 11
410.84051329160258
 21
815.48175603580376
 31
0.0
  0
LINE
  5
2C6D
  8
AM_0
 10
400.16601329160272
 20
827.77460603580403
 30
0.0
 11
415.66595329160282
 21
827.77460603580403
 31
0.0
  0
ARC
  5
2C6E
  8
AM_0
 10
393.16607329160257
 20
819.10077603580442
 30
0.0
 40
3.0
 50
180.00001000000091
 51
268.00000000000261
  0
ARC
  5
2C6F
  8
AM_0
 10
387.16607329160257
 20
819.31458603580415
 30
0.0
 40
3.0
 50
0.0
 51
88.000000000002785
  0
LINE
  5
2C70
  8
AM_0
 10
400.16601329160272
 20
815.85450603580375
 30
0.0
 11
393.06139329160283
 21
816.10260603580411
 31
0.0
  0
LINE
  5
2C71
  8
AM_0
 10
400.16607329160252
 20
827.77588603580409
 30
0.0
 11
390.16607329160257
 21
827.77588603580409
 31
0.0
  0
ARC
  5
2C72
  8
AM_0
 10
410.6659532916027
 20
810.48481603580422
 30
0.0
 40
5.0
 50
0.0
 51
88.000000000002785
  0
LINE
  5
2C73
  8
AM_0
 10
400.16601329160272
 20
849.87983603580415
 30
0.0
 11
415.66595329160282
 21
849.87983603580415
 31
0.0
  0
LINE
  5
2C74
  8
AM_0
 10
400.16607329160252
 20
849.87989603580399
 30
0.0
 11
390.16607329160257
 21
849.87989603580399
 31
0.0
  0
ARC
  5
2C75
  8
AM_0
 10
387.16607329160257
 20
868.83844603580417
 30
0.0
 40
3.0
 50
0.0
 51
88.000000000002785
  0
LINE
  5
2C76
  8
AM_0
 10
436.16601329160278
 20
762.16077603580413
 30
0.0
 11
436.16601329160278
 21
876.12580603580409
 31
0.0
  0
LINE
  5
2C77
  8
AM_0
 10
464.16601329160278
 20
756.35456603580394
 30
0.0
 11
440.9915132916027
 21
757.16382603580382
 31
0.0
  0
ARC
  5
2C78
  8
AM_0
 10
441.16601329160272
 20
762.16077603580413
 30
0.0
 40
5.0
 50
180.00001000000091
 51
268.00000000000261
  0
ARC
  5
2C79
  8
AM_0
 10
431.16601329160278
 20
772.52607603580384
 30
0.0
 40
5.0
 50
0.0
 51
88.000000000002785
  0
LINE
  5
2C7A
  8
AM_0
 10
591.99157329160266
 20
724.95423603580412
 30
0.0
 11
609.16607329160274
 21
724.35450603580409
 31
0.0
  0
ARC
  5
2C7B
  8
AM_0
 10
592.16601329160244
 20
729.95130603580412
 30
0.0
 40
5.0
 50
179.9999899999988
 51
268.00000999999861
  0
ARC
  5
2C7C
  8
AM_0
 10
588.16601329160244
 20
765.00544603580443
 30
0.0
 40
8.0
 50
270.0
 51
0.0
  0
ARC
  5
2C7D
  8
AM_0
 10
588.16601329160244
 20
823.01789603580426
 30
0.0
 40
8.0
 50
270.0
 51
0.0
  0
LINE
  5
2C7E
  8
AM_0
 10
549.09515329160274
 20
801.70411603580442
 30
0.0
 11
584.66424329160282
 21
780.17768603580384
 31
0.0
  0
LINE
  5
2C7F
  8
AM_0
 10
549.10442329160276
 20
803.48102603580412
 30
0.0
 11
572.85924329160287
 21
803.48102603580412
 31
0.0
  0
LINE
  5
2C80
  8
AM_0
 10
546.5155632916028
 20
791.99048603580411
 30
0.0
 11
584.75481329160277
 21
768.84803603580417
 31
0.0
  0
ARC
  5
2C81
  8
AM_0
 10
549.10442329160276
 20
796.2681360358041
 30
0.0
 40
5.0
 50
179.9999899999988
 51
238.81764999999689
  0
ARC
  5
2C82
  8
AM_0
 10
549.10442329160276
 20
798.48102603580412
 30
0.0
 40
5.0
 50
90.00000299999769
 51
180.00001000000091
  0
LINE
  5
2C83
  8
AM_0
 10
544.10442329160276
 20
796.2681360358041
 30
0.0
 11
544.10442329160276
 21
798.48102603580412
 31
0.0
  0
POLYLINE
  5
2C84
  8
AM_0
 66
     1
 10
0.0
 20
0.0
 30
0.0
  0
VERTEX
  5
2C85
  8
AM_0
 10
577.24955329160275
 20
773.39026603580385
 30
0.0
 42
0.0020909347
  0
VERTEX
  5
2C86
  8
AM_0
 10
578.2154032916028
 20
766.34975603580415
 30
0.0
 42
0.0020881749
  0
VERTEX
  5
2C87
  8
AM_0
 10
579.23998329160281
 20
759.31813603580383
 30
0.0
 42
0.0020849591
  0
VERTEX
  5
2C88
  8
AM_0
 10
580.32275329160279
 20
752.29828603580415
 30
0.0
  0
SEQEND
  5
2C89
  8
AM_0
  0
ARC
  5
2C8A
  8
AM_0
 10
582.16601329160278
 20
764.57044603580414
 30
0.0
 40
5.0
 50
0.0
 51
58.817640999998339
  0
LINE
  5
2C8B
  8
AM_0
 10
583.68383329160281
 20
750.8368060358041
 30
0.0
 11
587.16607329160274
 21
747.35462603580413
 31
0.0
  0
ARC
  5
2C8C
  8
AM_0
 10
580.14825329160283
 20
747.30133603580384
 30
0.0
 40
5.0
 50
45.000001000003799
 51
88.000000000002785
  0
ARC
  5
2C8D
  8
AM_0
 10
572.85924329160287
 20
798.48102603580412
 30
0.0
 40
5.0
 50
53.744453000003212
 51
90.00000299999769
  0
LINE
  5
2C8E
  8
AM_0
 10
575.81615329160275
 20
802.51288603580372
 30
0.0
 11
587.16601329160244
 21
794.18915603580399
 31
0.0
  0
LINE
  5
2C8F
  8
AM_0
 10
609.16601329160244
 20
749.35456603580417
 30
0.0
 11
614.16601329160278
 21
749.35456603580417
 31
0.0
  0
LINE
  5
2C90
  8
AM_0
 10
614.16601329160278
 20
859.35456603580417
 30
0.0
 11
617.16595329160282
 21
859.35456603580417
 31
0.0
  0
LINE
  5
2C91
  8
AM_0
 10
464.16601329160278
 20
1022.354566035803
 30
0.0
 11
580.32275329160279
 21
1026.4108360358041
 31
0.0
  0
ARC
  5
2C92
  8
AM_0
 10
426.16601329160272
 20
889.35456603580394
 30
0.0
 40
5.0
 50
90.00000299999769
 51
270.0
  0
LINE
  5
2C93
  8
AM_0
 10
431.34045329160273
 20
1001.186046035803
 30
0.0
 11
420.49145329160251
 21
1000.8071960358041
 31
0.0
  0
POLYLINE
  5
2C94
  8
AM_0
 66
     1
 10
0.0
 20
0.0
 30
0.0
  0
VERTEX
  5
2C95
  8
AM_0
 10
370.42965329160279
 20
906.28428603580403
 30
0.0
 42
-0.03710785
  0
VERTEX
  5
2C96
  8
AM_0
 10
374.70783329160281
 20
924.13050603580393
 30
0.0
 42
-0.032389942
  0
VERTEX
  5
2C97
  8
AM_0
 10
381.4102932916025
 20
941.21902603580395
 30
0.0
 42
-0.029578822
  0
VERTEX
  5
2C98
  8
AM_0
 10
390.16607329160257
 20
957.35456603580394
 30
0.0
  0
SEQEND
  5
2C99
  8
AM_0
  0
ARC
  5
2C9A
  8
AM_0
 10
387.16607329160257
 20
909.87067603580408
 30
0.0
 40
3.0
 50
271.9999999999971
 51
0.0
  0
LINE
  5
2C9B
  8
AM_0
 10
400.16601329160272
 20
928.829236035804
 30
0.0
 11
415.66595329160282
 21
928.829236035804
 31
0.0
  0
LINE
  5
2C9C
  8
AM_0
 10
400.16601329160272
 20
950.93457603580418
 30
0.0
 11
415.66595329160282
 21
950.93457603580418
 31
0.0
  0
LINE
  5
2C9D
  8
AM_0
 10
400.16607329160252
 20
928.829236035804
 30
0.0
 11
390.16607329160257
 21
928.829236035804
 31
0.0
  0
LINE
  5
2C9E
  8
AM_0
 10
400.16607329160252
 20
950.93317603580419
 30
0.0
 11
390.16607329160257
 21
950.93317603580419
 31
0.0
  0
LINE
  5
2C9F
  8
AM_0
 10
400.16595329160248
 20
962.85450603580409
 30
0.0
 11
410.84045329160273
 21
963.227246035804
 31
0.0
  0
ARC
  5
2CA0
  8
AM_0
 10
393.16607329160257
 20
959.60828603580376
 30
0.0
 40
3.0
 50
91.999998000000545
 51
180.00001000000091
  0
ARC
  5
2CA1
  8
AM_0
 10
387.16607329160257
 20
959.39447603580402
 30
0.0
 40
3.0
 50
271.9999999999971
 51
0.0
  0
LINE
  5
2CA2
  8
AM_0
 10
400.16601329160272
 20
962.85456603580394
 30
0.0
 11
393.06139329160283
 21
962.60645603580429
 31
0.0
  0
ARC
  5
2CA3
  8
AM_0
 10
410.6659532916027
 20
968.22425603580393
 30
0.0
 40
5.0
 50
271.9999999999971
 51
0.0
  0
ARC
  5
2CA4
  8
AM_0
 10
420.6659532916027
 20
995.81025603580395
 30
0.0
 40
5.0
 50
91.999998000000545
 51
180.00001000000091
  0
LINE
  5
2CA5
  8
AM_0
 10
436.16601329160278
 20
902.58332603580391
 30
0.0
 11
436.16601329160278
 21
1016.548286035803
 31
0.0
  0
LINE
  5
2CA6
  8
AM_0
 10
464.16601329160278
 20
1022.354566035803
 30
0.0
 11
464.16601329160278
 21
894.35456603580417
 31
0.0
  0
ARC
  5
2CA7
  8
AM_0
 10
466.16601329160272
 20
889.35456603580394
 30
0.0
 40
5.0
 50
270.0
 51
90.00000299999769
  0
LINE
  5
2CA8
  8
AM_0
 10
426.16601329160272
 20
894.35456603580417
 30
0.0
 11
466.16601329160272
 21
894.35456603580417
 31
0.0
  0
LINE
  5
2CA9
  8
AM_0
 10
426.16601329160272
 20
884.35456603580417
 30
0.0
 11
466.16601329160272
 21
884.35456603580417
 31
0.0
  0
ARC
  5
2CAA
  8
AM_0
 10
446.16601329160272
 20
889.35456603580394
 30
0.0
 40
12.5
 50
23.578179999997531
 51
156.42182000000241
  0
ARC
  5
2CAB
  8
AM_0
 10
446.16601329160272
 20
889.35456603580394
 30
0.0
 40
15.0
 50
138.590370000001
 51
160.52876999999901
  0
ARC
  5
2CAC
  8
AM_0
 10
446.16601329160272
 20
889.35456603580394
 30
0.0
 40
15.0
 50
199.4712300000005
 51
221.4096299999988
  0
ARC
  5
2CAD
  8
AM_0
 10
431.16601329160278
 20
902.58332603580391
 30
0.0
 40
5.0
 50
318.59037000000097
 51
0.0
  0
LINE
  5
2CAE
  8
AM_0
 10
464.1659532916027
 20
1022.354566035803
 30
0.0
 11
440.99145329160251
 21
1021.545296035804
 31
0.0
  0
ARC
  5
2CAF
  8
AM_0
 10
431.16601329160278
 20
1006.1829960358029
 30
0.0
 40
5.0
 50
271.9999999999971
 51
0.0
  0
ARC
  5
2CB0
  8
AM_0
 10
441.16601329160272
 20
1016.548286035803
 30
0.0
 40
5.0
 50
91.999998000000545
 51
180.00001000000091
  0
POLYLINE
  5
2CB1
  8
AM_0
 66
     1
 10
0.0
 20
0.0
 30
0.0
  0
VERTEX
  5
2CB2
  8
AM_0
 10
582.29113329160282
 20
1026.4795660358041
 30
0.0
  0
VERTEX
  5
2CB3
  8
AM_0
 10
579.06087329160277
 20
1006.415056035804
 30
0.0
 42
-1.0
  0
SEQEND
  5
2CB4
  8
AM_0
  0
ARC
  5
2CB5
  8
AM_0
 10
588.16601329160244
 20
1013.703686035804
 30
0.0
 40
8.0
 50
0.0
 51
90.00000299999769
  0
ARC
  5
2CB6
  8
AM_0
 10
588.16601329160244
 20
955.69117603580401
 30
0.0
 40
8.0
 50
0.0
 51
90.00000299999769
  0
LINE
  5
2CB7
  8
AM_0
 10
546.5155632916028
 20
986.71863603580425
 30
0.0
 11
584.75481329160277
 21
1009.861036035804
 31
0.0
  0
LINE
  5
2CB8
  8
AM_0
 10
549.10442329160276
 20
975.22809603580401
 30
0.0
 11
572.85924329160287
 21
975.22809603580401
 31
0.0
  0
LINE
  5
2CB9
  8
AM_0
 10
549.09515329160274
 20
977.00495603580418
 30
0.0
 11
584.66424329160282
 21
998.53144603580404
 31
0.0
  0
ARC
  5
2CBA
  8
AM_0
 10
549.10442329160276
 20
980.2280960358039
 30
0.0
 40
5.0
 50
179.9999899999988
 51
270.0
  0
ARC
  5
2CBB
  8
AM_0
 10
549.10442329160276
 20
982.44092603580395
 30
0.0
 40
5.0
 50
121.18235999999619
 51
180.00001000000091
  0
LINE
  5
2CBC
  8
AM_0
 10
544.10442329160276
 20
982.44092603580395
 30
0.0
 11
544.10442329160276
 21
980.2280960358039
 31
0.0
  0
ARC
  5
2CBD
  8
AM_0
 10
572.85924329160287
 20
980.2280960358039
 30
0.0
 40
5.0
 50
270.0
 51
306.25554999999889
  0
LINE
  5
2CBE
  8
AM_0
 10
575.81615329160275
 20
976.196176035804
 30
0.0
 11
587.16601329160244
 21
984.51996603580415
 31
0.0
  0
ARC
  5
2CBF
  8
AM_0
 10
582.16601329160278
 20
1014.138616035804
 30
0.0
 40
5.0
 50
301.18235999999632
 51
0.0
  0
ARC
  5
2CC0
  8
AM_0
 10
637.16601329160244
 20
889.35450603580409
 30
0.0
 40
8.0000113999999982
 50
90.00000299999769
 51
270.0
  0
LINE
  5
2CC1
  8
AM_0
 10
637.1659532916027
 20
897.35456603580394
 30
0.0
 11
637.1659532916027
 21
881.35450603580409
 31
0.0
  0
LINE
  5
2CC2
  8
AM_0
 10
614.16601329160278
 20
919.35456603580383
 30
0.0
 11
617.16595329160282
 21
919.35456603580383
 31
0.0
  0
LINE
  5
2CC3
  8
AM_0
 10
591.99157329160266
 20
1053.754836035803
 30
0.0
 11
609.16607329160274
 21
1054.3545660358041
 31
0.0
  0
LINE
  5
2CC4
  8
AM_0
 10
583.68383329160281
 20
1027.8722660358039
 30
0.0
 11
587.16607329160274
 21
1031.354506035804
 31
0.0
  0
ARC
  5
2CC5
  8
AM_0
 10
580.14825329160283
 20
1031.4077860358029
 30
0.0
 40
5.0
 50
271.9999999999971
 51
315.0
  0
ARC
  5
2CC6
  8
AM_0
 10
592.16601329160244
 20
1048.757826035803
 30
0.0
 40
5.0
 50
91.999998000000545
 51
180.00001000000091
  0
LINE
  5
2CC7
  8
AM_0
 10
609.16601329160244
 20
1029.3545660358041
 30
0.0
 11
614.16601329160278
 21
1029.3545660358041
 31
0.0
  0
LINE
  5
2CC8
  8
AM_0
 10
699.16595329160282
 20
916.85456603580405
 30
0.0
 11
699.16595329160282
 21
861.85456603580394
 31
0.0
  0
TEXT
  5
2EA8
  8
AM_0
 10
868.69709765380912
 20
902.34575455300228
 30
0.0
 40
15.0
  1
VX04-800GF~VX04-K20GF
  0
ENDSEC
  0
EOF
