  0
SECTION
  2
HEADER
  9
$ACADVER
  1
AC1009
  9
$INSBASE
 10
0.0
 20
0.0
 30
0.0
  9
$EXTMIN
 10
136.78452515670159
 20
131.23998939410441
 30
-0.0000000000112498
  9
$EXTMAX
 10
723.68298523451995
 20
605.87879536623404
 30
0.0000000000002956
  9
$LIMMIN
 10
0.0
 20
0.0
  9
$LIMMAX
 10
853.5
 20
555.00000000000011
  9
$ORTHOMODE
 70
     0
  9
$REGENMODE
 70
     1
  9
$FILLMODE
 70
     1
  9
$QTEXTMODE
 70
     0
  9
$MIRRTEXT
 70
     1
  9
$DRAGMODE
 70
     2
  9
$LTSCALE
 40
3.0
  9
$OSMODE
 70
   551
  9
$ATTMODE
 70
     1
  9
$TEXTSIZE
 40
2.5
  9
$TRACEWID
 40
1.0
  9
$TEXTSTYLE
  7
STANDARD
  9
$CLAYER
  8
AM_0
  9
$CELTYPE
  6
BYLAYER
  9
$CECOLOR
 62
   256
  9
$DIMSCALE
 40
1.0
  9
$DIMASZ
 40
2.5
  9
$DIMEXO
 40
1.0
  9
$DIMDLI
 40
8.0
  9
$DIMRND
 40
0.0
  9
$DIMDLE
 40
0.0
  9
$DIMEXE
 40
0.6
  9
$DIMTP
 40
0.1
  9
$DIMTM
 40
0.1
  9
$DIMTXT
 40
2.5
  9
$DIMCEN
 40
0.0
  9
$DIMTSZ
 40
0.0
  9
$DIMTOL
 70
     0
  9
$DIMLIM
 70
     0
  9
$DIMTIH
 70
     0
  9
$DIMTOH
 70
     0
  9
$DIMSE1
 70
     0
  9
$DIMSE2
 70
     0
  9
$DIMTAD
 70
     1
  9
$DIMZIN
 70
     8
  9
$DIMBLK
  1

  9
$DIMASO
 70
     1
  9
$DIMSHO
 70
     1
  9
$DIMPOST
  1

  9
$DIMAPOST
  1
"
  9
$DIMALT
 70
     0
  9
$DIMALTD
 70
     2
  9
$DIMALTF
 40
0.0393701
  9
$DIMLFAC
 40
1.0
  9
$DIMTOFL
 70
     1
  9
$DIMTVP
 40
0.0
  9
$DIMTIX
 70
     0
  9
$DIMSOXD
 70
     0
  9
$DIMSAH
 70
     0
  9
$DIMBLK1
  1

  9
$DIMBLK2
  1

  9
$DIMSTYLE
  2
AM_ISO
  9
$DIMCLRD
 70
   256
  9
$DIMCLRE
 70
   256
  9
$DIMCLRT
 70
     4
  9
$DIMTFAC
 40
0.71
  9
$DIMGAP
 40
0.8
  9
$LUNITS
 70
     2
  9
$LUPREC
 70
     2
  9
$SKETCHINC
 40
1.0
  9
$FILLETRAD
 40
15.0
  9
$AUNITS
 70
     0
  9
$AUPREC
 70
     0
  9
$MENU
  1
.
  9
$ELEVATION
 40
0.0
  9
$PELEVATION
 40
0.0
  9
$THICKNESS
 40
0.0
  9
$LIMCHECK
 70
     0
  9
$BLIPMODE
 70
     0
  9
$CHAMFERA
 40
6.0
  9
$CHAMFERB
 40
3.0
  9
$SKPOLY
 70
     0
  9
$TDCREATE
 40
2452066.4493487738
  9
$TDUPDATE
 40
2458541.4432143518
  9
$TDINDWG
 40
0.0674527894
  9
$TDUSRTIMER
 40
0.067452581
  9
$USRTIMER
 70
     1
  9
$ANGBASE
 50
0.0
  9
$ANGDIR
 70
     0
  9
$PDMODE
 70
     0
  9
$PDSIZE
 40
0.0
  9
$PLINEWID
 40
0.0
  9
$COORDS
 70
     1
  9
$SPLFRAME
 70
     0
  9
$SPLINETYPE
 70
     6
  9
$SPLINESEGS
 70
     8
  9
$ATTDIA
 70
     1
  9
$ATTREQ
 70
     1
  9
$HANDLING
 70
     1
  9
$HANDSEED
  5
30C1
  9
$SURFTAB1
 70
     6
  9
$SURFTAB2
 70
     6
  9
$SURFTYPE
 70
     6
  9
$SURFU
 70
     6
  9
$SURFV
 70
     6
  9
$UCSNAME
  2

  9
$UCSORG
 10
0.0
 20
0.0
 30
0.0
  9
$UCSXDIR
 10
1.0
 20
0.0
 30
0.0
  9
$UCSYDIR
 10
0.0
 20
1.0
 30
0.0
  9
$PUCSNAME
  2

  9
$PUCSORG
 10
0.0
 20
0.0
 30
0.0
  9
$PUCSXDIR
 10
1.0
 20
0.0
 30
0.0
  9
$PUCSYDIR
 10
0.0
 20
1.0
 30
0.0
  9
$USERI1
 70
     0
  9
$USERI2
 70
     0
  9
$USERI3
 70
     0
  9
$USERI4
 70
     0
  9
$USERI5
 70
     0
  9
$USERR1
 40
0.0
  9
$USERR2
 40
0.0
  9
$USERR3
 40
0.0
  9
$USERR4
 40
0.0
  9
$USERR5
 40
0.0
  9
$WORLDVIEW
 70
     1
  9
$SHADEDGE
 70
     3
  9
$SHADEDIF
 70
    70
  9
$TILEMODE
 70
     1
  9
$MAXACTVP
 70
    64
  9
$PLIMCHECK
 70
     0
  9
$PEXTMIN
 10
1.0000000000000000E+020
 20
1.0000000000000000E+020
 30
1.0000000000000000E+020
  9
$PEXTMAX
 10
-1.0000000000000000E+020
 20
-1.0000000000000000E+020
 30
-1.0000000000000000E+020
  9
$PLIMMIN
 10
0.0
 20
0.0
  9
$PLIMMAX
 10
420.0
 20
297.0
  9
$UNITMODE
 70
     0
  9
$VISRETAIN
 70
     1
  9
$PLINEGEN
 70
     0
  9
$PSLTSCALE
 70
     1
  0
ENDSEC
  0
SECTION
  2
TABLES
  0
TABLE
  2
VPORT
 70
     1
  0
VPORT
  2
*ACTIVE
 70
     0
 10
0.0
 20
0.0
 11
1.0
 21
1.0
 12
430.23375519561091
 22
368.55939238016919
 13
0.0
 23
0.0
 14
7.5
 24
7.5
 15
30.0
 25
30.0
 16
0.0
 26
0.0
 36
1.0
 17
0.0
 27
0.0
 37
0.0
 40
477.89719594447831
 41
1.7571592210767459
 42
50.0
 43
0.0
 44
0.0
 50
0.0
 51
0.0
 71
     0
 72
   100
 73
     1
 74
     3
 75
     0
 76
     0
 77
     0
 78
     0
  0
ENDTAB
  0
TABLE
  2
LTYPE
 70
    26
  0
LTYPE
  2
CONTINUOUS
 70
     0
  3
Solid line
 72
    65
 73
     0
 40
0.0
  0
LTYPE
  2
AM_ISO02W050
 70
     0
  3
__ __ __ __ __ __ __ __ __ __ __ __ __ __ __
 72
    65
 73
     2
 40
7.5
 49
6.0
 49
-1.5
  0
LTYPE
  2
AM_ISO08W050
 70
     0
  3
____ . ____ . ____ . ____ . ____ . ____ . ____
 72
    65
 73
     4
 40
18.0
 49
12.0
 49
-1.5
 49
3.0
 49
-1.5
  0
LTYPE
  2
AM_ISO09W050
 70
     0
  3
_____ . . _____ . . _____ . . ____ .. ____
 72
    65
 73
     6
 40
22.5
 49
12.0
 49
-1.5
 49
3.0
 49
-1.5
 49
3.0
 49
-1.5
  0
LTYPE
  2
AMCONSTR
 70
     0
  3
_______________________
 72
    65
 73
     2
 40
9999.0
 49
9999.0
 49
0.0
  0
LTYPE
  2
AM_ISO08W050X2
 70
     0
  3
__ . __ . __ . __ . __ . __
 72
    65
 73
     4
 40
9.0
 49
6.0
 49
-0.75
 49
1.5
 49
-0.75
  0
LTYPE
  2
AM_ISO02W050X2
 70
     0
  3
 _ _ _ _ _ _ _ _ _ _ _ _
 72
    65
 73
     2
 40
3.75
 49
3.0
 49
-0.75
  0
LTYPE
  2
AMZIGZAG
 70
     0
  3
/\/-/\/-/\/-/\/-/\/-/\/
 72
    65
 73
     2
 40
11.000099999999991
 49
0.0001
 49
-11.0
  0
LTYPE
  2
ACISOWELD
 70
     0
  3
_ _ _ _ _
 72
    65
 73
     2
 40
2.0
 49
2.0
 49
-1.0
  0
LTYPE
  2
ACISOTGB
 70
     0
  3
__ . . __ . .
 72
    65
 73
     6
 40
9.0
 49
4.0
 49
-1.0
 49
1.0
 49
-1.0
 49
1.0
 49
-1.0
  0
LTYPE
  2
ACISOTGL
 70
     0
  3
_ _ _ _ _
 72
    65
 73
     2
 40
3.0
 49
2.0
 49
-1.0
  0
LTYPE
  2
CENTER
 70
     0
  3
__ . __
 72
    65
 73
     4
 40
7.0
 49
4.0
 49
-1.0
 49
1.0
 49
-1.0
  0
LTYPE
  2
PHANTOM2
 70
     0
  3
Phantom (.5x) ___ _ _ ___ _ _ ___ _ _ ___ _ _
 72
    65
 73
     6
 40
31.75
 49
15.875
 49
-3.174999999999998
 49
3.174999999999998
 49
-3.174999999999998
 49
3.174999999999998
 49
-3.174999999999998
  0
LTYPE
  2
ACANSTGBM
 70
     0
  3
__ . . __ . .
 72
    65
 73
     6
 40
9.0
 49
4.0
 49
-1.0
 49
1.0
 49
-1.0
 49
1.0
 49
-1.0
  0
LTYPE
  2
ACANSTGLM
 70
     0
  3
_ _ _ _ _
 72
    65
 73
     2
 40
3.0
 49
2.0
 49
-1.0
  0
LTYPE
  2
GEN7
 70
     0
  3
____ . ____ . ____ . ____ . ____ . ____ . ____
 72
    65
 73
     4
 40
14.25
 49
9.75
 49
-1.5
 49
1.5
 49
-1.5
  0
LTYPE
  2
GEN7A
 70
     0
  3
__ . __ . __
 72
    65
 73
     4
 40
7.375
 49
4.75
 49
-0.875
 49
0.875
 49
-0.875
  0
LTYPE
  2
ACJISTGB
 70
     0
  3
__ . . __ . .
 72
    65
 73
     6
 40
9.0
 49
4.0
 49
-1.0
 49
1.0
 49
-1.0
 49
1.0
 49
-1.0
  0
LTYPE
  2
ACJISTGL
 70
     0
  3
_ _ _ _ _
 72
    65
 73
     2
 40
3.0
 49
2.0
 49
-1.0
  0
LTYPE
  2
HIDDEN
 70
     0
  3
Hidden __ __ __ __ __ __ __ __ __ __ __ __ __ _
 72
    65
 73
     2
 40
0.375
 49
0.25
 49
-0.125
  0
LTYPE
  2
CENTER2
 70
     0
  3
Center (.5x) ___ _ ___ _ ___ _ ___ _ ___ _ ___
 72
    65
 73
     4
 40
1.125
 49
0.75
 49
-0.125
 49
0.125
 49
-0.125
  0
LTYPE
  2
HIDDEN2
 70
     0
  3
Hidden (.5x) _ _ _ _ _ _ _ _ _ _ _ _ _ _ _ _ _
 72
    65
 73
     2
 40
0.1875
 49
0.125
 49
-0.0625
  0
LTYPE
  2
AMZIGZAG2
 70
     0
  3
/\/-/\/-/\/-/\/-/\/-/\/
 72
    65
 73
     2
 40
0.4401
 49
0.0001
 49
-0.4400000000000002
  0
LTYPE
  2
ACANSTGB
 70
     0
  3
__ . . __ . .
 72
    65
 73
     6
 40
0.35433070866
 49
0.15748031496
 49
-0.03937007874
 49
0.03937007874
 49
-0.03937007874
 49
0.03937007874
 49
-0.03937007874
  0
LTYPE
  2
ACANSTGL
 70
     0
  3
_ _ _ _ _
 72
    65
 73
     2
 40
0.11811023622
 49
0.07874015748
 49
-0.03937007874
  0
ENDTAB
  0
TABLE
  2
LAYER
 70
     6
  0
LAYER
  2
0
 70
     0
 62
     7
  6
CONTINUOUS
  0
LAYER
  2
AM_0
 70
     0
 62
     7
  6
CONTINUOUS
  0
LAYER
  2
AM_5
 70
     0
 62
     2
  6
CONTINUOUS
  0
LAYER
  2
DEFPOINTS
 70
     0
 62
     7
  6
CONTINUOUS
  0
LAYER
  2
ﾁｭｳｼﾝｾﾝ
 70
     0
 62
     1
  6
GEN7
  0
LAYER
  2
ﾁｭｳｼﾝｾﾝ1
 70
     0
 62
     1
  6
GEN7A
  0
ENDTAB
  0
TABLE
  2
STYLE
 70
     9
  0
STYLE
  2
STANDARD
 70
     0
 40
0.0
 41
0.8299999999999999
 50
0.0
 71
     0
 42
2.5
  3
txt.shx
  4
bigfont.shx
  0
STYLE
  2
ANNOTATIVE
 70
     0
 40
0.0
 41
1.0
 50
0.0
 71
     0
 42
0.2
  3
txt
  4

  0
STYLE
  2

 70
     1
 40
0.0
 41
1.0
 50
0.0
 71
     0
 42
2.5
  3
ltypeshp.shx
  4

  0
STYLE
  2
ACISOTS
 70
     0
 40
1.0
 41
1.0
 50
0.0
 71
     0
 42
2.5
  3
isocp.shx
  4
extfont.shx
  0
STYLE
  2
ACISOGDT
 70
     0
 40
0.0
 41
1.0
 50
0.0
 71
     0
 42
2.5
  3
amgdt.shx
  4

  0
STYLE
  2
ACANSTS
 70
     0
 40
1.0
 41
1.0
 50
0.0
 71
     0
 42
2.5
  3
romans.shx
  4
bigfont.shx
  0
STYLE
  2
ACANSGDT
 70
     0
 40
0.0
 41
1.0
 50
0.0
 71
     0
 42
2.5
  3
amgdt.shx
  4

  0
STYLE
  2
ACJISTS
 70
     0
 40
1.0
 41
1.0
 50
0.0
 71
     0
 42
2.5
  3
isocp.shx
  4
bigfont.shx
  0
STYLE
  2
ACJISGDT
 70
     0
 40
0.0
 41
1.0
 50
0.0
 71
     0
 42
2.5
  3
amgdt.shx
  4

  0
ENDTAB
  0
TABLE
  2
VIEW
 70
     6
  0
VIEW
  2
AM_VIEW1
 70
     0
 40
277.49999999999989
 10
249.64779005524849
 20
416.24999999999989
 41
499.2955801104971
 11
0.0
 21
0.0
 31
1.0
 12
0.0
 22
0.0
 32
0.0
 42
50.0
 43
0.0
 44
0.0
 50
0.0
 71
     0
  0
VIEW
  2
AM_VIEW2
 70
     0
 40
277.49999999999989
 10
603.85220994475117
 20
416.24999999999989
 41
499.2955801104971
 11
0.0
 21
0.0
 31
1.0
 12
0.0
 22
0.0
 32
0.0
 42
50.0
 43
0.0
 44
0.0
 50
0.0
 71
     0
  0
VIEW
  2
AM_VIEW3
 70
     0
 40
277.49999999999989
 10
249.64779005524849
 20
138.7499999999998
 41
499.2955801104971
 11
0.0
 21
0.0
 31
1.0
 12
0.0
 22
0.0
 32
0.0
 42
50.0
 43
0.0
 44
0.0
 50
0.0
 71
     0
  0
VIEW
  2
AM_VIEW4
 70
     0
 40
277.49999999999989
 10
603.85220994475117
 20
138.7499999999998
 41
499.2955801104971
 11
0.0
 21
0.0
 31
1.0
 12
0.0
 22
0.0
 32
0.0
 42
50.0
 43
0.0
 44
0.0
 50
0.0
 71
     0
  0
VIEW
  2
AM_VIEW5
 70
     0
 40
277.5
 10
426.75
 20
277.49999999999989
 41
499.2955801104971
 11
0.0
 21
0.0
 31
1.0
 12
0.0
 22
0.0
 32
0.0
 42
50.0
 43
0.0
 44
0.0
 50
0.0
 71
     0
  0
VIEW
  2
AM_VIEW6
 70
     0
 40
554.99445000000014
 10
426.75
 20
277.49999999999989
 41
998.5811743093924
 11
0.0
 21
0.0
 31
1.0
 12
0.0
 22
0.0
 32
0.0
 42
50.0
 43
0.0
 44
0.0
 50
0.0
 71
     0
  0
ENDTAB
  0
TABLE
  2
UCS
 70
     0
  0
ENDTAB
  0
TABLE
  2
APPID
 70
    95
  0
APPID
  2
ACAD
 70
     0
  0
APPID
  2
ACADANNOTATIVE
 70
     0
  0
APPID
  2
MCAD_NO_VIS
 70
     0
  0
APPID
  2
ACAD_TEMP_GRAPHIC
 70
     0
  0
APPID
  2
ACATTRIBSERVICES
 70
     0
  0
APPID
  2
GENIUS_GENREC_14
 70
     0
  0
APPID
  2
GENIUS_GENOBJ-N-REC_13
 70
     0
  0
APPID
  2
GENIUS_GENODEF_13
 70
     0
  0
APPID
  2
GENIUS_GENOLIS_13
 70
     0
  0
APPID
  2
GENIUS_GENOBJ-N-TIT_13
 70
     0
  0
APPID
  2
GENIUS_GENOENT_13
 70
     0
  0
APPID
  2
GENIUS_GENTITLE_13
 70
     0
  0
APPID
  2
GENIUS_GENOREF_13
 70
     0
  0
APPID
  2
GENIUS_GENSCREG_15
 70
     0
  0
APPID
  2
GENIUS_GENOBJ-N-SDF_13
 70
     0
  0
APPID
  2
GENIUS_GENFIL_13
 70
     0
  0
APPID
  2
GENIUS_GENOBJ-N-CHA_13
 70
     0
  0
APPID
  2
GENIUS_GENDTOL_13
 70
     0
  0
APPID
  2
GENIUS_GENOBJ-N-FIL_13
 70
     0
  0
APPID
  2
AD_DRAW
 70
     0
  0
APPID
  2
DESIGNERASSEMBLIES
 70
     0
  0
APPID
  2
ASURF_PCURVE_APPNAME
 70
     0
  0
APPID
  2
GENIUS_GE3SECT_13
 70
     0
  0
APPID
  2
GENIUS_GENCFG_13
 70
     0
  0
APPID
  2
GENIUS_GE3CFG0_13
 70
     0
  0
APPID
  2
GENIUS_GENCFG0_13
 70
     0
  0
APPID
  2
GENIUS_GENCFG1_13
 70
     0
  0
APPID
  2
GENIUS_GENCFG2_13
 70
     0
  0
APPID
  2
GENIUS_GENCFG3_13
 70
     0
  0
APPID
  2
GENIUS_GENCFG4_13
 70
     0
  0
APPID
  2
GENIUS_GEVCFG0_13
 70
     0
  0
APPID
  2
GENIUS_GENHINW_13
 70
     0
  0
APPID
  2
GENIUS_FIRSTVISTXT_14
 70
     0
  0
APPID
  2
GENIUS_GENOBJ-N-LEADER_13
 70
     0
  0
APPID
  2
GEV_VCCNULL_SWITCH_OFF
 70
     0
  0
APPID
  2
GENIUS_GEFCFG0_13
 70
     0
  0
APPID
  2
GENIUS_GENZVEED_13
 70
     0
  0
APPID
  2
GENIUS_GENSCREG_13
 70
     0
  0
APPID
  2
GENIUS_DUMCFG0_13
 70
     0
  0
APPID
  2
GEVID936201362
 70
     0
  0
APPID
  2
GEVDC
 70
     0
  0
APPID
  2
GEVCON
 70
     0
  0
APPID
  2
VCC
 70
     0
  0
APPID
  2
GEVPT
 70
     0
  0
APPID
  2
GEVIT
 70
     0
  0
APPID
  2
GENBH
 70
     0
  0
APPID
  2
GEVMK
 70
     0
  0
APPID
  2
GENIUS_GENBH_13
 70
     0
  0
APPID
  2
GENIUS_GENOBJ-NBEHI-BHF_13
 70
     0
  0
APPID
  2
GENIUS_GENOBJ-NBEHI-BHB_13
 70
     0
  0
APPID
  2
GENIUS_GENOBJ-F-DESC_13
 70
     0
  0
APPID
  2
GENIUS_GEFDESC_14
 70
     0
  0
APPID
  2
GENIUS_GENOBJ-F-PART_13
 70
     0
  0
APPID
  2
GENIUS_GEFSTDP_13
 70
     0
  0
APPID
  2
GENIUS_GEFPARTINS_13
 70
     0
  0
APPID
  2
GENIUS_GENTRA_14
 70
     0
  0
APPID
  2
GENIUS_GENINF13_13
 70
     0
  0
APPID
  2
GENIUS_GENOBJ-N-INFOPT_13
 70
     0
  0
APPID
  2
GENIUS_GENOBJ-N-RSSYM_13
 70
     0
  0
APPID
  2
GENIUS_GENSYMENT_13
 70
     0
  0
APPID
  2
GENIUS_GENSCSYM_13
 70
     0
  0
APPID
  2
GENIUS_GEFINFNAM_13
 70
     0
  0
APPID
  2
GENIUS_GENOBJ-N-CEN_13
 70
     0
  0
APPID
  2
GENIUS_GENOBJ-N-CRS_13
 70
     0
  0
APPID
  2
GENIUS_GENOBJ-N-CRC_13
 70
     0
  0
APPID
  2
GENIUS_GENCRC_14
 70
     0
  0
APPID
  2
GEVID942827039
 70
     0
  0
APPID
  2
GEVID942827040
 70
     0
  0
APPID
  2
GEVID942827041
 70
     0
  0
APPID
  2
GENIUS_GENOBJ-F-SCPASSM_13
 70
     0
  0
APPID
  2
GENIUS_GENDIMSH_14
 70
     0
  0
APPID
  2
GEVID942827042
 70
     0
  0
APPID
  2
GEVID946020473
 70
     0
  0
APPID
  2
GEVID946020474
 70
     0
  0
APPID
  2
GEVID946020475
 70
     0
  0
APPID
  2
GENIUS_GENOBJ-N-HTC_13
 70
     0
  0
APPID
  2
GENIUS_GENHATCH_13
 70
     0
  0
APPID
  2
GEVID948854295
 70
     0
  0
APPID
  2
GEVID939402019
 70
     0
  0
APPID
  2
GEVID952919491
 70
     0
  0
APPID
  2
GEVID952919492
 70
     0
  0
APPID
  2
GENIUS_GEFWELD_13
 70
     0
  0
APPID
  2
GENIUS_GENOBJ-F-WELS_13
 70
     0
  0
APPID
  2
GEVID952919493
 70
     0
  0
APPID
  2
GENIUS_GENOBJ-N-RSBK_13
 70
     0
  0
APPID
  2
GENIUS_GENOBJ-N-LIB_13
 70
     0
  0
APPID
  2
GENIUS_GENSCALE_13
 70
     0
  0
APPID
  2
GEVID986376691
 70
     0
  0
APPID
  2
DCO15
 70
     0
  0
APPID
  2
ACAD_DSTYLE_DIMBREAK
 70
     0
  0
APPID
  2
ACAD_DSTYLE_DIMJAG
 70
     0
  0
APPID
  2
ACAD_NAV_VCDISPLAY
 70
     0
  0
APPID
  2
ACADANNOPO
 70
     0
  0
APPID
  2
ACAD_EXEMPT_FROM_CAD_STANDARDS
 70
     0
  0
APPID
  2
ACAD_MLEADERVER
 70
     0
  0
ENDTAB
  0
TABLE
  2
DIMSTYLE
 70
    22
  0
DIMSTYLE
  2
STANDARD
 70
     0
  3

  4

  5

  6

  7

 40
1.0
 41
0.18
 42
0.0625
 43
0.38
 44
0.18
 45
0.0
 46
0.0
 47
0.0
 48
0.0
140
0.18
141
0.09
142
0.0
143
25.399999999999999
144
1.0
145
0.0
146
1.0
147
0.09
 71
     0
 72
     0
 73
     1
 74
     1
 75
     0
 76
     0
 77
     0
 78
     0
170
     0
171
     2
172
     0
173
     0
174
     0
175
     0
176
     0
177
     0
178
     0
  0
DIMSTYLE
  2
ANNOTATIVE
 70
     0
  3

  4

  5

  6

  7

 40
1.0
 41
0.18
 42
0.0625
 43
0.38
 44
0.18
 45
0.0
 46
0.0
 47
0.0
 48
0.0
140
0.18
141
0.09
142
0.0
143
25.399999999999999
144
1.0
145
0.0
146
1.0
147
0.09
 71
     0
 72
     0
 73
     1
 74
     1
 75
     0
 76
     0
 77
     0
 78
     0
170
     0
171
     2
172
     0
173
     0
174
     0
175
     0
176
     0
177
     0
178
     0
  0
DIMSTYLE
  2
AM_ISO
 70
     0
  3

  4
"
  5

  6

  7

 40
1.0
 41
2.5
 42
1.0
 43
8.0
 44
0.6
 45
0.0
 46
0.0
 47
0.1
 48
0.1
140
2.5
141
0.0
142
0.0
143
0.0393701
144
1.0
145
0.0
146
0.71
147
0.8
 71
     0
 72
     0
 73
     0
 74
     0
 75
     0
 76
     0
 77
     1
 78
     8
170
     0
171
     2
172
     1
173
     0
174
     0
175
     0
176
   256
177
   256
178
     4
  0
DIMSTYLE
  2
AM_ISO$3
 70
     0
  3

  4
"
  5

  6

  7

 40
1.0
 41
2.5
 42
1.0
 43
8.0
 44
0.6
 45
0.0
 46
0.0
 47
0.1
 48
0.1
140
2.5
141
0.0
142
0.0
143
0.0393701
144
1.0
145
0.0
146
0.71
147
0.8
 71
     0
 72
     0
 73
     0
 74
     1
 75
     0
 76
     0
 77
     1
 78
     8
170
     0
171
     2
172
     0
173
     0
174
     0
175
     0
176
   256
177
   256
178
     4
  0
DIMSTYLE
  2
AM_ISO$4
 70
     0
  3

  4
"
  5

  6

  7

 40
1.0
 41
2.5
 42
1.0
 43
8.0
 44
0.6
 45
0.0
 46
0.0
 47
0.1
 48
0.1
140
2.5
141
0.0
142
0.0
143
0.0393701
144
1.0
145
0.0
146
0.71
147
0.8
 71
     0
 72
     0
 73
     0
 74
     1
 75
     0
 76
     0
 77
     1
 78
     8
170
     0
171
     2
172
     0
173
     0
174
     0
175
     0
176
   256
177
   256
178
     4
  0
DIMSTYLE
  2
AM_ISO$6
 70
     0
  3

  4
"
  5

  6

  7

 40
1.0
 41
2.5
 42
1.0
 43
8.0
 44
0.6
 45
0.0
 46
0.0
 47
0.1
 48
0.1
140
2.5
141
0.0
142
0.0
143
0.0393701
144
1.0
145
0.0
146
0.71
147
0.8
 71
     0
 72
     0
 73
     0
 74
     0
 75
     0
 76
     0
 77
     0
 78
     8
170
     0
171
     2
172
     1
173
     0
174
     0
175
     0
176
   256
177
   256
178
     4
  0
DIMSTYLE
  2
AM_ISO$7
 70
     0
  3

  4
"
  5

  6

  7

 40
1.0
 41
2.5
 42
1.0
 43
8.0
 44
0.6
 45
0.0
 46
0.0
 47
0.1
 48
0.1
140
2.5
141
0.0
142
0.0
143
0.0393701
144
1.0
145
0.0
146
0.71
147
0.8
 71
     0
 72
     0
 73
     0
 74
     0
 75
     0
 76
     0
 77
     1
 78
     8
170
     0
171
     2
172
     1
173
     0
174
     0
175
     0
176
   256
177
   256
178
     4
  0
DIMSTYLE
  2
AM_ISO$SF
 70
     0
  3

  4
"
  5

  6

  7

 40
1.0
 41
2.5
 42
1.0
 43
10.0
 44
1.0
 45
0.0
 46
0.0
 47
0.1
 48
0.1
140
3.5
141
0.0
142
0.0
143
0.0393701
144
1.0
145
0.0
146
0.71
147
1.5
 71
     0
 72
     0
 73
     0
 74
     0
 75
     1
 76
     1
 77
     1
 78
     8
170
     0
171
     2
172
     1
173
     0
174
     0
175
     0
176
   256
177
   256
178
     2
  0
DIMSTYLE
  2
AM_ISO$SH
 70
     0
  3

  4
"
  5

  6

  7

 40
1.0
 41
2.5
 42
1.0
 43
10.0
 44
1.0
 45
0.0
 46
0.0
 47
0.1
 48
0.1
140
3.5
141
0.0
142
0.0
143
0.0393701
144
2.0
145
0.0
146
0.71
147
1.5
 71
     0
 72
     0
 73
     0
 74
     0
 75
     1
 76
     1
 77
     1
 78
     8
170
     0
171
     2
172
     1
173
     1
174
     0
175
     0
176
   256
177
   256
178
     2
  0
DIMSTYLE
  2
AM_JIS
 70
     0
  3

  4
"
  5

  6

  7

 40
1.0
 41
2.5
 42
1.0
 43
7.0
 44
1.0
 45
0.0
 46
0.0
 47
0.1
 48
0.1000000001
140
2.5
141
0.0
142
0.0
143
0.0393701
144
1.0
145
0.0
146
0.71
147
1.0
 71
     0
 72
     0
 73
     0
 74
     0
 75
     0
 76
     0
 77
     3
 78
     8
170
     0
171
     2
172
     1
173
     0
174
     0
175
     0
176
   256
177
   256
178
     4
  0
DIMSTYLE
  2
AM_JIS$3
 70
     0
  3

  4
"
  5

  6

  7

 40
1.0
 41
2.5
 42
1.0
 43
7.0
 44
1.0
 45
0.0
 46
0.0
 47
0.1
 48
0.1000000001
140
2.5
141
0.0
142
0.0
143
0.0393701
144
1.0
145
0.0
146
0.71
147
1.0
 71
     0
 72
     0
 73
     0
 74
     1
 75
     0
 76
     0
 77
     3
 78
     8
170
     0
171
     2
172
     0
173
     0
174
     0
175
     0
176
   256
177
   256
178
     4
  0
DIMSTYLE
  2
AM_JIS$4
 70
     0
  3

  4
"
  5

  6

  7

 40
1.0
 41
2.5
 42
1.0
 43
7.0
 44
1.0
 45
0.0
 46
0.0
 47
0.1
 48
0.1000000001
140
2.5
141
0.0
142
0.0
143
0.0393701
144
1.0
145
0.0
146
0.71
147
1.0
 71
     0
 72
     0
 73
     0
 74
     0
 75
     0
 76
     0
 77
     3
 78
     8
170
     0
171
     2
172
     0
173
     0
174
     0
175
     0
176
   256
177
   256
178
     4
  0
DIMSTYLE
  2
AM_JIS$6
 70
     0
  3

  4
"
  5

  6

  7

 40
1.0
 41
2.5
 42
1.0
 43
7.0
 44
1.0
 45
0.0
 46
0.0
 47
0.1
 48
0.1000000001
140
2.5
141
0.0
142
0.0
143
0.0393701
144
1.0
145
0.0
146
0.71
147
1.0
 71
     0
 72
     0
 73
     0
 74
     0
 75
     0
 76
     0
 77
     0
 78
     8
170
     0
171
     2
172
     1
173
     0
174
     0
175
     0
176
   256
177
   256
178
     4
  0
DIMSTYLE
  2
AM_JIS$7
 70
     0
  3

  4
"
  5

  6

  7

 40
1.0
 41
2.5
 42
1.0
 43
7.0
 44
1.0
 45
0.0
 46
0.0
 47
0.1
 48
0.1000000001
140
2.5
141
0.0
142
0.0
143
0.0393701
144
1.0
145
0.0
146
0.71
147
1.0
 71
     0
 72
     0
 73
     0
 74
     0
 75
     0
 76
     0
 77
     3
 78
     8
170
     0
171
     2
172
     1
173
     0
174
     0
175
     0
176
   256
177
   256
178
     4
  0
DIMSTYLE
  2
AM_JIS$SF
 70
     0
  3

  4
"
  5

  6

  7

 40
1.0
 41
2.5
 42
1.0
 43
10.0
 44
1.0
 45
0.0
 46
0.0
 47
0.1
 48
0.1
140
3.5
141
0.0
142
0.0
143
0.0393701
144
1.0
145
0.0
146
0.71
147
1.5
 71
     0
 72
     0
 73
     0
 74
     0
 75
     1
 76
     1
 77
     3
 78
     8
170
     0
171
     2
172
     1
173
     0
174
     0
175
     0
176
   256
177
   256
178
     4
  0
DIMSTYLE
  2
AM_JIS$SH
 70
     0
  3

  4
"
  5

  6

  7

 40
1.0
 41
2.5
 42
1.0
 43
10.0
 44
1.0
 45
0.0
 46
0.0
 47
0.1
 48
0.1
140
3.5
141
0.0
142
0.0
143
0.0393701
144
1.0
145
0.0
146
0.71
147
1.5
 71
     0
 72
     0
 73
     0
 74
     0
 75
     1
 76
     0
 77
     3
 78
     8
170
     0
171
     2
172
     1
173
     1
174
     0
175
     0
176
   256
177
   256
178
     4
  0
DIMSTYLE
  2
AM_ANSI
 70
     0
  3

  4
mm
  5

  6

  7

 40
1.0
 41
0.1
 42
0.05
 43
0.5
 44
0.1
 45
0.0
 46
0.0
 47
0.1
 48
0.1
140
0.12
141
0.0
142
0.0
143
25.399999999999999
144
1.0
145
0.0
146
0.71
147
0.06
 71
     0
 72
     0
 73
     1
 74
     1
 75
     0
 76
     0
 77
     0
 78
     7
170
     0
171
     2
172
     0
173
     0
174
     0
175
     0
176
   256
177
   256
178
     2
  0
DIMSTYLE
  2
AM_ANSI$3
 70
     0
  3

  4
mm
  5

  6

  7

 40
1.0
 41
0.1
 42
0.05
 43
0.5
 44
0.1
 45
0.0
 46
0.0
 47
0.1
 48
0.1
140
0.12
141
0.0
142
0.0
143
25.399999999999999
144
1.0
145
0.0
146
0.71
147
0.06
 71
     0
 72
     0
 73
     1
 74
     1
 75
     0
 76
     0
 77
     0
 78
     7
170
     0
171
     2
172
     0
173
     0
174
     0
175
     0
176
   256
177
   256
178
     2
  0
DIMSTYLE
  2
AM_ANSI$4
 70
     0
  3

  4
mm
  5

  6

  7

 40
1.0
 41
0.1
 42
0.05
 43
0.5
 44
0.1
 45
0.0
 46
0.0
 47
0.1
 48
0.1
140
0.12
141
0.0
142
0.0
143
25.399999999999999
144
1.0
145
0.0
146
0.71
147
0.06
 71
     0
 72
     0
 73
     1
 74
     1
 75
     0
 76
     0
 77
     0
 78
     7
170
     0
171
     2
172
     0
173
     0
174
     0
175
     0
176
   256
177
   256
178
     2
  0
DIMSTYLE
  2
AM_ANSI$7
 70
     0
  3

  4
mm
  5

  6

  7

 40
1.0
 41
0.1
 42
0.05
 43
0.5
 44
0.1
 45
0.0
 46
0.0
 47
0.1
 48
0.1
140
0.24
141
0.0
142
0.0
143
25.399999999999999
144
1.0
145
0.0
146
0.71
147
0.06
 71
     0
 72
     0
 73
     1
 74
     1
 75
     0
 76
     0
 77
     0
 78
     7
170
     0
171
     2
172
     0
173
     0
174
     0
175
     0
176
   256
177
   256
178
     2
  0
DIMSTYLE
  2
AM_ANSI$SF
 70
     0
  3

  4
mm
  5

  6

  7

 40
1.0
 41
0.1
 42
0.05
 43
0.5
 44
0.1
 45
0.0
 46
0.0
 47
0.1
 48
0.1
140
0.12
141
0.0
142
0.0
143
25.399999999999999
144
1.0
145
0.0
146
0.71
147
0.06
 71
     0
 72
     0
 73
     1
 74
     1
 75
     1
 76
     1
 77
     0
 78
     7
170
     0
171
     2
172
     0
173
     0
174
     0
175
     0
176
   256
177
   256
178
     2
  0
DIMSTYLE
  2
AM_ANSI$SH
 70
     0
  3

  4
mm
  5

  6

  7

 40
1.0
 41
0.1
 42
0.05
 43
0.5
 44
0.1
 45
0.0
 46
0.0
 47
0.1
 48
0.1
140
0.12
141
0.0
142
0.0
143
25.399999999999999
144
1.0
145
0.0
146
0.71
147
0.06
 71
     0
 72
     0
 73
     1
 74
     1
 75
     1
 76
     1
 77
     0
 78
     7
170
     0
171
     2
172
     0
173
     1
174
     0
175
     0
176
   256
177
   256
178
     2
  0
ENDTAB
  0
ENDSEC
  0
SECTION
  2
BLOCKS
  0
BLOCK
  8
0
  2
$MODEL_SPACE
 70
     0
 10
0.0
 20
0.0
 30
0.0
  3
$MODEL_SPACE
  1

  0
ENDBLK
  5
2F31
  8
0
  0
BLOCK
 67
     1
  8
0
  2
$PAPER_SPACE
 70
     0
 10
0.0
 20
0.0
 30
0.0
  3
$PAPER_SPACE
  1

  0
ENDBLK
  5
2F2D
 67
     1
  8
0
  0
BLOCK
  8
0
  2
GENAXEH
 70
     0
 10
0.0
 20
0.0
 30
0.0
  3
GENAXEH
  1

  0
LINE
  5
2D27
  8
0
 10
-1.0
 20
0.0
 30
0.0
 11
1.0
 21
0.0
 31
0.0
  0
ENDBLK
  5
2D28
  8
0
  0
BLOCK
  8
0
  2
_OPEN30
 70
     0
 10
0.0
 20
0.0
 30
0.0
  3
_OPEN30
  1

  0
LINE
  5
2D2B
  8
0
 62
     0
 10
-1.0
 20
0.26794919
 30
0.0
 11
0.0
 21
0.0
 31
0.0
  0
LINE
  5
2D2C
  8
0
 62
     0
 10
0.0
 20
0.0
 30
0.0
 11
-1.0
 21
-0.26794919
 31
0.0
  0
LINE
  5
2D2D
  8
0
 62
     0
 10
0.0
 20
0.0
 30
0.0
 11
-1.0
 21
0.0
 31
0.0
  0
ENDBLK
  5
2D2E
  8
0
  0
BLOCK
  8
0
  2
_NONE
 70
     0
 10
0.0
 20
0.0
 30
0.0
  3
_NONE
  1

  0
ENDBLK
  5
2D31
  8
0
  0
BLOCK
  8
0
  2
*U5
 70
     1
 10
0.0
 20
0.0
 30
0.0
  3
*U5
  1

  0
TEXT
  5
2D34
  8
AM_0
 62
     4
 10
467.39221621945978
 20
225.73223912817409
 30
0.0
 40
7.5
  1
\U+2205
 50
90.0
 41
0.8299999999999999
  0
TEXT
  5
2D35
  8
AM_0
 62
     4
 10
467.39221621945978
 20
231.95723912817411
 30
0.0
 40
7.5
  1
170
 50
90.0
 41
0.8299999999999999
  0
TEXT
  5
2D36
  8
AM_0
 62
     4
 10
467.39221621945978
 20
247.51973912817411
 30
0.0
 40
6.0
  1
h7
 50
90.0
 41
0.8299999999999999
  0
ENDBLK
  5
2D37
  8
0
  0
BLOCK
  8
0
  2
*U6
 70
     1
 10
0.0
 20
0.0
 30
0.0
  3
*U6
  1

  0
TEXT
  5
2D3A
  8
AM_0
 62
     4
 10
612.60053549564225
 20
388.8489079279592
 30
0.0
 40
7.5
  1
o
 41
0.8299999999999999
  0
TEXT
  5
2D3B
  8
AM_0
 62
     4
 10
620.01124978135636
 20
388.8489079279592
 30
0.0
 40
7.5
  1
 185
 41
0.8299999999999999
  0
ENDBLK
  5
2D3C
  8
0
  0
BLOCK
  8
0
  2
_ACMFILLEDHALF
 70
     0
 10
0.0
 20
0.0
 30
0.0
  3
_ACMFILLEDHALF
  1

  0
TRACE
  5
302B
  8
AM_0
 62
     0
 10
-0.8
 20
0.0
 30
0.0
 11
-1.0
 21
0.166666666
 31
0.0
 12
0.0
 22
0.0
 32
0.0
 13
0.0
 23
0.0
 33
0.0
  0
LINE
  5
302C
  8
AM_0
 62
     0
 10
-1.0
 20
0.0
 30
0.0
 11
-0.8
 21
0.0
 31
0.0
  0
ENDBLK
  5
302A
  8
0
  0
ENDSEC
  0
SECTION
  2
ENTITIES
  0
LINE
  5
2D3D
  8
ﾁｭｳｼﾝｾﾝ
 10
274.22540746376671
 20
240.77600112817399
 30
0.0
 11
429.5037612099589
 21
240.77600112817399
 31
0.0
  0
ARC
  5
2D3E
  8
AM_0
 10
342.723751209959
 20
263.82599112817411
 30
0.0
 40
24.832211399999991
 50
349.38167999999979
 51
47.544066000000022
  0
LINE
  5
2D3F
  8
AM_0
 10
265.05595120995901
 20
279.0852316281742
 30
0.0
 11
265.05595120995901
 21
259.05068162817412
 31
0.0
  0
LINE
  5
2D40
  8
AM_0
 10
254.243880209959
 20
288.00738762817411
 30
0.0
 11
205.48989920995891
 21
253.86948262817401
 31
0.0
  0
LINE
  5
2D41
  8
AM_0
 10
372.55596120995892
 20
170.27599812817411
 30
0.0
 11
372.55596120995892
 21
310.94826912817427
 31
0.0
  0
LINE
  5
2D42
  8
AM_0
 10
303.55596120995892
 20
136.5760021281742
 30
0.0
 11
303.55596120995892
 21
298.5760231281742
 31
0.0
  0
LINE
  5
2D43
  8
AM_0
 10
368.55600120995888
 20
216.86566212817411
 30
0.0
 11
368.55600120995888
 21
291.90121812817398
 31
0.0
  0
LINE
  5
2D44
  8
AM_0
 10
382.55595120995889
 20
325.77597912817401
 30
0.0
 11
382.55595120995889
 21
155.77599912817411
 31
0.0
  0
LINE
  5
2D45
  8
AM_0
 10
296.55603120995892
 20
296.44440012817421
 30
0.0
 11
296.55603120995892
 21
138.75183012817411
 31
0.0
  0
LINE
  5
2D46
  8
AM_0
 10
267.05595120995901
 20
144.0760186281741
 30
0.0
 11
267.05595120995901
 21
291.07602162817398
 31
0.0
  0
LINE
  5
2D47
  8
AM_0
 10
255.05595120995901
 20
149.01755562817419
 30
0.0
 11
255.05595120995901
 21
286.134457628174
 31
0.0
  0
LINE
  5
2D48
  8
AM_0
 10
378.55596120995892
 20
240.77600112817399
 30
0.0
 11
378.55596120995892
 21
333.27597912817401
 31
0.0
  0
LINE
  5
2D49
  8
ﾁｭｳｼﾝｾﾝ
 10
136.81904176855051
 20
217.57600662817401
 30
0.0
 11
290.16444327360398
 21
217.57600662817401
 31
0.0
  0
LINE
  5
2D4A
  8
AM_0
 10
140.05595120995901
 20
208.07600662817421
 30
0.0
 11
168.05595120995889
 21
208.07600662817421
 31
0.0
  0
LINE
  5
2D4B
  8
AM_0
 10
140.05595120995901
 20
227.0760066281741
 30
0.0
 11
168.05595120995889
 21
227.0760066281741
 31
0.0
  0
LINE
  5
2D4C
  8
AM_0
 10
140.05595120995901
 20
229.5760066281741
 30
0.0
 11
162.05595120995901
 21
229.5760066281741
 31
0.0
  0
LINE
  5
2D4D
  8
AM_0
 10
140.05595120995901
 20
208.07600662817421
 30
0.0
 11
140.05595120995901
 21
227.0760066281741
 31
0.0
  0
LINE
  5
2D4E
  8
AM_0
 10
140.05595120995901
 20
227.0760066281741
 30
0.0
 11
140.05595120995901
 21
229.5760066281741
 31
0.0
  0
LINE
  5
2D4F
  8
AM_0
 10
267.05595120995901
 20
257.05069212817409
 30
0.0
 11
296.55603120995892
 21
257.05069212817409
 31
0.0
  0
LINE
  5
2D50
  8
AM_0
 10
267.05595120995901
 20
144.07600212817411
 30
0.0
 11
293.6345112099591
 21
143.38001712817399
 31
0.0
  0
LINE
  5
2D51
  8
AM_0
 10
267.05595120995901
 20
178.1013331281741
 30
0.0
 11
296.55603120995892
 21
178.1013331281741
 31
0.0
  0
LINE
  5
2D52
  8
AM_0
 10
267.05595120995901
 20
155.9973751281741
 30
0.0
 11
296.55603120995892
 21
155.9973751281741
 31
0.0
  0
LINE
  5
2D53
  8
AM_0
 10
172.05595120995901
 20
188.308057628174
 30
0.0
 11
172.05595120995901
 21
246.843955628174
 31
0.0
  0
LINE
  5
2D54
  8
AM_0
 10
202.9855002099589
 20
185.03643362817411
 30
0.0
 11
202.9855002099589
 21
250.11557862817409
 31
0.0
  0
LINE
  5
2D55
  8
AM_0
 10
177.4140972099591
 20
185.4827846281741
 30
0.0
 11
177.4140972099591
 21
249.66922862817401
 31
0.0
  0
LINE
  5
2D56
  8
AM_0
 10
254.243880209959
 20
147.14462462817411
 30
0.0
 11
205.48989920995891
 21
181.2825296281741
 31
0.0
  0
LINE
  5
2D57
  8
AM_0
 10
178.18983220995881
 20
183.4689396281741
 30
0.0
 11
199.92865920995879
 21
183.08948662817409
 31
0.0
  0
LINE
  5
2D58
  8
AM_0
 10
173.55595120995901
 20
185.70998062817409
 30
0.0
 11
176.74218920995881
 21
183.87040562817401
 31
0.0
  0
ARC
  5
2D59
  8
AM_0
 10
175.05595120995901
 20
188.308057628174
 30
0.0
 40
3.0
 50
180.0
 51
239.99999999999949
  0
ARC
  5
2D5A
  8
AM_0
 10
178.24218920995881
 20
186.468482628174
 30
0.0
 40
3.0
 50
239.99999999999949
 51
269.00000000000148
  0
ARC
  5
2D5B
  8
AM_0
 10
199.754135209959
 20
173.09100962817411
 30
0.0
 40
10.0
 50
55.000000000001307
 51
89.000000000001506
  0
LINE
  5
2D5C
  8
AM_0
 10
257.05595120995901
 20
144.0760066281741
 30
0.0
 11
267.05595120995901
 21
144.0760066281741
 31
0.0
  0
ARC
  5
2D5D
  8
AM_0
 10
257.05595120995901
 20
146.0760066281741
 30
0.0
 40
2.0
 50
188.187984
 51
270.0
  0
ARC
  5
2D5E
  8
AM_0
 10
253.09672720995911
 20
145.50632062817411
 30
0.0
 40
2.0
 50
8.1879840000002062
 51
55.000000000001307
  0
LINE
  5
2D5F
  8
AM_0
 10
257.05595120995901
 20
178.10133062817411
 30
0.0
 11
265.05595120995901
 21
178.10133062817411
 31
0.0
  0
LINE
  5
2D60
  8
AM_0
 10
257.05595120995901
 20
154.06678162817411
 30
0.0
 11
263.05595120995901
 21
154.06678162817411
 31
0.0
  0
ARC
  5
2D61
  8
AM_0
 10
257.05595120995901
 20
156.06678162817411
 30
0.0
 40
2.0
 50
180.0
 51
270.0
  0
LINE
  5
2D62
  8
AM_0
 10
265.05595120995901
 20
156.06678162817411
 30
0.0
 11
265.05595120995901
 21
176.10133062817411
 31
0.0
  0
ARC
  5
2D63
  8
AM_0
 10
263.05595120995901
 20
156.06678162817411
 30
0.0
 40
2.0
 50
270.0
 51
0.0
  0
ARC
  5
2D64
  8
AM_0
 10
267.05595120995901
 20
176.10133062817411
 30
0.0
 40
2.0
 50
120.0000000000005
 51
180.0
  0
LINE
  5
2D65
  8
AM_0
 10
170.05595120995889
 20
193.5760066281741
 30
0.0
 11
170.05595120995889
 21
241.57600662817421
 31
0.0
  0
LINE
  5
2D66
  8
AM_0
 10
168.05595120995889
 20
207.57600662817401
 30
0.0
 11
168.05595120995889
 21
227.57600662817401
 31
0.0
  0
LINE
  5
2D67
  8
AM_0
 10
170.05595120995889
 20
193.5760066281741
 30
0.0
 11
172.05595120995901
 21
191.5760066281741
 31
0.0
  0
LINE
  5
2D68
  8
AM_0
 10
168.05595120995889
 20
207.57600662817401
 30
0.0
 11
170.05595120995889
 21
207.57600662817401
 31
0.0
  0
LINE
  5
2D69
  8
AM_0
 10
168.05595120995889
 20
227.57600662817401
 30
0.0
 11
170.05595120995889
 21
227.57600662817401
 31
0.0
  0
LINE
  5
2D6A
  8
AM_0
 10
162.05595120995901
 20
227.0760066281741
 30
0.0
 11
162.05595120995901
 21
229.5760066281741
 31
0.0
  0
LINE
  5
2D6B
  8
AM_0
 10
199.92865920995879
 20
252.06252662817411
 30
0.0
 11
178.18983220995881
 21
251.6830736281741
 31
0.0
  0
LINE
  5
2D6C
  8
AM_0
 10
176.74218920995881
 20
251.28160662817399
 30
0.0
 11
173.55595120995901
 21
249.44203162817411
 31
0.0
  0
LINE
  5
2D6D
  8
AM_0
 10
172.05595120995901
 20
243.57600662817421
 30
0.0
 11
170.05595120995889
 21
241.57600662817421
 31
0.0
  0
ARC
  5
2D6E
  8
AM_0
 10
175.05595120995901
 20
246.843955628174
 30
0.0
 40
3.0
 50
120.0000000000005
 51
180.0
  0
ARC
  5
2D6F
  8
AM_0
 10
178.24218920995881
 20
248.683530628174
 30
0.0
 40
3.0
 50
90.999999999998465
 51
120.0000000000005
  0
ARC
  5
2D70
  8
AM_0
 10
199.754135209959
 20
262.06100362817409
 30
0.0
 40
10.0
 50
270.99999999999841
 51
304.99999999999852
  0
LINE
  5
2D71
  8
AM_0
 10
257.05595120995901
 20
257.05068162817412
 30
0.0
 11
265.05595120995901
 21
257.05068162817412
 31
0.0
  0
ARC
  5
2D72
  8
AM_0
 10
267.05595120995901
 20
259.05068162817412
 30
0.0
 40
2.0
 50
180.0
 51
239.99999999999949
  0
LINE
  5
2D73
  8
AM_0
 10
378.55596120995892
 20
148.27599912817411
 30
0.0
 11
378.55596120995892
 21
240.77600112817399
 31
0.0
  0
LINE
  5
2D74
  8
AM_0
 10
328.55595120995889
 20
164.30822712817411
 30
0.0
 11
368.55600120995888
 21
164.30822712817411
 31
0.0
  0
LINE
  5
2D75
  8
AM_0
 10
328.55595120995889
 20
178.9715401281741
 30
0.0
 11
368.55600120995888
 21
178.9715401281741
 31
0.0
  0
LINE
  5
2D76
  8
AM_0
 10
346.30989120995889
 20
135.08300412817411
 30
0.0
 11
368.5559712099589
 21
147.92678712817411
 31
0.0
  0
LINE
  5
2D77
  8
AM_0
 10
303.55596120995892
 20
151.4657881281741
 30
0.0
 11
368.55600120995888
 21
151.4657881281741
 31
0.0
  0
LINE
  5
2D78
  8
AM_0
 10
303.55596120995892
 20
136.5760021281742
 30
0.0
 11
346.30989120995889
 21
135.08300412817411
 31
0.0
  0
ARC
  5
2D79
  8
AM_0
 10
298.55595120995901
 20
138.75183012817411
 30
0.0
 40
2.00000007
 50
179.99998999999991
 51
268.00000999999992
  0
LINE
  5
2D7A
  8
AM_0
 10
303.55596120995892
 20
136.5760021281742
 30
0.0
 11
298.48620120995912
 21
136.75305012817421
 31
0.0
  0
ARC
  5
2D7B
  8
AM_0
 10
293.55603120995892
 20
140.38104012817411
 30
0.0
 40
3.0
 50
0.0
 51
88.499996999999965
  0
ARC
  5
2D7C
  8
AM_0
 10
328.55763120995908
 20
171.6398911281741
 30
0.0
 40
7.331659199999998
 50
90.000003000000007
 51
270.0
  0
LINE
  5
2D7D
  8
AM_0
 10
328.55595120995889
 20
165.49122612817411
 30
0.0
 11
328.55595120995889
 21
177.81123312817411
 31
0.0
  0
ARC
  5
2D7E
  8
AM_0
 10
371.55600120995882
 20
151.033368128174
 30
0.0
 40
3.0
 50
179.99998999999991
 51
271.99998999999991
  0
ARC
  5
2D7F
  8
AM_0
 10
369.55596120995892
 20
170.27599812817411
 30
0.0
 40
3.0
 50
270.0
 51
0.0
  0
LINE
  5
2D80
  8
AM_0
 10
368.55600120995888
 20
151.033368128174
 30
0.0
 11
368.55600120995888
 21
186.405363128174
 31
0.0
  0
LINE
  5
2D81
  8
AM_0
 10
368.5559712099589
 20
147.92678712817411
 30
0.0
 11
378.55596120995892
 21
148.27599912817411
 31
0.0
  0
LINE
  5
2D82
  8
AM_0
 10
378.55596120995892
 20
155.77599912817411
 30
0.0
 11
382.55595120995889
 21
155.77599912817411
 31
0.0
  0
ARC
  5
2D83
  8
AM_0
 10
371.55600120995882
 20
186.405363128174
 30
0.0
 40
3.0
 50
90.000003000000007
 51
180.00001
  0
LINE
  5
2D84
  8
AM_0
 10
303.55596120995892
 20
263.82599112817411
 30
0.0
 11
365.50128120995902
 21
263.82599112817411
 31
0.0
  0
ARC
  5
2D85
  8
AM_0
 10
387.20130120995901
 20
231.5437771281741
 30
0.0
 40
24.832211399999991
 50
169.38167999999999
 51
218.79320999999999
  0
LINE
  5
2D86
  8
AM_0
 10
424.55595120995901
 20
257.77600212817413
 30
0.0
 11
424.55595120995901
 21
226.77601512817409
 31
0.0
  0
LINE
  5
2D87
  8
AM_0
 10
382.55595120995889
 20
226.77601512817409
 30
0.0
 11
424.55595120995901
 21
226.77601512817409
 31
0.0
  0
ARC
  5
2D88
  8
AM_0
 10
370.18500120995901
 20
217.86564612817409
 30
0.0
 40
3.0
 50
218.79321999999999
 51
270.0
  0
LINE
  5
2D89
  8
AM_0
 10
370.18500120995901
 20
214.86564612817421
 30
0.0
 11
372.55596120995892
 21
214.86564612817421
 31
0.0
  0
LINE
  5
2D8A
  8
AM_0
 10
392.55594120995909
 20
257.77600212817413
 30
0.0
 11
424.55595120995901
 21
257.77600212817413
 31
0.0
  0
LINE
  5
2D8B
  8
AM_0
 10
382.55595120995889
 20
254.77601712817409
 30
0.0
 11
424.55595120995901
 21
254.77601712817409
 31
0.0
  0
LINE
  5
2D8C
  8
AM_0
 10
392.55594120995909
 20
257.77600212817413
 30
0.0
 11
392.55594120995909
 21
254.77601712817409
 31
0.0
  0
LINE
  5
2D8D
  8
AM_0
 10
367.13073120995921
 20
259.25027712817428
 30
0.0
 11
362.79426120995902
 21
236.11950612817401
 31
0.0
  0
LINE
  5
2D8E
  8
AM_0
 10
267.05601120995902
 20
291.07602012817398
 30
0.0
 11
293.6345112099591
 21
291.77200512817421
 31
0.0
  0
LINE
  5
2D8F
  8
AM_0
 10
267.05595120995901
 20
279.15466512817409
 30
0.0
 11
296.55603120995892
 21
279.15466512817409
 31
0.0
  0
LINE
  5
2D90
  8
AM_0
 10
257.05595120995901
 20
291.07600662817418
 30
0.0
 11
267.05595120995901
 21
291.07600662817418
 31
0.0
  0
LINE
  5
2D91
  8
AM_0
 10
257.05595120995901
 20
281.0852316281742
 30
0.0
 11
263.05595120995901
 21
281.0852316281742
 31
0.0
  0
ARC
  5
2D92
  8
AM_0
 10
253.09672720995911
 20
289.64569162817412
 30
0.0
 40
2.0
 50
304.99999999999852
 51
351.81201599999991
  0
ARC
  5
2D93
  8
AM_0
 10
257.05595120995901
 20
279.0852316281742
 30
0.0
 40
2.0
 50
90.0
 51
180.0
  0
ARC
  5
2D94
  8
AM_0
 10
257.05595120995901
 20
289.07600662817418
 30
0.0
 40
2.0
 50
90.0
 51
171.8120159999998
  0
ARC
  5
2D95
  8
AM_0
 10
263.05595120995901
 20
279.0852316281742
 30
0.0
 40
2.0
 50
0.0
 51
90.0
  0
LINE
  5
2D96
  8
AM_0
 10
340.9689312099589
 20
300.6889291281741
 30
0.0
 11
368.55600120995888
 21
328.27599912817419
 31
0.0
  0
LINE
  5
2D97
  8
AM_0
 10
303.55596120995892
 20
298.5760231281742
 30
0.0
 11
338.95227120995912
 21
299.812074128174
 31
0.0
  0
LINE
  5
2D98
  8
AM_0
 10
298.50366120995909
 20
298.443696128174
 30
0.0
 11
303.55596120995892
 21
298.57599012817423
 31
0.0
  0
ARC
  5
2D99
  8
AM_0
 10
298.55595120995901
 20
296.44440012817421
 30
0.0
 40
2.00000007
 50
91.500000999999969
 51
180.00001
  0
ARC
  5
2D9A
  8
AM_0
 10
293.55603120995892
 20
294.77099712817397
 30
0.0
 40
3.0
 50
271.49999999999972
 51
0.0
  0
LINE
  5
2D9B
  8
AM_0
 10
340.13325120995893
 20
299.85330312817422
 30
0.0
 11
359.48604120995918
 21
282.14712612817402
 31
0.0
  0
LINE
  5
2D9C
  8
AM_0
 10
359.48607120995888
 20
282.1470961281741
 30
0.0
 11
359.48607120995888
 21
282.1470961281741
 31
0.0
  0
ARC
  5
2D9D
  8
AM_0
 10
338.8476012099589
 20
302.8102591281741
 30
0.0
 40
3.0
 50
272.0
 51
315.0
  0
LINE
  5
2D9E
  8
AM_0
 10
368.55600120995888
 20
291.90121812817398
 30
0.0
 11
368.55600120995888
 21
330.99540912817417
 31
0.0
  0
ARC
  5
2D9F
  8
AM_0
 10
371.55600120995882
 20
291.90121812817398
 30
0.0
 40
3.0
 50
179.99998999999991
 51
270.0
  0
ARC
  5
2DA0
  8
AM_0
 10
369.55596120995892
 20
310.94826912817427
 30
0.0
 40
3.0
 50
0.0
 51
91.999997999999948
  0
LINE
  5
2DA1
  8
AM_0
 10
370.48617120995902
 20
332.99421912817422
 30
0.0
 11
378.55596120995892
 21
333.276009128174
 31
0.0
  0
ARC
  5
2DA2
  8
AM_0
 10
370.55595120995901
 20
330.99540912817417
 30
0.0
 40
2.00000007
 50
91.999997999999948
 51
180.00001
  0
LINE
  5
2DA3
  8
AM_0
 10
378.55596120995892
 20
325.77597912817401
 30
0.0
 11
382.55595120995889
 21
325.77597912817401
 31
0.0
  0
LINE
  5
2DA4
  8
AM_0
 10
718.23232770992763
 20
270.77600662817389
 30
0.0
 11
715.82680770992795
 21
316.67605462817392
 31
0.0
  0
LINE
  5
2DA5
  8
AM_0
 10
657.24752970992802
 20
268.04858962817389
 30
0.0
 11
682.13531670992791
 21
292.93637962817382
 31
0.0
  0
LINE
  5
2DA6
  8
AM_0
 10
653.00488470992798
 20
272.29120462817372
 30
0.0
 11
677.89268670992794
 21
297.17902462817392
 31
0.0
  0
LINE
  5
2DA7
  8
AM_0
 10
594.21711870992795
 20
268.04858962817389
 30
0.0
 11
569.32934370992791
 21
292.93634662817368
 31
0.0
  0
LINE
  5
2DA8
  8
AM_0
 10
598.45974870992791
 20
272.29123762817392
 30
0.0
 11
573.57197670992775
 21
297.17899462817383
 31
0.0
  0
ARC
  5
2DA9
  8
AM_0
 10
625.73233170992785
 20
240.7760066281738
 30
0.0
 40
39.000011999999998
 50
53.213208000000002
 51
126.78679
  0
LINE
  5
2DAA
  8
AM_0
 10
533.23234470992782
 20
270.77600662817389
 30
0.0
 11
535.63786170992785
 21
316.67605462817392
 31
0.0
  0
ARC
  5
2DAB
  8
AM_0
 10
625.73233170992785
 20
217.57602562817391
 30
0.0
 40
81.000003000000007
 50
125.47417
 51
155.4112299999999
  0
ARC
  5
2DAC
  8
AM_0
 10
625.73233170992785
 20
217.57602562817391
 30
0.0
 40
81.000003000000007
 50
24.588774999999998
 51
54.525830000000013
  0
LINE
  5
2DAD
  8
ﾁｭｳｼﾝｾﾝ
 10
625.73233170992785
 20
131.24127562817381
 30
0.0
 11
625.73233170992785
 21
338.8588007060572
 31
0.0
  0
CIRCLE
  5
2DAE
  8
AM_0
 10
625.73233170992785
 20
240.7760066281738
 30
0.0
 40
80.000000999999983
  0
CIRCLE
  5
2DAF
  8
AM_0
 10
625.73233170992785
 20
240.7760066281738
 30
0.0
 40
85.000001999999981
  0
LINE
  5
2DB0
  8
AM_0
 10
700.59727770992788
 20
212.57602462817391
 30
0.0
 11
669.73234770992792
 21
212.57602462817391
 31
0.0
  0
LINE
  5
2DB1
  8
AM_0
 10
655.73233170992785
 20
148.27600462817381
 30
0.0
 11
701.63240370992787
 21
150.68152162817381
 31
0.0
  0
LINE
  5
2DB2
  8
ﾁｭｳｼﾝｾﾝ
 10
530.03176551770025
 20
240.7760066281738
 30
0.0
 11
723.61841081907698
 21
240.7760066281738
 31
0.0
  0
LINE
  5
2DB3
  8
AM_0
 10
550.86738570992782
 20
212.57602462817391
 30
0.0
 11
581.732315709928
 21
212.57602462817391
 31
0.0
  0
LINE
  5
2DB4
  8
AM_0
 10
595.73233170992785
 20
148.27600462817381
 30
0.0
 11
549.83225970992805
 21
150.68152162817381
 31
0.0
  0
LINE
  5
2DB5
  8
AM_0
 10
533.23231470992789
 20
210.7759916281739
 30
0.0
 11
535.63783170992758
 21
164.87593462817381
 31
0.0
  0
LINE
  5
2DB6
  8
ﾁｭｳｼﾝｾﾝ1
 10
558.44234369124422
 20
173.48603443723511
 30
0.0
 11
542.15867821216204
 21
157.20235497493809
 31
0.0
  0
ARC
  5
2DB7
  8
ﾁｭｳｼﾝｾﾝ1
 10
625.73233170992535
 20
240.77600662817181
 30
0.0
 40
107.5000109999967
 50
218.02723999999989
 51
232.06113688220759
  0
CIRCLE
  5
2DB8
  8
AM_0
 10
549.71836770992775
 20
164.76201262817381
 30
0.0
 40
6.0000002999999991
  0
ARC
  5
2DB9
  8
AM_0
 10
550.61729370992805
 20
165.6609686281738
 30
0.0
 40
15.00000029999998
 50
183.00001
 51
267.0
  0
ARC
  5
2DBA
  8
AM_0
 10
550.61729370992805
 20
165.6609686281738
 30
0.0
 40
15.00000029999998
 50
183.00001
 51
267.0
  0
ARC
  5
2DBB
  8
AM_0
 10
625.73233170992785
 20
217.57602562817391
 30
0.0
 40
76.000001999999981
 50
167.2398
 51
181.39354
  0
LINE
  5
2DBC
  8
AM_0
 10
533.23231470992789
 20
240.7760066281738
 30
0.0
 11
533.23231470992789
 21
210.7760066281738
 31
0.0
  0
LINE
  5
2DBD
  8
AM_0
 10
533.23231470992789
 20
240.7760066281738
 30
0.0
 11
533.23231470992789
 21
270.77600662817389
 31
0.0
  0
ARC
  5
2DBE
  8
AM_0
 10
625.73233170992785
 20
240.7760066281738
 30
0.0
 40
74.400002999999998
 50
171.8834499999999
 51
184.9454199999999
  0
ARC
  5
2DBF
  8
AM_0
 10
625.73233170992785
 20
217.57602562817391
 30
0.0
 40
81.000003000000007
 50
270.0
 51
291.36619999999999
  0
LINE
  5
2DC0
  8
AM_0
 10
625.73233170992785
 20
148.27600462817381
 30
0.0
 11
655.73233170992785
 21
148.27600462817381
 31
0.0
  0
ARC
  5
2DC1
  8
AM_0
 10
583.98233070992808
 20
145.26288262817391
 30
0.0
 40
8.0000000999999976
 50
156.73873999999981
 51
323.26127000000002
  0
ARC
  5
2DC2
  8
AM_0
 10
594.40016070992795
 20
137.48671162817391
 30
0.0
 40
5.0000001000000003
 50
68.633797999999999
 51
143.26125999999991
  0
ARC
  5
2DC3
  8
AM_0
 10
625.73233170992785
 20
217.57602562817391
 30
0.0
 40
81.000003000000007
 50
248.63379999999989
 51
270.0
  0
LINE
  5
2DC4
  8
AM_0
 10
625.73233170992785
 20
148.27600462817381
 30
0.0
 11
595.73233170992785
 21
148.27600462817381
 31
0.0
  0
ARC
  5
2DC5
  8
AM_0
 10
667.48233270992785
 20
145.26288262817391
 30
0.0
 40
8.0000000999999976
 50
216.73873999999989
 51
23.26125799999998
  0
ARC
  5
2DC6
  8
AM_0
 10
657.06449970992787
 20
137.48671162817391
 30
0.0
 40
5.0000001000000003
 50
36.738737
 51
111.36621
  0
LINE
  5
2DC7
  8
AM_0
 10
621.73231470992778
 20
257.77600762817377
 30
0.0
 11
629.73231570992778
 21
257.77600762817377
 31
0.0
  0
LINE
  5
2DC8
  8
AM_0
 10
621.73231470992778
 20
250.7760236281739
 30
0.0
 11
629.73231570992778
 21
250.7760236281739
 31
0.0
  0
LINE
  5
2DC9
  8
ﾁｭｳｼﾝｾﾝ
 10
577.28635917803081
 20
217.57602562817391
 30
0.0
 11
674.178304241825
 21
217.57602562817391
 31
0.0
  0
CIRCLE
  5
2DCA
  8
AM_5
 10
625.73233170992785
 20
240.7760066281738
 30
0.0
 40
4.000000199999997
  0
CIRCLE
  5
2DCB
  8
AM_0
 10
625.73233170992785
 20
240.7760066281738
 30
0.0
 40
3.0
  0
ARC
  5
2DCC
  8
AM_0
 10
625.73233170992785
 20
240.7760066281738
 30
0.0
 40
14.000001299999999
 50
106.6015399999999
 51
73.398452000000006
  0
CIRCLE
  5
2DCD
  8
AM_0
 10
625.73233170992785
 20
240.7760066281738
 30
0.0
 40
29.000001000000001
  0
LINE
  5
2DCE
  8
AM_0
 10
586.73229870992793
 20
240.7760066281738
 30
0.0
 11
586.73229870992793
 21
217.57602562817391
 31
0.0
  0
ARC
  5
2DCF
  8
AM_0
 10
581.732315709928
 20
217.57602562817391
 30
0.0
 40
5.0000001000000003
 50
270.0
 51
0.0
  0
ARC
  5
2DD0
  8
AM_0
 10
625.73233170992785
 20
240.7760066281738
 30
0.0
 40
39.000011999999998
 50
143.21321
 51
180.00001
  0
LINE
  5
2DD1
  8
AM_0
 10
621.73231470992778
 20
250.7760236281739
 30
0.0
 11
621.73231470992778
 21
257.77600762817377
 31
0.0
  0
ARC
  5
2DD2
  8
AM_0
 10
592.09580970992795
 20
265.9272536281739
 30
0.0
 40
3.0
 50
323.21321
 51
45.00000099999999
  0
ARC
  5
2DD3
  8
AM_0
 10
600.58106970992787
 20
274.41251362817383
 30
0.0
 40
3.0
 50
225.0
 51
306.78678999999988
  0
LINE
  5
2DD4
  8
AM_0
 10
664.73234670992792
 20
240.7760066281738
 30
0.0
 11
664.73234670992792
 21
217.57602562817391
 31
0.0
  0
ARC
  5
2DD5
  8
AM_0
 10
669.73234770992792
 20
217.57602562817391
 30
0.0
 40
5.0000001000000003
 50
179.99998999999991
 51
270.0
  0
ARC
  5
2DD6
  8
AM_0
 10
625.73233170992785
 20
240.7760066281738
 30
0.0
 40
39.000011999999998
 50
0.0
 51
36.786791000000001
  0
LINE
  5
2DD7
  8
AM_0
 10
629.73231570992778
 20
250.7760236281739
 30
0.0
 11
629.73231570992778
 21
257.77600762817377
 31
0.0
  0
ARC
  5
2DD8
  8
AM_0
 10
659.36886870992794
 20
265.9272536281739
 30
0.0
 40
3.0
 50
135.0
 51
216.78679
  0
ARC
  5
2DD9
  8
AM_0
 10
650.88357870992775
 20
274.41251362817383
 30
0.0
 40
3.0
 50
233.21321
 51
315.0
  0
LINE
  5
2DDA
  8
AM_0
 10
718.23233370992784
 20
210.77602162817391
 30
0.0
 11
715.82680770992795
 21
164.87593462817381
 31
0.0
  0
CIRCLE
  5
2DDB
  8
AM_0
 10
701.7463107099278
 20
164.76201262817381
 30
0.0
 40
6.0000002999999991
  0
ARC
  5
2DDC
  8
AM_0
 10
700.84736070992801
 20
165.6609686281738
 30
0.0
 40
15.00000029999998
 50
273.0
 51
357.0
  0
ARC
  5
2DDD
  8
AM_0
 10
700.84736070992801
 20
165.6609686281738
 30
0.0
 40
15.00000029999998
 50
273.0
 51
357.0
  0
LINE
  5
2DDE
  8
AM_0
 10
718.23233370992784
 20
240.7760066281738
 30
0.0
 11
718.23233370992784
 21
210.7760066281738
 31
0.0
  0
ARC
  5
2DDF
  8
AM_0
 10
625.73233170992785
 20
217.57602562817391
 30
0.0
 40
76.000001999999981
 50
358.60644999999982
 51
12.760202
  0
LINE
  5
2DE0
  8
AM_0
 10
718.23233370992784
 20
240.7760066281738
 30
0.0
 11
718.23233370992784
 21
270.77600662817389
 31
0.0
  0
ARC
  5
2DE1
  8
AM_0
 10
625.73233170992785
 20
240.7760066281738
 30
0.0
 40
74.400002999999998
 50
355.05457999999999
 51
8.1165493999999985
  0
LINE
  5
2DE2
  8
AM_0
 10
655.73233170992785
 20
333.27601462817393
 30
0.0
 11
701.63240370992787
 21
330.87049462817367
 31
0.0
  0
ARC
  5
2DE3
  8
ﾁｭｳｼﾝｾﾝ1
 10
625.73233170992842
 20
240.77600662817471
 30
0.0
 40
107.50001099999911
 50
38.027231999999771
 51
51.884149962778167
  0
LINE
  5
2DE4
  8
AM_0
 10
595.73233170992785
 20
333.27601462817393
 30
0.0
 11
549.83225970992805
 21
330.87049462817367
 31
0.0
  0
CIRCLE
  5
2DE5
  8
AM_0
 10
549.71836770992775
 20
316.78999462817382
 30
0.0
 40
6.0000002999999991
  0
ARC
  5
2DE6
  8
AM_0
 10
550.61729370992805
 20
315.89104462817392
 30
0.0
 40
15.00000029999998
 50
92.999999000000017
 51
176.99999
  0
ARC
  5
2DE7
  8
AM_0
 10
550.61729370992805
 20
315.89104462817392
 30
0.0
 40
15.00000029999998
 50
92.999999000000017
 51
176.99999
  0
LINE
  5
2DE8
  8
AM_0
 10
625.73233170992785
 20
333.27601462817393
 30
0.0
 11
655.73233170992785
 21
333.27601462817393
 31
0.0
  0
ARC
  5
2DE9
  8
AM_0
 10
575.69328270992764
 20
299.30030062817389
 30
0.0
 40
3.0
 50
130.5308599999999
 51
225.0
  0
ARC
  5
2DEA
  8
AM_0
 10
567.20802270992795
 20
290.81504062817379
 30
0.0
 40
3.0
 50
45.00000099999999
 51
139.4691399999999
  0
ARC
  5
2DEB
  8
AM_0
 10
620.23231470992789
 20
301.39576462817399
 30
0.0
 40
3.0
 50
273.75420000000003
 51
0.0
  0
ARC
  5
2DEC
  8
AM_0
 10
625.73234518330435
 20
217.57599562817401
 30
0.0
 40
81.000003000000007
 50
93.754195000000877
 51
121.1390599999998
  0
LINE
  5
2DED
  8
AM_0
 10
623.23231470992789
 20
301.39576462817399
 30
0.0
 11
623.23231470992789
 21
311.96386462817372
 31
0.0
  0
ARC
  5
2DEE
  8
AM_0
 10
620.23231470992789
 20
311.96386462817372
 30
0.0
 40
3.0
 50
0.0
 51
94.417918999999983
  0
LINE
  5
2DEF
  8
AM_0
 10
625.73233170992785
 20
333.27601462817393
 30
0.0
 11
595.73233170992785
 21
333.27601462817393
 31
0.0
  0
ARC
  5
2DF0
  8
AM_0
 10
625.73233170992785
 20
217.57602562817391
 30
0.0
 40
81.000003000000007
 50
58.860945000000001
 51
86.245803000000024
  0
ARC
  5
2DF1
  8
AM_0
 10
631.23233070992808
 20
301.39576462817399
 30
0.0
 40
3.0
 50
180.00001
 51
266.24579999999992
  0
LINE
  5
2DF2
  8
AM_0
 10
628.23233070992796
 20
301.39576462817399
 30
0.0
 11
628.23233070992796
 21
311.96386462817372
 31
0.0
  0
ARC
  5
2DF3
  8
AM_0
 10
631.23233070992808
 20
311.96386462817372
 30
0.0
 40
3.0
 50
85.582086000000032
 51
180.00001
  0
ARC
  5
2DF4
  8
AM_0
 10
675.77136570992775
 20
299.30030062817389
 30
0.0
 40
3.0
 50
315.0
 51
49.469136999999989
  0
ARC
  5
2DF5
  8
AM_0
 10
684.25665570992794
 20
290.81504062817379
 30
0.0
 40
3.0
 50
40.530864999999999
 51
135.0
  0
LINE
  5
2DF6
  8
ﾁｭｳｼﾝｾﾝ1
 10
693.91438687622747
 20
308.95808554088597
 30
0.0
 11
708.72257093403493
 21
323.76626727997319
 31
0.0
  0
CIRCLE
  5
2DF7
  8
AM_0
 10
701.7463107099278
 20
316.78999462817382
 30
0.0
 40
6.0000002999999991
  0
ARC
  5
2DF8
  8
AM_0
 10
700.84736070992801
 20
315.89104462817392
 30
0.0
 40
15.00000029999998
 50
3.0000000999999981
 51
86.999998999999988
  0
ARC
  5
2DF9
  8
AM_0
 10
700.84736070992801
 20
315.89104462817392
 30
0.0
 40
15.00000029999998
 50
3.0000000999999981
 51
86.999998999999988
  0
LINE
  5
2DFA
  8
AM_0
 10
392.55595120995901
 20
517.35388648211926
 30
0.0
 11
424.55595120995901
 21
517.35388648211926
 31
0.0
  0
LINE
  5
2DFB
  8
AM_0
 10
382.55598120995887
 20
499.35394648211951
 30
0.0
 11
424.55595120995901
 21
499.35394648211951
 31
0.0
  0
LINE
  5
2DFC
  8
AM_0
 10
382.55598120995887
 20
527.35394648211945
 30
0.0
 11
424.55595120995901
 21
527.35394648211945
 31
0.0
  0
LINE
  5
2DFD
  8
AM_0
 10
392.55595120995901
 20
509.35391648211919
 30
0.0
 11
424.55595120995901
 21
509.35391648211919
 31
0.0
  0
LINE
  5
2DFE
  8
ﾁｭｳｼﾝｾﾝ
 10
136.81904176855051
 20
513.35391648211953
 30
0.0
 11
429.26298120995898
 21
513.35391648211953
 31
0.0
  0
POLYLINE
  5
2DFF
  8
AM_0
 66
     1
 10
0.0
 20
0.0
 30
0.0
  0
VERTEX
  5
2E00
  8
AM_0
 10
365.46904120995902
 20
597.76690648211957
 30
0.0
 42
0.081985852
  0
VERTEX
  5
2E01
  8
AM_0
 10
343.35315120995892
 20
542.85522648211952
 30
0.0
 42
0.10914194
  0
VERTEX
  5
2E02
  8
AM_0
 10
343.35324120995898
 20
483.85221648211939
 30
0.0
 42
0.081985219
  0
VERTEX
  5
2E03
  8
AM_0
 10
365.46904120995902
 20
428.94091648211918
 30
0.0
  0
SEQEND
  5
2E04
  8
AM_0
  0
ARC
  5
2E05
  8
AM_0
 10
392.55595120995901
 20
513.35388648211926
 30
0.0
 40
3.9999962
 50
90.000003000000945
 51
270.0
  0
LINE
  5
2E06
  8
AM_0
 10
392.55595120995901
 20
517.35388648211926
 30
0.0
 11
392.55595120995901
 21
509.35391648211919
 31
0.0
  0
LINE
  5
2E07
  8
AM_0
 10
378.55598120995887
 20
420.85391648211942
 30
0.0
 11
378.55598120995887
 21
605.85394648211945
 31
0.0
  0
LINE
  5
2E08
  8
AM_0
 10
372.55598120995887
 20
442.85391648211919
 30
0.0
 11
372.55598120995887
 21
583.52621648211948
 31
0.0
  0
LINE
  5
2E09
  8
AM_0
 10
368.55598120995887
 20
423.1345264821195
 30
0.0
 11
368.55598120995887
 21
603.57330648211951
 31
0.0
  0
LINE
  5
2E0A
  8
AM_0
 10
382.55601120995902
 20
598.35394648211957
 30
0.0
 11
382.55601120995902
 21
428.35391648211947
 31
0.0
  0
LINE
  5
2E0B
  8
AM_0
 10
267.05592120995902
 20
439.85394648211951
 30
0.0
 11
267.05592120995902
 21
586.85391648211953
 31
0.0
  0
LINE
  5
2E0C
  8
AM_0
 10
296.55595120995901
 20
433.27881648211923
 30
0.0
 11
296.55595120995901
 21
593.42901648211955
 31
0.0
  0
LINE
  5
2E0D
  8
AM_0
 10
303.55598120995887
 20
431.10296648211943
 30
0.0
 11
303.55598120995887
 21
595.60486648211941
 31
0.0
  0
LINE
  5
2E0E
  8
AM_0
 10
267.05598120995887
 20
473.87924648211941
 30
0.0
 11
296.55595120995901
 21
473.87924648211941
 31
0.0
  0
LINE
  5
2E0F
  8
AM_0
 10
267.05595120995901
 20
439.85388648211932
 30
0.0
 11
286.55595120995901
 21
439.3432664821193
 31
0.0
  0
LINE
  5
2E10
  8
AM_0
 10
267.05598120995887
 20
451.77527648211918
 30
0.0
 11
296.55595120995901
 21
451.77527648211918
 31
0.0
  0
ARC
  5
2E11
  8
AM_0
 10
363.3261812099588
 20
424.01269648211951
 30
0.0
 40
5.0
 50
45.000000999999187
 51
87.999999999999659
  0
LINE
  5
2E12
  8
AM_0
 10
378.55598120995887
 20
428.35391648211947
 30
0.0
 11
382.55601120995902
 21
428.35391648211947
 31
0.0
  0
LINE
  5
2E13
  8
AM_0
 10
370.48622120995901
 20
421.13574648211932
 30
0.0
 11
378.55598120995887
 21
420.85391648211942
 31
0.0
  0
ARC
  5
2E14
  8
AM_0
 10
370.55601120995902
 20
423.1345264821195
 30
0.0
 40
2.0
 50
179.9999899999988
 51
268.00000999999861
  0
LINE
  5
2E15
  8
AM_0
 10
366.86174120995901
 20
427.54821648211953
 30
0.0
 11
368.55601120995902
 21
425.85394648211951
 31
0.0
  0
LINE
  5
2E16
  8
AM_0
 10
363.500681209959
 20
429.00964648211942
 30
0.0
 11
303.55598120995887
 21
431.10296648211943
 31
0.0
  0
LINE
  5
2E17
  8
AM_0
 10
287.35597120995908
 20
447.5407764821195
 30
0.0
 11
294.55595120995901
 21
447.5407764821195
 31
0.0
  0
LINE
  5
2E18
  8
AM_0
 10
287.35597120995908
 20
434.54080648211908
 30
0.0
 11
294.55595120995901
 21
434.54080648211908
 31
0.0
  0
LINE
  5
2E19
  8
AM_0
 10
287.35597120995908
 20
434.54080648211908
 30
0.0
 11
287.35597120995908
 21
447.5407764821195
 31
0.0
  0
LINE
  5
2E1A
  8
AM_0
 10
286.55598120995887
 20
435.34079648211952
 30
0.0
 11
286.55598120995887
 21
446.74078648211918
 31
0.0
  0
LINE
  5
2E1B
  8
AM_0
 10
286.55598120995887
 20
435.34079648211952
 30
0.0
 11
287.356001209959
 21
434.54074648211952
 31
0.0
  0
LINE
  5
2E1C
  8
AM_0
 10
286.55595120995901
 20
446.74078648211918
 30
0.0
 11
287.35597120995908
 21
447.54080648211908
 31
0.0
  0
LINE
  5
2E1D
  8
AM_0
 10
294.55595120995901
 20
432.5407764821195
 30
0.0
 11
294.55595120995901
 21
449.54077648211938
 31
0.0
  0
LINE
  5
2E1E
  8
AM_0
 10
303.55598120995887
 20
431.10296648211943
 30
0.0
 11
298.48616120995888
 21
431.28000648211952
 31
0.0
  0
ARC
  5
2E1F
  8
AM_0
 10
298.55595120995901
 20
433.27881648211923
 30
0.0
 40
2.0
 50
180.00001000000091
 51
267.9999999999996
  0
LINE
  5
2E20
  8
AM_0
 10
294.55595120995901
 20
432.5407764821195
 30
0.0
 11
296.55595120995901
 21
432.5407764821195
 31
0.0
  0
LINE
  5
2E21
  8
AM_0
 10
294.55595120995901
 20
449.54077648211938
 30
0.0
 11
296.55595120995901
 21
449.54077648211938
 31
0.0
  0
ARC
  5
2E22
  8
AM_0
 10
369.55598120995887
 20
443.18161648211918
 30
0.0
 40
3.0
 50
267.9999999999996
 51
0.0
  0
ARC
  5
2E23
  8
AM_0
 10
371.55598120995887
 20
462.22867648211923
 30
0.0
 40
3.0
 50
90.000003000000945
 51
180.00001000000091
  0
LINE
  5
2E24
  8
AM_0
 10
267.05598120995887
 20
574.93255648211937
 30
0.0
 11
296.55595120995901
 21
574.93255648211937
 31
0.0
  0
LINE
  5
2E25
  8
AM_0
 10
267.05595120995901
 20
586.85394648211945
 30
0.0
 11
286.55595120995901
 21
587.36456648211947
 31
0.0
  0
LINE
  5
2E26
  8
AM_0
 10
267.05598120995887
 20
552.82858648211925
 30
0.0
 11
296.55595120995901
 21
552.82858648211925
 31
0.0
  0
ARC
  5
2E27
  8
AM_0
 10
363.3261812099588
 20
602.69513648211955
 30
0.0
 40
5.0
 50
272.0000000000004
 51
315.0
  0
LINE
  5
2E28
  8
AM_0
 10
363.500681209959
 20
597.69818648211958
 30
0.0
 11
303.55598120995887
 21
595.60486648211941
 31
0.0
  0
LINE
  5
2E29
  8
AM_0
 10
287.35597120995908
 20
592.1669964821192
 30
0.0
 11
294.55595120995901
 21
592.1669964821192
 31
0.0
  0
LINE
  5
2E2A
  8
AM_0
 10
287.35597120995908
 20
579.16705648211951
 30
0.0
 11
294.55595120995901
 21
579.16705648211951
 31
0.0
  0
LINE
  5
2E2B
  8
AM_0
 10
287.35597120995908
 20
579.16705648211951
 30
0.0
 11
287.35597120995908
 21
592.1669964821192
 31
0.0
  0
LINE
  5
2E2C
  8
AM_0
 10
286.55598120995887
 20
579.96704648211914
 30
0.0
 11
286.55598120995887
 21
591.36706648211953
 31
0.0
  0
LINE
  5
2E2D
  8
AM_0
 10
286.55595120995901
 20
579.96707648211952
 30
0.0
 11
287.35597120995908
 21
579.16702648211947
 31
0.0
  0
LINE
  5
2E2E
  8
AM_0
 10
286.55598120995887
 20
591.36700648211956
 30
0.0
 11
287.356001209959
 21
592.16705648211939
 31
0.0
  0
LINE
  5
2E2F
  8
AM_0
 10
294.55595120995901
 20
577.16702648211935
 30
0.0
 11
294.55595120995901
 21
594.16699648211909
 31
0.0
  0
LINE
  5
2E30
  8
AM_0
 10
294.55595120995901
 20
577.16702648211935
 30
0.0
 11
296.55595120995901
 21
577.16702648211935
 31
0.0
  0
LINE
  5
2E31
  8
AM_0
 10
303.55595120995889
 20
595.60486648211941
 30
0.0
 11
298.48613120995901
 21
595.42779648211945
 31
0.0
  0
ARC
  5
2E32
  8
AM_0
 10
298.55595120995901
 20
593.42901648211955
 30
0.0
 40
2.0
 50
91.999998000000545
 51
180.00001000000091
  0
LINE
  5
2E33
  8
AM_0
 10
294.55595120995901
 20
594.16699648211909
 30
0.0
 11
296.55595120995901
 21
594.16699648211909
 31
0.0
  0
ARC
  5
2E34
  8
AM_0
 10
371.55598120995887
 20
564.47915648211927
 30
0.0
 40
3.0
 50
179.9999899999988
 51
270.0
  0
ARC
  5
2E35
  8
AM_0
 10
369.55598120995887
 20
583.52621648211948
 30
0.0
 40
3.0
 50
0.0
 51
91.999998000000545
  0
LINE
  5
2E36
  8
AM_0
 10
378.55598120995887
 20
598.35394648211957
 30
0.0
 11
382.55601120995902
 21
598.35394648211957
 31
0.0
  0
LINE
  5
2E37
  8
AM_0
 10
370.48622120995901
 20
605.57214648211936
 30
0.0
 11
378.55598120995887
 21
605.85394648211945
 31
0.0
  0
ARC
  5
2E38
  8
AM_0
 10
370.55601120995902
 20
603.57330648211951
 30
0.0
 40
2.0
 50
91.999998000000545
 51
180.00001000000091
  0
LINE
  5
2E39
  8
AM_0
 10
366.86170120995888
 20
599.15960648211922
 30
0.0
 11
368.55598120995887
 21
600.85388648211926
 31
0.0
  0
LINE
  5
2E3A
  8
AM_0
 10
424.55595120995901
 20
527.35394648211945
 30
0.0
 11
424.55595120995901
 21
499.35394648211951
 31
0.0
  0
LINE
  5
2E3B
  8
AM_0
 10
140.05592120995891
 20
510.35391648211919
 30
0.0
 11
162.05592120995891
 21
510.35391648211919
 31
0.0
  0
LINE
  5
2E3C
  8
AM_0
 10
140.05592120995891
 20
516.35391648211953
 30
0.0
 11
162.05592120995891
 21
516.35391648211953
 31
0.0
  0
LINE
  5
2E3D
  8
AM_0
 10
140.05592120995891
 20
522.85391648211953
 30
0.0
 11
168.055921209959
 21
522.85391648211953
 31
0.0
  0
LINE
  5
2E3E
  8
AM_0
 10
140.05592120995891
 20
503.85391648211947
 30
0.0
 11
168.055921209959
 21
503.85391648211947
 31
0.0
  0
LINE
  5
2E3F
  8
AM_0
 10
140.05592120995891
 20
503.85391648211947
 30
0.0
 11
140.05592120995891
 21
522.85391648211953
 31
0.0
  0
LINE
  5
2E40
  8
AM_0
 10
170.055921209959
 20
489.35391648211919
 30
0.0
 11
170.055921209959
 21
537.35391648211942
 31
0.0
  0
LINE
  5
2E41
  8
AM_0
 10
172.055921209959
 20
484.08596748211932
 30
0.0
 11
172.055921209959
 21
542.62186548211935
 31
0.0
  0
LINE
  5
2E42
  8
AM_0
 10
255.05592120995911
 20
444.7954654821192
 30
0.0
 11
255.05592120995911
 21
581.91236748211918
 31
0.0
  0
LINE
  5
2E43
  8
AM_0
 10
202.985470209959
 20
480.81434348211951
 30
0.0
 11
202.985470209959
 21
545.89348848211921
 31
0.0
  0
LINE
  5
2E44
  8
AM_0
 10
177.41406720995909
 20
481.26069448211939
 30
0.0
 11
177.41406720995909
 21
545.4471384821195
 31
0.0
  0
LINE
  5
2E45
  8
AM_0
 10
254.24385020995891
 20
442.92253448211932
 30
0.0
 11
205.4898692099589
 21
477.06043948211942
 31
0.0
  0
LINE
  5
2E46
  8
AM_0
 10
178.18980220995891
 20
479.2468494821195
 30
0.0
 11
199.92862920995901
 21
478.8673964821192
 31
0.0
  0
LINE
  5
2E47
  8
AM_0
 10
173.55592120995891
 20
481.4878904821195
 30
0.0
 11
176.74215920995891
 21
479.64831548211947
 31
0.0
  0
LINE
  5
2E48
  8
AM_0
 10
170.055921209959
 20
489.35391648211919
 30
0.0
 11
172.055921209959
 21
487.35391648211942
 31
0.0
  0
ARC
  5
2E49
  8
AM_0
 10
175.055921209959
 20
484.08596748211932
 30
0.0
 40
3.0
 50
180.0
 51
239.99999999999949
  0
ARC
  5
2E4A
  8
AM_0
 10
178.242159209959
 20
482.24639248211918
 30
0.0
 40
3.0
 50
239.99999999999949
 51
269.00000000000148
  0
ARC
  5
2E4B
  8
AM_0
 10
199.75410520995911
 20
468.86891948211922
 30
0.0
 40
10.0
 50
55.000000000002629
 51
89.000000000001506
  0
ARC
  5
2E4C
  8
AM_0
 10
257.05592120995908
 20
441.85391648211942
 30
0.0
 40
2.0
 50
188.1879840000033
 51
270.0
  0
LINE
  5
2E4D
  8
AM_0
 10
257.05592120995908
 20
439.8539164821193
 30
0.0
 11
267.05592120995902
 21
439.8539164821193
 31
0.0
  0
LINE
  5
2E4E
  8
AM_0
 10
257.05592120995908
 20
473.87924048211909
 30
0.0
 11
265.05592120995902
 21
473.87924048211909
 31
0.0
  0
LINE
  5
2E4F
  8
AM_0
 10
257.05592120995908
 20
449.84469148211917
 30
0.0
 11
263.05592120995902
 21
449.84469148211917
 31
0.0
  0
ARC
  5
2E50
  8
AM_0
 10
257.05592120995908
 20
451.84469148211917
 30
0.0
 40
2.0
 50
180.0
 51
270.0
  0
ARC
  5
2E51
  8
AM_0
 10
253.0966972099589
 20
441.28423048211931
 30
0.0
 40
2.0
 50
8.1879840000034303
 51
55.000000000002629
  0
LINE
  5
2E52
  8
AM_0
 10
265.05592120995902
 20
451.84469148211917
 30
0.0
 11
265.05592120995902
 21
471.8792404821192
 31
0.0
  0
ARC
  5
2E53
  8
AM_0
 10
263.05592120995902
 20
451.84469148211917
 30
0.0
 40
2.0
 50
270.0
 51
0.0
  0
ARC
  5
2E54
  8
AM_0
 10
267.05592120995902
 20
471.8792404821192
 30
0.0
 40
2.0
 50
120.0000000000005
 51
180.0
  0
LINE
  5
2E55
  8
AM_0
 10
254.24385020995891
 20
583.7852974821194
 30
0.0
 11
205.4898692099589
 21
549.64739248211924
 31
0.0
  0
LINE
  5
2E56
  8
AM_0
 10
172.055921209959
 20
539.35391648211953
 30
0.0
 11
170.055921209959
 21
537.35391648211942
 31
0.0
  0
ARC
  5
2E57
  8
AM_0
 10
162.05592120995891
 20
513.35391648211953
 30
0.0
 40
3.0
 50
270.0
 51
90.0
  0
LINE
  5
2E58
  8
AM_0
 10
162.05592120995891
 20
510.35391648211919
 30
0.0
 11
162.05592120995891
 21
516.35391648211953
 31
0.0
  0
LINE
  5
2E59
  8
AM_0
 10
168.055921209959
 20
503.35391648211947
 30
0.0
 11
168.055921209959
 21
523.35391648211953
 31
0.0
  0
LINE
  5
2E5A
  8
AM_0
 10
168.055921209959
 20
503.35391648211947
 30
0.0
 11
170.055921209959
 21
503.35391648211947
 31
0.0
  0
LINE
  5
2E5B
  8
AM_0
 10
168.055921209959
 20
523.35391648211953
 30
0.0
 11
170.055921209959
 21
523.35391648211953
 31
0.0
  0
LINE
  5
2E5C
  8
AM_0
 10
199.92862920995901
 20
547.84043648211934
 30
0.0
 11
178.18980220995891
 21
547.46098348211945
 31
0.0
  0
LINE
  5
2E5D
  8
AM_0
 10
176.74215920995891
 20
547.05951648211953
 30
0.0
 11
173.55592120995891
 21
545.21994148211945
 31
0.0
  0
ARC
  5
2E5E
  8
AM_0
 10
175.055921209959
 20
542.62186548211935
 30
0.0
 40
3.0
 50
120.0000000000005
 51
180.0
  0
ARC
  5
2E5F
  8
AM_0
 10
178.242159209959
 20
544.46144048211954
 30
0.0
 40
3.0
 50
90.999999999998494
 51
120.0000000000005
  0
ARC
  5
2E60
  8
AM_0
 10
199.75410520995911
 20
557.83891348211955
 30
0.0
 40
10.0
 50
270.99999999999841
 51
304.99999999999739
  0
LINE
  5
2E61
  8
AM_0
 10
257.05592120995908
 20
586.85391648211953
 30
0.0
 11
267.05592120995902
 21
586.85391648211953
 31
0.0
  0
LINE
  5
2E62
  8
AM_0
 10
257.05592120995908
 20
576.86314148211954
 30
0.0
 11
263.05592120995902
 21
576.86314148211954
 31
0.0
  0
LINE
  5
2E63
  8
AM_0
 10
257.05592120995908
 20
552.82859148211946
 30
0.0
 11
265.05592120995902
 21
552.82859148211946
 31
0.0
  0
ARC
  5
2E64
  8
AM_0
 10
257.05592120995908
 20
574.86314148211954
 30
0.0
 40
2.0
 50
90.0
 51
180.0
  0
ARC
  5
2E65
  8
AM_0
 10
257.05592120995908
 20
584.85391648211953
 30
0.0
 40
2.0
 50
90.0
 51
171.8120159999965
  0
ARC
  5
2E66
  8
AM_0
 10
253.0966972099589
 20
585.42360148211947
 30
0.0
 40
2.0
 50
304.99999999999739
 51
351.81201599999628
  0
LINE
  5
2E67
  8
AM_0
 10
265.05592120995902
 20
574.86314148211954
 30
0.0
 11
265.05592120995902
 21
554.82859148211935
 31
0.0
  0
ARC
  5
2E68
  8
AM_0
 10
267.05592120995902
 20
554.82859148211935
 30
0.0
 40
2.0
 50
180.0
 51
239.99999999999949
  0
ARC
  5
2E69
  8
AM_0
 10
263.05592120995902
 20
574.86314148211954
 30
0.0
 40
2.0
 50
0.0
 51
90.0
  0
ARC
  5
2E6B
  8
ﾁｭｳｼﾝｾﾝ1
 10
625.73233170992864
 20
240.77600662817341
 30
0.0
 40
107.50001099999911
 50
308.02723199999969
 51
321.884149962778
  0
LINE
  5
2E6C
  8
ﾁｭｳｼﾝｾﾝ1
 10
693.91441062264005
 20
172.5939514618743
 30
0.0
 11
708.72259236172715
 21
157.7857674040668
 31
0.0
  0
LINE
  5
2E6D
  8
ﾁｭｳｼﾝｾﾝ1
 10
558.44235951898929
 20
308.06599464685769
 30
0.0
 11
542.15868005669256
 21
324.34966012593992
 31
0.0
  0
ARC
  5
2E6E
  8
ﾁｭｳｼﾝｾﾝ1
 10
625.7323317099258
 20
240.77600662817639
 30
0.0
 40
107.5000109999967
 50
128.02723999999969
 51
142.06113688220751
  0
TEXT
  5
3052
  8
AM_0
 10
516.80229435889248
 20
529.96811939114207
 30
0.0
 40
10.0
  1
VX08-003GF~VX08-030GF
  0
ENDSEC
  0
EOF
