  0
SECTION
  2
HEADER
  9
$ACADVER
  1
AC1009
  9
$INSBASE
 10
0.0
 20
0.0
 30
0.0
  9
$EXTMIN
 10
101.8818761902883
 20
113.1283055829854
 30
-0.0000000000112498
  9
$EXTMAX
 10
860.68890580417235
 20
683.56914410335457
 30
0.0000000000002956
  9
$LIMMIN
 10
0.0
 20
0.0
  9
$LIMMAX
 10
853.5
 20
555.00000000000011
  9
$ORTHOMODE
 70
     0
  9
$REGENMODE
 70
     1
  9
$FILLMODE
 70
     1
  9
$QTEXTMODE
 70
     0
  9
$MIRRTEXT
 70
     1
  9
$DRAGMODE
 70
     2
  9
$LTSCALE
 40
3.0
  9
$OSMODE
 70
   551
  9
$ATTMODE
 70
     1
  9
$TEXTSIZE
 40
2.5
  9
$TRACEWID
 40
1.0
  9
$TEXTSTYLE
  7
STANDARD
  9
$CLAYER
  8
AM_0
  9
$CELTYPE
  6
BYLAYER
  9
$CECOLOR
 62
   256
  9
$DIMSCALE
 40
1.0
  9
$DIMASZ
 40
2.5
  9
$DIMEXO
 40
1.0
  9
$DIMDLI
 40
8.0
  9
$DIMRND
 40
0.0
  9
$DIMDLE
 40
0.0
  9
$DIMEXE
 40
0.6
  9
$DIMTP
 40
0.1
  9
$DIMTM
 40
0.1
  9
$DIMTXT
 40
2.5
  9
$DIMCEN
 40
0.0
  9
$DIMTSZ
 40
0.0
  9
$DIMTOL
 70
     0
  9
$DIMLIM
 70
     0
  9
$DIMTIH
 70
     0
  9
$DIMTOH
 70
     0
  9
$DIMSE1
 70
     0
  9
$DIMSE2
 70
     0
  9
$DIMTAD
 70
     1
  9
$DIMZIN
 70
     8
  9
$DIMBLK
  1

  9
$DIMASO
 70
     1
  9
$DIMSHO
 70
     1
  9
$DIMPOST
  1

  9
$DIMAPOST
  1
"
  9
$DIMALT
 70
     0
  9
$DIMALTD
 70
     2
  9
$DIMALTF
 40
0.0393701
  9
$DIMLFAC
 40
1.0
  9
$DIMTOFL
 70
     1
  9
$DIMTVP
 40
0.0
  9
$DIMTIX
 70
     0
  9
$DIMSOXD
 70
     0
  9
$DIMSAH
 70
     0
  9
$DIMBLK1
  1

  9
$DIMBLK2
  1

  9
$DIMSTYLE
  2
AM_ISO
  9
$DIMCLRD
 70
   256
  9
$DIMCLRE
 70
   256
  9
$DIMCLRT
 70
     4
  9
$DIMTFAC
 40
0.71
  9
$DIMGAP
 40
0.8
  9
$LUNITS
 70
     2
  9
$LUPREC
 70
     2
  9
$SKETCHINC
 40
1.0
  9
$FILLETRAD
 40
15.0
  9
$AUNITS
 70
     0
  9
$AUPREC
 70
     0
  9
$MENU
  1
.
  9
$ELEVATION
 40
0.0
  9
$PELEVATION
 40
0.0
  9
$THICKNESS
 40
0.0
  9
$LIMCHECK
 70
     0
  9
$BLIPMODE
 70
     0
  9
$CHAMFERA
 40
6.0
  9
$CHAMFERB
 40
3.0
  9
$SKPOLY
 70
     0
  9
$TDCREATE
 40
2452066.4609720372
  9
$TDUPDATE
 40
2458541.4436840741
  9
$TDINDWG
 40
0.0796368981
  9
$TDUSRTIMER
 40
0.0796367014
  9
$USRTIMER
 70
     1
  9
$ANGBASE
 50
0.0
  9
$ANGDIR
 70
     0
  9
$PDMODE
 70
     0
  9
$PDSIZE
 40
0.0
  9
$PLINEWID
 40
0.0
  9
$COORDS
 70
     1
  9
$SPLFRAME
 70
     0
  9
$SPLINETYPE
 70
     6
  9
$SPLINESEGS
 70
     8
  9
$ATTDIA
 70
     1
  9
$ATTREQ
 70
     1
  9
$HANDLING
 70
     1
  9
$HANDSEED
  5
2B5E
  9
$SURFTAB1
 70
     6
  9
$SURFTAB2
 70
     6
  9
$SURFTYPE
 70
     6
  9
$SURFU
 70
     6
  9
$SURFV
 70
     6
  9
$UCSNAME
  2

  9
$UCSORG
 10
0.0
 20
0.0
 30
0.0
  9
$UCSXDIR
 10
1.0
 20
0.0
 30
0.0
  9
$UCSYDIR
 10
0.0
 20
1.0
 30
0.0
  9
$PUCSNAME
  2

  9
$PUCSORG
 10
0.0
 20
0.0
 30
0.0
  9
$PUCSXDIR
 10
1.0
 20
0.0
 30
0.0
  9
$PUCSYDIR
 10
0.0
 20
1.0
 30
0.0
  9
$USERI1
 70
     0
  9
$USERI2
 70
     0
  9
$USERI3
 70
     0
  9
$USERI4
 70
     0
  9
$USERI5
 70
     0
  9
$USERR1
 40
0.0
  9
$USERR2
 40
0.0
  9
$USERR3
 40
0.0
  9
$USERR4
 40
0.0
  9
$USERR5
 40
0.0
  9
$WORLDVIEW
 70
     1
  9
$SHADEDGE
 70
     3
  9
$SHADEDIF
 70
    70
  9
$TILEMODE
 70
     1
  9
$MAXACTVP
 70
    64
  9
$PLIMCHECK
 70
     0
  9
$PEXTMIN
 10
1.0000000000000000E+020
 20
1.0000000000000000E+020
 30
1.0000000000000000E+020
  9
$PEXTMAX
 10
-1.0000000000000000E+020
 20
-1.0000000000000000E+020
 30
-1.0000000000000000E+020
  9
$PLIMMIN
 10
0.0
 20
0.0
  9
$PLIMMAX
 10
420.0
 20
297.0
  9
$UNITMODE
 70
     0
  9
$VISRETAIN
 70
     1
  9
$PLINEGEN
 70
     0
  9
$PSLTSCALE
 70
     1
  0
ENDSEC
  0
SECTION
  2
TABLES
  0
TABLE
  2
VPORT
 70
     1
  0
VPORT
  2
*ACTIVE
 70
     0
 10
0.0
 20
0.0
 11
1.0
 21
1.0
 12
481.28539099723031
 22
398.34872484316998
 13
0.0
 23
0.0
 14
7.5
 24
7.5
 15
30.0
 25
30.0
 16
0.0
 26
0.0
 36
1.0
 17
0.0
 27
0.0
 37
0.0
 40
574.35690835002845
 41
1.7571592210767459
 42
50.0
 43
0.0
 44
0.0
 50
0.0
 51
0.0
 71
     0
 72
   100
 73
     1
 74
     3
 75
     0
 76
     0
 77
     0
 78
     0
  0
ENDTAB
  0
TABLE
  2
LTYPE
 70
    26
  0
LTYPE
  2
CONTINUOUS
 70
     0
  3
Solid line
 72
    65
 73
     0
 40
0.0
  0
LTYPE
  2
AM_ISO02W050
 70
     0
  3
__ __ __ __ __ __ __ __ __ __ __ __ __ __ __
 72
    65
 73
     2
 40
7.5
 49
6.0
 49
-1.5
  0
LTYPE
  2
AM_ISO08W050
 70
     0
  3
____ . ____ . ____ . ____ . ____ . ____ . ____
 72
    65
 73
     4
 40
18.0
 49
12.0
 49
-1.5
 49
3.0
 49
-1.5
  0
LTYPE
  2
AM_ISO09W050
 70
     0
  3
_____ . . _____ . . _____ . . ____ .. ____
 72
    65
 73
     6
 40
22.5
 49
12.0
 49
-1.5
 49
3.0
 49
-1.5
 49
3.0
 49
-1.5
  0
LTYPE
  2
AMCONSTR
 70
     0
  3
_______________________
 72
    65
 73
     2
 40
9999.0
 49
9999.0
 49
0.0
  0
LTYPE
  2
AM_ISO08W050X2
 70
     0
  3
__ . __ . __ . __ . __ . __
 72
    65
 73
     4
 40
9.0
 49
6.0
 49
-0.75
 49
1.5
 49
-0.75
  0
LTYPE
  2
AM_ISO02W050X2
 70
     0
  3
 _ _ _ _ _ _ _ _ _ _ _ _
 72
    65
 73
     2
 40
3.75
 49
3.0
 49
-0.75
  0
LTYPE
  2
AMZIGZAG
 70
     0
  3
/\/-/\/-/\/-/\/-/\/-/\/
 72
    65
 73
     2
 40
11.000099999999991
 49
0.0001
 49
-11.0
  0
LTYPE
  2
ACISOWELD
 70
     0
  3
_ _ _ _ _
 72
    65
 73
     2
 40
2.0
 49
2.0
 49
-1.0
  0
LTYPE
  2
ACISOTGB
 70
     0
  3
__ . . __ . .
 72
    65
 73
     6
 40
9.0
 49
4.0
 49
-1.0
 49
1.0
 49
-1.0
 49
1.0
 49
-1.0
  0
LTYPE
  2
ACISOTGL
 70
     0
  3
_ _ _ _ _
 72
    65
 73
     2
 40
3.0
 49
2.0
 49
-1.0
  0
LTYPE
  2
CENTER
 70
     0
  3
__ . __
 72
    65
 73
     4
 40
7.0
 49
4.0
 49
-1.0
 49
1.0
 49
-1.0
  0
LTYPE
  2
PHANTOM2
 70
     0
  3
Phantom (.5x) ___ _ _ ___ _ _ ___ _ _ ___ _ _
 72
    65
 73
     6
 40
31.75
 49
15.875
 49
-3.174999999999998
 49
3.174999999999998
 49
-3.174999999999998
 49
3.174999999999998
 49
-3.174999999999998
  0
LTYPE
  2
ACANSTGBM
 70
     0
  3
__ . . __ . .
 72
    65
 73
     6
 40
9.0
 49
4.0
 49
-1.0
 49
1.0
 49
-1.0
 49
1.0
 49
-1.0
  0
LTYPE
  2
ACANSTGLM
 70
     0
  3
_ _ _ _ _
 72
    65
 73
     2
 40
3.0
 49
2.0
 49
-1.0
  0
LTYPE
  2
GEN7
 70
     0
  3
____ . ____ . ____ . ____ . ____ . ____ . ____
 72
    65
 73
     4
 40
14.25
 49
9.75
 49
-1.5
 49
1.5
 49
-1.5
  0
LTYPE
  2
GEN7A
 70
     0
  3
__ . __ . __
 72
    65
 73
     4
 40
7.375
 49
4.75
 49
-0.875
 49
0.875
 49
-0.875
  0
LTYPE
  2
ACJISTGB
 70
     0
  3
__ . . __ . .
 72
    65
 73
     6
 40
9.0
 49
4.0
 49
-1.0
 49
1.0
 49
-1.0
 49
1.0
 49
-1.0
  0
LTYPE
  2
ACJISTGL
 70
     0
  3
_ _ _ _ _
 72
    65
 73
     2
 40
3.0
 49
2.0
 49
-1.0
  0
LTYPE
  2
HIDDEN
 70
     0
  3
Hidden __ __ __ __ __ __ __ __ __ __ __ __ __ _
 72
    65
 73
     2
 40
0.375
 49
0.25
 49
-0.125
  0
LTYPE
  2
CENTER2
 70
     0
  3
Center (.5x) ___ _ ___ _ ___ _ ___ _ ___ _ ___
 72
    65
 73
     4
 40
1.125
 49
0.75
 49
-0.125
 49
0.125
 49
-0.125
  0
LTYPE
  2
HIDDEN2
 70
     0
  3
Hidden (.5x) _ _ _ _ _ _ _ _ _ _ _ _ _ _ _ _ _
 72
    65
 73
     2
 40
0.1875
 49
0.125
 49
-0.0625
  0
LTYPE
  2
AMZIGZAG2
 70
     0
  3
/\/-/\/-/\/-/\/-/\/-/\/
 72
    65
 73
     2
 40
0.4401
 49
0.0001
 49
-0.4400000000000002
  0
LTYPE
  2
ACANSTGB
 70
     0
  3
__ . . __ . .
 72
    65
 73
     6
 40
0.35433070866
 49
0.15748031496
 49
-0.03937007874
 49
0.03937007874
 49
-0.03937007874
 49
0.03937007874
 49
-0.03937007874
  0
LTYPE
  2
ACANSTGL
 70
     0
  3
_ _ _ _ _
 72
    65
 73
     2
 40
0.11811023622
 49
0.07874015748
 49
-0.03937007874
  0
ENDTAB
  0
TABLE
  2
LAYER
 70
     6
  0
LAYER
  2
0
 70
     0
 62
     7
  6
CONTINUOUS
  0
LAYER
  2
AM_0
 70
     0
 62
     7
  6
CONTINUOUS
  0
LAYER
  2
AM_5
 70
     0
 62
     2
  6
CONTINUOUS
  0
LAYER
  2
DEFPOINTS
 70
     0
 62
     7
  6
CONTINUOUS
  0
LAYER
  2
ﾁｭｳｼﾝｾﾝ
 70
     0
 62
     1
  6
GEN7
  0
LAYER
  2
ﾁｭｳｼﾝｾﾝ1
 70
     0
 62
     1
  6
GEN7A
  0
ENDTAB
  0
TABLE
  2
STYLE
 70
     9
  0
STYLE
  2
STANDARD
 70
     0
 40
0.0
 41
0.8299999999999999
 50
0.0
 71
     0
 42
2.5
  3
txt.shx
  4
bigfont.shx
  0
STYLE
  2
ANNOTATIVE
 70
     0
 40
0.0
 41
1.0
 50
0.0
 71
     0
 42
0.2
  3
txt
  4

  0
STYLE
  2

 70
     1
 40
0.0
 41
1.0
 50
0.0
 71
     0
 42
2.5
  3
ltypeshp.shx
  4

  0
STYLE
  2
ACISOTS
 70
     0
 40
1.0
 41
1.0
 50
0.0
 71
     0
 42
2.5
  3
isocp.shx
  4
extfont.shx
  0
STYLE
  2
ACISOGDT
 70
     0
 40
0.0
 41
1.0
 50
0.0
 71
     0
 42
2.5
  3
amgdt.shx
  4

  0
STYLE
  2
ACANSTS
 70
     0
 40
1.0
 41
1.0
 50
0.0
 71
     0
 42
2.5
  3
romans.shx
  4
bigfont.shx
  0
STYLE
  2
ACANSGDT
 70
     0
 40
0.0
 41
1.0
 50
0.0
 71
     0
 42
2.5
  3
amgdt.shx
  4

  0
STYLE
  2
ACJISTS
 70
     0
 40
1.0
 41
1.0
 50
0.0
 71
     0
 42
2.5
  3
isocp.shx
  4
bigfont.shx
  0
STYLE
  2
ACJISGDT
 70
     0
 40
0.0
 41
1.0
 50
0.0
 71
     0
 42
2.5
  3
amgdt.shx
  4

  0
ENDTAB
  0
TABLE
  2
VIEW
 70
     6
  0
VIEW
  2
AM_VIEW1
 70
     0
 40
277.49999999999989
 10
249.64779005524849
 20
416.24999999999989
 41
499.2955801104971
 11
0.0
 21
0.0
 31
1.0
 12
0.0
 22
0.0
 32
0.0
 42
50.0
 43
0.0
 44
0.0
 50
0.0
 71
     0
  0
VIEW
  2
AM_VIEW2
 70
     0
 40
277.49999999999989
 10
603.85220994475117
 20
416.24999999999989
 41
499.2955801104971
 11
0.0
 21
0.0
 31
1.0
 12
0.0
 22
0.0
 32
0.0
 42
50.0
 43
0.0
 44
0.0
 50
0.0
 71
     0
  0
VIEW
  2
AM_VIEW3
 70
     0
 40
277.49999999999989
 10
249.64779005524849
 20
138.7499999999998
 41
499.2955801104971
 11
0.0
 21
0.0
 31
1.0
 12
0.0
 22
0.0
 32
0.0
 42
50.0
 43
0.0
 44
0.0
 50
0.0
 71
     0
  0
VIEW
  2
AM_VIEW4
 70
     0
 40
277.49999999999989
 10
603.85220994475117
 20
138.7499999999998
 41
499.2955801104971
 11
0.0
 21
0.0
 31
1.0
 12
0.0
 22
0.0
 32
0.0
 42
50.0
 43
0.0
 44
0.0
 50
0.0
 71
     0
  0
VIEW
  2
AM_VIEW5
 70
     0
 40
277.5
 10
426.75
 20
277.49999999999989
 41
499.2955801104971
 11
0.0
 21
0.0
 31
1.0
 12
0.0
 22
0.0
 32
0.0
 42
50.0
 43
0.0
 44
0.0
 50
0.0
 71
     0
  0
VIEW
  2
AM_VIEW6
 70
     0
 40
554.99445000000014
 10
426.75
 20
277.49999999999989
 41
998.5811743093924
 11
0.0
 21
0.0
 31
1.0
 12
0.0
 22
0.0
 32
0.0
 42
50.0
 43
0.0
 44
0.0
 50
0.0
 71
     0
  0
ENDTAB
  0
TABLE
  2
UCS
 70
     0
  0
ENDTAB
  0
TABLE
  2
APPID
 70
    95
  0
APPID
  2
ACAD
 70
     0
  0
APPID
  2
ACADANNOTATIVE
 70
     0
  0
APPID
  2
MCAD_NO_VIS
 70
     0
  0
APPID
  2
ACAD_TEMP_GRAPHIC
 70
     0
  0
APPID
  2
ACATTRIBSERVICES
 70
     0
  0
APPID
  2
GENIUS_GENREC_14
 70
     0
  0
APPID
  2
GENIUS_GENOBJ-N-REC_13
 70
     0
  0
APPID
  2
GENIUS_GENODEF_13
 70
     0
  0
APPID
  2
GENIUS_GENOLIS_13
 70
     0
  0
APPID
  2
GENIUS_GENOBJ-N-TIT_13
 70
     0
  0
APPID
  2
GENIUS_GENOENT_13
 70
     0
  0
APPID
  2
GENIUS_GENTITLE_13
 70
     0
  0
APPID
  2
GENIUS_GENOREF_13
 70
     0
  0
APPID
  2
GENIUS_GENSCREG_15
 70
     0
  0
APPID
  2
GENIUS_GENOBJ-N-SDF_13
 70
     0
  0
APPID
  2
GENIUS_GENFIL_13
 70
     0
  0
APPID
  2
GENIUS_GENOBJ-N-CHA_13
 70
     0
  0
APPID
  2
GENIUS_GENDTOL_13
 70
     0
  0
APPID
  2
GENIUS_GENOBJ-N-FIL_13
 70
     0
  0
APPID
  2
AD_DRAW
 70
     0
  0
APPID
  2
DESIGNERASSEMBLIES
 70
     0
  0
APPID
  2
ASURF_PCURVE_APPNAME
 70
     0
  0
APPID
  2
GENIUS_GE3SECT_13
 70
     0
  0
APPID
  2
GENIUS_GENCFG_13
 70
     0
  0
APPID
  2
GENIUS_GE3CFG0_13
 70
     0
  0
APPID
  2
GENIUS_GENCFG0_13
 70
     0
  0
APPID
  2
GENIUS_GENCFG1_13
 70
     0
  0
APPID
  2
GENIUS_GENCFG2_13
 70
     0
  0
APPID
  2
GENIUS_GENCFG3_13
 70
     0
  0
APPID
  2
GENIUS_GENCFG4_13
 70
     0
  0
APPID
  2
GENIUS_GEVCFG0_13
 70
     0
  0
APPID
  2
GENIUS_GENHINW_13
 70
     0
  0
APPID
  2
GENIUS_FIRSTVISTXT_14
 70
     0
  0
APPID
  2
GENIUS_GENOBJ-N-LEADER_13
 70
     0
  0
APPID
  2
GEV_VCCNULL_SWITCH_OFF
 70
     0
  0
APPID
  2
GENIUS_GEFCFG0_13
 70
     0
  0
APPID
  2
GENIUS_GENZVEED_13
 70
     0
  0
APPID
  2
GENIUS_GENSCREG_13
 70
     0
  0
APPID
  2
GENIUS_DUMCFG0_13
 70
     0
  0
APPID
  2
GEVID936201362
 70
     0
  0
APPID
  2
GEVDC
 70
     0
  0
APPID
  2
GEVCON
 70
     0
  0
APPID
  2
VCC
 70
     0
  0
APPID
  2
GEVPT
 70
     0
  0
APPID
  2
GEVIT
 70
     0
  0
APPID
  2
GENBH
 70
     0
  0
APPID
  2
GEVMK
 70
     0
  0
APPID
  2
GENIUS_GENBH_13
 70
     0
  0
APPID
  2
GENIUS_GENOBJ-NBEHI-BHF_13
 70
     0
  0
APPID
  2
GENIUS_GENOBJ-NBEHI-BHB_13
 70
     0
  0
APPID
  2
GENIUS_GENOBJ-F-DESC_13
 70
     0
  0
APPID
  2
GENIUS_GEFDESC_14
 70
     0
  0
APPID
  2
GENIUS_GENOBJ-F-PART_13
 70
     0
  0
APPID
  2
GENIUS_GEFSTDP_13
 70
     0
  0
APPID
  2
GENIUS_GEFPARTINS_13
 70
     0
  0
APPID
  2
GENIUS_GENTRA_14
 70
     0
  0
APPID
  2
GENIUS_GENINF13_13
 70
     0
  0
APPID
  2
GENIUS_GENOBJ-N-INFOPT_13
 70
     0
  0
APPID
  2
GENIUS_GENOBJ-N-RSSYM_13
 70
     0
  0
APPID
  2
GENIUS_GENSYMENT_13
 70
     0
  0
APPID
  2
GENIUS_GENSCSYM_13
 70
     0
  0
APPID
  2
GENIUS_GEFINFNAM_13
 70
     0
  0
APPID
  2
GENIUS_GENOBJ-N-CEN_13
 70
     0
  0
APPID
  2
GENIUS_GENOBJ-N-CRS_13
 70
     0
  0
APPID
  2
GENIUS_GENOBJ-N-CRC_13
 70
     0
  0
APPID
  2
GENIUS_GENCRC_14
 70
     0
  0
APPID
  2
GEVID942827039
 70
     0
  0
APPID
  2
GEVID942827040
 70
     0
  0
APPID
  2
GEVID942827041
 70
     0
  0
APPID
  2
GENIUS_GENOBJ-F-SCPASSM_13
 70
     0
  0
APPID
  2
GENIUS_GENDIMSH_14
 70
     0
  0
APPID
  2
GEVID942827042
 70
     0
  0
APPID
  2
GEVID946020473
 70
     0
  0
APPID
  2
GEVID946020474
 70
     0
  0
APPID
  2
GEVID946020475
 70
     0
  0
APPID
  2
GENIUS_GENOBJ-N-HTC_13
 70
     0
  0
APPID
  2
GENIUS_GENHATCH_13
 70
     0
  0
APPID
  2
GEVID948854295
 70
     0
  0
APPID
  2
GEVID939402019
 70
     0
  0
APPID
  2
GEVID952919491
 70
     0
  0
APPID
  2
GEVID952919492
 70
     0
  0
APPID
  2
GENIUS_GEFWELD_13
 70
     0
  0
APPID
  2
GENIUS_GENOBJ-F-WELS_13
 70
     0
  0
APPID
  2
GEVID952919493
 70
     0
  0
APPID
  2
GENIUS_GENOBJ-N-RSBK_13
 70
     0
  0
APPID
  2
GENIUS_GENOBJ-N-LIB_13
 70
     0
  0
APPID
  2
GENIUS_GENSCALE_13
 70
     0
  0
APPID
  2
GEVID986376691
 70
     0
  0
APPID
  2
DCO15
 70
     0
  0
APPID
  2
ACAD_DSTYLE_DIMBREAK
 70
     0
  0
APPID
  2
ACAD_DSTYLE_DIMJAG
 70
     0
  0
APPID
  2
ACAD_NAV_VCDISPLAY
 70
     0
  0
APPID
  2
ACADANNOPO
 70
     0
  0
APPID
  2
ACAD_EXEMPT_FROM_CAD_STANDARDS
 70
     0
  0
APPID
  2
ACAD_MLEADERVER
 70
     0
  0
ENDTAB
  0
TABLE
  2
DIMSTYLE
 70
    22
  0
DIMSTYLE
  2
STANDARD
 70
     0
  3

  4

  5

  6

  7

 40
1.0
 41
0.18
 42
0.0625
 43
0.38
 44
0.18
 45
0.0
 46
0.0
 47
0.0
 48
0.0
140
0.18
141
0.09
142
0.0
143
25.399999999999999
144
1.0
145
0.0
146
1.0
147
0.09
 71
     0
 72
     0
 73
     1
 74
     1
 75
     0
 76
     0
 77
     0
 78
     0
170
     0
171
     2
172
     0
173
     0
174
     0
175
     0
176
     0
177
     0
178
     0
  0
DIMSTYLE
  2
ANNOTATIVE
 70
     0
  3

  4

  5

  6

  7

 40
1.0
 41
0.18
 42
0.0625
 43
0.38
 44
0.18
 45
0.0
 46
0.0
 47
0.0
 48
0.0
140
0.18
141
0.09
142
0.0
143
25.399999999999999
144
1.0
145
0.0
146
1.0
147
0.09
 71
     0
 72
     0
 73
     1
 74
     1
 75
     0
 76
     0
 77
     0
 78
     0
170
     0
171
     2
172
     0
173
     0
174
     0
175
     0
176
     0
177
     0
178
     0
  0
DIMSTYLE
  2
AM_ISO
 70
     0
  3

  4
"
  5

  6

  7

 40
1.0
 41
2.5
 42
1.0
 43
8.0
 44
0.6
 45
0.0
 46
0.0
 47
0.1
 48
0.1
140
2.5
141
0.0
142
0.0
143
0.0393701
144
1.0
145
0.0
146
0.71
147
0.8
 71
     0
 72
     0
 73
     0
 74
     0
 75
     0
 76
     0
 77
     1
 78
     8
170
     0
171
     2
172
     1
173
     0
174
     0
175
     0
176
   256
177
   256
178
     4
  0
DIMSTYLE
  2
AM_ISO$3
 70
     0
  3

  4
"
  5

  6

  7

 40
1.0
 41
2.5
 42
1.0
 43
8.0
 44
0.6
 45
0.0
 46
0.0
 47
0.1
 48
0.1
140
2.5
141
0.0
142
0.0
143
0.0393701
144
1.0
145
0.0
146
0.71
147
0.8
 71
     0
 72
     0
 73
     0
 74
     1
 75
     0
 76
     0
 77
     1
 78
     8
170
     0
171
     2
172
     0
173
     0
174
     0
175
     0
176
   256
177
   256
178
     4
  0
DIMSTYLE
  2
AM_ISO$4
 70
     0
  3

  4
"
  5

  6

  7

 40
1.0
 41
2.5
 42
1.0
 43
8.0
 44
0.6
 45
0.0
 46
0.0
 47
0.1
 48
0.1
140
2.5
141
0.0
142
0.0
143
0.0393701
144
1.0
145
0.0
146
0.71
147
0.8
 71
     0
 72
     0
 73
     0
 74
     1
 75
     0
 76
     0
 77
     1
 78
     8
170
     0
171
     2
172
     0
173
     0
174
     0
175
     0
176
   256
177
   256
178
     4
  0
DIMSTYLE
  2
AM_ISO$6
 70
     0
  3

  4
"
  5

  6

  7

 40
1.0
 41
2.5
 42
1.0
 43
8.0
 44
0.6
 45
0.0
 46
0.0
 47
0.1
 48
0.1
140
2.5
141
0.0
142
0.0
143
0.0393701
144
1.0
145
0.0
146
0.71
147
0.8
 71
     0
 72
     0
 73
     0
 74
     0
 75
     0
 76
     0
 77
     0
 78
     8
170
     0
171
     2
172
     1
173
     0
174
     0
175
     0
176
   256
177
   256
178
     4
  0
DIMSTYLE
  2
AM_ISO$7
 70
     0
  3

  4
"
  5

  6

  7

 40
1.0
 41
2.5
 42
1.0
 43
8.0
 44
0.6
 45
0.0
 46
0.0
 47
0.1
 48
0.1
140
2.5
141
0.0
142
0.0
143
0.0393701
144
1.0
145
0.0
146
0.71
147
0.8
 71
     0
 72
     0
 73
     0
 74
     0
 75
     0
 76
     0
 77
     1
 78
     8
170
     0
171
     2
172
     1
173
     0
174
     0
175
     0
176
   256
177
   256
178
     4
  0
DIMSTYLE
  2
AM_ISO$SF
 70
     0
  3

  4
"
  5

  6

  7

 40
1.0
 41
2.5
 42
1.0
 43
10.0
 44
1.0
 45
0.0
 46
0.0
 47
0.1
 48
0.1
140
3.5
141
0.0
142
0.0
143
0.0393701
144
1.0
145
0.0
146
0.71
147
1.5
 71
     0
 72
     0
 73
     0
 74
     0
 75
     1
 76
     1
 77
     1
 78
     8
170
     0
171
     2
172
     1
173
     0
174
     0
175
     0
176
   256
177
   256
178
     2
  0
DIMSTYLE
  2
AM_ISO$SH
 70
     0
  3

  4
"
  5

  6

  7

 40
1.0
 41
2.5
 42
1.0
 43
10.0
 44
1.0
 45
0.0
 46
0.0
 47
0.1
 48
0.1
140
3.5
141
0.0
142
0.0
143
0.0393701
144
2.0
145
0.0
146
0.71
147
1.5
 71
     0
 72
     0
 73
     0
 74
     0
 75
     1
 76
     1
 77
     1
 78
     8
170
     0
171
     2
172
     1
173
     1
174
     0
175
     0
176
   256
177
   256
178
     2
  0
DIMSTYLE
  2
AM_JIS
 70
     0
  3

  4
"
  5

  6

  7

 40
1.0
 41
2.5
 42
1.0
 43
7.0
 44
1.0
 45
0.0
 46
0.0
 47
0.1
 48
0.1000000001
140
2.5
141
0.0
142
0.0
143
0.0393701
144
1.0
145
0.0
146
0.71
147
1.0
 71
     0
 72
     0
 73
     0
 74
     0
 75
     0
 76
     0
 77
     3
 78
     8
170
     0
171
     2
172
     1
173
     0
174
     0
175
     0
176
   256
177
   256
178
     4
  0
DIMSTYLE
  2
AM_JIS$3
 70
     0
  3

  4
"
  5

  6

  7

 40
1.0
 41
2.5
 42
1.0
 43
7.0
 44
1.0
 45
0.0
 46
0.0
 47
0.1
 48
0.1000000001
140
2.5
141
0.0
142
0.0
143
0.0393701
144
1.0
145
0.0
146
0.71
147
1.0
 71
     0
 72
     0
 73
     0
 74
     1
 75
     0
 76
     0
 77
     3
 78
     8
170
     0
171
     2
172
     0
173
     0
174
     0
175
     0
176
   256
177
   256
178
     4
  0
DIMSTYLE
  2
AM_JIS$4
 70
     0
  3

  4
"
  5

  6

  7

 40
1.0
 41
2.5
 42
1.0
 43
7.0
 44
1.0
 45
0.0
 46
0.0
 47
0.1
 48
0.1000000001
140
2.5
141
0.0
142
0.0
143
0.0393701
144
1.0
145
0.0
146
0.71
147
1.0
 71
     0
 72
     0
 73
     0
 74
     0
 75
     0
 76
     0
 77
     3
 78
     8
170
     0
171
     2
172
     0
173
     0
174
     0
175
     0
176
   256
177
   256
178
     4
  0
DIMSTYLE
  2
AM_JIS$6
 70
     0
  3

  4
"
  5

  6

  7

 40
1.0
 41
2.5
 42
1.0
 43
7.0
 44
1.0
 45
0.0
 46
0.0
 47
0.1
 48
0.1000000001
140
2.5
141
0.0
142
0.0
143
0.0393701
144
1.0
145
0.0
146
0.71
147
1.0
 71
     0
 72
     0
 73
     0
 74
     0
 75
     0
 76
     0
 77
     0
 78
     8
170
     0
171
     2
172
     1
173
     0
174
     0
175
     0
176
   256
177
   256
178
     4
  0
DIMSTYLE
  2
AM_JIS$7
 70
     0
  3

  4
"
  5

  6

  7

 40
1.0
 41
2.5
 42
1.0
 43
7.0
 44
1.0
 45
0.0
 46
0.0
 47
0.1
 48
0.1000000001
140
2.5
141
0.0
142
0.0
143
0.0393701
144
1.0
145
0.0
146
0.71
147
1.0
 71
     0
 72
     0
 73
     0
 74
     0
 75
     0
 76
     0
 77
     3
 78
     8
170
     0
171
     2
172
     1
173
     0
174
     0
175
     0
176
   256
177
   256
178
     4
  0
DIMSTYLE
  2
AM_JIS$SF
 70
     0
  3

  4
"
  5

  6

  7

 40
1.0
 41
2.5
 42
1.0
 43
10.0
 44
1.0
 45
0.0
 46
0.0
 47
0.1
 48
0.1
140
3.5
141
0.0
142
0.0
143
0.0393701
144
1.0
145
0.0
146
0.71
147
1.5
 71
     0
 72
     0
 73
     0
 74
     0
 75
     1
 76
     1
 77
     3
 78
     8
170
     0
171
     2
172
     1
173
     0
174
     0
175
     0
176
   256
177
   256
178
     4
  0
DIMSTYLE
  2
AM_JIS$SH
 70
     0
  3

  4
"
  5

  6

  7

 40
1.0
 41
2.5
 42
1.0
 43
10.0
 44
1.0
 45
0.0
 46
0.0
 47
0.1
 48
0.1
140
3.5
141
0.0
142
0.0
143
0.0393701
144
1.0
145
0.0
146
0.71
147
1.5
 71
     0
 72
     0
 73
     0
 74
     0
 75
     1
 76
     0
 77
     3
 78
     8
170
     0
171
     2
172
     1
173
     1
174
     0
175
     0
176
   256
177
   256
178
     4
  0
DIMSTYLE
  2
AM_ANSI
 70
     0
  3

  4
mm
  5

  6

  7

 40
1.0
 41
0.1
 42
0.05
 43
0.5
 44
0.1
 45
0.0
 46
0.0
 47
0.1
 48
0.1
140
0.12
141
0.0
142
0.0
143
25.399999999999999
144
1.0
145
0.0
146
0.71
147
0.06
 71
     0
 72
     0
 73
     1
 74
     1
 75
     0
 76
     0
 77
     0
 78
     7
170
     0
171
     2
172
     0
173
     0
174
     0
175
     0
176
   256
177
   256
178
     2
  0
DIMSTYLE
  2
AM_ANSI$3
 70
     0
  3

  4
mm
  5

  6

  7

 40
1.0
 41
0.1
 42
0.05
 43
0.5
 44
0.1
 45
0.0
 46
0.0
 47
0.1
 48
0.1
140
0.12
141
0.0
142
0.0
143
25.399999999999999
144
1.0
145
0.0
146
0.71
147
0.06
 71
     0
 72
     0
 73
     1
 74
     1
 75
     0
 76
     0
 77
     0
 78
     7
170
     0
171
     2
172
     0
173
     0
174
     0
175
     0
176
   256
177
   256
178
     2
  0
DIMSTYLE
  2
AM_ANSI$4
 70
     0
  3

  4
mm
  5

  6

  7

 40
1.0
 41
0.1
 42
0.05
 43
0.5
 44
0.1
 45
0.0
 46
0.0
 47
0.1
 48
0.1
140
0.12
141
0.0
142
0.0
143
25.399999999999999
144
1.0
145
0.0
146
0.71
147
0.06
 71
     0
 72
     0
 73
     1
 74
     1
 75
     0
 76
     0
 77
     0
 78
     7
170
     0
171
     2
172
     0
173
     0
174
     0
175
     0
176
   256
177
   256
178
     2
  0
DIMSTYLE
  2
AM_ANSI$7
 70
     0
  3

  4
mm
  5

  6

  7

 40
1.0
 41
0.1
 42
0.05
 43
0.5
 44
0.1
 45
0.0
 46
0.0
 47
0.1
 48
0.1
140
0.24
141
0.0
142
0.0
143
25.399999999999999
144
1.0
145
0.0
146
0.71
147
0.06
 71
     0
 72
     0
 73
     1
 74
     1
 75
     0
 76
     0
 77
     0
 78
     7
170
     0
171
     2
172
     0
173
     0
174
     0
175
     0
176
   256
177
   256
178
     2
  0
DIMSTYLE
  2
AM_ANSI$SF
 70
     0
  3

  4
mm
  5

  6

  7

 40
1.0
 41
0.1
 42
0.05
 43
0.5
 44
0.1
 45
0.0
 46
0.0
 47
0.1
 48
0.1
140
0.12
141
0.0
142
0.0
143
25.399999999999999
144
1.0
145
0.0
146
0.71
147
0.06
 71
     0
 72
     0
 73
     1
 74
     1
 75
     1
 76
     1
 77
     0
 78
     7
170
     0
171
     2
172
     0
173
     0
174
     0
175
     0
176
   256
177
   256
178
     2
  0
DIMSTYLE
  2
AM_ANSI$SH
 70
     0
  3

  4
mm
  5

  6

  7

 40
1.0
 41
0.1
 42
0.05
 43
0.5
 44
0.1
 45
0.0
 46
0.0
 47
0.1
 48
0.1
140
0.12
141
0.0
142
0.0
143
25.399999999999999
144
1.0
145
0.0
146
0.71
147
0.06
 71
     0
 72
     0
 73
     1
 74
     1
 75
     1
 76
     1
 77
     0
 78
     7
170
     0
171
     2
172
     0
173
     1
174
     0
175
     0
176
   256
177
   256
178
     2
  0
ENDTAB
  0
ENDSEC
  0
SECTION
  2
BLOCKS
  0
BLOCK
  8
0
  2
$MODEL_SPACE
 70
     0
 10
0.0
 20
0.0
 30
0.0
  3
$MODEL_SPACE
  1

  0
ENDBLK
  5
29D2
  8
0
  0
BLOCK
 67
     1
  8
0
  2
$PAPER_SPACE
 70
     0
 10
0.0
 20
0.0
 30
0.0
  3
$PAPER_SPACE
  1

  0
ENDBLK
  5
29CE
 67
     1
  8
0
  0
BLOCK
  8
0
  2
GENAXEH
 70
     0
 10
0.0
 20
0.0
 30
0.0
  3
GENAXEH
  1

  0
LINE
  5
27B9
  8
0
 10
-1.0
 20
0.0
 30
0.0
 11
1.0
 21
0.0
 31
0.0
  0
ENDBLK
  5
27BA
  8
0
  0
BLOCK
  8
0
  2
_OPEN30
 70
     0
 10
0.0
 20
0.0
 30
0.0
  3
_OPEN30
  1

  0
LINE
  5
27BD
  8
0
 62
     0
 10
-1.0
 20
0.26794919
 30
0.0
 11
0.0
 21
0.0
 31
0.0
  0
LINE
  5
27BE
  8
0
 62
     0
 10
0.0
 20
0.0
 30
0.0
 11
-1.0
 21
-0.26794919
 31
0.0
  0
LINE
  5
27BF
  8
0
 62
     0
 10
0.0
 20
0.0
 30
0.0
 11
-1.0
 21
0.0
 31
0.0
  0
ENDBLK
  5
27C0
  8
0
  0
BLOCK
  8
0
  2
_NONE
 70
     0
 10
0.0
 20
0.0
 30
0.0
  3
_NONE
  1

  0
ENDBLK
  5
27C3
  8
0
  0
BLOCK
  8
0
  2
_ACMFILLEDHALF
 70
     0
 10
0.0
 20
0.0
 30
0.0
  3
_ACMFILLEDHALF
  1

  0
TRACE
  5
2AC8
  8
AM_0
 62
     0
 10
-0.8
 20
0.0
 30
0.0
 11
-1.0
 21
0.166666666
 31
0.0
 12
0.0
 22
0.0
 32
0.0
 13
0.0
 23
0.0
 33
0.0
  0
LINE
  5
2AC9
  8
AM_0
 62
     0
 10
-1.0
 20
0.0
 30
0.0
 11
-0.8
 21
0.0
 31
0.0
  0
ENDBLK
  5
2AC7
  8
0
  0
ENDSEC
  0
SECTION
  2
ENTITIES
  0
LINE
  5
27C4
  8
AM_0
 10
467.29960801888939
 20
264.94647968184847
 30
0.0
 11
422.29960801888927
 21
264.94647968184847
 31
0.0
  0
LINE
  5
27C5
  8
AM_0
 10
467.29960801888939
 20
261.94647968184859
 30
0.0
 11
409.29958801888961
 21
261.94647968184859
 31
0.0
  0
LINE
  5
27C6
  8
AM_0
 10
467.29960801888939
 20
229.94647868184859
 30
0.0
 11
409.29958801888961
 21
229.94647868184859
 31
0.0
  0
LINE
  5
27C7
  8
ﾁｭｳｼﾝｾﾝ
 10
470.41792801888948
 20
245.9464626818486
 30
0.0
 11
254.49602272129309
 21
245.9464626818486
 31
0.0
  0
LINE
  5
27C8
  8
AM_0
 10
409.29958801888961
 20
140.94645968184861
 30
0.0
 11
409.29958801888961
 21
350.94649568184877
 31
0.0
  0
LINE
  5
27C9
  8
AM_0
 10
378.18745801888957
 20
294.98349668184852
 30
0.0
 11
373.76668801888962
 21
252.3795996818485
 31
0.0
  0
LINE
  5
27CA
  8
AM_0
 10
390.2995680188896
 20
217.18222568184871
 30
0.0
 11
390.2995680188896
 21
304.8572256818486
 31
0.0
  0
LINE
  5
27CB
  8
AM_0
 10
405.2995680188896
 20
245.9464626818486
 30
0.0
 11
405.2995680188896
 21
363.44647568184882
 31
0.0
  0
LINE
  5
27CC
  8
AM_0
 10
397.29958801888961
 20
245.9464626818486
 30
0.0
 11
397.29958801888961
 21
336.54622568184863
 31
0.0
  0
LINE
  5
27CD
  8
AM_0
 10
282.29959801888958
 20
157.56621068184859
 30
0.0
 11
282.29959801888958
 21
282.27857168184858
 31
0.0
  0
LINE
  5
27CE
  8
AM_0
 10
270.29959801888958
 20
308.97052568184859
 30
0.0
 11
270.29959801888958
 21
126.92302268184859
 31
0.0
  0
LINE
  5
27CF
  8
AM_0
 10
235.7995980188895
 20
144.44646068184861
 30
0.0
 11
235.7995980188895
 21
291.44647868184859
 31
0.0
  0
LINE
  5
27D0
  8
AM_0
 10
292.29958801888961
 20
317.44648568184863
 30
0.0
 11
292.29958801888961
 21
118.4464506818486
 31
0.0
  0
LINE
  5
27D1
  8
AM_0
 10
223.79959801888961
 20
149.38802768184871
 30
0.0
 11
223.79959801888961
 21
286.50492968184869
 31
0.0
  0
LINE
  5
27D2
  8
AM_0
 10
222.98752701888941
 20
288.37785968184869
 30
0.0
 11
174.23354601888951
 21
254.23995468184859
 31
0.0
  0
LINE
  5
27D3
  8
AM_0
 10
233.79959801888961
 20
279.45570368184872
 30
0.0
 11
233.79959801888961
 21
259.42115368184869
 31
0.0
  0
LINE
  5
27D4
  8
AM_0
 10
146.9334790188895
 20
183.8394116818485
 30
0.0
 11
168.6723060188896
 21
183.45995868184869
 31
0.0
  0
LINE
  5
27D5
  8
ﾁｭｳｼﾝｾﾝ
 10
101.89259193550561
 20
217.94647868184859
 30
0.0
 11
264.64661757133109
 21
217.94647868184859
 31
0.0
  0
LINE
  5
27D6
  8
AM_0
 10
168.6723060188896
 20
252.4329986818486
 30
0.0
 11
146.9334790188895
 21
252.0535456818485
 31
0.0
  0
LINE
  5
27D7
  8
AM_0
 10
146.1577440188895
 20
185.85325668184871
 30
0.0
 11
146.1577440188895
 21
250.03970068184859
 31
0.0
  0
LINE
  5
27D8
  8
AM_0
 10
140.7995980188895
 20
188.6785296818486
 30
0.0
 11
140.7995980188895
 21
247.2144276818486
 31
0.0
  0
LINE
  5
27D9
  8
AM_0
 10
142.29959801888941
 20
186.08045268184861
 30
0.0
 11
145.4858360188895
 21
184.2408776818485
 31
0.0
  0
ARC
  5
27DA
  8
AM_0
 10
143.79959801888961
 20
188.6785296818486
 30
0.0
 40
3.0
 50
180.0
 51
239.99999999999949
  0
ARC
  5
27DB
  8
AM_0
 10
146.9858360188895
 20
186.83895468184869
 30
0.0
 40
3.0
 50
239.99999999999949
 51
269.00000000000148
  0
LINE
  5
27DC
  8
AM_0
 10
138.7995980188895
 20
193.9464786818485
 30
0.0
 11
138.7995980188895
 21
241.9464786818485
 31
0.0
  0
LINE
  5
27DD
  8
AM_0
 10
108.7995980188894
 20
208.44647868184859
 30
0.0
 11
136.7995980188895
 21
208.44647868184859
 31
0.0
  0
LINE
  5
27DE
  8
AM_0
 10
108.7995980188894
 20
229.94647868184859
 30
0.0
 11
130.79959801888941
 21
229.94647868184859
 31
0.0
  0
LINE
  5
27DF
  8
AM_0
 10
108.7995980188894
 20
227.4464786818485
 30
0.0
 11
136.7995980188895
 21
227.4464786818485
 31
0.0
  0
LINE
  5
27E0
  8
AM_0
 10
108.7995980188894
 20
208.44647868184859
 30
0.0
 11
108.7995980188894
 21
227.4464786818485
 31
0.0
  0
LINE
  5
27E1
  8
AM_0
 10
108.7995980188894
 20
227.4464786818485
 30
0.0
 11
108.7995980188894
 21
229.94647868184859
 31
0.0
  0
LINE
  5
27E2
  8
AM_0
 10
136.7995980188895
 20
207.94647868184859
 30
0.0
 11
136.7995980188895
 21
227.94647868184859
 31
0.0
  0
LINE
  5
27E3
  8
AM_0
 10
138.7995980188895
 20
193.9464786818485
 30
0.0
 11
140.7995980188895
 21
191.9464786818485
 31
0.0
  0
LINE
  5
27E4
  8
AM_0
 10
136.7995980188895
 20
207.94647868184859
 30
0.0
 11
138.7995980188895
 21
207.94647868184859
 31
0.0
  0
LINE
  5
27E5
  8
AM_0
 10
130.79959801888941
 20
227.4464786818485
 30
0.0
 11
130.79959801888941
 21
229.94647868184859
 31
0.0
  0
LINE
  5
27E6
  8
AM_0
 10
136.7995980188895
 20
227.94647868184859
 30
0.0
 11
138.7995980188895
 21
227.94647868184859
 31
0.0
  0
LINE
  5
27E7
  8
AM_0
 10
145.4858360188895
 20
251.65207868184871
 30
0.0
 11
142.29959801888941
 21
249.81250368184871
 31
0.0
  0
LINE
  5
27E8
  8
AM_0
 10
140.7995980188895
 20
243.9464786818485
 30
0.0
 11
138.7995980188895
 21
241.9464786818485
 31
0.0
  0
ARC
  5
27E9
  8
AM_0
 10
143.79959801888961
 20
247.2144276818486
 30
0.0
 40
3.0
 50
120.0000000000005
 51
180.0
  0
ARC
  5
27EA
  8
AM_0
 10
146.9858360188895
 20
249.0540026818486
 30
0.0
 40
3.0
 50
90.999999999998465
 51
120.0000000000005
  0
LINE
  5
27EB
  8
AM_0
 10
292.29958801888961
 20
118.44645968184859
 30
0.0
 11
377.53657801888971
 21
116.2144506818487
 31
0.0
  0
LINE
  5
27EC
  8
AM_0
 10
270.29959801888958
 20
157.56621068184859
 30
0.0
 11
388.56307801888948
 21
157.56621068184859
 31
0.0
  0
LINE
  5
27ED
  8
AM_0
 10
270.29959801888958
 20
137.5286736818486
 30
0.0
 11
388.56307801888948
 21
137.5286736818486
 31
0.0
  0
LINE
  5
27EE
  8
AM_0
 10
171.72914701888951
 20
185.40690568184871
 30
0.0
 11
171.72914701888951
 21
250.48605068184861
 31
0.0
  0
LINE
  5
27EF
  8
AM_0
 10
225.79959801888961
 20
178.4718026818486
 30
0.0
 11
233.79959801888961
 21
178.4718026818486
 31
0.0
  0
LINE
  5
27F0
  8
AM_0
 10
225.79959801888961
 20
154.4372536818486
 30
0.0
 11
231.79959801888961
 21
154.4372536818486
 31
0.0
  0
LINE
  5
27F1
  8
AM_0
 10
225.79959801888961
 20
144.44647868184859
 30
0.0
 11
235.7995980188895
 21
144.44647868184859
 31
0.0
  0
ARC
  5
27F2
  8
AM_0
 10
221.84037401888941
 20
145.87679268184871
 30
0.0
 40
2.0
 50
8.1879840000002062
 51
55.000000000002629
  0
ARC
  5
27F3
  8
AM_0
 10
225.79959801888961
 20
146.44647868184859
 30
0.0
 40
2.0
 50
188.187984
 51
270.0
  0
LINE
  5
27F4
  8
AM_0
 10
222.98752701888941
 20
147.5150966818486
 30
0.0
 11
174.23354601888951
 21
181.65300168184871
 31
0.0
  0
ARC
  5
27F5
  8
AM_0
 10
168.49778201888961
 20
173.46148168184871
 30
0.0
 40
10.0
 50
55.000000000002629
 51
89.000000000001506
  0
ARC
  5
27F6
  8
AM_0
 10
225.79959801888961
 20
156.4372536818486
 30
0.0
 40
2.0
 50
180.0
 51
270.0
  0
LINE
  5
27F7
  8
AM_0
 10
235.7995980188895
 20
144.44646068184861
 30
0.0
 11
267.86941801888952
 21
143.32655768184861
 31
0.0
  0
LINE
  5
27F8
  8
AM_0
 10
282.29959801888958
 20
120.7270446818486
 30
0.0
 11
282.29959801888958
 21
137.5286736818486
 31
0.0
  0
ARC
  5
27F9
  8
AM_0
 10
273.29959801888958
 20
126.9224106818487
 30
0.0
 40
3.0
 50
179.99998999999991
 51
268.00000999999992
  0
ARC
  5
27FA
  8
AM_0
 10
273.29959801888958
 20
126.92302268184859
 30
0.0
 40
3.0
 50
179.99998999999991
 51
268.00000999999992
  0
LINE
  5
27FB
  8
AM_0
 10
273.19492801888958
 20
123.9242346818486
 30
0.0
 11
280.36942801888972
 21
123.6737016818485
 31
0.0
  0
LINE
  5
27FC
  8
AM_0
 10
284.22976801888922
 20
118.72826768184861
 30
0.0
 11
292.29958801888961
 21
118.44645968184859
 31
0.0
  0
ARC
  5
27FD
  8
AM_0
 10
284.29960801888939
 20
120.7270446818486
 30
0.0
 40
2.00000007
 50
179.99998999999991
 51
268.00000999999992
  0
ARC
  5
27FE
  8
AM_0
 10
280.29958801888961
 20
121.6749216818487
 30
0.0
 40
2.00000007
 50
0.0
 51
88.0
  0
ARC
  5
27FF
  8
AM_0
 10
267.29959801888958
 20
140.3446236818487
 30
0.0
 40
3.0
 50
0.0
 51
88.0
  0
LINE
  5
2800
  8
AM_0
 10
235.7995980188895
 20
156.36781568184861
 30
0.0
 11
270.29959801888958
 21
156.36781568184861
 31
0.0
  0
LINE
  5
2801
  8
AM_0
 10
235.7995980188895
 20
178.47179168184871
 30
0.0
 11
270.29959801888958
 21
178.47179168184871
 31
0.0
  0
LINE
  5
2802
  8
AM_0
 10
233.79959801888961
 20
156.4372536818486
 30
0.0
 11
233.79959801888961
 21
176.47180268184869
 31
0.0
  0
ARC
  5
2803
  8
AM_0
 10
231.79959801888961
 20
156.4372536818486
 30
0.0
 40
2.0
 50
270.0
 51
0.0
  0
ARC
  5
2804
  8
AM_0
 10
235.7995980188895
 20
176.47180268184869
 30
0.0
 40
2.0
 50
120.0000000000005
 51
180.0
  0
LINE
  5
2805
  8
AM_0
 10
225.79959801888961
 20
257.42115368184869
 30
0.0
 11
233.79959801888961
 21
257.42115368184869
 31
0.0
  0
ARC
  5
2806
  8
AM_0
 10
168.49778201888961
 20
262.43147568184872
 30
0.0
 40
10.0
 50
270.99999999999841
 51
304.99999999999739
  0
LINE
  5
2807
  8
AM_0
 10
235.7995980188895
 20
257.42114768184842
 30
0.0
 11
270.29959801888958
 21
257.42114768184842
 31
0.0
  0
ARC
  5
2808
  8
AM_0
 10
235.7995980188895
 20
259.42115368184869
 30
0.0
 40
2.0
 50
180.0
 51
239.99999999999949
  0
LINE
  5
2809
  8
AM_0
 10
292.29958801888961
 20
248.13179768184861
 30
0.0
 11
292.3011180188895
 21
248.13179768184861
 31
0.0
  0
LINE
  5
280A
  8
AM_0
 10
271.7781180188897
 20
275.32914068184863
 30
0.0
 11
280.72867801888952
 21
275.32914068184863
 31
0.0
  0
LINE
  5
280B
  8
AM_0
 10
405.2995680188896
 20
128.44645868184861
 30
0.0
 11
405.2995680188896
 21
245.9464626818486
 31
0.0
  0
LINE
  5
280C
  8
AM_0
 10
397.29958801888961
 20
154.5784806818485
 30
0.0
 11
397.29958801888961
 21
245.9464626818486
 31
0.0
  0
LINE
  5
280D
  8
AM_0
 10
390.2995680188896
 20
131.02923968184871
 30
0.0
 11
390.2995680188896
 21
181.25719268184861
 31
0.0
  0
LINE
  5
280E
  8
AM_0
 10
393.40426801888952
 20
128.03106968184861
 30
0.0
 11
405.2995680188896
 21
128.44645868184861
 31
0.0
  0
LINE
  5
280F
  8
AM_0
 10
377.53654801888962
 20
116.2144506818487
 30
0.0
 11
398.29960801888939
 21
128.2020126818486
 31
0.0
  0
ARC
  5
2810
  8
AM_0
 10
393.29956801888949
 20
131.02923968184871
 30
0.0
 40
3.0
 50
179.99998999999991
 51
271.99998999999991
  0
LINE
  5
2811
  8
AM_0
 10
405.2995680188896
 20
140.94645968184861
 30
0.0
 11
409.29958801888961
 21
140.94645968184861
 31
0.0
  0
LINE
  5
2812
  8
AM_0
 10
393.29956801888949
 20
184.25719268184861
 30
0.0
 11
397.29958801888961
 21
184.25719268184861
 31
0.0
  0
LINE
  5
2813
  8
AM_0
 10
392.5841580188897
 20
151.51675868184859
 30
0.0
 11
394.40431801888963
 21
151.5803106818486
 31
0.0
  0
ARC
  5
2814
  8
AM_0
 10
393.29956801888949
 20
181.25719268184861
 30
0.0
 40
3.0
 50
90.000003000000007
 51
180.00001
  0
ARC
  5
2815
  8
AM_0
 10
394.29958801888961
 20
154.5784806818485
 30
0.0
 40
3.0
 50
272.0
 51
0.0
  0
ARC
  5
2816
  8
AM_0
 10
413.55310801888942
 20
248.25124268184871
 30
0.0
 40
40.000001999999981
 50
174.07597999999999
 51
234.45533999999989
  0
LINE
  5
2817
  8
AM_0
 10
393.29956801888949
 20
214.18222568184871
 30
0.0
 11
397.29958801888961
 21
214.18222568184871
 31
0.0
  0
ARC
  5
2818
  8
AM_0
 10
393.29956801888949
 20
217.18222568184871
 30
0.0
 40
3.0
 50
179.99998999999991
 51
270.0
  0
LINE
  5
2819
  8
AM_0
 10
422.29960801888927
 20
261.94647968184859
 30
0.0
 11
422.29960801888927
 21
264.94647968184847
 31
0.0
  0
LINE
  5
281A
  8
AM_0
 10
292.29958801888961
 20
317.44648568184863
 30
0.0
 11
351.40543801888953
 21
318.99421568184857
 31
0.0
  0
LINE
  5
281B
  8
AM_0
 10
270.29959801888958
 20
297.15088568184882
 30
0.0
 11
377.29309801888962
 21
297.15088568184882
 31
0.0
  0
LINE
  5
281C
  8
AM_0
 10
225.79959801888961
 20
291.44647868184859
 30
0.0
 11
235.7995980188895
 21
291.44647868184859
 31
0.0
  0
LINE
  5
281D
  8
AM_0
 10
225.79959801888961
 20
281.45570368184872
 30
0.0
 11
231.79959801888961
 21
281.45570368184872
 31
0.0
  0
ARC
  5
281E
  8
AM_0
 10
221.84037401888941
 20
290.01616368184858
 30
0.0
 40
2.0
 50
304.99999999999739
 51
351.81201599999991
  0
ARC
  5
281F
  8
AM_0
 10
225.79959801888961
 20
279.45570368184872
 30
0.0
 40
2.0
 50
90.0
 51
180.0
  0
ARC
  5
2820
  8
AM_0
 10
225.79959801888961
 20
289.44647868184859
 30
0.0
 40
2.0
 50
90.0
 51
171.8120159999998
  0
LINE
  5
2821
  8
AM_0
 10
235.7995980188895
 20
279.52512368184858
 30
0.0
 11
270.29959801888958
 21
279.52512368184858
 31
0.0
  0
LINE
  5
2822
  8
AM_0
 10
235.7995980188895
 20
291.44647868184859
 30
0.0
 11
267.40426801888952
 21
292.55011868184852
 31
0.0
  0
ARC
  5
2823
  8
AM_0
 10
231.79959801888961
 20
279.45570368184872
 30
0.0
 40
2.0
 50
0.0
 51
90.0
  0
LINE
  5
2824
  8
AM_0
 10
272.2996080188895
 20
284.27857268184857
 30
0.0
 11
280.29958801888961
 21
284.27857268184857
 31
0.0
  0
ARC
  5
2825
  8
AM_0
 10
272.2996080188895
 20
286.27854068184882
 30
0.0
 40
2.00000007
 50
179.99998999999991
 51
270.0
  0
ARC
  5
2826
  8
AM_0
 10
267.29959801888958
 20
295.54831568184869
 30
0.0
 40
3.0
 50
272.0
 51
0.0
  0
ARC
  5
2827
  8
AM_0
 10
280.29958801888961
 20
282.27857168184858
 30
0.0
 40
2.00000007
 50
0.0
 51
90.000003000000007
  0
LINE
  5
2828
  8
AM_0
 10
273.19492801888958
 20
311.96869568184883
 30
0.0
 11
280.36942801888972
 21
312.21925568184861
 31
0.0
  0
LINE
  5
2829
  8
AM_0
 10
272.2996080188895
 20
301.24912568184862
 30
0.0
 11
280.29958801888961
 21
301.24912568184862
 31
0.0
  0
ARC
  5
282A
  8
AM_0
 10
273.29959801888958
 20
308.97052568184859
 30
0.0
 40
3.0
 50
91.999997999999948
 51
180.00001
  0
ARC
  5
282B
  8
AM_0
 10
272.2996080188895
 20
299.24911568184848
 30
0.0
 40
2.00000007
 50
90.000003000000007
 51
180.00001
  0
LINE
  5
282C
  8
AM_0
 10
282.29959801888958
 20
303.24913568184883
 30
0.0
 11
282.29959801888958
 21
315.16591568184862
 31
0.0
  0
ARC
  5
282D
  8
AM_0
 10
280.29958801888961
 20
303.24913568184883
 30
0.0
 40
2.00000007
 50
270.0
 51
0.0
  0
LINE
  5
282E
  8
AM_0
 10
284.22976801888922
 20
317.1646656818487
 30
0.0
 11
292.29958801888961
 21
317.4464556818487
 31
0.0
  0
ARC
  5
282F
  8
AM_0
 10
284.29960801888939
 20
315.16591568184862
 30
0.0
 40
2.00000007
 50
91.999997999999948
 51
180.00001
  0
ARC
  5
2830
  8
AM_0
 10
280.29958801888961
 20
314.21803568184862
 30
0.0
 40
2.00000007
 50
272.0
 51
0.0
  0
LINE
  5
2831
  8
AM_0
 10
353.39959801888972
 20
319.04641568184883
 30
0.0
 11
360.62977801888962
 21
317.88517568184852
 31
0.0
  0
LINE
  5
2832
  8
AM_0
 10
354.81010801888948
 20
320.45695568184868
 30
0.0
 11
390.29959801888958
 21
355.94644568184862
 31
0.0
  0
ARC
  5
2833
  8
AM_0
 10
351.27454801888962
 20
323.99251568184877
 30
0.0
 40
5.0000001000000003
 50
271.49999999999972
 51
315.0
  0
ARC
  5
2834
  8
AM_0
 10
357.2995680188896
 20
297.15088568184882
 30
0.0
 40
21.000000600000011
 50
354.07597999999979
 51
80.875524999999996
  0
LINE
  5
2835
  8
AM_0
 10
390.2995680188896
 20
304.8572256818486
 30
0.0
 11
390.2995680188896
 21
360.02557568184869
 31
0.0
  0
LINE
  5
2836
  8
AM_0
 10
393.29956801888949
 20
301.85722568184872
 30
0.0
 11
397.29958801888961
 21
301.85722568184872
 31
0.0
  0
ARC
  5
2837
  8
AM_0
 10
393.29956801888949
 20
304.8572256818486
 30
0.0
 40
3.0
 50
179.99998999999991
 51
270.0
  0
LINE
  5
2838
  8
AM_0
 10
393.19489801888972
 20
363.02374568184848
 30
0.0
 11
405.2995680188896
 21
363.44644568184867
 31
0.0
  0
ARC
  5
2839
  8
AM_0
 10
393.29956801888949
 20
360.02557568184869
 30
0.0
 40
3.0
 50
91.999997999999948
 51
180.00001
  0
ARC
  5
283A
  8
AM_0
 10
394.29958801888961
 20
336.54622568184863
 30
0.0
 40
3.0
 50
0.0
 51
91.999997999999948
  0
LINE
  5
283B
  8
AM_0
 10
394.01503801888958
 20
339.53809568184852
 30
0.0
 11
394.19485801888959
 21
339.54439568184853
 31
0.0
  0
LINE
  5
283C
  8
AM_0
 10
405.2995680188896
 20
350.94649568184877
 30
0.0
 11
409.29958801888961
 21
350.94649568184877
 31
0.0
  0
ARC
  5
283D
  8
AM_0
 10
708.19813901888961
 20
276.5148996818487
 30
0.0
 40
5.0000001000000003
 50
135.0
 51
215.22315
  0
CIRCLE
  5
283E
  8
AM_0
 10
664.90181201888959
 20
245.9464626818486
 30
0.0
 40
105.00000299999979
  0
CIRCLE
  5
283F
  8
AM_0
 10
664.90181201888959
 20
245.9464626818486
 30
0.0
 40
99.000003000000021
  0
ARC
  5
2840
  8
AM_0
 10
664.90181201888959
 20
217.94647868184859
 30
0.0
 40
99.500004000000004
 50
29.730242999999991
 51
54.136312000000011
  0
ARC
  5
2841
  8
AM_0
 10
664.90181201888959
 20
217.94647868184859
 30
0.0
 40
99.500004000000004
 50
125.86368999999991
 51
150.26975999999991
  0
ARC
  5
2842
  8
AM_0
 10
621.60547001888949
 20
276.5148996818487
 30
0.0
 40
5.0000001000000003
 50
324.77685000000002
 51
45.00000099999999
  0
LINE
  5
2843
  8
ﾁｭｳｼﾝｾﾝ
 10
664.90181201888959
 20
113.17572968184859
 30
0.0
 11
664.90181201888959
 21
368.99780504850992
 31
0.0
  0
LINE
  5
2844
  8
AM_0
 10
782.4018070188896
 20
275.94644768184872
 30
0.0
 11
778.9869550188896
 21
341.10571568184878
 31
0.0
  0
LINE
  5
2845
  8
AM_0
 10
547.4018080188896
 20
275.94644768184872
 30
0.0
 11
550.81666301888981
 21
341.10574568184859
 31
0.0
  0
ARC
  5
2846
  8
AM_0
 10
664.90181201888959
 20
217.94647868184859
 30
0.0
 40
99.500004000000004
 50
242.88566
 51
297.11435
  0
CIRCLE
  5
2847
  8
AM_0
 10
664.90181201888959
 20
245.9464626818486
 30
0.0
 40
29.000001000000001
  0
LINE
  5
2848
  8
AM_0
 10
664.90181201888959
 20
128.44645868184861
 30
0.0
 11
694.90181201888936
 21
128.44645868184861
 31
0.0
  0
LINE
  5
2849
  8
ﾁｭｳｼﾝｾﾝ
 10
606.60884991125295
 20
217.94647868184859
 30
0.0
 11
722.44168505856862
 21
217.94647868184859
 31
0.0
  0
LINE
  5
284A
  8
ﾁｭｳｼﾝｾﾝ
 10
542.23414301888965
 20
245.9464626818486
 30
0.0
 11
786.71154401888941
 21
245.9464626818486
 31
0.0
  0
ARC
  5
284B
  8
ﾁｭｳｼﾝｾﾝ1
 10
664.90181201888959
 20
245.9464626818486
 30
0.0
 40
135.00000299999991
 50
218.36838999999981
 51
232.25635
  0
ARC
  5
284C
  8
AM_0
 10
570.78925901888965
 20
151.83389768184861
 30
0.0
 40
20.000000700000001
 50
183.00001
 51
267.0
  0
LINE
  5
284D
  8
AM_0
 10
547.40177801888956
 20
215.9464626818486
 30
0.0
 11
550.81663301888955
 21
150.78717368184871
 31
0.0
  0
LINE
  5
284E
  8
AM_0
 10
467.29960801888939
 20
229.94647868184859
 30
0.0
 11
467.29960801888939
 21
264.94647968184847
 31
0.0
  0
LINE
  5
284F
  8
AM_0
 10
547.4018080188896
 20
245.9464626818486
 30
0.0
 11
547.4018080188896
 21
215.9464626818486
 31
0.0
  0
LINE
  5
2850
  8
AM_0
 10
547.4018080188896
 20
245.9464626818486
 30
0.0
 11
547.4018080188896
 21
275.94644768184872
 31
0.0
  0
LINE
  5
2851
  8
AM_0
 10
634.90179401888963
 20
128.44645868184861
 30
0.0
 11
569.7425380188896
 21
131.86131668184871
 31
0.0
  0
CIRCLE
  5
2852
  8
AM_0
 10
569.44239701888955
 20
150.48704768184851
 30
0.0
 40
7.5000002999999982
  0
LINE
  5
2853
  8
ﾁｭｳｼﾝｾﾝ1
 10
578.18413846424164
 20
159.2288067723274
 30
0.0
 11
560.42013222927255
 21
141.4647985115738
 31
0.0
  0
LINE
  5
2854
  8
AM_0
 10
664.90181201888959
 20
128.44645868184861
 30
0.0
 11
634.90179401888963
 21
128.44645868184861
 31
0.0
  0
LINE
  5
2855
  8
AM_0
 10
616.90179401888963
 20
245.9464626818486
 30
0.0
 11
616.90179401888963
 21
207.9464766818484
 31
0.0
  0
ARC
  5
2856
  8
AM_0
 10
664.90181201888959
 20
217.94647868184859
 30
0.0
 40
93.500003999999976
 50
162.14678999999981
 51
183.00788
  0
LINE
  5
2857
  8
AM_0
 10
611.90179301888975
 20
202.9464756818486
 30
0.0
 11
578.92506401888966
 21
202.9464756818486
 31
0.0
  0
ARC
  5
2858
  8
AM_0
 10
578.92506401888966
 20
207.9464766818484
 30
0.0
 40
5.0000001000000003
 50
203.8444699999998
 51
270.0
  0
ARC
  5
2859
  8
AM_0
 10
611.90179301888975
 20
207.9464766818484
 30
0.0
 40
5.0000001000000003
 50
270.0
 51
0.0
  0
ARC
  5
285A
  8
AM_0
 10
664.90181201888959
 20
245.9464626818486
 30
0.0
 40
89.000003999999961
 50
166.12423000000001
 51
179.57176999999999
  0
ARC
  5
285B
  8
AM_0
 10
664.90181201888959
 20
245.9464626818486
 30
0.0
 40
48.0
 50
144.77683999999991
 51
180.00001
  0
ARC
  5
285C
  8
AM_0
 10
664.90181201888959
 20
245.9464626818486
 30
0.0
 40
16.000000499999999
 50
108.20996
 51
71.790052000000003
  0
ARC
  5
285D
  8
AM_0
 10
664.90181201888959
 20
245.9464626818486
 30
0.0
 40
16.000000499999999
 50
108.20996
 51
71.790052000000003
  0
LINE
  5
285E
  8
AM_0
 10
659.90179601888963
 20
256.9464786818487
 30
0.0
 11
669.90179501888952
 21
256.9464786818487
 31
0.0
  0
LINE
  5
285F
  8
AM_0
 10
659.90179601888963
 20
264.94647968184847
 30
0.0
 11
669.90179501888952
 21
264.94647968184847
 31
0.0
  0
LINE
  5
2860
  8
AM_0
 10
659.90179601888963
 20
256.9464786818487
 30
0.0
 11
659.90179601888963
 21
264.94647968184847
 31
0.0
  0
CIRCLE
  5
2861
  8
AM_5
 10
664.90181201888959
 20
245.9464626818486
 30
0.0
 40
4.000000199999997
  0
CIRCLE
  5
2862
  8
AM_0
 10
664.90181201888959
 20
245.9464626818486
 30
0.0
 40
2.75000007
  0
CIRCLE
  5
2863
  8
AM_0
 10
664.90181201888959
 20
245.9464626818486
 30
0.0
 40
2.75000007
  0
CIRCLE
  5
2864
  8
AM_0
 10
664.90181201888959
 20
245.9464626818486
 30
0.0
 40
2.75000007
  0
POINT
  5
2865
  8
AM_0
 10
664.90181201888959
 20
245.9464626818486
 30
0.0
  0
POINT
  5
2866
  8
AM_0
 10
664.90181201888959
 20
245.9464626818486
 30
0.0
  0
LINE
  5
2867
  8
AM_0
 10
669.90179501888952
 20
256.9464786818487
 30
0.0
 11
669.90179501888952
 21
264.94647968184847
 31
0.0
  0
LINE
  5
2868
  8
AM_0
 10
782.4018070188896
 20
215.94644768184861
 30
0.0
 11
778.9869520188895
 21
150.78717368184871
 31
0.0
  0
ARC
  5
2869
  8
AM_0
 10
759.01436201888964
 20
151.83389768184861
 30
0.0
 40
20.000000700000001
 50
273.0
 51
357.0
  0
CIRCLE
  5
286A
  8
AM_0
 10
760.36121801888964
 20
150.48704768184851
 30
0.0
 40
7.5000002999999982
  0
LINE
  5
286B
  8
AM_0
 10
694.90179701888974
 20
128.44645868184861
 30
0.0
 11
760.06108601888945
 21
131.86130168184849
 31
0.0
  0
ARC
  5
286C
  8
AM_0
 10
664.90181201888959
 20
217.94647868184859
 30
0.0
 40
93.500003999999976
 50
356.99212
 51
17.853213
  0
LINE
  5
286D
  8
AM_0
 10
712.90180601888949
 20
245.9464626818486
 30
0.0
 11
712.90180601888949
 21
207.9464766818484
 31
0.0
  0
LINE
  5
286E
  8
AM_0
 10
717.90180401888949
 20
202.9464756818486
 30
0.0
 11
750.87854501888989
 21
202.9464756818486
 31
0.0
  0
ARC
  5
286F
  8
AM_0
 10
717.90180401888949
 20
207.9464766818484
 30
0.0
 40
5.0000001000000003
 50
179.99998999999991
 51
270.0
  0
ARC
  5
2870
  8
AM_0
 10
750.87854501888989
 20
207.9464766818484
 30
0.0
 40
5.0000001000000003
 50
270.0
 51
336.15553
  0
ARC
  5
2871
  8
AM_0
 10
664.90181201888959
 20
245.9464626818486
 30
0.0
 40
48.0
 50
0.0
 51
35.223151999999992
  0
ARC
  5
2872
  8
AM_0
 10
664.90181201888959
 20
245.9464626818486
 30
0.0
 40
89.000003999999961
 50
0.42822786
 51
13.875764
  0
LINE
  5
2873
  8
AM_0
 10
782.40180401888961
 20
245.9464626818486
 30
0.0
 11
782.40180401888961
 21
215.9464626818486
 31
0.0
  0
LINE
  5
2874
  8
AM_0
 10
782.40180401888961
 20
245.9464626818486
 30
0.0
 11
782.40180401888961
 21
275.94644768184872
 31
0.0
  0
ARC
  5
2875
  8
AM_0
 10
695.47021601888957
 20
289.24280468184872
 30
0.0
 40
5.0000001000000003
 50
234.77686
 51
315.0
  0
ARC
  5
2876
  8
AM_0
 10
664.90181201888959
 20
217.94647868184859
 30
0.0
 40
99.500004000000004
 50
58.838493999999997
 51
86.644180000000006
  0
LINE
  5
2877
  8
AM_0
 10
664.90181201888959
 20
363.44647568184882
 30
0.0
 11
694.90181201888936
 21
363.44647568184882
 31
0.0
  0
ARC
  5
2878
  8
AM_0
 10
570.78925901888965
 20
340.05901568184862
 30
0.0
 40
20.000000700000001
 50
92.999999000000017
 51
176.99999
  0
LINE
  5
2879
  8
AM_0
 10
634.90179401888963
 20
363.44647568184882
 30
0.0
 11
569.7425380188896
 21
360.03163568184868
 31
0.0
  0
LINE
  5
287A
  8
AM_0
 10
630.79785101888945
 20
285.70728368184882
 30
0.0
 11
601.56754901888962
 21
314.93755568184872
 31
0.0
  0
ARC
  5
287B
  8
AM_0
 10
605.10307301888952
 20
318.47311568184853
 30
0.0
 40
5.0000001000000003
 50
129.5058199999998
 51
225.0
  0
ARC
  5
287C
  8
AM_0
 10
592.37515001888937
 20
305.74519568184871
 30
0.0
 40
5.0000001000000003
 50
45.00000099999999
 51
140.49418
  0
LINE
  5
287D
  8
AM_0
 10
625.14099101888974
 20
280.05042368184871
 30
0.0
 11
595.91068901888957
 21
309.28069568184873
 31
0.0
  0
CIRCLE
  5
287E
  8
AM_0
 10
569.44239701888955
 20
341.40589568184862
 30
0.0
 40
7.5000002999999982
  0
LINE
  5
287F
  8
AM_0
 10
667.90181201888959
 20
326.46118568184841
 30
0.0
 11
667.90181201888959
 21
320.2706856818487
 31
0.0
  0
LINE
  5
2880
  8
AM_0
 10
661.90181201888936
 20
326.46118568184841
 30
0.0
 11
661.90181201888936
 21
320.2706856818487
 31
0.0
  0
ARC
  5
2881
  8
AM_0
 10
658.90181201888959
 20
320.2706856818487
 30
0.0
 40
3.0
 50
273.35581999999999
 51
0.0
  0
ARC
  5
2882
  8
AM_0
 10
664.90181201888959
 20
245.9464626818486
 30
0.0
 40
48.0
 50
54.77685000000001
 51
125.22314
  0
ARC
  5
2883
  8
AM_0
 10
634.33339001888942
 20
289.24280468184872
 30
0.0
 40
5.0000001000000003
 50
225.0
 51
305.22314999999992
  0
ARC
  5
2884
  8
AM_0
 10
664.90181201888959
 20
217.94647868184859
 30
0.0
 40
99.500004000000004
 50
93.355817999997413
 51
121.1614999999983
  0
ARC
  5
2885
  8
AM_0
 10
670.90181201888925
 20
320.2706856818487
 30
0.0
 40
3.0
 50
179.99998999999991
 51
266.64418999999992
  0
ARC
  5
2886
  8
AM_0
 10
658.90181201888959
 20
326.46118568184841
 30
0.0
 40
3.0
 50
0.0
 51
90.000003000000007
  0
LINE
  5
2887
  8
AM_0
 10
664.90181201888959
 20
363.44647568184882
 30
0.0
 11
634.90179401888963
 21
363.44647568184882
 31
0.0
  0
ARC
  5
2888
  8
AM_0
 10
670.90181201888925
 20
326.46118568184841
 30
0.0
 40
3.0
 50
90.000003000000007
 51
180.00001
  0
CIRCLE
  5
2889
  8
AM_0
 10
760.36121801888964
 20
341.40589568184862
 30
0.0
 40
7.5000002999999982
  0
LINE
  5
288A
  8
ﾁｭｳｼﾝｾﾝ1
 10
749.91758507596342
 20
330.9622344717672
 30
0.0
 11
769.62216331633306
 21
350.66682558674722
 31
0.0
  0
ARC
  5
288B
  8
AM_0
 10
759.01436201888964
 20
340.05901568184862
 30
0.0
 40
20.000000700000001
 50
3.0000000999999981
 51
86.999998999999988
  0
ARC
  5
288C
  8
ﾁｭｳｼﾝｾﾝ1
 10
664.90181201888959
 20
245.9464626818486
 30
0.0
 40
135.00000299999991
 50
38.36839299999999
 51
52.256346000000022
  0
ARC
  5
288D
  8
AM_0
 10
724.70052701888972
 20
318.47311568184853
 30
0.0
 40
5.0000001000000003
 50
315.0
 51
50.494182000000002
  0
LINE
  5
288E
  8
AM_0
 10
704.66260001888963
 20
280.05039068184863
 30
0.0
 11
733.89290201888969
 21
309.28069568184873
 31
0.0
  0
LINE
  5
288F
  8
AM_0
 10
699.00572501888962
 20
285.70728368184882
 30
0.0
 11
728.23604201888975
 21
314.93755568184872
 31
0.0
  0
ARC
  5
2890
  8
AM_0
 10
737.42843801888944
 20
305.74519568184871
 30
0.0
 40
5.0000001000000003
 50
39.505817999999998
 51
135.0
  0
LINE
  5
2891
  8
AM_0
 10
694.90181201888936
 20
363.44644568184867
 30
0.0
 11
760.06108601888945
 21
360.0316056818487
 31
0.0
  0
LINE
  5
2892
  8
AM_0
 10
108.7995480188896
 20
556.55304601453622
 30
0.0
 11
136.7995480188896
 21
556.55304601453622
 31
0.0
  0
LINE
  5
2893
  8
AM_0
 10
108.7995480188896
 20
575.55304601453633
 30
0.0
 11
136.7995480188896
 21
575.55304601453633
 31
0.0
  0
LINE
  5
2894
  8
AM_0
 10
108.7995480188896
 20
569.05304601453633
 30
0.0
 11
130.79954801888951
 21
569.05304601453633
 31
0.0
  0
LINE
  5
2895
  8
AM_0
 10
108.7995480188896
 20
563.05304601453611
 30
0.0
 11
130.79954801888951
 21
563.05304601453611
 31
0.0
  0
LINE
  5
2896
  8
AM_0
 10
108.7995480188896
 20
556.55304601453622
 30
0.0
 11
108.7995480188896
 21
575.55304601453633
 31
0.0
  0
ARC
  5
2897
  8
AM_0
 10
231.7995480188896
 20
504.54382101453621
 30
0.0
 40
2.0
 50
270.0
 51
0.0
  0
ARC
  5
2898
  8
AM_0
 10
225.79954801888951
 20
504.54382101453621
 30
0.0
 40
2.0
 50
180.0
 51
270.0
  0
LINE
  5
2899
  8
AM_0
 10
223.79954801888951
 20
497.49459501453629
 30
0.0
 11
223.79954801888951
 21
634.6114970145361
 31
0.0
  0
LINE
  5
289A
  8
AM_0
 10
222.98747701888951
 20
495.62166401453618
 30
0.0
 11
174.2334960188895
 21
529.75956901453628
 31
0.0
  0
LINE
  5
289B
  8
AM_0
 10
225.79954801888951
 20
502.54382101453598
 30
0.0
 11
231.7995480188896
 21
502.54382101453598
 31
0.0
  0
LINE
  5
289C
  8
AM_0
 10
225.79954801888951
 20
492.55304601453599
 30
0.0
 11
235.7995480188896
 21
492.55304601453599
 31
0.0
  0
ARC
  5
289D
  8
AM_0
 10
225.79954801888951
 20
494.55304601453622
 30
0.0
 40
2.0
 50
188.1879840000033
 51
270.0
  0
ARC
  5
289E
  8
AM_0
 10
221.8403240188895
 20
493.98336001453612
 30
0.0
 40
2.0
 50
8.1879840000034303
 51
55.000000000002629
  0
LINE
  5
289F
  8
AM_0
 10
140.7995480188896
 20
592.05304601453633
 30
0.0
 11
138.7995480188896
 21
590.05304601453633
 31
0.0
  0
LINE
  5
28A0
  8
AM_0
 10
146.1576940188896
 20
533.95982401453625
 30
0.0
 11
146.1576940188896
 21
598.14626801453596
 31
0.0
  0
LINE
  5
28A1
  8
AM_0
 10
171.7290970188896
 20
533.51347301453609
 30
0.0
 11
171.7290970188896
 21
598.59261801453613
 31
0.0
  0
LINE
  5
28A2
  8
AM_0
 10
140.7995480188896
 20
536.78509701453618
 30
0.0
 11
140.7995480188896
 21
595.32099501453615
 31
0.0
  0
LINE
  5
28A3
  8
AM_0
 10
138.7995480188896
 20
542.05304601453622
 30
0.0
 11
138.7995480188896
 21
590.05304601453633
 31
0.0
  0
LINE
  5
28A4
  8
AM_0
 10
146.93342901888951
 20
531.94597901453631
 30
0.0
 11
168.6722560188895
 21
531.56652601453629
 31
0.0
  0
LINE
  5
28A5
  8
AM_0
 10
142.29954801888951
 20
534.1870200145363
 30
0.0
 11
145.48578601888951
 21
532.34744501453633
 31
0.0
  0
ARC
  5
28A6
  8
AM_0
 10
143.79954801888951
 20
536.78509701453618
 30
0.0
 40
3.0
 50
180.0
 51
239.99999999999869
  0
LINE
  5
28A7
  8
AM_0
 10
138.7995480188896
 20
542.05304601453622
 30
0.0
 11
140.7995480188896
 21
540.05304601453622
 31
0.0
  0
ARC
  5
28A8
  8
AM_0
 10
146.9857860188896
 20
534.94552201453621
 30
0.0
 40
3.0
 50
239.99999999999869
 51
269.00000000000148
  0
ARC
  5
28A9
  8
AM_0
 10
168.49773201888951
 20
521.5680490145362
 30
0.0
 40
10.0
 50
55.000000000002629
 51
89.000000000001506
  0
LINE
  5
28AA
  8
AM_0
 10
130.79954801888951
 20
563.05304601453611
 30
0.0
 11
130.79954801888951
 21
569.05304601453633
 31
0.0
  0
ARC
  5
28AB
  8
AM_0
 10
130.79954801888951
 20
566.05304601453633
 30
0.0
 40
3.0
 50
270.0
 51
90.0
  0
LINE
  5
28AC
  8
AM_0
 10
136.7995480188896
 20
556.05304601453622
 30
0.0
 11
136.7995480188896
 21
576.05304601453633
 31
0.0
  0
LINE
  5
28AD
  8
AM_0
 10
136.7995480188896
 20
556.05304601453622
 30
0.0
 11
138.7995480188896
 21
556.05304601453622
 31
0.0
  0
LINE
  5
28AE
  8
AM_0
 10
136.7995480188896
 20
576.05304601453633
 30
0.0
 11
138.7995480188896
 21
576.05304601453633
 31
0.0
  0
LINE
  5
28AF
  8
AM_0
 10
225.79954801888951
 20
526.57837001453618
 30
0.0
 11
233.7995480188896
 21
526.57837001453618
 31
0.0
  0
ARC
  5
28B0
  8
AM_0
 10
235.7995480188896
 20
524.57837001453595
 30
0.0
 40
2.0
 50
120.00000000000119
 51
180.0
  0
LINE
  5
28B1
  8
AM_0
 10
233.7995480188896
 20
504.54382101453621
 30
0.0
 11
233.7995480188896
 21
524.57837001453595
 31
0.0
  0
LINE
  5
28B2
  8
AM_0
 10
222.98747701888951
 20
636.48442701453598
 30
0.0
 11
174.2334960188895
 21
602.34652201453605
 31
0.0
  0
LINE
  5
28B3
  8
AM_0
 10
168.6722560188895
 20
600.53956601453615
 30
0.0
 11
146.93342901888951
 21
600.16011301453625
 31
0.0
  0
LINE
  5
28B4
  8
AM_0
 10
145.48578601888951
 20
599.75864601453634
 30
0.0
 11
142.29954801888951
 21
597.91907101453614
 31
0.0
  0
ARC
  5
28B5
  8
AM_0
 10
143.79954801888951
 20
595.32099501453615
 30
0.0
 40
3.0
 50
120.00000000000119
 51
180.0
  0
ARC
  5
28B6
  8
AM_0
 10
146.9857860188896
 20
597.16057001453635
 30
0.0
 40
3.0
 50
90.999999999998494
 51
120.00000000000119
  0
ARC
  5
28B7
  8
AM_0
 10
168.49773201888951
 20
610.53804301453636
 30
0.0
 40
10.0
 50
270.99999999999841
 51
304.99999999999739
  0
LINE
  5
28B8
  8
AM_0
 10
225.79954801888951
 20
605.52772101453616
 30
0.0
 11
233.7995480188896
 21
605.52772101453616
 31
0.0
  0
LINE
  5
28B9
  8
AM_0
 10
225.79954801888951
 20
629.56227101453635
 30
0.0
 11
231.7995480188896
 21
629.56227101453635
 31
0.0
  0
ARC
  5
28BA
  8
AM_0
 10
225.79954801888951
 20
627.56227101453635
 30
0.0
 40
2.0
 50
90.0
 51
180.0
  0
LINE
  5
28BB
  8
AM_0
 10
233.7995480188896
 20
627.56227101453635
 30
0.0
 11
233.7995480188896
 21
607.52772101453627
 31
0.0
  0
ARC
  5
28BC
  8
AM_0
 10
235.7995480188896
 20
607.52772101453627
 30
0.0
 40
2.0
 50
180.0
 51
239.99999999999869
  0
ARC
  5
28BD
  8
AM_0
 10
231.7995480188896
 20
627.56227101453635
 30
0.0
 40
2.0
 50
0.0
 51
90.0
  0
LINE
  5
28BE
  8
AM_0
 10
225.79954801888951
 20
639.55304601453633
 30
0.0
 11
235.7995480188896
 21
639.55304601453633
 31
0.0
  0
ARC
  5
28BF
  8
AM_0
 10
221.8403240188895
 20
638.12273101453593
 30
0.0
 40
2.0
 50
304.99999999999739
 51
351.81201599999628
  0
ARC
  5
28C0
  8
AM_0
 10
225.79954801888951
 20
637.55304601453633
 30
0.0
 40
2.0
 50
90.0
 51
171.8120159999965
  0
LINE
  5
28C2
  8
AM_0
 10
422.29957801888941
 20
561.05304601453622
 30
0.0
 11
467.29960801888939
 21
561.05304601453622
 31
0.0
  0
LINE
  5
28C3
  8
AM_0
 10
422.29957801888941
 20
571.05304601453611
 30
0.0
 11
467.29960801888939
 21
571.05304601453611
 31
0.0
  0
LINE
  5
28C4
  8
AM_0
 10
467.29960801888939
 20
550.05307601453626
 30
0.0
 11
409.29957801888941
 21
550.05307601453626
 31
0.0
  0
LINE
  5
28C5
  8
AM_0
 10
467.29960801888939
 20
582.05304601453611
 30
0.0
 11
409.29957801888941
 21
582.05304601453611
 31
0.0
  0
LINE
  5
28C6
  8
ﾁｭｳｼﾝｾﾝ
 10
101.89259193550561
 20
566.05304601453611
 30
0.0
 11
475.21238801888961
 21
566.05304601453611
 31
0.0
  0
POLYLINE
  5
28C7
  8
AM_0
 66
     1
 10
0.0
 20
0.0
 30
0.0
  0
VERTEX
  5
28C8
  8
AM_0
 10
382.96568801888952
 20
668.71917601453595
 30
0.0
 42
0.07982674
  0
VERTEX
  5
28C9
  8
AM_0
 10
357.12385801888962
 20
601.81272601453611
 30
0.0
 42
0.10414855
  0
VERTEX
  5
28CA
  8
AM_0
 10
357.12392801888939
 20
530.29299601453602
 30
0.0
 42
0.07982627
  0
VERTEX
  5
28CB
  8
AM_0
 10
382.96568801888952
 20
463.38690601453618
 30
0.0
  0
SEQEND
  5
28CC
  8
AM_0
  0
ARC
  5
28CD
  8
AM_0
 10
422.29957801888941
 20
566.05304601453611
 30
0.0
 40
5.0
 50
90.000003000000945
 51
270.0
  0
LINE
  5
28CE
  8
AM_0
 10
422.29957801888941
 20
571.05304601453611
 30
0.0
 11
422.29957801888941
 21
561.05304601453622
 31
0.0
  0
LINE
  5
28CF
  8
AM_0
 10
390.29957801888952
 20
451.97391601453592
 30
0.0
 11
390.29957801888952
 21
680.13214601453615
 31
0.0
  0
LINE
  5
28D0
  8
AM_0
 10
397.29957801888952
 20
475.45331601453591
 30
0.0
 11
397.29957801888952
 21
656.65277601453613
 31
0.0
  0
LINE
  5
28D1
  8
AM_0
 10
405.29957801888941
 20
448.55304601453588
 30
0.0
 11
405.29957801888941
 21
683.55304601453611
 31
0.0
  0
LINE
  5
28D2
  8
AM_0
 10
409.29957801888941
 20
461.0530160145359
 30
0.0
 11
409.29957801888941
 21
671.05304601453611
 31
0.0
  0
LINE
  5
28D3
  8
AM_0
 10
235.7995480188896
 20
492.55304601453599
 30
0.0
 11
235.7995480188896
 21
639.55304601453588
 31
0.0
  0
LINE
  5
28D4
  8
AM_0
 10
270.29954801888942
 20
475.13193601453622
 30
0.0
 11
270.29954801888942
 21
656.97418601453614
 31
0.0
  0
LINE
  5
28D5
  8
AM_0
 10
282.29954801888948
 20
500.98083601453618
 30
0.0
 11
282.29954801888948
 21
631.12524601453595
 31
0.0
  0
LINE
  5
28D6
  8
AM_0
 10
292.29954801888942
 20
466.55304601453599
 30
0.0
 11
292.29954801888942
 21
665.55304601453611
 31
0.0
  0
LINE
  5
28D7
  8
AM_0
 10
292.2996080188895
 20
466.55304601453599
 30
0.0
 11
380.99733801888959
 21
463.4556360145362
 31
0.0
  0
ARC
  5
28D8
  8
AM_0
 10
285.2995480188896
 20
469.79931601453592
 30
0.0
 40
3.0
 50
180.00001000000091
 51
267.99999999999932
  0
LINE
  5
28D9
  8
AM_0
 10
285.19487801888943
 20
466.80111601453592
 30
0.0
 11
292.29948801888958
 21
466.55304601453599
 31
0.0
  0
LINE
  5
28DA
  8
AM_0
 10
235.79948801888949
 20
492.55301601453618
 30
0.0
 11
267.86937801888962
 21
491.43310601453618
 31
0.0
  0
LINE
  5
28DB
  8
AM_0
 10
235.7995480188896
 20
526.57837601453605
 30
0.0
 11
270.29954801888942
 21
526.57837601453605
 31
0.0
  0
LINE
  5
28DC
  8
AM_0
 10
235.7995480188896
 20
504.47439601453601
 30
0.0
 11
270.29954801888942
 21
504.47439601453601
 31
0.0
  0
ARC
  5
28DD
  8
AM_0
 10
279.3367780188895
 20
469.13193601453588
 30
0.0
 40
3.0
 50
6.3862994000025628
 51
90.000003000000945
  0
ARC
  5
28DE
  8
AM_0
 10
279.2995480188896
 20
480.16302601453589
 30
0.0
 40
3.0
 50
0.0
 51
90.000003000000945
  0
ARC
  5
28DF
  8
AM_0
 10
279.2995480188896
 20
500.98083601453618
 30
0.0
 40
3.0
 50
270.0
 51
0.0
  0
LINE
  5
28E0
  8
AM_0
 10
270.29954801888942
 20
508.735476014536
 30
0.0
 11
282.29954801888948
 21
508.735476014536
 31
0.0
  0
LINE
  5
28E1
  8
AM_0
 10
273.2995480188896
 20
472.131936014536
 30
0.0
 11
279.3367780188895
 21
472.131936014536
 31
0.0
  0
ARC
  5
28E2
  8
AM_0
 10
273.2995480188896
 20
475.13193601453622
 30
0.0
 40
3.0
 50
180.00001000000091
 51
270.0
  0
LINE
  5
28E3
  8
AM_0
 10
273.2995480188896
 20
483.163026014536
 30
0.0
 11
279.2995480188896
 21
483.163026014536
 31
0.0
  0
ARC
  5
28E4
  8
AM_0
 10
273.2995480188896
 20
486.163026014536
 30
0.0
 40
3.0
 50
180.00001000000091
 51
270.0
  0
ARC
  5
28E5
  8
AM_0
 10
267.29954801888942
 20
488.4512060145359
 30
0.0
 40
3.0
 50
0.0
 51
87.999999999999503
  0
LINE
  5
28E6
  8
AM_0
 10
270.29954801888942
 20
497.9808360145359
 30
0.0
 11
279.2995480188896
 21
497.9808360145359
 31
0.0
  0
LINE
  5
28E7
  8
AM_0
 10
282.29954801888948
 20
469.79931601453592
 30
0.0
 11
282.29954801888948
 21
480.16302601453589
 31
0.0
  0
LINE
  5
28E8
  8
AM_0
 10
405.29957801888941
 20
461.0530160145359
 30
0.0
 11
409.29957801888941
 21
461.0530160145359
 31
0.0
  0
ARC
  5
28E9
  8
AM_0
 10
393.29957801888952
 20
451.97391601453592
 30
0.0
 40
3.0
 50
179.9999899999988
 51
268.00000999999861
  0
LINE
  5
28EA
  8
AM_0
 10
384.3583880188894
 20
461.99423601453589
 30
0.0
 11
390.29960801888961
 21
456.05301601453601
 31
0.0
  0
ARC
  5
28EB
  8
AM_0
 10
380.8228380188894
 20
458.458686014536
 30
0.0
 40
5.0
 50
45.000000999996892
 51
87.999999999999503
  0
LINE
  5
28EC
  8
AM_0
 10
393.19487801888948
 20
448.97571601453598
 30
0.0
 11
405.29957801888941
 21
448.5530160145359
 31
0.0
  0
ARC
  5
28ED
  8
AM_0
 10
394.29957801888941
 20
475.45331601453591
 30
0.0
 40
3.0
 50
267.99999999999932
 51
0.0
  0
LINE
  5
28EE
  8
AM_0
 10
394.01503801888958
 20
472.46139601453598
 30
0.0
 11
394.19487801888948
 21
472.45511601453597
 31
0.0
  0
ARC
  5
28EF
  8
AM_0
 10
393.29957801888952
 20
507.14230601453602
 30
0.0
 40
3.0
 50
90.000003000000945
 51
180.00001000000091
  0
LINE
  5
28F0
  8
AM_0
 10
393.29957801888952
 20
510.14230601453619
 30
0.0
 11
397.29957801888952
 21
510.14230601453619
 31
0.0
  0
LINE
  5
28F1
  8
AM_0
 10
292.2996080188895
 20
665.55304601453611
 30
0.0
 11
380.9973680188894
 21
668.6504560145363
 31
0.0
  0
ARC
  5
28F2
  8
AM_0
 10
285.2995480188896
 20
662.30676601453615
 30
0.0
 40
3.0
 50
91.999998000000545
 51
180.00001000000091
  0
LINE
  5
28F3
  8
AM_0
 10
235.7995480188896
 20
639.55304601453588
 30
0.0
 11
267.40422801888963
 21
640.65667601453595
 31
0.0
  0
LINE
  5
28F4
  8
AM_0
 10
235.7995480188896
 20
605.52771601453617
 30
0.0
 11
270.29954801888942
 21
605.52771601453617
 31
0.0
  0
LINE
  5
28F5
  8
AM_0
 10
235.7995480188896
 20
627.63165601453625
 30
0.0
 11
270.29954801888942
 21
627.63165601453625
 31
0.0
  0
ARC
  5
28F6
  8
AM_0
 10
279.2995480188896
 20
651.94305601453607
 30
0.0
 40
3.0
 50
270.0
 51
0.0
  0
ARC
  5
28F7
  8
AM_0
 10
279.3367780188895
 20
662.97418601453614
 30
0.0
 40
3.0
 50
270.0
 51
353.61370000000318
  0
ARC
  5
28F8
  8
AM_0
 10
279.2995480188896
 20
631.12524601453595
 30
0.0
 40
3.0
 50
0.0
 51
90.000003000000945
  0
LINE
  5
28F9
  8
AM_0
 10
270.29954801888942
 20
623.37060601453618
 30
0.0
 11
282.29954801888948
 21
623.37060601453618
 31
0.0
  0
LINE
  5
28FA
  8
AM_0
 10
270.29954801888942
 20
634.12524601453595
 30
0.0
 11
279.2995480188896
 21
634.12524601453595
 31
0.0
  0
LINE
  5
28FB
  8
AM_0
 10
273.2995480188896
 20
648.9430560145363
 30
0.0
 11
279.2995480188896
 21
648.9430560145363
 31
0.0
  0
ARC
  5
28FC
  8
AM_0
 10
273.2995480188896
 20
645.9430560145363
 30
0.0
 40
3.0
 50
90.000003000000945
 51
180.00001000000091
  0
ARC
  5
28FD
  8
AM_0
 10
267.29954801888942
 20
643.65484601453613
 30
0.0
 40
3.0
 50
272.0000000000004
 51
0.0
  0
LINE
  5
28FE
  8
AM_0
 10
273.2995480188896
 20
659.97418601453614
 30
0.0
 11
279.3367780188895
 21
659.97418601453614
 31
0.0
  0
ARC
  5
28FF
  8
AM_0
 10
273.2995480188896
 20
656.97418601453614
 30
0.0
 40
3.0
 50
90.000003000000945
 51
180.00001000000091
  0
LINE
  5
2900
  8
AM_0
 10
282.29954801888948
 20
662.30676601453615
 30
0.0
 11
282.29954801888948
 21
651.94305601453607
 31
0.0
  0
LINE
  5
2901
  8
AM_0
 10
285.19481801888952
 20
665.30493601453588
 30
0.0
 11
292.29948801888958
 21
665.55304601453611
 31
0.0
  0
ARC
  5
2902
  8
AM_0
 10
393.29957801888952
 20
624.96380601453632
 30
0.0
 40
3.0
 50
179.9999899999988
 51
270.0
  0
LINE
  5
2903
  8
AM_0
 10
393.29957801888952
 20
621.96380601453632
 30
0.0
 11
397.29957801888952
 21
621.96380601453632
 31
0.0
  0
ARC
  5
2904
  8
AM_0
 10
394.29957801888941
 20
656.65277601453613
 30
0.0
 40
3.0
 50
0.0
 51
91.999998000000545
  0
LINE
  5
2905
  8
AM_0
 10
394.01503801888958
 20
659.64465601453605
 30
0.0
 11
394.19487801888948
 21
659.65094601453609
 31
0.0
  0
LINE
  5
2906
  8
AM_0
 10
405.29957801888941
 20
671.05304601453611
 30
0.0
 11
409.29957801888941
 21
671.05304601453611
 31
0.0
  0
LINE
  5
2907
  8
AM_0
 10
384.3583880188894
 20
670.11181601453609
 30
0.0
 11
390.29957801888952
 21
676.05304601453611
 31
0.0
  0
ARC
  5
2908
  8
AM_0
 10
380.8228380188894
 20
673.64740601453605
 30
0.0
 40
5.0
 50
272.0000000000004
 51
315.0
  0
LINE
  5
2909
  8
AM_0
 10
393.19490801888941
 20
683.13037601453607
 30
0.0
 11
405.29957801888941
 21
683.55304601453611
 31
0.0
  0
ARC
  5
290A
  8
AM_0
 10
393.29957801888952
 20
680.13214601453615
 30
0.0
 40
3.0
 50
91.999998000000545
 51
180.00001000000091
  0
LINE
  5
290B
  8
AM_0
 10
467.29960801888939
 20
550.05307601453626
 30
0.0
 11
467.29960801888939
 21
582.05304601453611
 31
0.0
  0
ARC
  5
290C
  8
ﾁｭｳｼﾝｾﾝ1
 10
664.90181201888959
 20
245.9464626818486
 30
0.0
 40
135.00000299999991
 50
308.36839299999991
 51
322.25634599999989
  0
LINE
  5
290D
  8
ﾁｭｳｼﾝｾﾝ1
 10
749.91758380880788
 20
160.9306896247744
 30
0.0
 11
769.62217492378784
 21
141.22611138440499
 31
0.0
  0
ARC
  5
290E
  8
ﾁｭｳｼﾝｾﾝ1
 10
664.90181201888959
 20
245.9464626818486
 30
0.0
 40
135.00000299999991
 50
128.36838999999969
 51
142.25635
  0
LINE
  5
290F
  8
ﾁｭｳｼﾝｾﾝ1
 10
578.18415610936825
 20
332.66413623649652
 30
0.0
 11
560.42014784861465
 21
350.42814247146561
 31
0.0
  0
TEXT
  5
2AEF
  8
AM_0
 10
560.63855721274922
 20
597.62733040338048
 30
0.0
 40
15.0
  1
VX08-040GF~VX08-100GF
  0
ENDSEC
  0
EOF
