  0
SECTION
  2
HEADER
  9
$ACADVER
  1
AC1009
  9
$INSBASE
 10
0.0
 20
0.0
 30
0.0
  9
$EXTMIN
 10
277.13745480652102
 20
250.3198734249458
 30
-0.0000000000112498
  9
$EXTMAX
 10
1172.71164242552
 20
973.37044655137561
 30
0.0000000000002956
  9
$LIMMIN
 10
0.0
 20
0.0
  9
$LIMMAX
 10
1422.5
 20
925.0
  9
$ORTHOMODE
 70
     0
  9
$REGENMODE
 70
     1
  9
$FILLMODE
 70
     1
  9
$QTEXTMODE
 70
     0
  9
$MIRRTEXT
 70
     1
  9
$DRAGMODE
 70
     2
  9
$LTSCALE
 40
5.0
  9
$OSMODE
 70
   551
  9
$ATTMODE
 70
     1
  9
$TEXTSIZE
 40
2.5
  9
$TRACEWID
 40
1.0
  9
$TEXTSTYLE
  7
STANDARD
  9
$CLAYER
  8
AM_0
  9
$CELTYPE
  6
BYLAYER
  9
$CECOLOR
 62
   256
  9
$DIMSCALE
 40
1.0
  9
$DIMASZ
 40
2.5
  9
$DIMEXO
 40
1.0
  9
$DIMDLI
 40
8.0
  9
$DIMRND
 40
0.0
  9
$DIMDLE
 40
0.0
  9
$DIMEXE
 40
0.6
  9
$DIMTP
 40
0.1
  9
$DIMTM
 40
0.1
  9
$DIMTXT
 40
2.5
  9
$DIMCEN
 40
0.0
  9
$DIMTSZ
 40
0.0
  9
$DIMTOL
 70
     0
  9
$DIMLIM
 70
     0
  9
$DIMTIH
 70
     0
  9
$DIMTOH
 70
     0
  9
$DIMSE1
 70
     0
  9
$DIMSE2
 70
     0
  9
$DIMTAD
 70
     1
  9
$DIMZIN
 70
     8
  9
$DIMBLK
  1

  9
$DIMASO
 70
     1
  9
$DIMSHO
 70
     1
  9
$DIMPOST
  1

  9
$DIMAPOST
  1
"
  9
$DIMALT
 70
     0
  9
$DIMALTD
 70
     2
  9
$DIMALTF
 40
0.0393701
  9
$DIMLFAC
 40
1.0
  9
$DIMTOFL
 70
     1
  9
$DIMTVP
 40
0.0
  9
$DIMTIX
 70
     0
  9
$DIMSOXD
 70
     0
  9
$DIMSAH
 70
     0
  9
$DIMBLK1
  1

  9
$DIMBLK2
  1

  9
$DIMSTYLE
  2
AM_ISO
  9
$DIMCLRD
 70
   256
  9
$DIMCLRE
 70
   256
  9
$DIMCLRT
 70
     4
  9
$DIMTFAC
 40
0.71
  9
$DIMGAP
 40
0.8
  9
$LUNITS
 70
     2
  9
$LUPREC
 70
     2
  9
$SKETCHINC
 40
1.0
  9
$FILLETRAD
 40
25.0
  9
$AUNITS
 70
     0
  9
$AUPREC
 70
     0
  9
$MENU
  1
.
  9
$ELEVATION
 40
0.0
  9
$PELEVATION
 40
0.0
  9
$THICKNESS
 40
0.0
  9
$LIMCHECK
 70
     0
  9
$BLIPMODE
 70
     0
  9
$CHAMFERA
 40
10.0
  9
$CHAMFERB
 40
5.0
  9
$SKPOLY
 70
     0
  9
$TDCREATE
 40
2452066.471316007
  9
$TDUPDATE
 40
2458541.4441486229
  9
$TDINDWG
 40
0.072031331
  9
$TDUSRTIMER
 40
0.0720311343
  9
$USRTIMER
 70
     1
  9
$ANGBASE
 50
0.0
  9
$ANGDIR
 70
     0
  9
$PDMODE
 70
     0
  9
$PDSIZE
 40
0.0
  9
$PLINEWID
 40
0.0
  9
$COORDS
 70
     1
  9
$SPLFRAME
 70
     0
  9
$SPLINETYPE
 70
     6
  9
$SPLINESEGS
 70
     8
  9
$ATTDIA
 70
     1
  9
$ATTREQ
 70
     1
  9
$HANDLING
 70
     1
  9
$HANDSEED
  5
318B
  9
$SURFTAB1
 70
     6
  9
$SURFTAB2
 70
     6
  9
$SURFTYPE
 70
     6
  9
$SURFU
 70
     6
  9
$SURFV
 70
     6
  9
$UCSNAME
  2

  9
$UCSORG
 10
0.0
 20
0.0
 30
0.0
  9
$UCSXDIR
 10
1.0
 20
0.0
 30
0.0
  9
$UCSYDIR
 10
0.0
 20
1.0
 30
0.0
  9
$PUCSNAME
  2

  9
$PUCSORG
 10
0.0
 20
0.0
 30
0.0
  9
$PUCSXDIR
 10
1.0
 20
0.0
 30
0.0
  9
$PUCSYDIR
 10
0.0
 20
1.0
 30
0.0
  9
$USERI1
 70
     0
  9
$USERI2
 70
     0
  9
$USERI3
 70
     0
  9
$USERI4
 70
     0
  9
$USERI5
 70
     0
  9
$USERR1
 40
0.0
  9
$USERR2
 40
0.0
  9
$USERR3
 40
0.0
  9
$USERR4
 40
0.0
  9
$USERR5
 40
0.0
  9
$WORLDVIEW
 70
     1
  9
$SHADEDGE
 70
     3
  9
$SHADEDIF
 70
    70
  9
$TILEMODE
 70
     1
  9
$MAXACTVP
 70
    64
  9
$PLIMCHECK
 70
     0
  9
$PEXTMIN
 10
1.0000000000000000E+020
 20
1.0000000000000000E+020
 30
1.0000000000000000E+020
  9
$PEXTMAX
 10
-1.0000000000000000E+020
 20
-1.0000000000000000E+020
 30
-1.0000000000000000E+020
  9
$PLIMMIN
 10
0.0
 20
0.0
  9
$PLIMMAX
 10
420.0
 20
297.0
  9
$UNITMODE
 70
     0
  9
$VISRETAIN
 70
     1
  9
$PLINEGEN
 70
     0
  9
$PSLTSCALE
 70
     1
  0
ENDSEC
  0
SECTION
  2
TABLES
  0
TABLE
  2
VPORT
 70
     1
  0
VPORT
  2
*ACTIVE
 70
     0
 10
0.0
 20
0.0
 11
1.0
 21
1.0
 12
724.92454861602073
 22
611.84515998816073
 13
0.0
 23
0.0
 14
12.5
 24
12.5
 15
50.0
 25
50.0
 16
0.0
 26
0.0
 36
1.0
 17
0.0
 27
0.0
 37
0.0
 40
728.01430703805295
 41
1.7571592210767459
 42
50.0
 43
0.0
 44
0.0
 50
0.0
 51
0.0
 71
     0
 72
   100
 73
     1
 74
     3
 75
     0
 76
     0
 77
     0
 78
     0
  0
ENDTAB
  0
TABLE
  2
LTYPE
 70
    26
  0
LTYPE
  2
CONTINUOUS
 70
     0
  3
Solid line
 72
    65
 73
     0
 40
0.0
  0
LTYPE
  2
AM_ISO02W050
 70
     0
  3
__ __ __ __ __ __ __ __ __ __ __ __ __ __ __
 72
    65
 73
     2
 40
7.5
 49
6.0
 49
-1.5
  0
LTYPE
  2
AM_ISO08W050
 70
     0
  3
____ . ____ . ____ . ____ . ____ . ____ . ____
 72
    65
 73
     4
 40
18.0
 49
12.0
 49
-1.5
 49
3.0
 49
-1.5
  0
LTYPE
  2
AM_ISO09W050
 70
     0
  3
_____ . . _____ . . _____ . . ____ .. ____
 72
    65
 73
     6
 40
22.5
 49
12.0
 49
-1.5
 49
3.0
 49
-1.5
 49
3.0
 49
-1.5
  0
LTYPE
  2
AMCONSTR
 70
     0
  3
_______________________
 72
    65
 73
     2
 40
9999.0
 49
9999.0
 49
0.0
  0
LTYPE
  2
AM_ISO08W050X2
 70
     0
  3
__ . __ . __ . __ . __ . __
 72
    65
 73
     4
 40
9.0
 49
6.0
 49
-0.75
 49
1.5
 49
-0.75
  0
LTYPE
  2
AM_ISO02W050X2
 70
     0
  3
 _ _ _ _ _ _ _ _ _ _ _ _
 72
    65
 73
     2
 40
3.75
 49
3.0
 49
-0.75
  0
LTYPE
  2
AMZIGZAG
 70
     0
  3
/\/-/\/-/\/-/\/-/\/-/\/
 72
    65
 73
     2
 40
11.000099999999991
 49
0.0001
 49
-11.0
  0
LTYPE
  2
ACISOWELD
 70
     0
  3
_ _ _ _ _
 72
    65
 73
     2
 40
2.0
 49
2.0
 49
-1.0
  0
LTYPE
  2
ACISOTGB
 70
     0
  3
__ . . __ . .
 72
    65
 73
     6
 40
9.0
 49
4.0
 49
-1.0
 49
1.0
 49
-1.0
 49
1.0
 49
-1.0
  0
LTYPE
  2
ACISOTGL
 70
     0
  3
_ _ _ _ _
 72
    65
 73
     2
 40
3.0
 49
2.0
 49
-1.0
  0
LTYPE
  2
CENTER
 70
     0
  3
__ . __
 72
    65
 73
     4
 40
7.0
 49
4.0
 49
-1.0
 49
1.0
 49
-1.0
  0
LTYPE
  2
PHANTOM2
 70
     0
  3
Phantom (.5x) ___ _ _ ___ _ _ ___ _ _ ___ _ _
 72
    65
 73
     6
 40
31.75
 49
15.875
 49
-3.174999999999998
 49
3.174999999999998
 49
-3.174999999999998
 49
3.174999999999998
 49
-3.174999999999998
  0
LTYPE
  2
ACANSTGBM
 70
     0
  3
__ . . __ . .
 72
    65
 73
     6
 40
9.0
 49
4.0
 49
-1.0
 49
1.0
 49
-1.0
 49
1.0
 49
-1.0
  0
LTYPE
  2
ACANSTGLM
 70
     0
  3
_ _ _ _ _
 72
    65
 73
     2
 40
3.0
 49
2.0
 49
-1.0
  0
LTYPE
  2
GEN7
 70
     0
  3
____ . ____ . ____ . ____ . ____ . ____ . ____
 72
    65
 73
     4
 40
14.25
 49
9.75
 49
-1.5
 49
1.5
 49
-1.5
  0
LTYPE
  2
GEN7A
 70
     0
  3
__ . __ . __
 72
    65
 73
     4
 40
7.375
 49
4.75
 49
-0.875
 49
0.875
 49
-0.875
  0
LTYPE
  2
ACJISTGB
 70
     0
  3
__ . . __ . .
 72
    65
 73
     6
 40
9.0
 49
4.0
 49
-1.0
 49
1.0
 49
-1.0
 49
1.0
 49
-1.0
  0
LTYPE
  2
ACJISTGL
 70
     0
  3
_ _ _ _ _
 72
    65
 73
     2
 40
3.0
 49
2.0
 49
-1.0
  0
LTYPE
  2
HIDDEN
 70
     0
  3
Hidden __ __ __ __ __ __ __ __ __ __ __ __ __ _
 72
    65
 73
     2
 40
0.375
 49
0.25
 49
-0.125
  0
LTYPE
  2
CENTER2
 70
     0
  3
Center (.5x) ___ _ ___ _ ___ _ ___ _ ___ _ ___
 72
    65
 73
     4
 40
1.125
 49
0.75
 49
-0.125
 49
0.125
 49
-0.125
  0
LTYPE
  2
HIDDEN2
 70
     0
  3
Hidden (.5x) _ _ _ _ _ _ _ _ _ _ _ _ _ _ _ _ _
 72
    65
 73
     2
 40
0.1875
 49
0.125
 49
-0.0625
  0
LTYPE
  2
AMZIGZAG2
 70
     0
  3
/\/-/\/-/\/-/\/-/\/-/\/
 72
    65
 73
     2
 40
0.4401
 49
0.0001
 49
-0.4400000000000002
  0
LTYPE
  2
ACANSTGB
 70
     0
  3
__ . . __ . .
 72
    65
 73
     6
 40
0.35433070866
 49
0.15748031496
 49
-0.03937007874
 49
0.03937007874
 49
-0.03937007874
 49
0.03937007874
 49
-0.03937007874
  0
LTYPE
  2
ACANSTGL
 70
     0
  3
_ _ _ _ _
 72
    65
 73
     2
 40
0.11811023622
 49
0.07874015748
 49
-0.03937007874
  0
ENDTAB
  0
TABLE
  2
LAYER
 70
     6
  0
LAYER
  2
0
 70
     0
 62
     7
  6
CONTINUOUS
  0
LAYER
  2
AM_0
 70
     0
 62
     7
  6
CONTINUOUS
  0
LAYER
  2
AM_5
 70
     0
 62
     2
  6
CONTINUOUS
  0
LAYER
  2
DEFPOINTS
 70
     0
 62
     7
  6
CONTINUOUS
  0
LAYER
  2
ﾁｭｳｼﾝｾﾝ
 70
     0
 62
     1
  6
GEN7
  0
LAYER
  2
ﾁｭｳｼﾝｾﾝ1
 70
     0
 62
     1
  6
GEN7A
  0
ENDTAB
  0
TABLE
  2
STYLE
 70
     8
  0
STYLE
  2
STANDARD
 70
     0
 40
0.0
 41
0.8299999999999999
 50
0.0
 71
     0
 42
2.5
  3
txt.shx
  4
bigfont.shx
  0
STYLE
  2

 70
     1
 40
0.0
 41
1.0
 50
0.0
 71
     0
 42
2.5
  3
ltypeshp.shx
  4

  0
STYLE
  2
ACISOTS
 70
     0
 40
1.0
 41
1.0
 50
0.0
 71
     0
 42
2.5
  3
isocp.shx
  4
extfont.shx
  0
STYLE
  2
ACISOGDT
 70
     0
 40
0.0
 41
1.0
 50
0.0
 71
     0
 42
2.5
  3
amgdt.shx
  4

  0
STYLE
  2
ACANSTS
 70
     0
 40
1.0
 41
1.0
 50
0.0
 71
     0
 42
2.5
  3
romans.shx
  4
bigfont.shx
  0
STYLE
  2
ACANSGDT
 70
     0
 40
0.0
 41
1.0
 50
0.0
 71
     0
 42
2.5
  3
amgdt.shx
  4

  0
STYLE
  2
ACJISTS
 70
     0
 40
1.0
 41
1.0
 50
0.0
 71
     0
 42
2.5
  3
isocp.shx
  4
bigfont.shx
  0
STYLE
  2
ACJISGDT
 70
     0
 40
0.0
 41
1.0
 50
0.0
 71
     0
 42
2.5
  3
amgdt.shx
  4

  0
ENDTAB
  0
TABLE
  2
VIEW
 70
     6
  0
VIEW
  2
AM_VIEW1
 70
     0
 40
462.5
 10
416.07965009208078
 20
693.75
 41
832.15930018416213
 11
0.0
 21
0.0
 31
1.0
 12
0.0
 22
0.0
 32
0.0
 42
50.0
 43
0.0
 44
0.0
 50
0.0
 71
     0
  0
VIEW
  2
AM_VIEW2
 70
     0
 40
462.5
 10
1006.420349907918
 20
693.75
 41
832.15930018416213
 11
0.0
 21
0.0
 31
1.0
 12
0.0
 22
0.0
 32
0.0
 42
50.0
 43
0.0
 44
0.0
 50
0.0
 71
     0
  0
VIEW
  2
AM_VIEW3
 70
     0
 40
462.5
 10
416.07965009208078
 20
231.25
 41
832.15930018416213
 11
0.0
 21
0.0
 31
1.0
 12
0.0
 22
0.0
 32
0.0
 42
50.0
 43
0.0
 44
0.0
 50
0.0
 71
     0
  0
VIEW
  2
AM_VIEW4
 70
     0
 40
462.5
 10
1006.420349907918
 20
231.25
 41
832.15930018416213
 11
0.0
 21
0.0
 31
1.0
 12
0.0
 22
0.0
 32
0.0
 42
50.0
 43
0.0
 44
0.0
 50
0.0
 71
     0
  0
VIEW
  2
AM_VIEW5
 70
     0
 40
462.5
 10
711.24999999999966
 20
462.5
 41
832.15930018416157
 11
0.0
 21
0.0
 31
1.0
 12
0.0
 22
0.0
 32
0.0
 42
50.0
 43
0.0
 44
0.0
 50
0.0
 71
     0
  0
VIEW
  2
AM_VIEW6
 70
     0
 40
924.99075000000005
 10
711.24999999999966
 20
462.5
 41
1664.3019571823199
 11
0.0
 21
0.0
 31
1.0
 12
0.0
 22
0.0
 32
0.0
 42
50.0
 43
0.0
 44
0.0
 50
0.0
 71
     0
  0
ENDTAB
  0
TABLE
  2
UCS
 70
     0
  0
ENDTAB
  0
TABLE
  2
APPID
 70
    94
  0
APPID
  2
ACAD
 70
     0
  0
APPID
  2
MCAD_NO_VIS
 70
     0
  0
APPID
  2
ACAD_TEMP_GRAPHIC
 70
     0
  0
APPID
  2
ACATTRIBSERVICES
 70
     0
  0
APPID
  2
GENIUS_GENREC_14
 70
     0
  0
APPID
  2
GENIUS_GENOBJ-N-REC_13
 70
     0
  0
APPID
  2
GENIUS_GENODEF_13
 70
     0
  0
APPID
  2
GENIUS_GENOLIS_13
 70
     0
  0
APPID
  2
GENIUS_GENOBJ-N-TIT_13
 70
     0
  0
APPID
  2
GENIUS_GENOENT_13
 70
     0
  0
APPID
  2
GENIUS_GENTITLE_13
 70
     0
  0
APPID
  2
GENIUS_GENOREF_13
 70
     0
  0
APPID
  2
GENIUS_GENSCREG_15
 70
     0
  0
APPID
  2
GENIUS_GENOBJ-N-SDF_13
 70
     0
  0
APPID
  2
GENIUS_GENFIL_13
 70
     0
  0
APPID
  2
GENIUS_GENOBJ-N-CHA_13
 70
     0
  0
APPID
  2
GENIUS_GENDTOL_13
 70
     0
  0
APPID
  2
GENIUS_GENOBJ-N-FIL_13
 70
     0
  0
APPID
  2
AD_DRAW
 70
     0
  0
APPID
  2
DESIGNERASSEMBLIES
 70
     0
  0
APPID
  2
ASURF_PCURVE_APPNAME
 70
     0
  0
APPID
  2
GENIUS_GE3SECT_13
 70
     0
  0
APPID
  2
GENIUS_GENCFG_13
 70
     0
  0
APPID
  2
GENIUS_GE3CFG0_13
 70
     0
  0
APPID
  2
GENIUS_GENCFG0_13
 70
     0
  0
APPID
  2
GENIUS_GENCFG1_13
 70
     0
  0
APPID
  2
GENIUS_GENCFG2_13
 70
     0
  0
APPID
  2
GENIUS_GENCFG3_13
 70
     0
  0
APPID
  2
GENIUS_GENCFG4_13
 70
     0
  0
APPID
  2
GENIUS_GEVCFG0_13
 70
     0
  0
APPID
  2
GENIUS_GENHINW_13
 70
     0
  0
APPID
  2
GENIUS_FIRSTVISTXT_14
 70
     0
  0
APPID
  2
GENIUS_GENOBJ-N-LEADER_13
 70
     0
  0
APPID
  2
GEV_VCCNULL_SWITCH_OFF
 70
     0
  0
APPID
  2
GENIUS_GEFCFG0_13
 70
     0
  0
APPID
  2
GENIUS_GENZVEED_13
 70
     0
  0
APPID
  2
GENIUS_GENSCREG_13
 70
     0
  0
APPID
  2
GENIUS_DUMCFG0_13
 70
     0
  0
APPID
  2
GEVID936201362
 70
     0
  0
APPID
  2
GEVDC
 70
     0
  0
APPID
  2
GEVCON
 70
     0
  0
APPID
  2
VCC
 70
     0
  0
APPID
  2
GEVPT
 70
     0
  0
APPID
  2
GEVIT
 70
     0
  0
APPID
  2
GENBH
 70
     0
  0
APPID
  2
GEVMK
 70
     0
  0
APPID
  2
GENIUS_GENBH_13
 70
     0
  0
APPID
  2
GENIUS_GENOBJ-NBEHI-BHF_13
 70
     0
  0
APPID
  2
GENIUS_GENOBJ-NBEHI-BHB_13
 70
     0
  0
APPID
  2
GENIUS_GENOBJ-F-DESC_13
 70
     0
  0
APPID
  2
GENIUS_GEFDESC_14
 70
     0
  0
APPID
  2
GENIUS_GENOBJ-F-PART_13
 70
     0
  0
APPID
  2
GENIUS_GEFSTDP_13
 70
     0
  0
APPID
  2
GENIUS_GEFPARTINS_13
 70
     0
  0
APPID
  2
GENIUS_GENTRA_14
 70
     0
  0
APPID
  2
GENIUS_GENINF13_13
 70
     0
  0
APPID
  2
GENIUS_GENOBJ-N-INFOPT_13
 70
     0
  0
APPID
  2
GENIUS_GENOBJ-N-RSSYM_13
 70
     0
  0
APPID
  2
GENIUS_GENSYMENT_13
 70
     0
  0
APPID
  2
GENIUS_GENSCSYM_13
 70
     0
  0
APPID
  2
GENIUS_GEFINFNAM_13
 70
     0
  0
APPID
  2
GENIUS_GENOBJ-N-CEN_13
 70
     0
  0
APPID
  2
GENIUS_GENOBJ-N-CRS_13
 70
     0
  0
APPID
  2
GENIUS_GENOBJ-N-CRC_13
 70
     0
  0
APPID
  2
GENIUS_GENCRC_14
 70
     0
  0
APPID
  2
GEVID942827039
 70
     0
  0
APPID
  2
GEVID942827040
 70
     0
  0
APPID
  2
GEVID942827041
 70
     0
  0
APPID
  2
GENIUS_GENOBJ-F-SCPASSM_13
 70
     0
  0
APPID
  2
GENIUS_GENDIMSH_14
 70
     0
  0
APPID
  2
GEVID942827042
 70
     0
  0
APPID
  2
GEVID946020473
 70
     0
  0
APPID
  2
GEVID946020474
 70
     0
  0
APPID
  2
GEVID946020475
 70
     0
  0
APPID
  2
GENIUS_GENOBJ-N-HTC_13
 70
     0
  0
APPID
  2
GENIUS_GENHATCH_13
 70
     0
  0
APPID
  2
GEVID948854295
 70
     0
  0
APPID
  2
GEVID939402019
 70
     0
  0
APPID
  2
GEVID952919491
 70
     0
  0
APPID
  2
GEVID952919492
 70
     0
  0
APPID
  2
GENIUS_GEFWELD_13
 70
     0
  0
APPID
  2
GENIUS_GENOBJ-F-WELS_13
 70
     0
  0
APPID
  2
GEVID952919493
 70
     0
  0
APPID
  2
GENIUS_GENOBJ-N-RSBK_13
 70
     0
  0
APPID
  2
GENIUS_GENOBJ-N-LIB_13
 70
     0
  0
APPID
  2
GENIUS_GENSCALE_13
 70
     0
  0
APPID
  2
GEVID986376691
 70
     0
  0
APPID
  2
DCO15
 70
     0
  0
APPID
  2
ACAD_DSTYLE_DIMBREAK
 70
     0
  0
APPID
  2
ACAD_DSTYLE_DIMJAG
 70
     0
  0
APPID
  2
ACAD_NAV_VCDISPLAY
 70
     0
  0
APPID
  2
ACADANNOPO
 70
     0
  0
APPID
  2
ACAD_EXEMPT_FROM_CAD_STANDARDS
 70
     0
  0
APPID
  2
ACAD_MLEADERVER
 70
     0
  0
ENDTAB
  0
TABLE
  2
DIMSTYLE
 70
    21
  0
DIMSTYLE
  2
AM_ISO
 70
     0
  3

  4
"
  5

  6

  7

 40
1.0
 41
2.5
 42
1.0
 43
8.0
 44
0.6
 45
0.0
 46
0.0
 47
0.1
 48
0.1
140
2.5
141
0.0
142
0.0
143
0.0393701
144
1.0
145
0.0
146
0.71
147
0.8
 71
     0
 72
     0
 73
     0
 74
     0
 75
     0
 76
     0
 77
     1
 78
     8
170
     0
171
     2
172
     1
173
     0
174
     0
175
     0
176
   256
177
   256
178
     4
  0
DIMSTYLE
  2
AM_ISO$3
 70
     0
  3

  4
"
  5

  6

  7

 40
1.0
 41
2.5
 42
1.0
 43
8.0
 44
0.6
 45
0.0
 46
0.0
 47
0.1
 48
0.1
140
2.5
141
0.0
142
0.0
143
0.0393701
144
1.0
145
0.0
146
0.71
147
0.8
 71
     0
 72
     0
 73
     0
 74
     1
 75
     0
 76
     0
 77
     1
 78
     8
170
     0
171
     2
172
     0
173
     0
174
     0
175
     0
176
   256
177
   256
178
     4
  0
DIMSTYLE
  2
AM_ISO$4
 70
     0
  3

  4
"
  5

  6

  7

 40
1.0
 41
2.5
 42
1.0
 43
8.0
 44
0.6
 45
0.0
 46
0.0
 47
0.1
 48
0.1
140
2.5
141
0.0
142
0.0
143
0.0393701
144
1.0
145
0.0
146
0.71
147
0.8
 71
     0
 72
     0
 73
     0
 74
     1
 75
     0
 76
     0
 77
     1
 78
     8
170
     0
171
     2
172
     0
173
     0
174
     0
175
     0
176
   256
177
   256
178
     4
  0
DIMSTYLE
  2
AM_ISO$6
 70
     0
  3

  4
"
  5

  6

  7

 40
1.0
 41
2.5
 42
1.0
 43
8.0
 44
0.6
 45
0.0
 46
0.0
 47
0.1
 48
0.1
140
2.5
141
0.0
142
0.0
143
0.0393701
144
1.0
145
0.0
146
0.71
147
0.8
 71
     0
 72
     0
 73
     0
 74
     0
 75
     0
 76
     0
 77
     0
 78
     8
170
     0
171
     2
172
     1
173
     0
174
     0
175
     0
176
   256
177
   256
178
     4
  0
DIMSTYLE
  2
AM_ISO$7
 70
     0
  3

  4
"
  5

  6

  7

 40
1.0
 41
2.5
 42
1.0
 43
8.0
 44
0.6
 45
0.0
 46
0.0
 47
0.1
 48
0.1
140
2.5
141
0.0
142
0.0
143
0.0393701
144
1.0
145
0.0
146
0.71
147
0.8
 71
     0
 72
     0
 73
     0
 74
     0
 75
     0
 76
     0
 77
     1
 78
     8
170
     0
171
     2
172
     1
173
     0
174
     0
175
     0
176
   256
177
   256
178
     4
  0
DIMSTYLE
  2
AM_ISO$SF
 70
     0
  3

  4
"
  5

  6

  7

 40
1.0
 41
2.5
 42
1.0
 43
10.0
 44
1.0
 45
0.0
 46
0.0
 47
0.1
 48
0.1
140
3.5
141
0.0
142
0.0
143
0.0393701
144
1.0
145
0.0
146
0.71
147
1.5
 71
     0
 72
     0
 73
     0
 74
     0
 75
     1
 76
     1
 77
     1
 78
     8
170
     0
171
     2
172
     1
173
     0
174
     0
175
     0
176
   256
177
   256
178
     2
  0
DIMSTYLE
  2
AM_ISO$SH
 70
     0
  3

  4
"
  5

  6

  7

 40
1.0
 41
2.5
 42
1.0
 43
10.0
 44
1.0
 45
0.0
 46
0.0
 47
0.1
 48
0.1
140
3.5
141
0.0
142
0.0
143
0.0393701
144
2.0
145
0.0
146
0.71
147
1.5
 71
     0
 72
     0
 73
     0
 74
     0
 75
     1
 76
     1
 77
     1
 78
     8
170
     0
171
     2
172
     1
173
     1
174
     0
175
     0
176
   256
177
   256
178
     2
  0
DIMSTYLE
  2
STANDARD
 70
     0
  3

  4

  5

  6

  7

 40
1.0
 41
0.18
 42
0.0625
 43
0.38
 44
0.18
 45
0.0
 46
0.0
 47
0.0
 48
0.0
140
0.18
141
0.09
142
0.0
143
25.399999999999999
144
1.0
145
0.0
146
1.0
147
0.09
 71
     0
 72
     0
 73
     1
 74
     1
 75
     0
 76
     0
 77
     0
 78
     0
170
     0
171
     2
172
     0
173
     0
174
     0
175
     0
176
     0
177
     0
178
     0
  0
DIMSTYLE
  2
AM_JIS
 70
     0
  3

  4
"
  5

  6

  7

 40
1.0
 41
2.5
 42
1.0
 43
7.0
 44
1.0
 45
0.0
 46
0.0
 47
0.1
 48
0.1000000001
140
2.5
141
0.0
142
0.0
143
0.0393701
144
1.0
145
0.0
146
0.71
147
1.0
 71
     0
 72
     0
 73
     0
 74
     0
 75
     0
 76
     0
 77
     3
 78
     8
170
     0
171
     2
172
     1
173
     0
174
     0
175
     0
176
   256
177
   256
178
     4
  0
DIMSTYLE
  2
AM_JIS$3
 70
     0
  3

  4
"
  5

  6

  7

 40
1.0
 41
2.5
 42
1.0
 43
7.0
 44
1.0
 45
0.0
 46
0.0
 47
0.1
 48
0.1000000001
140
2.5
141
0.0
142
0.0
143
0.0393701
144
1.0
145
0.0
146
0.71
147
1.0
 71
     0
 72
     0
 73
     0
 74
     1
 75
     0
 76
     0
 77
     3
 78
     8
170
     0
171
     2
172
     0
173
     0
174
     0
175
     0
176
   256
177
   256
178
     4
  0
DIMSTYLE
  2
AM_JIS$4
 70
     0
  3

  4
"
  5

  6

  7

 40
1.0
 41
2.5
 42
1.0
 43
7.0
 44
1.0
 45
0.0
 46
0.0
 47
0.1
 48
0.1000000001
140
2.5
141
0.0
142
0.0
143
0.0393701
144
1.0
145
0.0
146
0.71
147
1.0
 71
     0
 72
     0
 73
     0
 74
     0
 75
     0
 76
     0
 77
     3
 78
     8
170
     0
171
     2
172
     0
173
     0
174
     0
175
     0
176
   256
177
   256
178
     4
  0
DIMSTYLE
  2
AM_JIS$6
 70
     0
  3

  4
"
  5

  6

  7

 40
1.0
 41
2.5
 42
1.0
 43
7.0
 44
1.0
 45
0.0
 46
0.0
 47
0.1
 48
0.1000000001
140
2.5
141
0.0
142
0.0
143
0.0393701
144
1.0
145
0.0
146
0.71
147
1.0
 71
     0
 72
     0
 73
     0
 74
     0
 75
     0
 76
     0
 77
     0
 78
     8
170
     0
171
     2
172
     1
173
     0
174
     0
175
     0
176
   256
177
   256
178
     4
  0
DIMSTYLE
  2
AM_JIS$7
 70
     0
  3

  4
"
  5

  6

  7

 40
1.0
 41
2.5
 42
1.0
 43
7.0
 44
1.0
 45
0.0
 46
0.0
 47
0.1
 48
0.1000000001
140
2.5
141
0.0
142
0.0
143
0.0393701
144
1.0
145
0.0
146
0.71
147
1.0
 71
     0
 72
     0
 73
     0
 74
     0
 75
     0
 76
     0
 77
     3
 78
     8
170
     0
171
     2
172
     1
173
     0
174
     0
175
     0
176
   256
177
   256
178
     4
  0
DIMSTYLE
  2
AM_JIS$SF
 70
     0
  3

  4
"
  5

  6

  7

 40
1.0
 41
2.5
 42
1.0
 43
10.0
 44
1.0
 45
0.0
 46
0.0
 47
0.1
 48
0.1
140
3.5
141
0.0
142
0.0
143
0.0393701
144
1.0
145
0.0
146
0.71
147
1.5
 71
     0
 72
     0
 73
     0
 74
     0
 75
     1
 76
     1
 77
     3
 78
     8
170
     0
171
     2
172
     1
173
     0
174
     0
175
     0
176
   256
177
   256
178
     4
  0
DIMSTYLE
  2
AM_JIS$SH
 70
     0
  3

  4
"
  5

  6

  7

 40
1.0
 41
2.5
 42
1.0
 43
10.0
 44
1.0
 45
0.0
 46
0.0
 47
0.1
 48
0.1
140
3.5
141
0.0
142
0.0
143
0.0393701
144
1.0
145
0.0
146
0.71
147
1.5
 71
     0
 72
     0
 73
     0
 74
     0
 75
     1
 76
     0
 77
     3
 78
     8
170
     0
171
     2
172
     1
173
     1
174
     0
175
     0
176
   256
177
   256
178
     4
  0
DIMSTYLE
  2
AM_ANSI
 70
     0
  3

  4
mm
  5

  6

  7

 40
1.0
 41
0.1
 42
0.05
 43
0.5
 44
0.1
 45
0.0
 46
0.0
 47
0.1
 48
0.1
140
0.12
141
0.0
142
0.0
143
25.399999999999999
144
1.0
145
0.0
146
0.71
147
0.06
 71
     0
 72
     0
 73
     1
 74
     1
 75
     0
 76
     0
 77
     0
 78
     7
170
     0
171
     2
172
     0
173
     0
174
     0
175
     0
176
   256
177
   256
178
     2
  0
DIMSTYLE
  2
AM_ANSI$3
 70
     0
  3

  4
mm
  5

  6

  7

 40
1.0
 41
0.1
 42
0.05
 43
0.5
 44
0.1
 45
0.0
 46
0.0
 47
0.1
 48
0.1
140
0.12
141
0.0
142
0.0
143
25.399999999999999
144
1.0
145
0.0
146
0.71
147
0.06
 71
     0
 72
     0
 73
     1
 74
     1
 75
     0
 76
     0
 77
     0
 78
     7
170
     0
171
     2
172
     0
173
     0
174
     0
175
     0
176
   256
177
   256
178
     2
  0
DIMSTYLE
  2
AM_ANSI$4
 70
     0
  3

  4
mm
  5

  6

  7

 40
1.0
 41
0.1
 42
0.05
 43
0.5
 44
0.1
 45
0.0
 46
0.0
 47
0.1
 48
0.1
140
0.12
141
0.0
142
0.0
143
25.399999999999999
144
1.0
145
0.0
146
0.71
147
0.06
 71
     0
 72
     0
 73
     1
 74
     1
 75
     0
 76
     0
 77
     0
 78
     7
170
     0
171
     2
172
     0
173
     0
174
     0
175
     0
176
   256
177
   256
178
     2
  0
DIMSTYLE
  2
AM_ANSI$7
 70
     0
  3

  4
mm
  5

  6

  7

 40
1.0
 41
0.1
 42
0.05
 43
0.5
 44
0.1
 45
0.0
 46
0.0
 47
0.1
 48
0.1
140
0.24
141
0.0
142
0.0
143
25.399999999999999
144
1.0
145
0.0
146
0.71
147
0.06
 71
     0
 72
     0
 73
     1
 74
     1
 75
     0
 76
     0
 77
     0
 78
     7
170
     0
171
     2
172
     0
173
     0
174
     0
175
     0
176
   256
177
   256
178
     2
  0
DIMSTYLE
  2
AM_ANSI$SF
 70
     0
  3

  4
mm
  5

  6

  7

 40
1.0
 41
0.1
 42
0.05
 43
0.5
 44
0.1
 45
0.0
 46
0.0
 47
0.1
 48
0.1
140
0.12
141
0.0
142
0.0
143
25.399999999999999
144
1.0
145
0.0
146
0.71
147
0.06
 71
     0
 72
     0
 73
     1
 74
     1
 75
     1
 76
     1
 77
     0
 78
     7
170
     0
171
     2
172
     0
173
     0
174
     0
175
     0
176
   256
177
   256
178
     2
  0
DIMSTYLE
  2
AM_ANSI$SH
 70
     0
  3

  4
mm
  5

  6
GENAXEH
  7

 40
1.0
 41
0.1
 42
0.05
 43
0.5
 44
0.1
 45
0.0
 46
0.0
 47
0.1
 48
0.1
140
0.12
141
0.0
142
0.0
143
25.399999999999999
144
1.0
145
0.0
146
0.71
147
0.06
 71
     0
 72
     0
 73
     1
 74
     1
 75
     1
 76
     1
 77
     0
 78
     7
170
     0
171
     2
172
     0
173
     1
174
     0
175
     0
176
   256
177
   256
178
     2
  0
ENDTAB
  0
ENDSEC
  0
SECTION
  2
BLOCKS
  0
BLOCK
  8
0
  2
$MODEL_SPACE
 70
     0
 10
0.0
 20
0.0
 30
0.0
  3
$MODEL_SPACE
  1

  0
ENDBLK
  5
2DDF
  8
0
  0
BLOCK
 67
     1
  8
0
  2
$PAPER_SPACE
 70
     0
 10
0.0
 20
0.0
 30
0.0
  3
$PAPER_SPACE
  1

  0
ENDBLK
  5
2DDB
 67
     1
  8
0
  0
BLOCK
  8
0
  2
GENAXEH
 70
     0
 10
0.0
 20
0.0
 30
0.0
  3
GENAXEH
  1

  0
LINE
  5
2E7C
  8
0
 10
-1.0
 20
0.0
 30
0.0
 11
1.0
 21
0.0
 31
0.0
  0
ENDBLK
  5
2E7D
  8
0
  0
BLOCK
  8
0
  2
_OPEN30
 70
     0
 10
0.0
 20
0.0
 30
0.0
  3
_OPEN30
  1

  0
LINE
  5
2E80
  8
0
 62
     0
 10
-1.0
 20
0.26794919
 30
0.0
 11
0.0
 21
0.0
 31
0.0
  0
LINE
  5
2E81
  8
0
 62
     0
 10
0.0
 20
0.0
 30
0.0
 11
-1.0
 21
-0.26794919
 31
0.0
  0
LINE
  5
2E82
  8
0
 62
     0
 10
0.0
 20
0.0
 30
0.0
 11
-1.0
 21
0.0
 31
0.0
  0
ENDBLK
  5
2E83
  8
0
  0
BLOCK
  8
0
  2
_NONE
 70
     0
 10
0.0
 20
0.0
 30
0.0
  3
_NONE
  1

  0
ENDBLK
  5
2E86
  8
0
  0
BLOCK
  8
0
  2
*U5
 70
     1
 10
0.0
 20
0.0
 30
0.0
  3
*U5
  1

  0
TEXT
  5
2E89
  8
AM_0
 62
     4
 10
730.4090592195422
 20
399.5366601460882
 30
0.0
 40
12.5
  1
\U+2205
 50
90.0
 41
0.8299999999999999
  0
TEXT
  5
2E8A
  8
AM_0
 62
     4
 10
730.4090592195422
 20
409.9116601460882
 30
0.0
 40
12.5
  1
240
 50
90.0
 41
0.8299999999999999
  0
TEXT
  5
2E8B
  8
AM_0
 62
     4
 10
730.4090592195422
 20
439.30749347942128
 30
0.0
 40
10.0
  1
h7
 50
90.0
 41
0.8299999999999999
  0
ENDBLK
  5
2E8C
  8
0
  0
BLOCK
  8
0
  2
*U6
 70
     1
 10
0.0
 20
0.0
 30
0.0
  3
*U6
  1

  0
TEXT
  5
2E8F
  8
AM_0
 62
     4
 10
981.26040018108961
 20
622.28734175855607
 30
0.0
 40
12.5
  1
o
 41
0.8299999999999999
  0
TEXT
  5
2E90
  8
AM_0
 62
     4
 10
993.61159065727975
 20
622.28734175855607
 30
0.0
 40
12.5
  1
 285
 41
0.8299999999999999
  0
ENDBLK
  5
2E91
  8
0
  0
BLOCK
  8
0
  2
_ACMFILLEDHALF
 70
     0
 10
0.0
 20
0.0
 30
0.0
  3
_ACMFILLEDHALF
  1

  0
TRACE
  5
30FD
  8
AM_0
 62
     0
 10
-0.8
 20
0.0
 30
0.0
 11
-1.0
 21
0.166666666
 31
0.0
 12
0.0
 22
0.0
 32
0.0
 13
0.0
 23
0.0
 33
0.0
  0
LINE
  5
30FE
  8
AM_0
 62
     0
 10
-1.0
 20
0.0
 30
0.0
 11
-0.8
 21
0.0
 31
0.0
  0
ENDBLK
  5
30FC
  8
0
  0
ENDSEC
  0
SECTION
  2
ENTITIES
  0
ARC
  5
2E92
  8
AM_0
 10
442.41311387156622
 20
467.8719884794213
 30
0.0
 40
5.0
 50
272.0
 51
0.0
  0
LINE
  5
2E93
  8
AM_0
 10
594.41311387156588
 20
426.33875347942143
 30
0.0
 11
594.41311387156588
 21
546.33873347942142
 31
0.0
  0
LINE
  5
2E94
  8
AM_0
 10
580.41301387156591
 20
426.33875347942143
 30
0.0
 11
580.41301387156591
 21
537.29603347942134
 31
0.0
  0
LINE
  5
2E95
  8
AM_0
 10
571.27856387156589
 20
444.6917234794214
 30
0.0
 11
555.02566387156583
 21
493.82773847942133
 31
0.0
  0
LINE
  5
2E96
  8
AM_0
 10
590.41301387156568
 20
283.83875347942143
 30
0.0
 11
590.41301387156568
 21
568.83873347942142
 31
0.0
  0
LINE
  5
2E97
  8
AM_0
 10
572.41311387156611
 20
447.8256034794212
 30
0.0
 11
572.41311387156611
 21
565.31313347942159
 31
0.0
  0
LINE
  5
2E98
  8
AM_0
 10
474.41311387156611
 20
258.33878347942152
 30
0.0
 11
474.41311387156611
 21
518.33875847942159
 31
0.0
  0
LINE
  5
2E99
  8
AM_0
 10
412.91301387156579
 20
461.83875847942147
 30
0.0
 11
442.58751387156582
 21
462.87501347942151
 31
0.0
  0
LINE
  5
2E9A
  8
AM_0
 10
461.41301387156568
 20
260.72412847942149
 30
0.0
 11
461.41301387156568
 21
515.95344347942125
 31
0.0
  0
LINE
  5
2E9B
  8
AM_0
 10
447.41311387156611
 20
274.21422847942142
 30
0.0
 11
447.41311387156611
 21
516.3387884794214
 31
0.0
  0
LINE
  5
2E9C
  8
AM_0
 10
461.41301387156568
 20
398.31977347942143
 30
0.0
 11
580.41301387156591
 21
398.31977347942143
 31
0.0
  0
LINE
  5
2E9D
  8
AM_0
 10
461.41301387156568
 20
378.35776847942128
 30
0.0
 11
580.41301387156591
 21
378.35776847942128
 31
0.0
  0
LINE
  5
2E9E
  8
AM_0
 10
474.41296387156609
 20
258.3387684794215
 30
0.0
 11
534.14156387156618
 21
256.77471347942151
 31
0.0
  0
LINE
  5
2E9F
  8
AM_0
 10
461.41301387156568
 20
281.07828347942137
 30
0.0
 11
576.23656387156575
 21
281.07828347942137
 31
0.0
  0
LINE
  5
2EA0
  8
AM_0
 10
461.41301387156568
 20
266.6214984794214
 30
0.0
 11
551.19671387156632
 21
266.6214984794214
 31
0.0
  0
LINE
  5
2EA1
  8
ﾁｭｳｼﾝｾﾝ
 10
430.54906387156581
 20
426.33875347942143
 30
0.0
 11
671.20521387156623
 21
426.33875347942143
 31
0.0
  0
LINE
  5
2EA2
  8
AM_0
 10
412.91301387156579
 20
314.83878347942152
 30
0.0
 11
412.91301387156579
 21
461.83878847942151
 31
0.0
  0
LINE
  5
2EA3
  8
AM_0
 10
417.91301387156579
 20
308.58774847942152
 30
0.0
 11
417.91301387156579
 21
326.33875347942143
 31
0.0
  0
ARC
  5
2EA4
  8
AM_0
 10
398.95378987156568
 20
316.26906747942149
 30
0.0
 40
2.0
 50
8.1879840000002062
 51
55.000000000002622
  0
LINE
  5
2EA5
  8
AM_0
 10
400.10094287156562
 20
317.9073714794215
 30
0.0
 11
351.34696187156572
 21
352.04527647942132
 31
0.0
  0
LINE
  5
2EA6
  8
AM_0
 10
420.6515638715656
 20
305.59918847942151
 30
0.0
 11
444.67451387156598
 21
303.49744347942141
 31
0.0
  0
LINE
  5
2EA7
  8
AM_0
 10
402.91301387156568
 20
314.83875347942143
 30
0.0
 11
412.91301387156579
 21
314.83875347942143
 31
0.0
  0
ARC
  5
2EA8
  8
AM_0
 10
402.91301387156568
 20
316.83875347942143
 30
0.0
 40
2.0
 50
188.187984
 51
270.0
  0
ARC
  5
2EA9
  8
AM_0
 10
420.9131138715656
 20
308.58774847942152
 30
0.0
 40
3.0000000500000001
 50
179.99998999999991
 51
265.0
  0
ARC
  5
2EAA
  8
AM_0
 10
414.91311387156588
 20
311.76712847942139
 30
0.0
 40
3.0000000500000001
 50
0.0
 51
88.0
  0
LINE
  5
2EAB
  8
AM_0
 10
412.91301387156579
 20
314.83878347942152
 30
0.0
 11
415.01776387156571
 21
314.76526847942148
 31
0.0
  0
ARC
  5
2EAC
  8
AM_0
 10
458.4131138715656
 20
266.71106847942127
 30
0.0
 40
3.0000000500000001
 50
0.0
 51
79.999998000000019
  0
ARC
  5
2EAD
  8
AM_0
 10
463.4131138715656
 20
260.72412847942149
 30
0.0
 40
2.0000000500000001
 50
179.99998999999991
 51
268.00000999999992
  0
ARC
  5
2EAE
  8
AM_0
 10
450.41301387156579
 20
274.21422847942142
 30
0.0
 40
3.0000000500000001
 50
179.99998999999991
 51
260.0
  0
LINE
  5
2EAF
  8
AM_0
 10
449.89211387156581
 20
271.25980347942152
 30
0.0
 11
458.93401387156621
 21
269.66547347942139
 31
0.0
  0
LINE
  5
2EB0
  8
AM_0
 10
463.3432638715658
 20
258.7253184794215
 30
0.0
 11
474.41311387156611
 21
258.33875347942143
 31
0.0
  0
ARC
  5
2EB1
  8
AM_0
 10
444.41311387156588
 20
300.50888847942139
 30
0.0
 40
3.0000000500000001
 50
0.0
 51
84.999996999999979
  0
LINE
  5
2EB2
  8
AM_0
 10
400.10094287156562
 20
458.77013447942159
 30
0.0
 11
351.34696187156572
 21
424.63222947942143
 31
0.0
  0
LINE
  5
2EB3
  8
ﾁｭｳｼﾝｾﾝ
 10
277.2059900246868
 20
388.33875347942148
 30
0.0
 11
440.46225308397698
 21
388.33875347942148
 31
0.0
  0
LINE
  5
2EB4
  8
AM_0
 10
315.91301387156591
 20
364.33875347942143
 30
0.0
 11
315.91301387156591
 21
412.33875347942148
 31
0.0
  0
LINE
  5
2EB5
  8
AM_0
 10
317.91301387156591
 20
359.07080447942138
 30
0.0
 11
317.91301387156591
 21
417.60670247942141
 31
0.0
  0
LINE
  5
2EB6
  8
AM_0
 10
348.8425628715658
 20
355.79918047942141
 30
0.0
 11
348.8425628715658
 21
420.87832547942128
 31
0.0
  0
LINE
  5
2EB7
  8
AM_0
 10
323.27115987156583
 20
356.2455314794214
 30
0.0
 11
323.27115987156583
 21
420.43197547942123
 31
0.0
  0
LINE
  5
2EB8
  8
AM_0
 10
285.91301387156579
 20
378.83875347942143
 30
0.0
 11
285.91301387156579
 21
397.83875347942143
 31
0.0
  0
LINE
  5
2EB9
  8
AM_0
 10
313.91301387156591
 20
378.33875347942143
 30
0.0
 11
313.91301387156591
 21
398.33875347942148
 31
0.0
  0
LINE
  5
2EBA
  8
AM_0
 10
319.41301387156579
 20
356.47272747942139
 30
0.0
 11
322.59925187156563
 21
354.63315247942148
 31
0.0
  0
LINE
  5
2EBB
  8
AM_0
 10
285.91301387156579
 20
378.83875347942143
 30
0.0
 11
313.91301387156591
 21
378.83875347942143
 31
0.0
  0
ARC
  5
2EBC
  8
AM_0
 10
320.91301387156568
 20
359.07080447942138
 30
0.0
 40
3.0
 50
180.0
 51
239.99999999999949
  0
LINE
  5
2EBD
  8
AM_0
 10
315.91301387156591
 20
364.33875347942143
 30
0.0
 11
317.91301387156591
 21
362.33875347942143
 31
0.0
  0
LINE
  5
2EBE
  8
AM_0
 10
313.91301387156591
 20
378.33875347942143
 30
0.0
 11
315.91301387156591
 21
378.33875347942143
 31
0.0
  0
ARC
  5
2EBF
  8
AM_0
 10
345.61119787156571
 20
343.85375647942141
 30
0.0
 40
10.0
 50
55.000000000002622
 51
89.000000000001506
  0
LINE
  5
2EC0
  8
AM_0
 10
324.04689487156571
 20
354.2316864794214
 30
0.0
 11
345.78572187156573
 21
353.85223347942139
 31
0.0
  0
ARC
  5
2EC1
  8
AM_0
 10
324.09925187156563
 20
357.23122947942142
 30
0.0
 40
3.0
 50
239.99999999999949
 51
269.00000000000148
  0
LINE
  5
2EC2
  8
AM_0
 10
322.59925187156563
 20
422.0443534794212
 30
0.0
 11
319.41301387156579
 21
420.20477847942129
 31
0.0
  0
LINE
  5
2EC3
  8
AM_0
 10
285.91301387156579
 20
400.33875347942148
 30
0.0
 11
307.91301387156591
 21
400.33875347942148
 31
0.0
  0
LINE
  5
2EC4
  8
AM_0
 10
285.91301387156579
 20
397.83875347942143
 30
0.0
 11
313.91301387156591
 21
397.83875347942143
 31
0.0
  0
LINE
  5
2EC5
  8
AM_0
 10
285.91301387156579
 20
397.83875347942143
 30
0.0
 11
285.91301387156579
 21
400.33875347942148
 31
0.0
  0
LINE
  5
2EC6
  8
AM_0
 10
307.91301387156591
 20
397.83875347942143
 30
0.0
 11
307.91301387156591
 21
400.33875347942148
 31
0.0
  0
LINE
  5
2EC7
  8
AM_0
 10
313.91301387156591
 20
398.33875347942148
 30
0.0
 11
315.91301387156591
 21
398.33875347942148
 31
0.0
  0
LINE
  5
2EC8
  8
AM_0
 10
317.91301387156591
 20
414.33875347942131
 30
0.0
 11
315.91301387156591
 21
412.33875347942148
 31
0.0
  0
ARC
  5
2EC9
  8
AM_0
 10
320.91301387156568
 20
417.60670247942141
 30
0.0
 40
3.0
 50
120.0000000000005
 51
180.0
  0
ARC
  5
2ECA
  8
AM_0
 10
345.61119787156571
 20
432.82375047942139
 30
0.0
 40
10.0
 50
270.99999999999841
 51
304.99999999999739
  0
LINE
  5
2ECB
  8
AM_0
 10
345.78572187156573
 20
422.82527347942153
 30
0.0
 11
324.04689487156571
 21
422.44582047942129
 31
0.0
  0
ARC
  5
2ECC
  8
AM_0
 10
324.09925187156563
 20
419.44627747942138
 30
0.0
 40
3.0
 50
90.999999999998451
 51
120.0000000000005
  0
LINE
  5
2ECD
  8
AM_0
 10
400.91301387156579
 20
319.78030247942149
 30
0.0
 11
400.91301387156579
 21
456.89720447942148
 31
0.0
  0
LINE
  5
2ECE
  8
AM_0
 10
412.91301387156579
 20
326.76010847942149
 30
0.0
 11
447.41311387156611
 21
326.76010847942149
 31
0.0
  0
LINE
  5
2ECF
  8
AM_0
 10
412.91301387156579
 20
348.86408347942142
 30
0.0
 11
447.41311387156611
 21
348.86408347942142
 31
0.0
  0
LINE
  5
2ED0
  8
AM_0
 10
402.91301387156568
 20
348.86407747942133
 30
0.0
 11
410.91301387156579
 21
348.86407747942133
 31
0.0
  0
LINE
  5
2ED1
  8
AM_0
 10
402.91301387156568
 20
324.82952847942141
 30
0.0
 11
408.91301387156579
 21
324.82952847942141
 31
0.0
  0
ARC
  5
2ED2
  8
AM_0
 10
402.91301387156568
 20
326.82952847942141
 30
0.0
 40
2.0
 50
180.0
 51
270.0
  0
LINE
  5
2ED3
  8
AM_0
 10
410.91301387156579
 20
326.82952847942141
 30
0.0
 11
410.91301387156579
 21
346.86407747942133
 31
0.0
  0
ARC
  5
2ED4
  8
AM_0
 10
408.91301387156579
 20
326.82952847942141
 30
0.0
 40
2.0
 50
270.0
 51
0.0
  0
ARC
  5
2ED5
  8
AM_0
 10
412.91301387156579
 20
346.86407747942133
 30
0.0
 40
2.0
 50
120.0000000000005
 51
180.0
  0
LINE
  5
2ED6
  8
AM_0
 10
412.91301387156579
 20
449.91739847942142
 30
0.0
 11
447.41311387156611
 21
449.91739847942142
 31
0.0
  0
LINE
  5
2ED7
  8
AM_0
 10
412.91301387156579
 20
427.8134284794213
 30
0.0
 11
447.41311387156611
 21
427.8134284794213
 31
0.0
  0
LINE
  5
2ED8
  8
AM_0
 10
402.91301387156568
 20
451.84797847942127
 30
0.0
 11
408.91301387156579
 21
451.84797847942127
 31
0.0
  0
LINE
  5
2ED9
  8
AM_0
 10
402.91301387156568
 20
461.83875347942148
 30
0.0
 11
412.91301387156579
 21
461.83875347942148
 31
0.0
  0
LINE
  5
2EDA
  8
AM_0
 10
402.91301387156568
 20
427.8134284794213
 30
0.0
 11
410.91301387156579
 21
427.8134284794213
 31
0.0
  0
ARC
  5
2EDB
  8
AM_0
 10
402.91301387156568
 20
449.84797847942139
 30
0.0
 40
2.0
 50
90.0
 51
180.0
  0
ARC
  5
2EDC
  8
AM_0
 10
402.91301387156568
 20
459.83875347942143
 30
0.0
 40
2.0
 50
90.0
 51
171.8120159999998
  0
ARC
  5
2EDD
  8
AM_0
 10
398.95378987156568
 20
460.40843847942131
 30
0.0
 40
2.0
 50
304.99999999999739
 51
351.81201599999991
  0
LINE
  5
2EDE
  8
AM_0
 10
410.91301387156579
 20
449.84797847942139
 30
0.0
 11
410.91301387156579
 21
429.81342847942142
 31
0.0
  0
ARC
  5
2EDF
  8
AM_0
 10
412.91301387156579
 20
429.81342847942142
 30
0.0
 40
2.0
 50
180.0
 51
239.99999999999949
  0
ARC
  5
2EE0
  8
AM_0
 10
408.91301387156579
 20
449.84797847942139
 30
0.0
 40
2.0
 50
0.0
 51
90.0
  0
ARC
  5
2EE1
  8
AM_0
 10
502.41311387156588
 20
315.25565347942143
 30
0.0
 40
9.7211409999999994
 50
90.000003000000007
 51
270.0
  0
LINE
  5
2EE2
  8
AM_0
 10
502.41311387156588
 20
307.38117347942131
 30
0.0
 11
502.41311387156588
 21
323.48114847942151
 31
0.0
  0
LINE
  5
2EE3
  8
AM_0
 10
580.41301387156591
 20
426.33875347942143
 30
0.0
 11
580.41301387156591
 21
315.3814784794215
 31
0.0
  0
LINE
  5
2EE4
  8
AM_0
 10
594.41311387156588
 20
426.33875347942143
 30
0.0
 11
594.41311387156588
 21
306.33875347942143
 31
0.0
  0
LINE
  5
2EE5
  8
AM_0
 10
572.41311387156611
 20
286.3167784794216
 30
0.0
 11
572.41311387156611
 21
334.83191847942152
 31
0.0
  0
LINE
  5
2EE6
  8
AM_0
 10
534.14156387156618
 20
256.77474347942132
 30
0.0
 11
580.41301387156591
 21
283.48957347942149
 31
0.0
  0
LINE
  5
2EE7
  8
AM_0
 10
502.41311387156588
 20
305.53452347942152
 30
0.0
 11
572.41311387156611
 21
305.53452347942152
 31
0.0
  0
ARC
  5
2EE8
  8
AM_0
 10
575.41301387156591
 20
286.3167784794216
 30
0.0
 40
3.0000000500000001
 50
179.99998999999991
 51
271.99998999999991
  0
LINE
  5
2EE9
  8
AM_0
 10
575.51776387156565
 20
283.31864347942138
 30
0.0
 11
590.41311387156611
 21
283.83878347942152
 31
0.0
  0
ARC
  5
2EEA
  8
AM_0
 10
575.41301387156591
 20
315.3814784794215
 30
0.0
 40
5.0
 50
268.0
 51
0.0
  0
LINE
  5
2EEB
  8
AM_0
 10
590.41301387156568
 20
306.33875347942143
 30
0.0
 11
594.41311387156588
 21
306.33875347942143
 31
0.0
  0
LINE
  5
2EEC
  8
AM_0
 10
596.41301387156591
 20
447.33878847942128
 30
0.0
 11
666.41301387156591
 21
447.33878847942128
 31
0.0
  0
LINE
  5
2EED
  8
AM_0
 10
596.41301387156591
 20
405.33875347942143
 30
0.0
 11
666.41301387156591
 21
405.33875347942143
 31
0.0
  0
LINE
  5
2EEE
  8
AM_0
 10
502.41311387156588
 20
324.97678347942139
 30
0.0
 11
572.41311387156611
 21
324.97678347942139
 31
0.0
  0
ARC
  5
2EEF
  8
AM_0
 10
577.41311387156588
 20
334.83191847942152
 30
0.0
 40
5.0
 50
90.000003000000007
 51
180.00001
  0
LINE
  5
2EF0
  8
AM_0
 10
596.41301387156591
 20
403.83875347942148
 30
0.0
 11
596.41301387156591
 21
448.83875347942131
 31
0.0
  0
LINE
  5
2EF1
  8
AM_0
 10
594.41311387156588
 20
403.83875347942148
 30
0.0
 11
596.41301387156591
 21
403.83875347942148
 31
0.0
  0
ARC
  5
2EF2
  8
AM_0
 10
576.02566387156583
 20
446.26191347942148
 30
0.0
 40
5.0
 50
198.30292
 51
270.0
  0
LINE
  5
2EF3
  8
AM_0
 10
576.02566387156583
 20
441.26191347942148
 30
0.0
 11
580.41301387156591
 21
441.26191347942148
 31
0.0
  0
LINE
  5
2EF4
  8
AM_0
 10
594.41311387156588
 20
448.83875347942131
 30
0.0
 11
596.41301387156591
 21
448.83875347942131
 31
0.0
  0
LINE
  5
2EF5
  8
AM_0
 10
610.41301387156591
 20
450.33875347942148
 30
0.0
 11
666.41301387156591
 21
450.33875347942148
 31
0.0
  0
LINE
  5
2EF6
  8
AM_0
 10
610.41301387156591
 20
450.33875347942148
 30
0.0
 11
610.41301387156591
 21
447.33878847942128
 31
0.0
  0
LINE
  5
2EF7
  8
AM_0
 10
666.41301387156591
 20
405.33875347942143
 30
0.0
 11
666.41301387156591
 21
450.33875347942148
 31
0.0
  0
LINE
  5
2EF8
  8
AM_0
 10
461.41301387156568
 20
510.05607347942117
 30
0.0
 11
537.32361387156584
 21
510.05607347942117
 31
0.0
  0
LINE
  5
2EF9
  8
AM_0
 10
461.41301387156568
 20
495.59928347942139
 30
0.0
 11
523.47456387156615
 21
495.59928347942139
 31
0.0
  0
LINE
  5
2EFA
  8
AM_0
 10
474.41301387156579
 20
518.33878847942151
 30
0.0
 11
544.30121387156578
 21
520.16888347942165
 31
0.0
  0
ARC
  5
2EFB
  8
AM_0
 10
458.4131138715656
 20
538.83873347942142
 30
0.0
 40
20.500000499999992
 50
304.61363999999992
 51
235.38634999999999
  0
CIRCLE
  5
2EFC
  8
AM_0
 10
458.4131138715656
 20
538.83873347942142
 30
0.0
 40
12.5
  0
LINE
  5
2EFD
  8
AM_0
 10
458.4131138715656
 20
526.33883347942151
 30
0.0
 11
465.916513871566
 21
524.95348347942127
 31
0.0
  0
ARC
  5
2EFE
  8
AM_0
 10
458.4131138715656
 20
509.96650347942131
 30
0.0
 40
3.0000000500000001
 50
280.0
 51
0.0
  0
ARC
  5
2EFF
  8
AM_0
 10
463.4131138715656
 20
515.95344347942125
 30
0.0
 40
2.0000000500000001
 50
91.999997999999962
 51
180.00001
  0
LINE
  5
2F00
  8
AM_0
 10
450.59596387156569
 20
524.83883347942128
 30
0.0
 11
466.23016387156611
 21
524.83883347942128
 31
0.0
  0
LINE
  5
2F01
  8
AM_0
 10
448.09021387156582
 20
517.83881847942143
 30
0.0
 11
462.74571387156612
 21
517.83881847942143
 31
0.0
  0
ARC
  5
2F02
  8
AM_0
 10
449.41311387156611
 20
516.3387884794214
 30
0.0
 40
2.0000000500000001
 50
131.4096199999999
 51
180.00001
  0
ARC
  5
2F03
  8
AM_0
 10
450.41301387156579
 20
502.46332847942131
 30
0.0
 40
3.0000000500000001
 50
100.0
 51
180.00001
  0
LINE
  5
2F04
  8
AM_0
 10
449.89211387156581
 20
505.4177684794214
 30
0.0
 11
458.93401387156621
 21
507.01209847942141
 31
0.0
  0
ARC
  5
2F05
  8
AM_0
 10
444.49611387156563
 20
518.67524347942151
 30
0.0
 40
4.000000049999997
 50
347.92932999999999
 51
55.386358999999992
  0
LINE
  5
2F06
  8
AM_0
 10
448.41301387156579
 20
517.83878847942151
 30
0.0
 11
450.12526387156578
 21
524.22888347942148
 31
0.0
  0
ARC
  5
2F07
  8
AM_0
 10
451.09126387156613
 20
523.97003347942155
 30
0.0
 40
1.0
 50
100.4607199999999
 51
164.99999
  0
LINE
  5
2F08
  8
AM_0
 10
450.90966387156573
 20
524.95343347942139
 30
0.0
 11
458.4131138715656
 21
526.33878347942141
 31
0.0
  0
ARC
  5
2F09
  8
AM_0
 10
472.3300138715656
 20
518.67524347942151
 30
0.0
 40
4.000000049999997
 50
124.61365000000001
 51
187.86824999999999
  0
LINE
  5
2F0A
  8
AM_0
 10
468.33596387156598
 20
518.12659847942155
 30
0.0
 11
466.7008138715658
 21
524.22893347942136
 31
0.0
  0
LINE
  5
2F0B
  8
AM_0
 10
472.41311387156611
 20
518.26896347942125
 30
0.0
 11
472.41311387156611
 21
518.33878847942151
 31
0.0
  0
LINE
  5
2F0C
  8
AM_0
 10
472.41311387156611
 20
518.33878847942151
 30
0.0
 11
474.41311387156611
 21
518.33878847942151
 31
0.0
  0
ARC
  5
2F0D
  8
AM_0
 10
465.73491387156622
 20
523.97003347942155
 30
0.0
 40
1.0
 50
15.0
 51
79.539281000000003
  0
LINE
  5
2F0E
  8
AM_0
 10
463.3432638715658
 20
517.95222347942115
 30
0.0
 11
474.41301387156579
 21
518.33878847942151
 31
0.0
  0
LINE
  5
2F0F
  8
AM_0
 10
547.70596387156638
 20
521.63158347942135
 30
0.0
 11
570.94861387156584
 21
544.87428347942148
 31
0.0
  0
ARC
  5
2F10
  8
AM_0
 10
544.17036387156611
 20
525.16713347942141
 30
0.0
 40
5.0
 50
271.49999999999977
 51
315.0
  0
LINE
  5
2F11
  8
AM_0
 10
525.91311387156566
 20
493.82767847942131
 30
0.0
 11
553.36611387156574
 21
493.82767847942131
 31
0.0
  0
LINE
  5
2F12
  8
AM_0
 10
570.26571387156559
 20
523.34243347942129
 30
0.0
 11
528.50766387156591
 21
498.36954847942133
 31
0.0
  0
LINE
  5
2F13
  8
AM_0
 10
569.97931387156586
 20
529.58538347942158
 30
0.0
 11
532.92041387156576
 21
507.42280347942148
 31
0.0
  0
ARC
  5
2F14
  8
AM_0
 10
504.61286387156559
 20
520.13388347942134
 30
0.0
 40
30.946884499999999
 50
307.55230999999981
 51
335.5961299999999
  0
ARC
  5
2F15
  8
AM_0
 10
525.91311387156566
 20
498.82767847942148
 30
0.0
 40
5.0
 50
229.76332999999991
 51
270.0
  0
LINE
  5
2F16
  8
AM_0
 10
556.35576387156618
 20
494.8200784794214
 30
0.0
 11
572.41301387156591
 21
506.79889847942133
 31
0.0
  0
ARC
  5
2F17
  8
AM_0
 10
553.36611387156574
 20
498.82767847942148
 30
0.0
 40
5.0
 50
270.0
 51
306.72320999999999
  0
ARC
  5
2F18
  8
AM_0
 10
567.41311387156611
 20
533.87653347942148
 30
0.0
 40
5.0
 50
300.88097999999979
 51
0.0
  0
LINE
  5
2F19
  8
AM_0
 10
547.62081387156604
 20
516.21412347942135
 30
0.0
 11
546.29536387156611
 21
520.22113347942116
 31
0.0
  0
ARC
  5
2F1A
  8
AM_0
 10
575.41301387156591
 20
565.31313347942159
 30
0.0
 40
3.0000000500000001
 50
91.999997999999962
 51
180.00001
  0
ARC
  5
2F1B
  8
AM_0
 10
567.41311387156611
 20
548.40978347942144
 30
0.0
 40
5.0
 50
315.0
 51
0.0
  0
ARC
  5
2F1C
  8
AM_0
 10
575.41301387156591
 20
537.29603347942134
 30
0.0
 40
5.0
 50
0.0
 51
91.999997999999962
  0
LINE
  5
2F1D
  8
AM_0
 10
590.41301387156568
 20
546.33873347942142
 30
0.0
 11
594.41311387156588
 21
546.33873347942142
 31
0.0
  0
LINE
  5
2F1E
  8
AM_0
 10
575.30836387156614
 20
568.31128347942115
 30
0.0
 11
590.41311387156611
 21
568.83873347942142
 31
0.0
  0
CIRCLE
  5
2F1F
  8
AM_0
 10
961.64051475733311
 20
426.33875347942143
 30
0.0
 40
120.0
  0
CIRCLE
  5
2F20
  8
AM_0
 10
961.64051475733311
 20
426.33875347942143
 30
0.0
 40
113.0
  0
ARC
  5
2F21
  8
AM_0
 10
961.64051475733311
 20
426.33875347942143
 30
0.0
 40
61.999994999999998
 50
0.0
 51
36.416317999999983
  0
ARC
  5
2F22
  8
AM_0
 10
961.64051475733311
 20
426.33875347942143
 30
0.0
 40
61.999994999999998
 50
142.11498999999981
 51
180.00001
  0
ARC
  5
2F23
  8
AM_0
 10
961.64051475733311
 20
388.33875347942148
 30
0.0
 40
122.0
 50
22.571981999999991
 51
55.326820000000012
  0
ARC
  5
2F24
  8
AM_0
 10
961.64051475733311
 20
388.33875347942148
 30
0.0
 40
122.0
 50
124.67318
 51
157.42802
  0
CIRCLE
  5
2F25
  8
AM_0
 10
961.64051475733311
 20
426.33875347942143
 30
0.0
 40
41.000000499999992
  0
LINE
  5
2F26
  8
ﾁｭｳｼﾝｾﾝ
 10
961.64051475733311
 20
574.91506724776355
 30
0.0
 11
961.64051475733311
 21
250.3691934794214
 31
0.0
  0
LINE
  5
2F27
  8
AM_0
 10
819.14052475733297
 20
476.33875847942141
 30
0.0
 11
819.14052475733297
 21
426.33875347942143
 31
0.0
  0
LINE
  5
2F28
  8
AM_0
 10
1104.140499757332
 20
476.33875847942141
 30
0.0
 11
1104.140499757332
 21
426.33875347942143
 31
0.0
  0
LINE
  5
2F29
  8
AM_0
 10
856.11801975733295
 20
398.33875347942148
 30
0.0
 11
891.64051475733299
 21
398.33875347942148
 31
0.0
  0
ARC
  5
2F2A
  8
AM_0
 10
896.64051475733334
 20
275.75546847942138
 30
0.0
 40
10.0
 50
195.00001
 51
285.0
  0
LINE
  5
2F2B
  8
AM_0
 10
839.96862475733292
 20
286.34162347942151
 30
0.0
 11
911.6404547573328
 21
283.83878347942152
 31
0.0
  0
LINE
  5
2F2C
  8
ﾁｭｳｼﾝｾﾝ
 10
812.05422996468008
 20
426.33875347942143
 30
0.0
 11
1112.166867134197
 21
426.33875347942143
 31
0.0
  0
ARC
  5
2F2D
  8
ﾁｭｳｼﾝｾﾝ1
 10
961.64051475733311
 20
426.33875347942222
 30
0.0
 40
170.0000050000001
 50
218.7742532361878
 51
231.0146100000002
  0
LINE
  5
2F2E
  8
ﾁｭｳｼﾝｾﾝ1
 10
830.11283857531498
 20
294.81113893978687
 30
0.0
 11
853.50392915652878
 21
318.20220240905712
 31
0.0
  0
LINE
  5
2F2F
  8
AM_0
 10
821.64337475733282
 20
304.66696847942143
 30
0.0
 11
819.14052475733297
 21
376.33878347942141
 31
0.0
  0
CIRCLE
  5
2F30
  8
AM_0
 10
841.43237475733304
 20
306.1306234794215
 30
0.0
 40
9.5
  0
ARC
  5
2F31
  8
AM_0
 10
840.63177475733301
 20
305.33005847942138
 30
0.0
 40
19.000000499999999
 50
182.0
 51
268.0
  0
LINE
  5
2F32
  8
AM_0
 10
886.981244757333
 20
273.1672884794213
 30
0.0
 11
883.86188975733307
 21
284.8088484794215
 31
0.0
  0
LINE
  5
2F33
  8
AM_0
 10
819.14052475733297
 20
376.33875347942143
 30
0.0
 11
819.14052475733297
 21
426.33875347942143
 31
0.0
  0
ARC
  5
2F34
  8
AM_0
 10
856.11801975733295
 20
403.33875347942131
 30
0.0
 40
5.0
 50
192.29603999999981
 51
270.0
  0
LINE
  5
2F35
  8
AM_0
 10
1101.637679757333
 20
304.66696847942143
 30
0.0
 11
1104.140514757333
 21
376.33875347942143
 31
0.0
  0
ARC
  5
2F36
  8
AM_0
 10
961.64051475733311
 20
388.33875347942148
 30
0.0
 40
130.0
 50
246.6310399999999
 51
293.36896000000002
  0
LINE
  5
2F37
  8
AM_0
 10
1011.640514757333
 20
283.83875347942143
 30
0.0
 11
961.64051475733311
 21
283.83875347942143
 31
0.0
  0
LINE
  5
2F38
  8
AM_0
 10
911.64051475733311
 20
283.83875347942143
 30
0.0
 11
961.64051475733311
 21
283.83875347942143
 31
0.0
  0
LINE
  5
2F39
  8
AM_0
 10
899.22867975733311
 20
266.09621347942152
 30
0.0
 11
910.07590975733319
 21
269.00272347942138
 31
0.0
  0
LINE
  5
2F3A
  8
AM_0
 10
1083.312329757332
 20
286.34162347942151
 30
0.0
 11
1011.640484757333
 21
283.83878347942152
 31
0.0
  0
LINE
  5
2F3B
  8
AM_0
 10
1036.2997847573331
 20
273.1672884794213
 30
0.0
 11
1039.419139757332
 21
284.80881347942142
 31
0.0
  0
ARC
  5
2F3C
  8
AM_0
 10
1026.6405147573321
 20
275.75546847942138
 30
0.0
 40
10.0
 50
255.0
 51
345.0
  0
LINE
  5
2F3D
  8
AM_0
 10
1024.0523497573331
 20
266.09619847942139
 30
0.0
 11
1013.205089757332
 21
269.00272347942138
 31
0.0
  0
ARC
  5
2F3E
  8
AM_0
 10
1082.6492447573321
 20
305.33005847942138
 30
0.0
 40
19.000000499999999
 50
272.0
 51
358.0
  0
CIRCLE
  5
2F3F
  8
AM_0
 10
1081.8486447573321
 20
306.1306234794215
 30
0.0
 40
9.5
  0
LINE
  5
2F40
  8
ﾁｭｳｼﾝｾﾝ
 10
899.64051475733299
 20
388.33875347942148
 30
0.0
 11
1023.475781979745
 21
388.33875347942148
 31
0.0
  0
ARC
  5
2F41
  8
AM_0
 10
961.64051475733311
 20
426.33875347942143
 30
0.0
 40
20.9999985
 50
106.60155
 51
73.398452000000006
  0
LINE
  5
2F42
  8
AM_0
 10
899.64051475733299
 20
426.33875347942143
 30
0.0
 11
899.64051475733299
 21
406.33875347942131
 31
0.0
  0
ARC
  5
2F43
  8
AM_0
 10
891.64051475733299
 20
406.33875347942131
 30
0.0
 40
8.0
 50
270.0
 51
0.0
  0
CIRCLE
  5
2F44
  8
AM_5
 10
961.64051475733311
 20
426.33875347942143
 30
0.0
 40
5.0
  0
CIRCLE
  5
2F45
  8
AM_0
 10
961.64051475733311
 20
426.33875347942143
 30
0.0
 40
3.5000000500000001
  0
LINE
  5
2F46
  8
AM_0
 10
967.64051475733322
 20
450.33875347942148
 30
0.0
 11
967.64051475733322
 21
442.33878847942128
 31
0.0
  0
LINE
  5
2F47
  8
AM_0
 10
955.64051475733322
 20
450.33875347942148
 30
0.0
 11
955.64051475733322
 21
442.33878847942128
 31
0.0
  0
LINE
  5
2F48
  8
AM_0
 10
955.64051475733322
 20
442.33878847942128
 30
0.0
 11
967.64051475733322
 21
442.33878847942128
 31
0.0
  0
LINE
  5
2F49
  8
AM_0
 10
955.64051475733322
 20
450.33875347942148
 30
0.0
 11
967.64051475733322
 21
450.33875347942148
 31
0.0
  0
LINE
  5
2F4A
  8
AM_0
 10
1104.140499757332
 20
376.33875347942143
 30
0.0
 11
1104.140499757332
 21
426.33875347942143
 31
0.0
  0
LINE
  5
2F4B
  8
AM_0
 10
1067.163009757332
 20
398.33875347942148
 30
0.0
 11
1031.640514757333
 21
398.33875347942148
 31
0.0
  0
ARC
  5
2F4C
  8
AM_0
 10
1031.640514757333
 20
406.33875347942131
 30
0.0
 40
8.0
 50
179.99998999999991
 51
270.0
  0
LINE
  5
2F4D
  8
AM_0
 10
1023.640484757333
 20
426.33875347942143
 30
0.0
 11
1023.640484757333
 21
406.33875347942131
 31
0.0
  0
ARC
  5
2F4E
  8
AM_0
 10
1067.163009757332
 20
403.33875347942131
 30
0.0
 40
5.0
 50
270.0
 51
347.70395000000002
  0
LINE
  5
2F4F
  8
AM_0
 10
889.13657475733294
 20
505.91376847942132
 30
0.0
 11
918.33054475733275
 21
476.7197984794214
 31
0.0
  0
LINE
  5
2F50
  8
AM_0
 10
882.06549975733265
 20
498.84269347942143
 30
0.0
 11
911.25946975733302
 21
469.64872347942128
 31
0.0
  0
LINE
  5
2F51
  8
AM_0
 10
839.96867475733302
 20
566.33588347942134
 30
0.0
 11
911.64051475733311
 21
568.83873347942142
 31
0.0
  0
LINE
  5
2F52
  8
AM_0
 10
821.64327475733296
 20
548.01058347942148
 30
0.0
 11
819.14047475733264
 21
476.33875847942141
 31
0.0
  0
ARC
  5
2F53
  8
AM_0
 10
878.52997975733297
 20
495.30713847942121
 30
0.0
 40
5.0
 50
45.00000099999999
 51
140.31278
  0
ARC
  5
2F54
  8
AM_0
 10
892.6721297573331
 20
509.44929347942161
 30
0.0
 40
5.0
 50
129.68721999999991
 51
225.0
  0
CIRCLE
  5
2F55
  8
AM_0
 10
841.43237475733304
 20
546.54688347942135
 30
0.0
 40
9.5
  0
ARC
  5
2F56
  8
AM_0
 10
840.63177475733301
 20
547.3474834794215
 30
0.0
 40
19.000000499999999
 50
91.999997999999962
 51
178.0
  0
LINE
  5
2F57
  8
AM_0
 10
1011.640514757333
 20
568.83873347942142
 30
0.0
 11
961.64051475733311
 21
568.83873347942142
 31
0.0
  0
ARC
  5
2F58
  8
AM_0
 10
1001.414929757333
 20
480.25535347942122
 30
0.0
 40
5.0
 50
233.5836799999999
 51
315.0
  0
ARC
  5
2F59
  8
AM_0
 10
961.64051475733311
 20
388.33875347942148
 30
0.0
 40
122.0
 50
60.143059999999998
 51
86.162371999999962
  0
ARC
  5
2F5A
  8
AM_0
 10
970.14051475733299
 20
534.00373347942161
 30
0.0
 40
5.0
 50
85.485943999999975
 51
180.00001
  0
ARC
  5
2F5B
  8
AM_0
 10
953.14051475733299
 20
534.00373347942161
 30
0.0
 40
5.0
 50
0.0
 51
94.514060999999984
  0
ARC
  5
2F5C
  8
AM_0
 10
961.64051475733311
 20
388.33875347942228
 30
0.0
 40
122.0
 50
93.837626000003567
 51
119.8569400000037
  0
ARC
  5
2F5D
  8
AM_0
 10
961.64051475733311
 20
426.33875347942143
 30
0.0
 40
61.999994999999998
 50
53.583680999999999
 51
126.41632
  0
ARC
  5
2F5E
  8
AM_0
 10
907.72397975733281
 20
466.11319847942138
 30
0.0
 40
5.0
 50
323.5836799999999
 51
45.00000099999999
  0
ARC
  5
2F5F
  8
AM_0
 10
921.86609975733302
 20
480.25535347942122
 30
0.0
 40
5.0
 50
225.0
 51
306.41631999999993
  0
LINE
  5
2F60
  8
AM_0
 10
965.14051475733311
 20
534.00373347942161
 30
0.0
 11
965.14051475733311
 21
515.05399847942135
 31
0.0
  0
LINE
  5
2F61
  8
AM_0
 10
958.14051475733334
 20
534.00373347942161
 30
0.0
 11
958.14051475733334
 21
515.05399847942135
 31
0.0
  0
ARC
  5
2F62
  8
AM_0
 10
953.14051475733299
 20
515.05399847942135
 30
0.0
 40
5.0
 50
273.83762999999999
 51
0.0
  0
ARC
  5
2F63
  8
AM_0
 10
970.14051475733299
 20
515.05399847942135
 30
0.0
 40
5.0
 50
179.99998999999991
 51
266.16235999999992
  0
LINE
  5
2F64
  8
AM_0
 10
911.64051475733311
 20
568.83873347942142
 30
0.0
 11
961.64051475733311
 21
568.83873347942142
 31
0.0
  0
ARC
  5
2F65
  8
ﾁｭｳｼﾝｾﾝ1
 10
961.64051475732413
 20
426.33875347941188
 30
0.0
 40
170.00000500001249
 50
38.933611087965851
 51
51.014603999999757
  0
LINE
  5
2F66
  8
AM_0
 10
1101.637679757333
 20
548.01058347942148
 30
0.0
 11
1104.140514757333
 21
476.33875847942141
 31
0.0
  0
LINE
  5
2F67
  8
ﾁｭｳｼﾝｾﾝ1
 10
1092.4064748785779
 20
557.10475477794205
 30
0.0
 11
1069.853084897421
 21
534.55138969805637
 31
0.0
  0
ARC
  5
2F68
  8
AM_0
 10
1044.7510197573331
 20
495.30713847942121
 30
0.0
 40
5.0
 50
39.687224000000001
 51
135.0
  0
LINE
  5
2F69
  8
AM_0
 10
1041.215499757333
 20
498.84272347942141
 30
0.0
 11
1012.021529757333
 21
469.64875347942132
 31
0.0
  0
LINE
  5
2F6A
  8
AM_0
 10
1034.144419757331
 20
505.91376847942132
 30
0.0
 11
1004.950449757333
 21
476.7197984794214
 31
0.0
  0
ARC
  5
2F6B
  8
AM_0
 10
1015.557079757332
 20
466.11319847942138
 30
0.0
 40
5.0
 50
135.0
 51
216.41632000000001
  0
ARC
  5
2F6C
  8
AM_0
 10
1030.608929757333
 20
509.44929347942161
 30
0.0
 40
5.0
 50
315.0
 51
50.312775000000002
  0
LINE
  5
2F6D
  8
AM_0
 10
1083.312329757332
 20
566.33588347942134
 30
0.0
 11
1011.640484757333
 21
568.83873347942142
 31
0.0
  0
ARC
  5
2F6E
  8
AM_0
 10
1082.6492447573321
 20
547.3474834794215
 30
0.0
 40
19.000000499999999
 50
2.0
 51
88.0
  0
CIRCLE
  5
2F6F
  8
AM_0
 10
1081.8486447573321
 20
546.54688347942135
 30
0.0
 40
9.5
  0
LINE
  5
2F70
  8
AM_0
 10
285.91295387156572
 20
821.29815787304165
 30
0.0
 11
313.91295387156572
 21
821.29815787304165
 31
0.0
  0
LINE
  5
2F71
  8
AM_0
 10
285.91295387156572
 20
840.29815787304199
 30
0.0
 11
313.91295387156572
 21
840.29815787304199
 31
0.0
  0
LINE
  5
2F72
  8
AM_0
 10
285.91295387156572
 20
833.79815787304165
 30
0.0
 11
307.91295387156572
 21
833.79815787304165
 31
0.0
  0
LINE
  5
2F73
  8
AM_0
 10
285.91295387156572
 20
827.79815787304165
 30
0.0
 11
307.91295387156572
 21
827.79815787304165
 31
0.0
  0
LINE
  5
2F74
  8
AM_0
 10
285.91295387156572
 20
821.29815787304165
 30
0.0
 11
285.91295387156572
 21
840.29815787304199
 31
0.0
  0
ARC
  5
2F75
  8
AM_0
 10
408.91295387156572
 20
769.28893287304163
 30
0.0
 40
2.0
 50
270.0
 51
0.0
  0
ARC
  5
2F76
  8
AM_0
 10
402.91295387156578
 20
769.28893287304163
 30
0.0
 40
2.0
 50
180.0
 51
270.0
  0
LINE
  5
2F77
  8
AM_0
 10
400.91295387156572
 20
762.23970687304188
 30
0.0
 11
400.91295387156572
 21
899.35660887304164
 31
0.0
  0
LINE
  5
2F78
  8
AM_0
 10
400.10088287156572
 20
760.36677587304155
 30
0.0
 11
351.34690187156571
 21
794.50468087304171
 31
0.0
  0
LINE
  5
2F79
  8
AM_0
 10
402.91295387156578
 20
767.28893287304163
 30
0.0
 11
408.91295387156572
 21
767.28893287304163
 31
0.0
  0
LINE
  5
2F7A
  8
AM_0
 10
402.91295387156578
 20
757.29815787304165
 30
0.0
 11
412.91295387156572
 21
757.29815787304165
 31
0.0
  0
ARC
  5
2F7B
  8
AM_0
 10
402.91295387156578
 20
759.29815787304165
 30
0.0
 40
2.0
 50
188.1879840000033
 51
270.0
  0
ARC
  5
2F7C
  8
AM_0
 10
398.95372987156571
 20
758.7284718730416
 30
0.0
 40
2.0
 50
8.1879840000034303
 51
55.000000000002622
  0
LINE
  5
2F7D
  8
AM_0
 10
317.91295387156572
 20
856.79815787304165
 30
0.0
 11
315.91295387156572
 21
854.7981578730421
 31
0.0
  0
LINE
  5
2F7E
  8
AM_0
 10
323.27109987156581
 20
798.70493587304156
 30
0.0
 11
323.27109987156581
 21
862.89137987304196
 31
0.0
  0
LINE
  5
2F7F
  8
AM_0
 10
348.84250287156573
 20
798.25858487304174
 30
0.0
 11
348.84250287156573
 21
863.33772987304189
 31
0.0
  0
LINE
  5
2F80
  8
AM_0
 10
317.91295387156572
 20
801.5302088730416
 30
0.0
 11
317.91295387156572
 21
860.06610687304169
 31
0.0
  0
LINE
  5
2F81
  8
AM_0
 10
315.91295387156572
 20
806.79815787304165
 30
0.0
 11
315.91295387156572
 21
854.7981578730421
 31
0.0
  0
LINE
  5
2F82
  8
AM_0
 10
324.04683487156581
 20
796.69109087304173
 30
0.0
 11
345.78566187156571
 21
796.31163787304172
 31
0.0
  0
LINE
  5
2F83
  8
AM_0
 10
319.41295387156572
 20
798.93213187304173
 30
0.0
 11
322.59919187156572
 21
797.0925568730421
 31
0.0
  0
ARC
  5
2F84
  8
AM_0
 10
320.91295387156572
 20
801.5302088730416
 30
0.0
 40
3.0
 50
180.0
 51
239.99999999999949
  0
LINE
  5
2F85
  8
AM_0
 10
315.91295387156572
 20
806.79815787304165
 30
0.0
 11
317.91295387156572
 21
804.79815787304165
 31
0.0
  0
ARC
  5
2F86
  8
AM_0
 10
324.09919187156572
 20
799.69063387304163
 30
0.0
 40
3.0
 50
239.99999999999949
 51
269.00000000000148
  0
ARC
  5
2F87
  8
AM_0
 10
345.61113787156569
 20
786.31316087304174
 30
0.0
 40
10.0
 50
55.000000000002622
 51
89.000000000001506
  0
LINE
  5
2F88
  8
AM_0
 10
307.91295387156572
 20
827.79815787304165
 30
0.0
 11
307.91295387156572
 21
833.79815787304165
 31
0.0
  0
ARC
  5
2F89
  8
AM_0
 10
307.91295387156572
 20
830.79815787304165
 30
0.0
 40
3.0
 50
270.0
 51
90.0
  0
LINE
  5
2F8A
  8
AM_0
 10
313.91295387156572
 20
820.79815787304165
 30
0.0
 11
313.91295387156572
 21
840.79815787304153
 31
0.0
  0
LINE
  5
2F8B
  8
AM_0
 10
313.91295387156572
 20
820.79815787304165
 30
0.0
 11
315.91295387156572
 21
820.79815787304165
 31
0.0
  0
LINE
  5
2F8C
  8
AM_0
 10
313.91295387156572
 20
840.79815787304153
 30
0.0
 11
315.91295387156572
 21
840.79815787304153
 31
0.0
  0
LINE
  5
2F8D
  8
AM_0
 10
402.91295387156578
 20
791.3234818730416
 30
0.0
 11
410.91295387156578
 21
791.3234818730416
 31
0.0
  0
ARC
  5
2F8E
  8
AM_0
 10
412.91295387156572
 20
789.32348187304171
 30
0.0
 40
2.0
 50
120.0000000000005
 51
180.0
  0
LINE
  5
2F8F
  8
AM_0
 10
410.91295387156578
 20
769.28893287304163
 30
0.0
 11
410.91295387156578
 21
789.32348187304171
 31
0.0
  0
LINE
  5
2F90
  8
AM_0
 10
400.10088287156572
 20
901.22953887304163
 30
0.0
 11
351.34690187156571
 21
867.09163387304181
 31
0.0
  0
LINE
  5
2F91
  8
AM_0
 10
345.78566187156571
 20
865.28467787304191
 30
0.0
 11
324.04683487156581
 21
864.90522487304156
 31
0.0
  0
LINE
  5
2F92
  8
AM_0
 10
322.59919187156572
 20
864.50375787304233
 30
0.0
 11
319.41295387156572
 21
862.66418287304157
 31
0.0
  0
ARC
  5
2F93
  8
AM_0
 10
320.91295387156572
 20
860.06610687304169
 30
0.0
 40
3.0
 50
120.0000000000005
 51
180.0
  0
ARC
  5
2F94
  8
AM_0
 10
324.09919187156572
 20
861.905681873042
 30
0.0
 40
3.0
 50
90.999999999998494
 51
120.0000000000005
  0
ARC
  5
2F95
  8
AM_0
 10
345.61113787156569
 20
875.28315487304189
 30
0.0
 40
10.0
 50
270.99999999999841
 51
304.99999999999739
  0
LINE
  5
2F96
  8
AM_0
 10
402.91295387156578
 20
870.27283287304169
 30
0.0
 11
410.91295387156578
 21
870.27283287304169
 31
0.0
  0
LINE
  5
2F97
  8
AM_0
 10
402.91295387156578
 20
894.30738287304189
 30
0.0
 11
408.91295387156572
 21
894.30738287304189
 31
0.0
  0
ARC
  5
2F98
  8
AM_0
 10
402.91295387156578
 20
892.30738287304189
 30
0.0
 40
2.0
 50
90.0
 51
180.0
  0
LINE
  5
2F99
  8
AM_0
 10
410.91295387156578
 20
892.30738287304189
 30
0.0
 11
410.91295387156578
 21
872.27283287304169
 31
0.0
  0
ARC
  5
2F9A
  8
AM_0
 10
412.91295387156572
 20
872.27283287304169
 30
0.0
 40
2.0
 50
180.0
 51
239.99999999999949
  0
ARC
  5
2F9B
  8
AM_0
 10
408.91295387156572
 20
892.30738287304189
 30
0.0
 40
2.0
 50
0.0
 51
90.0
  0
LINE
  5
2F9C
  8
AM_0
 10
402.91295387156578
 20
904.29815787304165
 30
0.0
 11
412.91295387156572
 21
904.29815787304165
 31
0.0
  0
ARC
  5
2F9D
  8
AM_0
 10
398.95372987156571
 20
902.8678428730417
 30
0.0
 40
2.0
 50
304.99999999999739
 51
351.81201599999628
  0
ARC
  5
2F9E
  8
AM_0
 10
402.91295387156578
 20
902.29815787304165
 30
0.0
 40
2.0
 50
90.0
 51
171.8120159999965
  0
LINE
  5
2FA0
  8
ﾁｭｳｼﾝｾﾝ1
 10
1092.4065160558539
 20
295.572793358176
 30
0.0
 11
1069.853150975968
 21
318.12618333933221
 31
0.0
  0
ARC
  5
2FA1
  8
ﾁｭｳｼﾝｾﾝ1
 10
961.64051475732333
 20
426.33875347943012
 30
0.0
 40
170.00000500001249
 50
308.9336110879658
 51
321.01460399999968
  0
LINE
  5
2FA2
  8
ﾁｭｳｼﾝｾﾝ1
 10
830.11290021769878
 20
557.86642966143961
 30
0.0
 11
853.50396368696897
 21
534.47533908022558
 31
0.0
  0
ARC
  5
2FA3
  8
ﾁｭｳｼﾝｾﾝ1
 10
961.64051475733424
 20
426.33875347942109
 30
0.0
 40
170.0000050000001
 50
128.7742532361878
 51
141.0146100000002
  0
LINE
  5
2FA4
  8
ﾁｭｳｼﾝｾﾝ
 10
277.2059900246868
 20
830.79815787304165
 30
0.0
 11
677.92699387156597
 21
830.79815787304165
 31
0.0
  0
POLYLINE
  5
2FA5
  8
AM_0
 66
     1
 10
0.0
 20
0.0
 30
0.0
  0
VERTEX
  5
2FA6
  8
AM_0
 10
551.27726387156576
 20
882.36267787304189
 30
0.0
 42
0.030646372
  0
VERTEX
  5
2FA7
  8
AM_0
 10
546.86772387156554
 20
848.079267873042
 30
0.0
 42
0.064801293
  0
VERTEX
  5
2FA8
  8
AM_0
 10
551.27726387156576
 20
779.23361787304157
 30
0.0
  0
SEQEND
  5
2FA9
  8
AM_0
  0
LINE
  5
2FAA
  8
AM_0
 10
596.41301387156591
 20
808.29815787304165
 30
0.0
 11
596.41301387156591
 21
853.29815787304153
 31
0.0
  0
LINE
  5
2FAB
  8
AM_0
 10
666.41301387156591
 20
809.79815787304165
 30
0.0
 11
666.41301387156591
 21
851.79815787304165
 31
0.0
  0
LINE
  5
2FAC
  8
AM_0
 10
572.41301387156591
 20
691.80719787304167
 30
0.0
 11
572.41301387156591
 21
969.77252787304155
 31
0.0
  0
LINE
  5
2FAD
  8
AM_0
 10
590.41301387156568
 20
688.29815787304187
 30
0.0
 11
590.41301387156568
 21
973.29815787304165
 31
0.0
  0
LINE
  5
2FAE
  8
AM_0
 10
580.41301387156591
 20
719.84088787304165
 30
0.0
 11
580.41301387156591
 21
941.75543787304161
 31
0.0
  0
LINE
  5
2FAF
  8
AM_0
 10
594.41301387156568
 20
710.79815787304165
 30
0.0
 11
594.41301387156568
 21
950.79815787304165
 31
0.0
  0
LINE
  5
2FB0
  8
AM_0
 10
412.91295387156572
 20
757.29815787304165
 30
0.0
 11
412.91295387156572
 21
904.29821787304195
 31
0.0
  0
LINE
  5
2FB1
  8
AM_0
 10
474.41301387156562
 20
691.06018787304174
 30
0.0
 11
474.41301387156562
 21
826.79815787304165
 31
0.0
  0
LINE
  5
2FB2
  8
AM_0
 10
461.41295387156578
 20
694.58838787304171
 30
0.0
 11
461.41295387156578
 21
821.25872787304195
 31
0.0
  0
LINE
  5
2FB3
  8
AM_0
 10
447.41301387156579
 20
716.69018787304174
 30
0.0
 11
447.41301387156579
 21
826.79815787304165
 31
0.0
  0
LINE
  5
2FB4
  8
AM_0
 10
530.10051387156591
 20
757.89605787304174
 30
0.0
 11
572.41301387156591
 21
757.89605787304174
 31
0.0
  0
LINE
  5
2FB5
  8
AM_0
 10
474.41301387156562
 20
701.66778787304156
 30
0.0
 11
572.41301387156591
 21
698.24554787304157
 31
0.0
  0
LINE
  5
2FB6
  8
AM_0
 10
474.41301387156562
 20
691.06018787304174
 30
0.0
 11
575.34661387156575
 21
688.82452787304157
 31
0.0
  0
LINE
  5
2FB7
  8
AM_0
 10
570.26561387156573
 20
733.79449787304156
 30
0.0
 11
537.76287387156583
 21
753.23236787304211
 31
0.0
  0
LINE
  5
2FB8
  8
AM_0
 10
569.97930387156566
 20
727.55157787304188
 30
0.0
 11
528.56072387156576
 21
752.32135787304173
 31
0.0
  0
LINE
  5
2FB9
  8
AM_0
 10
474.41301387156562
 20
779.23358787304164
 30
0.0
 11
572.41301387156591
 21
779.23358787304164
 31
0.0
  0
LINE
  5
2FBA
  8
AM_0
 10
463.34319387156597
 20
702.05438787304172
 30
0.0
 11
474.41301387156562
 21
701.66778787304156
 31
0.0
  0
LINE
  5
2FBB
  8
AM_0
 10
461.41295387156578
 20
779.23358787304164
 30
0.0
 11
474.41301387156562
 21
779.23358787304164
 31
0.0
  0
LINE
  5
2FBC
  8
AM_0
 10
461.41295387156578
 20
753.23236787304211
 30
0.0
 11
474.41301387156562
 21
753.23236787304211
 31
0.0
  0
LINE
  5
2FBD
  8
AM_0
 10
464.24303387156601
 20
691.59320787304171
 30
0.0
 11
474.41301387156562
 21
691.06024787304159
 31
0.0
  0
ARC
  5
2FBE
  8
AM_0
 10
442.41301387156579
 20
751.26495787304168
 30
0.0
 40
5.0
 50
0.0
 51
87.999999999996248
  0
LINE
  5
2FBF
  8
AM_0
 10
449.89202387156581
 20
713.71911787304157
 30
0.0
 11
458.93395387156568
 21
712.12481787304171
 31
0.0
  0
ARC
  5
2FC0
  8
AM_0
 10
450.41301387156579
 20
716.6735878730417
 30
0.0
 40
3.0
 50
179.9999899999988
 51
260.00000000000119
  0
ARC
  5
2FC1
  8
AM_0
 10
464.41295387156578
 20
694.58838787304171
 30
0.0
 40
3.0
 50
180.00001000000091
 51
266.99999000000008
  0
ARC
  5
2FC2
  8
AM_0
 10
463.41301387156579
 20
704.05316787304173
 30
0.0
 40
2.0
 50
179.9999899999988
 51
268.00000999999861
  0
ARC
  5
2FC3
  8
AM_0
 10
458.41301387156562
 20
709.1704778730417
 30
0.0
 40
3.0
 50
0.0
 51
79.999998000001099
  0
LINE
  5
2FC4
  8
AM_0
 10
412.91295387156572
 20
757.29815787304165
 30
0.0
 11
442.58751387156582
 21
756.26190787304188
 31
0.0
  0
LINE
  5
2FC5
  8
AM_0
 10
412.91301387156562
 20
791.3234878730417
 30
0.0
 11
447.41301387156579
 21
791.3234878730417
 31
0.0
  0
LINE
  5
2FC6
  8
AM_0
 10
412.91301387156562
 20
769.21954787304173
 30
0.0
 11
447.41301387156579
 21
769.21954787304173
 31
0.0
  0
ARC
  5
2FC7
  8
AM_0
 10
530.10051387156591
 20
754.89605787304174
 30
0.0
 40
3.0
 50
90.00000299999769
 51
239.11901999999981
  0
ARC
  5
2FC8
  8
AM_0
 10
526.20879387156583
 20
750.23236787304188
 30
0.0
 40
3.0
 50
59.11902300000196
 51
90.00000299999769
  0
LINE
  5
2FC9
  8
AM_0
 10
474.41301387156562
 20
753.23236787304211
 30
0.0
 11
526.20879387156583
 21
753.23236787304211
 31
0.0
  0
ARC
  5
2FCA
  8
AM_0
 10
575.41301387156591
 20
691.82379787304171
 30
0.0
 40
3.0
 50
179.9999899999988
 51
268.00000999999861
  0
LINE
  5
2FCB
  8
AM_0
 10
596.41301387156591
 20
809.79815787304165
 30
0.0
 11
666.41301387156591
 21
809.79815787304165
 31
0.0
  0
LINE
  5
2FCC
  8
AM_0
 10
562.281673871566
 20
757.89605787304174
 30
0.0
 11
572.41301387156591
 21
750.33801787304174
 31
0.0
  0
LINE
  5
2FCD
  8
AM_0
 10
575.30828387156566
 20
688.82562787304198
 30
0.0
 11
590.41301387156568
 21
688.29815787304187
 31
0.0
  0
POLYLINE
  5
2FCE
  8
AM_0
 66
     1
 10
0.0
 20
0.0
 30
0.0
  0
VERTEX
  5
2FCF
  8
AM_0
 10
564.75412387156598
 20
730.67617787304164
 30
0.0
 42
0.0052467582
  0
VERTEX
  5
2FD0
  8
AM_0
 10
567.17434387156595
 20
724.2663478730417
 30
0.0
 42
0.0052066449
  0
VERTEX
  5
2FD1
  8
AM_0
 10
569.72801387156574
 20
717.908517873042
 30
0.0
 42
0.0051740769
  0
VERTEX
  5
2FD2
  8
AM_0
 10
572.41301387156591
 20
711.60528787304168
 30
0.0
  0
SEQEND
  5
2FD3
  8
AM_0
  0
ARC
  5
2FD4
  8
AM_0
 10
575.41301387156591
 20
719.84088787304165
 30
0.0
 40
5.0
 50
267.99999999999631
 51
0.0
  0
ARC
  5
2FD5
  8
AM_0
 10
567.41301387156591
 20
723.26037787304165
 30
0.0
 40
5.0
 50
0.0
 51
59.11901699999779
  0
LINE
  5
2FD6
  8
AM_0
 10
590.41301387156568
 20
710.79815787304165
 30
0.0
 11
594.41301387156568
 21
710.79815787304165
 31
0.0
  0
ARC
  5
2FD7
  8
AM_0
 10
577.41301387156579
 20
764.66375787304173
 30
0.0
 40
5.0
 50
90.00000299999769
 51
180.00001000000091
  0
LINE
  5
2FD8
  8
AM_0
 10
594.41301387156568
 20
808.29815787304165
 30
0.0
 11
596.41301387156591
 21
808.29815787304165
 31
0.0
  0
LINE
  5
2FD9
  8
AM_0
 10
530.10051387156591
 20
903.70025787304212
 30
0.0
 11
572.41301387156591
 21
903.70025787304212
 31
0.0
  0
LINE
  5
2FDA
  8
AM_0
 10
474.41301387156562
 20
970.53613787304153
 30
0.0
 11
575.3465538715659
 21
972.77185787304188
 31
0.0
  0
LINE
  5
2FDB
  8
AM_0
 10
474.41301387156562
 20
959.92852787304184
 30
0.0
 11
572.41308387156573
 21
963.35070787304153
 31
0.0
  0
LINE
  5
2FDC
  8
AM_0
 10
474.41301387156562
 20
882.36273787304174
 30
0.0
 11
572.41301387156591
 21
882.36273787304174
 31
0.0
  0
LINE
  5
2FDD
  8
AM_0
 10
569.97930387156566
 20
934.04480787304158
 30
0.0
 11
528.56072387156576
 21
909.27496787304199
 31
0.0
  0
LINE
  5
2FDE
  8
AM_0
 10
570.26561387156573
 20
927.80175787304165
 30
0.0
 11
537.76287387156583
 21
908.36395787304184
 31
0.0
  0
ARC
  5
2FDF
  8
AM_0
 10
450.41301387156579
 20
944.92273787304157
 30
0.0
 40
3.0
 50
99.999999999998593
 51
180.00001000000091
  0
LINE
  5
2FE0
  8
AM_0
 10
461.41295387156578
 20
840.33758787304157
 30
0.0
 11
461.41295387156578
 21
967.00793787304167
 31
0.0
  0
LINE
  5
2FE1
  8
AM_0
 10
474.41301387156562
 20
834.79815787304165
 30
0.0
 11
474.41301387156562
 21
970.53613787304153
 31
0.0
  0
ARC
  5
2FE2
  8
AM_0
 10
474.91308387156562
 20
830.79815787304165
 30
0.0
 40
3.9999962
 50
270.0
 51
90.00000299999769
  0
LINE
  5
2FE3
  8
AM_0
 10
441.91308387156568
 20
834.79815787304165
 30
0.0
 11
474.91308387156562
 21
834.79815787304165
 31
0.0
  0
LINE
  5
2FE4
  8
AM_0
 10
441.91308387156568
 20
826.79815787304165
 30
0.0
 11
474.91308387156562
 21
826.79815787304165
 31
0.0
  0
LINE
  5
2FE5
  8
AM_0
 10
461.41295387156578
 20
908.36395787304184
 30
0.0
 11
474.41301387156562
 21
908.36395787304184
 31
0.0
  0
LINE
  5
2FE6
  8
AM_0
 10
461.41295387156578
 20
882.36273787304174
 30
0.0
 11
474.41301387156562
 21
882.36273787304174
 31
0.0
  0
LINE
  5
2FE7
  8
AM_0
 10
447.41301387156579
 20
834.79815787304165
 30
0.0
 11
447.41301387156579
 21
944.93933787304184
 31
0.0
  0
LINE
  5
2FE8
  8
AM_0
 10
412.91301387156562
 20
870.27282787304159
 30
0.0
 11
447.41301387156579
 21
870.27282787304159
 31
0.0
  0
ARC
  5
2FE9
  8
AM_0
 10
458.41308387156568
 20
830.79815787304165
 30
0.0
 40
10.0
 50
203.5782699999985
 51
336.4217200000013
  0
ARC
  5
2FEA
  8
AM_0
 10
458.41308387156568
 20
830.79815787304165
 30
0.0
 40
10.0
 50
23.57803699999776
 51
156.42196000000081
  0
ARC
  5
2FEB
  8
AM_0
 10
441.91308387156568
 20
830.79815787304165
 30
0.0
 40
3.9999962
 50
90.00000299999769
 51
270.0
  0
LINE
  5
2FEC
  8
AM_0
 10
412.91301387156562
 20
904.29821787304195
 30
0.0
 11
442.58745387156591
 21
905.33447787304169
 31
0.0
  0
LINE
  5
2FED
  8
AM_0
 10
412.91301387156562
 20
892.37677787304165
 30
0.0
 11
447.41301387156579
 21
892.37677787304165
 31
0.0
  0
ARC
  5
2FEE
  8
AM_0
 10
442.41301387156579
 20
910.3313678730417
 30
0.0
 40
5.0
 50
272.00000000000369
 51
0.0
  0
LINE
  5
2FEF
  8
AM_0
 10
474.41301387156562
 20
908.36395787304184
 30
0.0
 11
526.20879387156583
 21
908.36395787304184
 31
0.0
  0
ARC
  5
2FF0
  8
AM_0
 10
530.10051387156591
 20
906.70025787304155
 30
0.0
 40
3.0
 50
120.8809700000043
 51
270.0
  0
ARC
  5
2FF1
  8
AM_0
 10
526.20879387156583
 20
911.36395787304195
 30
0.0
 40
3.0
 50
270.0
 51
300.88098000000002
  0
LINE
  5
2FF2
  8
AM_0
 10
464.2559738715658
 20
970.00384787304165
 30
0.0
 11
474.41301387156562
 21
970.53613787304153
 31
0.0
  0
LINE
  5
2FF3
  8
AM_0
 10
463.34325387156559
 20
959.541937873042
 30
0.0
 11
474.41301387156562
 21
959.92852787304184
 31
0.0
  0
LINE
  5
2FF4
  8
AM_0
 10
449.89214387156602
 20
947.87719787304195
 30
0.0
 11
458.93395387156568
 21
949.47155787304189
 31
0.0
  0
ARC
  5
2FF5
  8
AM_0
 10
458.41301387156562
 20
952.42590787304164
 30
0.0
 40
3.0
 50
280.00001000000123
 51
0.0
  0
ARC
  5
2FF6
  8
AM_0
 10
463.41301387156579
 20
957.54315787304165
 30
0.0
 40
2.0
 50
91.999998000000545
 51
180.00001000000091
  0
ARC
  5
2FF7
  8
AM_0
 10
464.41295387156578
 20
967.00793787304167
 30
0.0
 40
3.0
 50
92.999999000001679
 51
180.00001000000091
  0
POLYLINE
  5
2FF8
  8
AM_0
 66
     1
 10
0.0
 20
0.0
 30
0.0
  0
VERTEX
  5
2FF9
  8
AM_0
 10
572.41301387156591
 20
949.99102787304184
 30
0.0
  0
VERTEX
  5
2FFA
  8
AM_0
 10
564.75419387156603
 20
930.92033787304172
 30
0.0
 42
-1.0
  0
SEQEND
  5
2FFB
  8
AM_0
  0
ARC
  5
2FFC
  8
AM_0
 10
575.41301387156591
 20
941.75543787304161
 30
0.0
 40
5.0
 50
0.0
 51
91.999998000000545
  0
LINE
  5
2FFD
  8
AM_0
 10
596.41301387156591
 20
851.79815787304165
 30
0.0
 11
666.41301387156591
 21
851.79815787304165
 31
0.0
  0
LINE
  5
2FFE
  8
AM_0
 10
610.41301387156591
 20
836.79815787304165
 30
0.0
 11
666.41301387156591
 21
836.79815787304165
 31
0.0
  0
LINE
  5
2FFF
  8
AM_0
 10
610.41301387156591
 20
824.79815787304153
 30
0.0
 11
666.41301387156591
 21
824.79815787304153
 31
0.0
  0
ARC
  5
3000
  8
AM_0
 10
610.41301387156591
 20
830.79815787304165
 30
0.0
 40
6.0000037999999991
 50
90.00000299999769
 51
270.0
  0
LINE
  5
3001
  8
AM_0
 10
610.41301387156591
 20
836.79815787304165
 30
0.0
 11
610.41301387156591
 21
824.79815787304153
 31
0.0
  0
LINE
  5
3002
  8
AM_0
 10
594.41301387156568
 20
853.29815787304153
 30
0.0
 11
596.41301387156591
 21
853.29815787304153
 31
0.0
  0
LINE
  5
3003
  8
AM_0
 10
562.281673871566
 20
903.70025787304212
 30
0.0
 11
572.41301387156591
 21
911.25830787304164
 31
0.0
  0
ARC
  5
3004
  8
AM_0
 10
577.41301387156579
 20
896.93255787304167
 30
0.0
 40
5.0
 50
179.9999899999988
 51
270.0
  0
ARC
  5
3005
  8
AM_0
 10
567.41301387156591
 20
938.33593787304164
 30
0.0
 40
5.0
 50
300.88098000000002
 51
0.0
  0
LINE
  5
3006
  8
AM_0
 10
575.30822387156616
 20
972.7707578730417
 30
0.0
 11
590.41301387156568
 21
973.29821787304161
 31
0.0
  0
ARC
  5
3007
  8
AM_0
 10
575.41301387156591
 20
969.77252787304155
 30
0.0
 40
3.0
 50
91.999998000000545
 51
180.00001000000091
  0
LINE
  5
3008
  8
AM_0
 10
590.41301387156568
 20
950.79815787304165
 30
0.0
 11
594.41301387156568
 21
950.79815787304165
 31
0.0
  0
TEXT
  5
311D
  8
AM_0
 10
769.31597735100195
 20
870.95161788856387
 30
0.0
 40
20.0
  1
VX08-120GF~VX08-200GF
  0
ENDSEC
  0
EOF
