  0
SECTION
  2
HEADER
  9
$ACADVER
  1
AC1009
  9
$INSBASE
 10
0.0
 20
0.0
 30
0.0
  9
$EXTMIN
 10
198.34602710249101
 20
207.52940386056841
 30
-0.0000000000112498
  9
$EXTMAX
 10
1284.4956238788959
 20
1041.9890934975269
 30
0.0000000000002956
  9
$LIMMIN
 10
0.0
 20
0.0
  9
$LIMMAX
 10
1422.5
 20
925.0
  9
$ORTHOMODE
 70
     0
  9
$REGENMODE
 70
     1
  9
$FILLMODE
 70
     1
  9
$QTEXTMODE
 70
     0
  9
$MIRRTEXT
 70
     1
  9
$DRAGMODE
 70
     2
  9
$LTSCALE
 40
5.0
  9
$OSMODE
 70
   551
  9
$ATTMODE
 70
     1
  9
$TEXTSIZE
 40
2.5
  9
$TRACEWID
 40
1.0
  9
$TEXTSTYLE
  7
STANDARD
  9
$CLAYER
  8
AM_0
  9
$CELTYPE
  6
BYLAYER
  9
$CECOLOR
 62
   256
  9
$DIMSCALE
 40
1.0
  9
$DIMASZ
 40
2.5
  9
$DIMEXO
 40
1.0
  9
$DIMDLI
 40
8.0
  9
$DIMRND
 40
0.0
  9
$DIMDLE
 40
0.0
  9
$DIMEXE
 40
0.6
  9
$DIMTP
 40
0.1
  9
$DIMTM
 40
0.1
  9
$DIMTXT
 40
2.5
  9
$DIMCEN
 40
0.0
  9
$DIMTSZ
 40
0.0
  9
$DIMTOL
 70
     0
  9
$DIMLIM
 70
     0
  9
$DIMTIH
 70
     0
  9
$DIMTOH
 70
     0
  9
$DIMSE1
 70
     0
  9
$DIMSE2
 70
     0
  9
$DIMTAD
 70
     1
  9
$DIMZIN
 70
     8
  9
$DIMBLK
  1

  9
$DIMASO
 70
     1
  9
$DIMSHO
 70
     1
  9
$DIMPOST
  1

  9
$DIMAPOST
  1
"
  9
$DIMALT
 70
     0
  9
$DIMALTD
 70
     2
  9
$DIMALTF
 40
0.0393701
  9
$DIMLFAC
 40
1.0
  9
$DIMTOFL
 70
     1
  9
$DIMTVP
 40
0.0
  9
$DIMTIX
 70
     0
  9
$DIMSOXD
 70
     0
  9
$DIMSAH
 70
     0
  9
$DIMBLK1
  1

  9
$DIMBLK2
  1

  9
$DIMSTYLE
  2
AM_ISO
  9
$DIMCLRD
 70
   256
  9
$DIMCLRE
 70
   256
  9
$DIMCLRT
 70
     4
  9
$DIMTFAC
 40
0.71
  9
$DIMGAP
 40
0.8
  9
$LUNITS
 70
     2
  9
$LUPREC
 70
     2
  9
$SKETCHINC
 40
1.0
  9
$FILLETRAD
 40
25.0
  9
$AUNITS
 70
     0
  9
$AUPREC
 70
     0
  9
$MENU
  1
.
  9
$ELEVATION
 40
0.0
  9
$PELEVATION
 40
0.0
  9
$THICKNESS
 40
0.0
  9
$LIMCHECK
 70
     0
  9
$BLIPMODE
 70
     0
  9
$CHAMFERA
 40
10.0
  9
$CHAMFERB
 40
5.0
  9
$SKPOLY
 70
     0
  9
$TDCREATE
 40
2452066.4886901388
  9
$TDUPDATE
 40
2458541.4446766442
  9
$TDINDWG
 40
0.090361412
  9
$TDUSRTIMER
 40
0.0903612269
  9
$USRTIMER
 70
     1
  9
$ANGBASE
 50
0.0
  9
$ANGDIR
 70
     0
  9
$PDMODE
 70
     0
  9
$PDSIZE
 40
0.0
  9
$PLINEWID
 40
0.0
  9
$COORDS
 70
     1
  9
$SPLFRAME
 70
     0
  9
$SPLINETYPE
 70
     6
  9
$SPLINESEGS
 70
     8
  9
$ATTDIA
 70
     1
  9
$ATTREQ
 70
     1
  9
$HANDLING
 70
     1
  9
$HANDSEED
  5
2E36
  9
$SURFTAB1
 70
     6
  9
$SURFTAB2
 70
     6
  9
$SURFTYPE
 70
     6
  9
$SURFU
 70
     6
  9
$SURFV
 70
     6
  9
$UCSNAME
  2

  9
$UCSORG
 10
0.0
 20
0.0
 30
0.0
  9
$UCSXDIR
 10
1.0
 20
0.0
 30
0.0
  9
$UCSYDIR
 10
0.0
 20
1.0
 30
0.0
  9
$PUCSNAME
  2

  9
$PUCSORG
 10
0.0
 20
0.0
 30
0.0
  9
$PUCSXDIR
 10
1.0
 20
0.0
 30
0.0
  9
$PUCSYDIR
 10
0.0
 20
1.0
 30
0.0
  9
$USERI1
 70
     0
  9
$USERI2
 70
     0
  9
$USERI3
 70
     0
  9
$USERI4
 70
     0
  9
$USERI5
 70
     0
  9
$USERR1
 40
0.0
  9
$USERR2
 40
0.0
  9
$USERR3
 40
0.0
  9
$USERR4
 40
0.0
  9
$USERR5
 40
0.0
  9
$WORLDVIEW
 70
     1
  9
$SHADEDGE
 70
     3
  9
$SHADEDIF
 70
    70
  9
$TILEMODE
 70
     1
  9
$MAXACTVP
 70
    64
  9
$PLIMCHECK
 70
     0
  9
$PEXTMIN
 10
1.0000000000000000E+020
 20
1.0000000000000000E+020
 30
1.0000000000000000E+020
  9
$PEXTMAX
 10
-1.0000000000000000E+020
 20
-1.0000000000000000E+020
 30
-1.0000000000000000E+020
  9
$PLIMMIN
 10
0.0
 20
0.0
  9
$PLIMMAX
 10
420.0
 20
297.0
  9
$UNITMODE
 70
     0
  9
$VISRETAIN
 70
     1
  9
$PLINEGEN
 70
     0
  9
$PSLTSCALE
 70
     1
  0
ENDSEC
  0
SECTION
  2
TABLES
  0
TABLE
  2
VPORT
 70
     1
  0
VPORT
  2
*ACTIVE
 70
     0
 10
0.0
 20
0.0
 11
1.0
 21
1.0
 12
741.42082549069357
 22
624.75924867904791
 13
0.0
 23
0.0
 14
12.5
 24
12.5
 15
50.0
 25
50.0
 16
0.0
 26
0.0
 36
1.0
 17
0.0
 27
0.0
 37
0.0
 40
840.18824585872289
 41
1.7571592210767459
 42
50.0
 43
0.0
 44
0.0
 50
0.0
 51
0.0
 71
     0
 72
   100
 73
     1
 74
     3
 75
     0
 76
     0
 77
     0
 78
     0
  0
ENDTAB
  0
TABLE
  2
LTYPE
 70
    26
  0
LTYPE
  2
CONTINUOUS
 70
     0
  3
Solid line
 72
    65
 73
     0
 40
0.0
  0
LTYPE
  2
AM_ISO02W050
 70
     0
  3
__ __ __ __ __ __ __ __ __ __ __ __ __ __ __
 72
    65
 73
     2
 40
7.5
 49
6.0
 49
-1.5
  0
LTYPE
  2
AM_ISO08W050
 70
     0
  3
____ . ____ . ____ . ____ . ____ . ____ . ____
 72
    65
 73
     4
 40
18.0
 49
12.0
 49
-1.5
 49
3.0
 49
-1.5
  0
LTYPE
  2
AM_ISO09W050
 70
     0
  3
_____ . . _____ . . _____ . . ____ .. ____
 72
    65
 73
     6
 40
22.5
 49
12.0
 49
-1.5
 49
3.0
 49
-1.5
 49
3.0
 49
-1.5
  0
LTYPE
  2
AMCONSTR
 70
     0
  3
_______________________
 72
    65
 73
     2
 40
9999.0
 49
9999.0
 49
0.0
  0
LTYPE
  2
AM_ISO08W050X2
 70
     0
  3
__ . __ . __ . __ . __ . __
 72
    65
 73
     4
 40
9.0
 49
6.0
 49
-0.75
 49
1.5
 49
-0.75
  0
LTYPE
  2
AM_ISO02W050X2
 70
     0
  3
 _ _ _ _ _ _ _ _ _ _ _ _
 72
    65
 73
     2
 40
3.75
 49
3.0
 49
-0.75
  0
LTYPE
  2
AMZIGZAG
 70
     0
  3
/\/-/\/-/\/-/\/-/\/-/\/
 72
    65
 73
     2
 40
11.000099999999991
 49
0.0001
 49
-11.0
  0
LTYPE
  2
ACISOWELD
 70
     0
  3
_ _ _ _ _
 72
    65
 73
     2
 40
2.0
 49
2.0
 49
-1.0
  0
LTYPE
  2
ACISOTGB
 70
     0
  3
__ . . __ . .
 72
    65
 73
     6
 40
9.0
 49
4.0
 49
-1.0
 49
1.0
 49
-1.0
 49
1.0
 49
-1.0
  0
LTYPE
  2
ACISOTGL
 70
     0
  3
_ _ _ _ _
 72
    65
 73
     2
 40
3.0
 49
2.0
 49
-1.0
  0
LTYPE
  2
CENTER
 70
     0
  3
__ . __
 72
    65
 73
     4
 40
7.0
 49
4.0
 49
-1.0
 49
1.0
 49
-1.0
  0
LTYPE
  2
PHANTOM2
 70
     0
  3
Phantom (.5x) ___ _ _ ___ _ _ ___ _ _ ___ _ _
 72
    65
 73
     6
 40
31.75
 49
15.875
 49
-3.174999999999998
 49
3.174999999999998
 49
-3.174999999999998
 49
3.174999999999998
 49
-3.174999999999998
  0
LTYPE
  2
ACANSTGBM
 70
     0
  3
__ . . __ . .
 72
    65
 73
     6
 40
9.0
 49
4.0
 49
-1.0
 49
1.0
 49
-1.0
 49
1.0
 49
-1.0
  0
LTYPE
  2
ACANSTGLM
 70
     0
  3
_ _ _ _ _
 72
    65
 73
     2
 40
3.0
 49
2.0
 49
-1.0
  0
LTYPE
  2
GEN7
 70
     0
  3
____ . ____ . ____ . ____ . ____ . ____ . ____
 72
    65
 73
     4
 40
14.25
 49
9.75
 49
-1.5
 49
1.5
 49
-1.5
  0
LTYPE
  2
GEN7A
 70
     0
  3
__ . __ . __
 72
    65
 73
     4
 40
7.375
 49
4.75
 49
-0.875
 49
0.875
 49
-0.875
  0
LTYPE
  2
ACJISTGB
 70
     0
  3
__ . . __ . .
 72
    65
 73
     6
 40
9.0
 49
4.0
 49
-1.0
 49
1.0
 49
-1.0
 49
1.0
 49
-1.0
  0
LTYPE
  2
ACJISTGL
 70
     0
  3
_ _ _ _ _
 72
    65
 73
     2
 40
3.0
 49
2.0
 49
-1.0
  0
LTYPE
  2
HIDDEN
 70
     0
  3
Hidden __ __ __ __ __ __ __ __ __ __ __ __ __ _
 72
    65
 73
     2
 40
0.375
 49
0.25
 49
-0.125
  0
LTYPE
  2
CENTER2
 70
     0
  3
Center (.5x) ___ _ ___ _ ___ _ ___ _ ___ _ ___
 72
    65
 73
     4
 40
1.125
 49
0.75
 49
-0.125
 49
0.125
 49
-0.125
  0
LTYPE
  2
HIDDEN2
 70
     0
  3
Hidden (.5x) _ _ _ _ _ _ _ _ _ _ _ _ _ _ _ _ _
 72
    65
 73
     2
 40
0.1875
 49
0.125
 49
-0.0625
  0
LTYPE
  2
AMZIGZAG2
 70
     0
  3
/\/-/\/-/\/-/\/-/\/-/\/
 72
    65
 73
     2
 40
0.4401
 49
0.0001
 49
-0.4400000000000002
  0
LTYPE
  2
ACANSTGB
 70
     0
  3
__ . . __ . .
 72
    65
 73
     6
 40
0.35433070866
 49
0.15748031496
 49
-0.03937007874
 49
0.03937007874
 49
-0.03937007874
 49
0.03937007874
 49
-0.03937007874
  0
LTYPE
  2
ACANSTGL
 70
     0
  3
_ _ _ _ _
 72
    65
 73
     2
 40
0.11811023622
 49
0.07874015748
 49
-0.03937007874
  0
ENDTAB
  0
TABLE
  2
LAYER
 70
     6
  0
LAYER
  2
0
 70
     0
 62
     7
  6
CONTINUOUS
  0
LAYER
  2
AM_0
 70
     0
 62
     7
  6
CONTINUOUS
  0
LAYER
  2
AM_5
 70
     0
 62
     2
  6
CONTINUOUS
  0
LAYER
  2
DEFPOINTS
 70
     0
 62
     7
  6
CONTINUOUS
  0
LAYER
  2
ﾁｭｳｼﾝｾﾝ
 70
     0
 62
     1
  6
GEN7
  0
LAYER
  2
ﾁｭｳｼﾝｾﾝ1
 70
     0
 62
     1
  6
GEN7A
  0
ENDTAB
  0
TABLE
  2
STYLE
 70
     9
  0
STYLE
  2
STANDARD
 70
     0
 40
0.0
 41
0.8299999999999999
 50
0.0
 71
     0
 42
2.5
  3
txt.shx
  4
bigfont.shx
  0
STYLE
  2
ANNOTATIVE
 70
     0
 40
0.0
 41
1.0
 50
0.0
 71
     0
 42
0.2
  3
txt
  4

  0
STYLE
  2

 70
     1
 40
0.0
 41
1.0
 50
0.0
 71
     0
 42
2.5
  3
ltypeshp.shx
  4

  0
STYLE
  2
ACISOTS
 70
     0
 40
1.0
 41
1.0
 50
0.0
 71
     0
 42
2.5
  3
isocp.shx
  4
extfont.shx
  0
STYLE
  2
ACISOGDT
 70
     0
 40
0.0
 41
1.0
 50
0.0
 71
     0
 42
2.5
  3
amgdt.shx
  4

  0
STYLE
  2
ACANSTS
 70
     0
 40
1.0
 41
1.0
 50
0.0
 71
     0
 42
2.5
  3
romans.shx
  4
bigfont.shx
  0
STYLE
  2
ACANSGDT
 70
     0
 40
0.0
 41
1.0
 50
0.0
 71
     0
 42
2.5
  3
amgdt.shx
  4

  0
STYLE
  2
ACJISTS
 70
     0
 40
1.0
 41
1.0
 50
0.0
 71
     0
 42
2.5
  3
isocp.shx
  4
bigfont.shx
  0
STYLE
  2
ACJISGDT
 70
     0
 40
0.0
 41
1.0
 50
0.0
 71
     0
 42
2.5
  3
amgdt.shx
  4

  0
ENDTAB
  0
TABLE
  2
VIEW
 70
     6
  0
VIEW
  2
AM_VIEW1
 70
     0
 40
462.5
 10
416.07965009208078
 20
693.75
 41
832.15930018416213
 11
0.0
 21
0.0
 31
1.0
 12
0.0
 22
0.0
 32
0.0
 42
50.0
 43
0.0
 44
0.0
 50
0.0
 71
     0
  0
VIEW
  2
AM_VIEW2
 70
     0
 40
462.5
 10
1006.420349907918
 20
693.75
 41
832.15930018416213
 11
0.0
 21
0.0
 31
1.0
 12
0.0
 22
0.0
 32
0.0
 42
50.0
 43
0.0
 44
0.0
 50
0.0
 71
     0
  0
VIEW
  2
AM_VIEW3
 70
     0
 40
462.5
 10
416.07965009208078
 20
231.25
 41
832.15930018416213
 11
0.0
 21
0.0
 31
1.0
 12
0.0
 22
0.0
 32
0.0
 42
50.0
 43
0.0
 44
0.0
 50
0.0
 71
     0
  0
VIEW
  2
AM_VIEW4
 70
     0
 40
462.5
 10
1006.420349907918
 20
231.25
 41
832.15930018416213
 11
0.0
 21
0.0
 31
1.0
 12
0.0
 22
0.0
 32
0.0
 42
50.0
 43
0.0
 44
0.0
 50
0.0
 71
     0
  0
VIEW
  2
AM_VIEW5
 70
     0
 40
462.5
 10
711.24999999999966
 20
462.5
 41
832.15930018416179
 11
0.0
 21
0.0
 31
1.0
 12
0.0
 22
0.0
 32
0.0
 42
50.0
 43
0.0
 44
0.0
 50
0.0
 71
     0
  0
VIEW
  2
AM_VIEW6
 70
     0
 40
924.99075000000005
 10
711.24999999999966
 20
462.5
 41
1664.3019571823199
 11
0.0
 21
0.0
 31
1.0
 12
0.0
 22
0.0
 32
0.0
 42
50.0
 43
0.0
 44
0.0
 50
0.0
 71
     0
  0
ENDTAB
  0
TABLE
  2
UCS
 70
     0
  0
ENDTAB
  0
TABLE
  2
APPID
 70
    95
  0
APPID
  2
ACAD
 70
     0
  0
APPID
  2
ACADANNOTATIVE
 70
     0
  0
APPID
  2
MCAD_NO_VIS
 70
     0
  0
APPID
  2
ACAD_TEMP_GRAPHIC
 70
     0
  0
APPID
  2
ACATTRIBSERVICES
 70
     0
  0
APPID
  2
GENIUS_GENREC_14
 70
     0
  0
APPID
  2
GENIUS_GENOBJ-N-REC_13
 70
     0
  0
APPID
  2
GENIUS_GENODEF_13
 70
     0
  0
APPID
  2
GENIUS_GENOLIS_13
 70
     0
  0
APPID
  2
GENIUS_GENOBJ-N-TIT_13
 70
     0
  0
APPID
  2
GENIUS_GENOENT_13
 70
     0
  0
APPID
  2
GENIUS_GENTITLE_13
 70
     0
  0
APPID
  2
GENIUS_GENOREF_13
 70
     0
  0
APPID
  2
GENIUS_GENSCREG_15
 70
     0
  0
APPID
  2
GENIUS_GENOBJ-N-SDF_13
 70
     0
  0
APPID
  2
GENIUS_GENFIL_13
 70
     0
  0
APPID
  2
GENIUS_GENOBJ-N-CHA_13
 70
     0
  0
APPID
  2
GENIUS_GENDTOL_13
 70
     0
  0
APPID
  2
GENIUS_GENOBJ-N-FIL_13
 70
     0
  0
APPID
  2
AD_DRAW
 70
     0
  0
APPID
  2
DESIGNERASSEMBLIES
 70
     0
  0
APPID
  2
ASURF_PCURVE_APPNAME
 70
     0
  0
APPID
  2
GENIUS_GE3SECT_13
 70
     0
  0
APPID
  2
GENIUS_GENCFG_13
 70
     0
  0
APPID
  2
GENIUS_GE3CFG0_13
 70
     0
  0
APPID
  2
GENIUS_GENCFG0_13
 70
     0
  0
APPID
  2
GENIUS_GENCFG1_13
 70
     0
  0
APPID
  2
GENIUS_GENCFG2_13
 70
     0
  0
APPID
  2
GENIUS_GENCFG3_13
 70
     0
  0
APPID
  2
GENIUS_GENCFG4_13
 70
     0
  0
APPID
  2
GENIUS_GEVCFG0_13
 70
     0
  0
APPID
  2
GENIUS_GENHINW_13
 70
     0
  0
APPID
  2
GENIUS_FIRSTVISTXT_14
 70
     0
  0
APPID
  2
GENIUS_GENOBJ-N-LEADER_13
 70
     0
  0
APPID
  2
GEV_VCCNULL_SWITCH_OFF
 70
     0
  0
APPID
  2
GENIUS_GEFCFG0_13
 70
     0
  0
APPID
  2
GENIUS_GENZVEED_13
 70
     0
  0
APPID
  2
GENIUS_GENSCREG_13
 70
     0
  0
APPID
  2
GENIUS_DUMCFG0_13
 70
     0
  0
APPID
  2
GEVID936201362
 70
     0
  0
APPID
  2
GEVDC
 70
     0
  0
APPID
  2
GEVCON
 70
     0
  0
APPID
  2
VCC
 70
     0
  0
APPID
  2
GEVPT
 70
     0
  0
APPID
  2
GEVIT
 70
     0
  0
APPID
  2
GENBH
 70
     0
  0
APPID
  2
GEVMK
 70
     0
  0
APPID
  2
GENIUS_GENBH_13
 70
     0
  0
APPID
  2
GENIUS_GENOBJ-NBEHI-BHF_13
 70
     0
  0
APPID
  2
GENIUS_GENOBJ-NBEHI-BHB_13
 70
     0
  0
APPID
  2
GENIUS_GENOBJ-F-DESC_13
 70
     0
  0
APPID
  2
GENIUS_GEFDESC_14
 70
     0
  0
APPID
  2
GENIUS_GENOBJ-F-PART_13
 70
     0
  0
APPID
  2
GENIUS_GEFSTDP_13
 70
     0
  0
APPID
  2
GENIUS_GEFPARTINS_13
 70
     0
  0
APPID
  2
GENIUS_GENTRA_14
 70
     0
  0
APPID
  2
GENIUS_GENINF13_13
 70
     0
  0
APPID
  2
GENIUS_GENOBJ-N-INFOPT_13
 70
     0
  0
APPID
  2
GENIUS_GENOBJ-N-RSSYM_13
 70
     0
  0
APPID
  2
GENIUS_GENSYMENT_13
 70
     0
  0
APPID
  2
GENIUS_GENSCSYM_13
 70
     0
  0
APPID
  2
GENIUS_GEFINFNAM_13
 70
     0
  0
APPID
  2
GENIUS_GENOBJ-N-CEN_13
 70
     0
  0
APPID
  2
GENIUS_GENOBJ-N-CRS_13
 70
     0
  0
APPID
  2
GENIUS_GENOBJ-N-CRC_13
 70
     0
  0
APPID
  2
GENIUS_GENCRC_14
 70
     0
  0
APPID
  2
GEVID942827039
 70
     0
  0
APPID
  2
GEVID942827040
 70
     0
  0
APPID
  2
GEVID942827041
 70
     0
  0
APPID
  2
GENIUS_GENOBJ-F-SCPASSM_13
 70
     0
  0
APPID
  2
GENIUS_GENDIMSH_14
 70
     0
  0
APPID
  2
GEVID942827042
 70
     0
  0
APPID
  2
GEVID946020473
 70
     0
  0
APPID
  2
GEVID946020474
 70
     0
  0
APPID
  2
GEVID946020475
 70
     0
  0
APPID
  2
GENIUS_GENOBJ-N-HTC_13
 70
     0
  0
APPID
  2
GENIUS_GENHATCH_13
 70
     0
  0
APPID
  2
GEVID948854295
 70
     0
  0
APPID
  2
GEVID939402019
 70
     0
  0
APPID
  2
GEVID952919491
 70
     0
  0
APPID
  2
GEVID952919492
 70
     0
  0
APPID
  2
GENIUS_GEFWELD_13
 70
     0
  0
APPID
  2
GENIUS_GENOBJ-F-WELS_13
 70
     0
  0
APPID
  2
GEVID952919493
 70
     0
  0
APPID
  2
GENIUS_GENOBJ-N-RSBK_13
 70
     0
  0
APPID
  2
GENIUS_GENOBJ-N-LIB_13
 70
     0
  0
APPID
  2
GENIUS_GENSCALE_13
 70
     0
  0
APPID
  2
GEVID986376691
 70
     0
  0
APPID
  2
DCO15
 70
     0
  0
APPID
  2
ACAD_DSTYLE_DIMBREAK
 70
     0
  0
APPID
  2
ACAD_DSTYLE_DIMJAG
 70
     0
  0
APPID
  2
ACAD_NAV_VCDISPLAY
 70
     0
  0
APPID
  2
ACADANNOPO
 70
     0
  0
APPID
  2
ACAD_EXEMPT_FROM_CAD_STANDARDS
 70
     0
  0
APPID
  2
ACAD_MLEADERVER
 70
     0
  0
ENDTAB
  0
TABLE
  2
DIMSTYLE
 70
    22
  0
DIMSTYLE
  2
STANDARD
 70
     0
  3

  4

  5

  6

  7

 40
1.0
 41
0.18
 42
0.0625
 43
0.38
 44
0.18
 45
0.0
 46
0.0
 47
0.0
 48
0.0
140
0.18
141
0.09
142
0.0
143
25.399999999999999
144
1.0
145
0.0
146
1.0
147
0.09
 71
     0
 72
     0
 73
     1
 74
     1
 75
     0
 76
     0
 77
     0
 78
     0
170
     0
171
     2
172
     0
173
     0
174
     0
175
     0
176
     0
177
     0
178
     0
  0
DIMSTYLE
  2
ANNOTATIVE
 70
     0
  3

  4

  5

  6

  7

 40
1.0
 41
0.18
 42
0.0625
 43
0.38
 44
0.18
 45
0.0
 46
0.0
 47
0.0
 48
0.0
140
0.18
141
0.09
142
0.0
143
25.399999999999999
144
1.0
145
0.0
146
1.0
147
0.09
 71
     0
 72
     0
 73
     1
 74
     1
 75
     0
 76
     0
 77
     0
 78
     0
170
     0
171
     2
172
     0
173
     0
174
     0
175
     0
176
     0
177
     0
178
     0
  0
DIMSTYLE
  2
AM_ISO
 70
     0
  3

  4
"
  5

  6

  7

 40
1.0
 41
2.5
 42
1.0
 43
8.0
 44
0.6
 45
0.0
 46
0.0
 47
0.1
 48
0.1
140
2.5
141
0.0
142
0.0
143
0.0393701
144
1.0
145
0.0
146
0.71
147
0.8
 71
     0
 72
     0
 73
     0
 74
     0
 75
     0
 76
     0
 77
     1
 78
     8
170
     0
171
     2
172
     1
173
     0
174
     0
175
     0
176
   256
177
   256
178
     4
  0
DIMSTYLE
  2
AM_ISO$3
 70
     0
  3

  4
"
  5

  6

  7

 40
1.0
 41
2.5
 42
1.0
 43
8.0
 44
0.6
 45
0.0
 46
0.0
 47
0.1
 48
0.1
140
2.5
141
0.0
142
0.0
143
0.0393701
144
1.0
145
0.0
146
0.71
147
0.8
 71
     0
 72
     0
 73
     0
 74
     1
 75
     0
 76
     0
 77
     1
 78
     8
170
     0
171
     2
172
     0
173
     0
174
     0
175
     0
176
   256
177
   256
178
     4
  0
DIMSTYLE
  2
AM_ISO$4
 70
     0
  3

  4
"
  5

  6

  7

 40
1.0
 41
2.5
 42
1.0
 43
8.0
 44
0.6
 45
0.0
 46
0.0
 47
0.1
 48
0.1
140
2.5
141
0.0
142
0.0
143
0.0393701
144
1.0
145
0.0
146
0.71
147
0.8
 71
     0
 72
     0
 73
     0
 74
     1
 75
     0
 76
     0
 77
     1
 78
     8
170
     0
171
     2
172
     0
173
     0
174
     0
175
     0
176
   256
177
   256
178
     4
  0
DIMSTYLE
  2
AM_ISO$6
 70
     0
  3

  4
"
  5

  6

  7

 40
1.0
 41
2.5
 42
1.0
 43
8.0
 44
0.6
 45
0.0
 46
0.0
 47
0.1
 48
0.1
140
2.5
141
0.0
142
0.0
143
0.0393701
144
1.0
145
0.0
146
0.71
147
0.8
 71
     0
 72
     0
 73
     0
 74
     0
 75
     0
 76
     0
 77
     0
 78
     8
170
     0
171
     2
172
     1
173
     0
174
     0
175
     0
176
   256
177
   256
178
     4
  0
DIMSTYLE
  2
AM_ISO$7
 70
     0
  3

  4
"
  5

  6

  7

 40
1.0
 41
2.5
 42
1.0
 43
8.0
 44
0.6
 45
0.0
 46
0.0
 47
0.1
 48
0.1
140
2.5
141
0.0
142
0.0
143
0.0393701
144
1.0
145
0.0
146
0.71
147
0.8
 71
     0
 72
     0
 73
     0
 74
     0
 75
     0
 76
     0
 77
     1
 78
     8
170
     0
171
     2
172
     1
173
     0
174
     0
175
     0
176
   256
177
   256
178
     4
  0
DIMSTYLE
  2
AM_ISO$SF
 70
     0
  3

  4
"
  5

  6

  7

 40
1.0
 41
2.5
 42
1.0
 43
10.0
 44
1.0
 45
0.0
 46
0.0
 47
0.1
 48
0.1
140
3.5
141
0.0
142
0.0
143
0.0393701
144
1.0
145
0.0
146
0.71
147
1.5
 71
     0
 72
     0
 73
     0
 74
     0
 75
     1
 76
     1
 77
     1
 78
     8
170
     0
171
     2
172
     1
173
     0
174
     0
175
     0
176
   256
177
   256
178
     2
  0
DIMSTYLE
  2
AM_ISO$SH
 70
     0
  3

  4
"
  5

  6

  7

 40
1.0
 41
2.5
 42
1.0
 43
10.0
 44
1.0
 45
0.0
 46
0.0
 47
0.1
 48
0.1
140
3.5
141
0.0
142
0.0
143
0.0393701
144
2.0
145
0.0
146
0.71
147
1.5
 71
     0
 72
     0
 73
     0
 74
     0
 75
     1
 76
     1
 77
     1
 78
     8
170
     0
171
     2
172
     1
173
     1
174
     0
175
     0
176
   256
177
   256
178
     2
  0
DIMSTYLE
  2
AM_JIS
 70
     0
  3

  4
"
  5

  6

  7

 40
1.0
 41
2.5
 42
1.0
 43
7.0
 44
1.0
 45
0.0
 46
0.0
 47
0.1
 48
0.1000000001
140
2.5
141
0.0
142
0.0
143
0.0393701
144
1.0
145
0.0
146
0.71
147
1.0
 71
     0
 72
     0
 73
     0
 74
     0
 75
     0
 76
     0
 77
     3
 78
     8
170
     0
171
     2
172
     1
173
     0
174
     0
175
     0
176
   256
177
   256
178
     4
  0
DIMSTYLE
  2
AM_JIS$3
 70
     0
  3

  4
"
  5

  6

  7

 40
1.0
 41
2.5
 42
1.0
 43
7.0
 44
1.0
 45
0.0
 46
0.0
 47
0.1
 48
0.1000000001
140
2.5
141
0.0
142
0.0
143
0.0393701
144
1.0
145
0.0
146
0.71
147
1.0
 71
     0
 72
     0
 73
     0
 74
     1
 75
     0
 76
     0
 77
     3
 78
     8
170
     0
171
     2
172
     0
173
     0
174
     0
175
     0
176
   256
177
   256
178
     4
  0
DIMSTYLE
  2
AM_JIS$4
 70
     0
  3

  4
"
  5

  6

  7

 40
1.0
 41
2.5
 42
1.0
 43
7.0
 44
1.0
 45
0.0
 46
0.0
 47
0.1
 48
0.1000000001
140
2.5
141
0.0
142
0.0
143
0.0393701
144
1.0
145
0.0
146
0.71
147
1.0
 71
     0
 72
     0
 73
     0
 74
     0
 75
     0
 76
     0
 77
     3
 78
     8
170
     0
171
     2
172
     0
173
     0
174
     0
175
     0
176
   256
177
   256
178
     4
  0
DIMSTYLE
  2
AM_JIS$6
 70
     0
  3

  4
"
  5

  6

  7

 40
1.0
 41
2.5
 42
1.0
 43
7.0
 44
1.0
 45
0.0
 46
0.0
 47
0.1
 48
0.1000000001
140
2.5
141
0.0
142
0.0
143
0.0393701
144
1.0
145
0.0
146
0.71
147
1.0
 71
     0
 72
     0
 73
     0
 74
     0
 75
     0
 76
     0
 77
     0
 78
     8
170
     0
171
     2
172
     1
173
     0
174
     0
175
     0
176
   256
177
   256
178
     4
  0
DIMSTYLE
  2
AM_JIS$7
 70
     0
  3

  4
"
  5

  6

  7

 40
1.0
 41
2.5
 42
1.0
 43
7.0
 44
1.0
 45
0.0
 46
0.0
 47
0.1
 48
0.1000000001
140
2.5
141
0.0
142
0.0
143
0.0393701
144
1.0
145
0.0
146
0.71
147
1.0
 71
     0
 72
     0
 73
     0
 74
     0
 75
     0
 76
     0
 77
     3
 78
     8
170
     0
171
     2
172
     1
173
     0
174
     0
175
     0
176
   256
177
   256
178
     4
  0
DIMSTYLE
  2
AM_JIS$SF
 70
     0
  3

  4
"
  5

  6

  7

 40
1.0
 41
2.5
 42
1.0
 43
10.0
 44
1.0
 45
0.0
 46
0.0
 47
0.1
 48
0.1
140
3.5
141
0.0
142
0.0
143
0.0393701
144
1.0
145
0.0
146
0.71
147
1.5
 71
     0
 72
     0
 73
     0
 74
     0
 75
     1
 76
     1
 77
     3
 78
     8
170
     0
171
     2
172
     1
173
     0
174
     0
175
     0
176
   256
177
   256
178
     4
  0
DIMSTYLE
  2
AM_JIS$SH
 70
     0
  3

  4
"
  5

  6

  7

 40
1.0
 41
2.5
 42
1.0
 43
10.0
 44
1.0
 45
0.0
 46
0.0
 47
0.1
 48
0.1
140
3.5
141
0.0
142
0.0
143
0.0393701
144
1.0
145
0.0
146
0.71
147
1.5
 71
     0
 72
     0
 73
     0
 74
     0
 75
     1
 76
     0
 77
     3
 78
     8
170
     0
171
     2
172
     1
173
     1
174
     0
175
     0
176
   256
177
   256
178
     4
  0
DIMSTYLE
  2
AM_ANSI
 70
     0
  3

  4
mm
  5

  6

  7

 40
1.0
 41
0.1
 42
0.05
 43
0.5
 44
0.1
 45
0.0
 46
0.0
 47
0.1
 48
0.1
140
0.12
141
0.0
142
0.0
143
25.399999999999999
144
1.0
145
0.0
146
0.71
147
0.06
 71
     0
 72
     0
 73
     1
 74
     1
 75
     0
 76
     0
 77
     0
 78
     7
170
     0
171
     2
172
     0
173
     0
174
     0
175
     0
176
   256
177
   256
178
     2
  0
DIMSTYLE
  2
AM_ANSI$3
 70
     0
  3

  4
mm
  5

  6

  7

 40
1.0
 41
0.1
 42
0.05
 43
0.5
 44
0.1
 45
0.0
 46
0.0
 47
0.1
 48
0.1
140
0.12
141
0.0
142
0.0
143
25.399999999999999
144
1.0
145
0.0
146
0.71
147
0.06
 71
     0
 72
     0
 73
     1
 74
     1
 75
     0
 76
     0
 77
     0
 78
     7
170
     0
171
     2
172
     0
173
     0
174
     0
175
     0
176
   256
177
   256
178
     2
  0
DIMSTYLE
  2
AM_ANSI$4
 70
     0
  3

  4
mm
  5

  6

  7

 40
1.0
 41
0.1
 42
0.05
 43
0.5
 44
0.1
 45
0.0
 46
0.0
 47
0.1
 48
0.1
140
0.12
141
0.0
142
0.0
143
25.399999999999999
144
1.0
145
0.0
146
0.71
147
0.06
 71
     0
 72
     0
 73
     1
 74
     1
 75
     0
 76
     0
 77
     0
 78
     7
170
     0
171
     2
172
     0
173
     0
174
     0
175
     0
176
   256
177
   256
178
     2
  0
DIMSTYLE
  2
AM_ANSI$7
 70
     0
  3

  4
mm
  5

  6

  7

 40
1.0
 41
0.1
 42
0.05
 43
0.5
 44
0.1
 45
0.0
 46
0.0
 47
0.1
 48
0.1
140
0.24
141
0.0
142
0.0
143
25.399999999999999
144
1.0
145
0.0
146
0.71
147
0.06
 71
     0
 72
     0
 73
     1
 74
     1
 75
     0
 76
     0
 77
     0
 78
     7
170
     0
171
     2
172
     0
173
     0
174
     0
175
     0
176
   256
177
   256
178
     2
  0
DIMSTYLE
  2
AM_ANSI$SF
 70
     0
  3

  4
mm
  5

  6

  7

 40
1.0
 41
0.1
 42
0.05
 43
0.5
 44
0.1
 45
0.0
 46
0.0
 47
0.1
 48
0.1
140
0.12
141
0.0
142
0.0
143
25.399999999999999
144
1.0
145
0.0
146
0.71
147
0.06
 71
     0
 72
     0
 73
     1
 74
     1
 75
     1
 76
     1
 77
     0
 78
     7
170
     0
171
     2
172
     0
173
     0
174
     0
175
     0
176
   256
177
   256
178
     2
  0
DIMSTYLE
  2
AM_ANSI$SH
 70
     0
  3

  4
mm
  5

  6

  7

 40
1.0
 41
0.1
 42
0.05
 43
0.5
 44
0.1
 45
0.0
 46
0.0
 47
0.1
 48
0.1
140
0.12
141
0.0
142
0.0
143
25.399999999999999
144
1.0
145
0.0
146
0.71
147
0.06
 71
     0
 72
     0
 73
     1
 74
     1
 75
     1
 76
     1
 77
     0
 78
     7
170
     0
171
     2
172
     0
173
     1
174
     0
175
     0
176
   256
177
   256
178
     2
  0
ENDTAB
  0
ENDSEC
  0
SECTION
  2
BLOCKS
  0
BLOCK
  8
0
  2
$MODEL_SPACE
 70
     0
 10
0.0
 20
0.0
 30
0.0
  3
$MODEL_SPACE
  1

  0
ENDBLK
  5
2CAA
  8
0
  0
BLOCK
 67
     1
  8
0
  2
$PAPER_SPACE
 70
     0
 10
0.0
 20
0.0
 30
0.0
  3
$PAPER_SPACE
  1

  0
ENDBLK
  5
2CA6
 67
     1
  8
0
  0
BLOCK
  8
0
  2
GENAXEH
 70
     0
 10
0.0
 20
0.0
 30
0.0
  3
GENAXEH
  1

  0
LINE
  5
2A28
  8
0
 10
-1.0
 20
0.0
 30
0.0
 11
1.0
 21
0.0
 31
0.0
  0
ENDBLK
  5
2A29
  8
0
  0
BLOCK
  8
0
  2
_OPEN30
 70
     0
 10
0.0
 20
0.0
 30
0.0
  3
_OPEN30
  1

  0
LINE
  5
2A2C
  8
0
 62
     0
 10
-1.0
 20
0.26794919
 30
0.0
 11
0.0
 21
0.0
 31
0.0
  0
LINE
  5
2A2D
  8
0
 62
     0
 10
0.0
 20
0.0
 30
0.0
 11
-1.0
 21
-0.26794919
 31
0.0
  0
LINE
  5
2A2E
  8
0
 62
     0
 10
0.0
 20
0.0
 30
0.0
 11
-1.0
 21
0.0
 31
0.0
  0
ENDBLK
  5
2A2F
  8
0
  0
BLOCK
  8
0
  2
_NONE
 70
     0
 10
0.0
 20
0.0
 30
0.0
  3
_NONE
  1

  0
ENDBLK
  5
2A32
  8
0
  0
BLOCK
  8
0
  2
_ACMFILLEDHALF
 70
     0
 10
0.0
 20
0.0
 30
0.0
  3
_ACMFILLEDHALF
  1

  0
TRACE
  5
2DA0
  8
AM_0
 62
     0
 10
-0.8
 20
0.0
 30
0.0
 11
-1.0
 21
0.166666666
 31
0.0
 12
0.0
 22
0.0
 32
0.0
 13
0.0
 23
0.0
 33
0.0
  0
LINE
  5
2DA1
  8
AM_0
 62
     0
 10
-1.0
 20
0.0
 30
0.0
 11
-0.8
 21
0.0
 31
0.0
  0
ENDBLK
  5
2D9F
  8
0
  0
ENDSEC
  0
SECTION
  2
ENTITIES
  0
LINE
  5
2A33
  8
AM_0
 10
654.44356585803678
 20
442.10593202586023
 30
0.0
 11
736.443565858037
 21
442.10593202586023
 31
0.0
  0
LINE
  5
2A34
  8
AM_0
 10
654.44356585803678
 20
387.1059270258603
 30
0.0
 11
736.443565858037
 21
387.1059270258603
 31
0.0
  0
LINE
  5
2A35
  8
AM_0
 10
674.44356585803689
 20
446.10593202586023
 30
0.0
 11
736.443565858037
 21
446.10593202586023
 31
0.0
  0
LINE
  5
2A36
  8
ﾁｭｳｼﾝｾﾝ
 10
383.14060524686198
 20
414.6059270258603
 30
0.0
 11
743.37241585803713
 21
414.6059270258603
 31
0.0
  0
ARC
  5
2A37
  8
AM_0
 10
402.44361585803682
 20
462.67700702586018
 30
0.0
 40
5.0
 50
315.0
 51
0.0
  0
LINE
  5
2A38
  8
AM_0
 10
501.44356585803661
 20
536.60591702585998
 30
0.0
 11
501.44356585803661
 21
221.6059270258601
 31
0.0
  0
LINE
  5
2A39
  8
AM_0
 10
624.44356585803689
 20
574.00921702586038
 30
0.0
 11
624.44356585803689
 21
380.34256202586022
 31
0.0
  0
LINE
  5
2A3A
  8
AM_0
 10
646.44356585803666
 20
579.6059670258602
 30
0.0
 11
646.44356585803666
 21
249.6059270258601
 31
0.0
  0
LINE
  5
2A3B
  8
AM_0
 10
651.44356585803666
 20
554.6059670258602
 30
0.0
 11
651.44356585803666
 21
274.60592702586041
 31
0.0
  0
LINE
  5
2A3C
  8
AM_0
 10
633.44356585803678
 20
538.95506702586022
 30
0.0
 11
633.44356585803678
 21
290.25680702586038
 31
0.0
  0
LINE
  5
2A3D
  8
AM_0
 10
623.7701658580371
 20
372.11783202586008
 30
0.0
 11
611.86641585803716
 21
500.4794970258601
 31
0.0
  0
LINE
  5
2A3E
  8
AM_0
 10
407.44361585803671
 20
272.10592702586041
 30
0.0
 11
407.44361585803671
 21
466.10593202586023
 31
0.0
  0
LINE
  5
2A3F
  8
AM_0
 10
445.44356585803689
 20
482.58990702586033
 30
0.0
 11
445.44356585803689
 21
257.16342202586031
 31
0.0
  0
LINE
  5
2A40
  8
AM_0
 10
471.44356585803712
 20
533.62696702586015
 30
0.0
 11
471.44356585803712
 21
224.58491702586031
 31
0.0
  0
LINE
  5
2A41
  8
AM_0
 10
422.44361585803688
 20
467.10593202586023
 30
0.0
 11
422.44361585803688
 21
272.10592702586041
 31
0.0
  0
ARC
  5
2A42
  8
AM_0
 10
265.14179985803702
 20
371.59092402586037
 30
0.0
 40
10.0
 50
270.99999999999841
 51
304.99999999999739
  0
ARC
  5
2A43
  8
AM_0
 10
265.14179985803702
 20
282.62093002586028
 30
0.0
 40
10.0
 50
55.000000000002629
 51
89.000000000001506
  0
LINE
  5
2A44
  8
ﾁｭｳｼﾝｾﾝ
 10
198.3489601604733
 20
327.10592702586041
 30
0.0
 11
396.22518153217692
 21
327.10592702586041
 31
0.0
  0
LINE
  5
2A45
  8
AM_0
 10
242.801761858037
 20
295.01270502586038
 30
0.0
 11
242.801761858037
 21
359.19914902586021
 31
0.0
  0
LINE
  5
2A46
  8
AM_0
 10
237.44361585803691
 20
297.8379780258602
 30
0.0
 11
237.44361585803691
 21
356.37387602586023
 31
0.0
  0
LINE
  5
2A47
  8
AM_0
 10
235.44361585803691
 20
303.1059270258603
 30
0.0
 11
235.44361585803691
 21
351.1059270258603
 31
0.0
  0
LINE
  5
2A48
  8
AM_0
 10
205.44361585803691
 20
317.6059270258603
 30
0.0
 11
205.44361585803691
 21
336.6059270258603
 31
0.0
  0
LINE
  5
2A49
  8
AM_0
 10
233.44361585803691
 20
317.10592702586041
 30
0.0
 11
233.44361585803691
 21
337.10592702586041
 31
0.0
  0
LINE
  5
2A4A
  8
AM_0
 10
205.44361585803691
 20
317.6059270258603
 30
0.0
 11
233.44361585803691
 21
317.6059270258603
 31
0.0
  0
ARC
  5
2A4B
  8
AM_0
 10
240.44361585803691
 20
297.8379780258602
 30
0.0
 40
3.0
 50
180.0
 51
239.99999999999949
  0
LINE
  5
2A4C
  8
AM_0
 10
235.44361585803691
 20
303.1059270258603
 30
0.0
 11
237.44361585803691
 21
301.1059270258603
 31
0.0
  0
LINE
  5
2A4D
  8
AM_0
 10
233.44361585803691
 20
317.10592702586041
 30
0.0
 11
235.44361585803691
 21
317.10592702586041
 31
0.0
  0
LINE
  5
2A4E
  8
AM_0
 10
243.5774968580368
 20
292.99886002586032
 30
0.0
 11
265.31632385803681
 21
292.61940702586031
 31
0.0
  0
LINE
  5
2A4F
  8
AM_0
 10
238.94361585803691
 20
295.23990102586038
 30
0.0
 11
242.1298538580368
 21
293.40032602586018
 31
0.0
  0
ARC
  5
2A50
  8
AM_0
 10
243.62985385803691
 20
295.99840302586023
 30
0.0
 40
3.0
 50
239.99999999999949
 51
269.00000000000148
  0
LINE
  5
2A51
  8
AM_0
 10
205.44361585803691
 20
339.10592702586041
 30
0.0
 11
227.44361585803679
 21
339.10592702586041
 31
0.0
  0
LINE
  5
2A52
  8
AM_0
 10
205.44361585803691
 20
336.6059270258603
 30
0.0
 11
233.44361585803691
 21
336.6059270258603
 31
0.0
  0
LINE
  5
2A53
  8
AM_0
 10
205.44361585803691
 20
336.6059270258603
 30
0.0
 11
205.44361585803691
 21
339.10592702586041
 31
0.0
  0
LINE
  5
2A54
  8
AM_0
 10
233.44361585803691
 20
337.10592702586041
 30
0.0
 11
235.44361585803691
 21
337.10592702586041
 31
0.0
  0
LINE
  5
2A55
  8
AM_0
 10
237.44361585803691
 20
353.1059270258603
 30
0.0
 11
235.44361585803691
 21
351.1059270258603
 31
0.0
  0
LINE
  5
2A56
  8
AM_0
 10
227.44361585803679
 20
336.6059270258603
 30
0.0
 11
227.44361585803679
 21
339.10592702586041
 31
0.0
  0
ARC
  5
2A57
  8
AM_0
 10
240.44361585803691
 20
356.37387602586023
 30
0.0
 40
3.0
 50
120.0000000000005
 51
180.0
  0
LINE
  5
2A58
  8
AM_0
 10
265.31632385803681
 20
361.59244702586039
 30
0.0
 11
243.5774968580368
 21
361.21299402586033
 31
0.0
  0
ARC
  5
2A59
  8
AM_0
 10
243.62985385803691
 20
358.21345102586031
 30
0.0
 40
3.0
 50
90.999999999998465
 51
120.0000000000005
  0
LINE
  5
2A5A
  8
AM_0
 10
242.1298538580368
 20
360.8115270258603
 30
0.0
 11
238.94361585803691
 21
358.97195202586022
 31
0.0
  0
LINE
  5
2A5B
  8
AM_0
 10
471.44356585803712
 20
423.07233202586019
 30
0.0
 11
619.04486585803716
 21
423.07233202586019
 31
0.0
  0
LINE
  5
2A5C
  8
AM_0
 10
471.44356585803712
 20
321.27673702586031
 30
0.0
 11
624.44356585803689
 21
321.27673702586031
 31
0.0
  0
LINE
  5
2A5D
  8
AM_0
 10
473.37386585803682
 20
222.58615202586009
 30
0.0
 11
501.44356585803661
 21
221.60594202586029
 31
0.0
  0
LINE
  5
2A5E
  8
AM_0
 10
344.44361585803682
 20
320.15408702586018
 30
0.0
 11
344.44361585803682
 21
255.0362420258603
 31
0.0
  0
LINE
  5
2A5F
  8
AM_0
 10
353.54286585803681
 20
320.15408702586018
 30
0.0
 11
353.54286585803681
 21
278.60592702586013
 31
0.0
  0
LINE
  5
2A60
  8
AM_0
 10
332.44361585803688
 20
400.60592702586018
 30
0.0
 11
332.44361585803688
 21
253.60591202586011
 31
0.0
  0
LINE
  5
2A61
  8
AM_0
 10
320.44361585803688
 20
258.54747602586042
 30
0.0
 11
320.44361585803688
 21
395.66437802586017
 31
0.0
  0
LINE
  5
2A62
  8
AM_0
 10
268.37316485803677
 20
294.56635402586028
 30
0.0
 11
268.37316485803677
 21
359.64549902586032
 31
0.0
  0
LINE
  5
2A63
  8
AM_0
 10
355.6434658580369
 20
278.60592702586013
 30
0.0
 11
404.44356585803678
 21
278.60592702586013
 31
0.0
  0
ARC
  5
2A64
  8
AM_0
 10
322.44361585803688
 20
255.6059270258603
 30
0.0
 40
2.0
 50
188.187984
 51
270.0
  0
ARC
  5
2A65
  8
AM_0
 10
322.44361585803688
 20
265.5967020258604
 30
0.0
 40
2.0
 50
180.0
 51
270.0
  0
LINE
  5
2A66
  8
AM_0
 10
319.63154485803682
 20
256.67454502586043
 30
0.0
 11
270.87756385803681
 21
290.8124500258603
 31
0.0
  0
ARC
  5
2A67
  8
AM_0
 10
318.48439185803687
 20
255.03624102586031
 30
0.0
 40
2.0
 50
8.1879840000002062
 51
55.000000000002629
  0
LINE
  5
2A68
  8
AM_0
 10
330.44361585803688
 20
265.5967020258604
 30
0.0
 11
330.44361585803688
 21
285.63125102586031
 31
0.0
  0
LINE
  5
2A69
  8
AM_0
 10
345.64111585803698
 20
256.89579702586008
 30
0.0
 11
352.82446585803712
 21
276.63195702586012
 31
0.0
  0
ARC
  5
2A6A
  8
AM_0
 10
328.44361585803688
 20
265.5967020258604
 30
0.0
 40
2.0
 50
270.0
 51
0.0
  0
LINE
  5
2A6B
  8
AM_0
 10
332.44361585803688
 20
253.60591202586011
 30
0.0
 11
340.94251585803693
 21
253.60591202586011
 31
0.0
  0
LINE
  5
2A6C
  8
AM_0
 10
322.44361585803688
 20
253.6059270258603
 30
0.0
 11
332.44361585803688
 21
253.6059270258603
 31
0.0
  0
LINE
  5
2A6D
  8
AM_0
 10
322.44361585803688
 20
263.5967020258604
 30
0.0
 11
328.44361585803688
 21
263.5967020258604
 31
0.0
  0
ARC
  5
2A6E
  8
AM_0
 10
340.94251585803693
 20
258.60591202586028
 30
0.0
 40
5.0
 50
270.0
 51
340.0
  0
LINE
  5
2A6F
  8
AM_0
 10
332.44361585803688
 20
265.52726702586023
 30
0.0
 11
344.44361585803682
 21
265.52726702586023
 31
0.0
  0
ARC
  5
2A70
  8
AM_0
 10
355.6434658580369
 20
275.6059270258603
 30
0.0
 40
3.0000000500000001
 50
90.000003000000007
 51
160.0
  0
LINE
  5
2A71
  8
AM_0
 10
332.44361585803688
 20
287.63125702586018
 30
0.0
 11
344.44361585803682
 21
287.63125702586018
 31
0.0
  0
ARC
  5
2A72
  8
AM_0
 10
332.44361585803688
 20
285.63125102586031
 30
0.0
 40
2.0
 50
120.0000000000005
 51
180.0
  0
LINE
  5
2A73
  8
AM_0
 10
322.44361585803688
 20
287.63125102586031
 30
0.0
 11
330.44361585803688
 21
287.63125102586031
 31
0.0
  0
LINE
  5
2A74
  8
AM_0
 10
469.3698158580371
 20
237.33674702586009
 30
0.0
 11
447.51736585803678
 21
253.10911702586009
 31
0.0
  0
ARC
  5
2A75
  8
AM_0
 10
473.44356585803689
 20
224.58491702586031
 30
0.0
 40
2.0000000500000001
 50
179.99998999999991
 51
268.00000999999992
  0
ARC
  5
2A76
  8
AM_0
 10
466.44356585803712
 20
233.28253202586021
 30
0.0
 40
5.0
 50
0.0
 51
54.179554000000003
  0
LINE
  5
2A77
  8
AM_0
 10
424.44356585803689
 20
286.41073702586039
 30
0.0
 11
445.44356585803689
 21
286.41073702586039
 31
0.0
  0
LINE
  5
2A78
  8
AM_0
 10
424.44356585803689
 20
296.59973202586031
 30
0.0
 11
445.44356585803689
 21
296.59973202586031
 31
0.0
  0
LINE
  5
2A79
  8
AM_0
 10
424.44356585803689
 20
312.83011202586027
 30
0.0
 11
445.44356585803689
 21
312.83011202586027
 31
0.0
  0
LINE
  5
2A7A
  8
AM_0
 10
422.44361585803688
 20
272.10592702586041
 30
0.0
 11
440.6181158580369
 21
271.47125202586039
 31
0.0
  0
ARC
  5
2A7B
  8
AM_0
 10
404.44356585803678
 20
275.6059270258603
 30
0.0
 40
3.0000000500000001
 50
0.0
 51
90.000003000000007
  0
LINE
  5
2A7C
  8
AM_0
 10
409.44356585803661
 20
270.10592702586013
 30
0.0
 11
420.44356585803689
 21
270.10592702586013
 31
0.0
  0
ARC
  5
2A7D
  8
AM_0
 10
409.44356585803661
 20
272.10592702586041
 30
0.0
 40
2.0000000500000001
 50
179.99998999999991
 51
270.0
  0
LINE
  5
2A7E
  8
AM_0
 10
420.44361585803682
 20
270.10586702586028
 30
0.0
 11
422.44361585803688
 21
272.1058370258603
 31
0.0
  0
LINE
  5
2A7F
  8
AM_0
 10
424.44356585803689
 20
312.83011202586027
 30
0.0
 11
424.44356585803689
 21
286.41073702586039
 31
0.0
  0
LINE
  5
2A80
  8
AM_0
 10
407.44361585803671
 20
286.41073702586039
 30
0.0
 11
422.44361585803688
 21
286.41073702586039
 31
0.0
  0
LINE
  5
2A81
  8
AM_0
 10
407.44361585803671
 20
296.59973202586031
 30
0.0
 11
422.44361585803688
 21
296.59973202586031
 31
0.0
  0
LINE
  5
2A82
  8
AM_0
 10
407.44361585803671
 20
312.83011202586027
 30
0.0
 11
422.44361585803688
 21
312.83011202586027
 31
0.0
  0
ARC
  5
2A83
  8
AM_0
 10
450.44356585803672
 20
257.16342202586031
 30
0.0
 40
5.0
 50
179.99998999999991
 51
234.17957000000001
  0
ARC
  5
2A84
  8
AM_0
 10
440.44356585803689
 20
266.4743070258603
 30
0.0
 40
5.0
 50
0.0
 51
88.0
  0
LINE
  5
2A85
  8
AM_0
 10
347.44361585803688
 20
323.15405202586032
 30
0.0
 11
404.44356585803678
 21
323.15405202586032
 31
0.0
  0
LINE
  5
2A86
  8
AM_0
 10
349.37906585803688
 20
402.5413220258601
 30
0.0
 11
405.97916585803682
 21
459.14142202586009
 31
0.0
  0
LINE
  5
2A87
  8
AM_0
 10
347.98636585803712
 20
401.14868202586018
 30
0.0
 11
347.98636585803712
 21
327.10592702586041
 31
0.0
  0
LINE
  5
2A88
  8
AM_0
 10
319.63154485803682
 20
397.53730802586051
 30
0.0
 11
270.87756385803681
 21
363.39940302586018
 31
0.0
  0
ARC
  5
2A89
  8
AM_0
 10
328.44361585803688
 20
388.61515202586031
 30
0.0
 40
2.0
 50
0.0
 51
90.0
  0
ARC
  5
2A8A
  8
AM_0
 10
322.44361585803688
 20
388.61515202586031
 30
0.0
 40
2.0
 50
90.0
 51
180.0
  0
LINE
  5
2A8B
  8
AM_0
 10
330.44361585803688
 20
388.61515202586031
 30
0.0
 11
330.44361585803688
 21
368.58060202586017
 31
0.0
  0
LINE
  5
2A8C
  8
AM_0
 10
332.44361585803688
 20
366.58063202586021
 30
0.0
 11
347.44361585803688
 21
366.58063202586021
 31
0.0
  0
ARC
  5
2A8D
  8
AM_0
 10
332.44361585803688
 20
368.58060202586017
 30
0.0
 40
2.0
 50
180.0
 51
239.99999999999949
  0
LINE
  5
2A8E
  8
AM_0
 10
322.44361585803688
 20
366.58060202586017
 30
0.0
 11
330.44361585803688
 21
366.58060202586017
 31
0.0
  0
LINE
  5
2A8F
  8
AM_0
 10
332.44361585803688
 20
388.68457202586029
 30
0.0
 11
347.98636585803712
 21
388.68457202586029
 31
0.0
  0
ARC
  5
2A90
  8
AM_0
 10
322.44361585803688
 20
398.6059270258603
 30
0.0
 40
2.0
 50
90.0
 51
171.8120159999998
  0
ARC
  5
2A91
  8
AM_0
 10
318.48439185803687
 20
399.17561202586018
 30
0.0
 40
2.0
 50
304.99999999999739
 51
351.81201599999991
  0
LINE
  5
2A92
  8
AM_0
 10
332.44351585803707
 20
400.60589702585997
 30
0.0
 11
346.0179658580368
 21
401.0798970258603
 31
0.0
  0
LINE
  5
2A93
  8
AM_0
 10
322.44361585803688
 20
390.61515202586031
 30
0.0
 11
328.44361585803688
 21
390.61515202586031
 31
0.0
  0
LINE
  5
2A94
  8
AM_0
 10
322.44361585803688
 20
400.60592702586018
 30
0.0
 11
332.44361585803688
 21
400.60592702586018
 31
0.0
  0
ARC
  5
2A95
  8
AM_0
 10
345.84351585803711
 20
406.07693702586022
 30
0.0
 40
5.0
 50
272.0
 51
315.0
  0
LINE
  5
2A96
  8
AM_0
 10
424.44356585803689
 20
426.38171702586033
 30
0.0
 11
445.44356585803689
 21
426.38171702586033
 31
0.0
  0
LINE
  5
2A97
  8
AM_0
 10
424.44356585803689
 20
442.61212702586022
 30
0.0
 11
445.44356585803689
 21
442.61212702586022
 31
0.0
  0
LINE
  5
2A98
  8
AM_0
 10
424.44356585803689
 20
452.8010920258601
 30
0.0
 11
445.44356585803689
 21
452.8010920258601
 31
0.0
  0
LINE
  5
2A99
  8
AM_0
 10
424.44356585803689
 20
452.8010920258601
 30
0.0
 11
424.44356585803689
 21
426.38171702586033
 31
0.0
  0
LINE
  5
2A9A
  8
AM_0
 10
407.44361585803671
 20
426.38171702586033
 30
0.0
 11
422.44361585803688
 21
426.38171702586033
 31
0.0
  0
LINE
  5
2A9B
  8
AM_0
 10
407.44361585803671
 20
442.61212702586022
 30
0.0
 11
422.44361585803688
 21
442.61212702586022
 31
0.0
  0
LINE
  5
2A9C
  8
AM_0
 10
407.44361585803671
 20
452.8010920258601
 30
0.0
 11
422.44361585803688
 21
452.8010920258601
 31
0.0
  0
LINE
  5
2A9D
  8
AM_0
 10
624.44356585803689
 20
322.33203202586031
 30
0.0
 11
624.44356585803689
 21
254.6059270258601
 31
0.0
  0
LINE
  5
2A9E
  8
AM_0
 10
546.44356585803666
 20
294.85183702586028
 30
0.0
 11
624.44356585803689
 21
294.85183702586028
 31
0.0
  0
LINE
  5
2A9F
  8
AM_0
 10
546.44356585803666
 20
270.20697202586013
 30
0.0
 11
624.44356585803689
 21
270.20697202586013
 31
0.0
  0
LINE
  5
2AA0
  8
AM_0
 10
588.54871585803721
 20
220.79907202586031
 30
0.0
 11
638.44361585803699
 21
249.6058970258602
 31
0.0
  0
LINE
  5
2AA1
  8
AM_0
 10
501.44356585803661
 20
221.60591202586031
 30
0.0
 11
583.28696585803698
 21
219.46275202586031
 31
0.0
  0
ARC
  5
2AA2
  8
AM_0
 10
583.54871585803721
 20
229.4593670258603
 30
0.0
 40
10.0
 50
268.5
 51
300.0
  0
ARC
  5
2AA3
  8
AM_0
 10
546.44356585803666
 20
289.85183702586028
 30
0.0
 40
5.0
 50
90.000003000000007
 51
180.00001
  0
ARC
  5
2AA4
  8
AM_0
 10
546.44356585803666
 20
275.2069720258603
 30
0.0
 40
5.0
 50
179.99998999999991
 51
270.0
  0
LINE
  5
2AA5
  8
AM_0
 10
541.44356585803689
 20
289.85183702586028
 30
0.0
 11
541.44356585803689
 21
275.2069720258603
 31
0.0
  0
ARC
  5
2AA6
  8
AM_0
 10
625.44356585803666
 20
290.25680702586038
 30
0.0
 40
8.0
 50
270.0
 51
0.0
  0
ARC
  5
2AA7
  8
AM_0
 10
629.44356585803678
 20
254.6059270258601
 30
0.0
 40
5.0
 50
179.99998999999991
 51
270.0
  0
LINE
  5
2AA8
  8
AM_0
 10
629.44356585803678
 20
249.6059270258601
 30
0.0
 11
646.44356585803666
 21
249.6059270258601
 31
0.0
  0
LINE
  5
2AA9
  8
AM_0
 10
646.44356585803666
 20
274.60592702586041
 30
0.0
 11
651.44356585803666
 21
274.60592702586041
 31
0.0
  0
LINE
  5
2AAA
  8
AM_0
 10
654.44356585803678
 20
444.60593202586023
 30
0.0
 11
654.44356585803678
 21
384.6059270258603
 31
0.0
  0
ARC
  5
2AAB
  8
AM_0
 10
625.44356585803666
 20
330.26928702586031
 30
0.0
 40
8.0
 50
270.0
 51
0.0
  0
ARC
  5
2AAC
  8
AM_0
 10
631.73596585803728
 20
372.85657202586032
 30
0.0
 40
8.0
 50
185.29823999999991
 51
270.0
  0
LINE
  5
2AAD
  8
AM_0
 10
651.44356585803666
 20
384.6059270258603
 30
0.0
 11
654.44356585803678
 21
384.6059270258603
 31
0.0
  0
LINE
  5
2AAE
  8
AM_0
 10
651.44356585803666
 20
444.60593202586023
 30
0.0
 11
654.44356585803678
 21
444.60593202586023
 31
0.0
  0
LINE
  5
2AAF
  8
AM_0
 10
674.44356585803689
 20
446.10593202586023
 30
0.0
 11
674.44356585803689
 21
442.10593202586023
 31
0.0
  0
LINE
  5
2AB0
  8
AM_0
 10
483.44356585803678
 20
547.60596702586031
 30
0.0
 11
492.92166585803687
 21
545.72701702586016
 31
0.0
  0
CIRCLE
  5
2AB1
  8
AM_0
 10
483.44356585803678
 20
562.60591702586055
 30
0.0
 40
15.0
  0
ARC
  5
2AB2
  8
AM_0
 10
483.44356585803678
 20
562.60591702586055
 30
0.0
 40
25.000000499999999
 50
306.46672000000001
 51
233.53328999999999
  0
LINE
  5
2AB3
  8
AM_0
 10
473.37366585803682
 20
535.62566702586025
 30
0.0
 11
501.4435158580369
 21
536.60591702585998
 31
0.0
  0
LINE
  5
2AB4
  8
AM_0
 10
470.44356585803689
 20
536.60591702585998
 30
0.0
 11
501.44356585803661
 21
536.60591702585998
 31
0.0
  0
LINE
  5
2AB5
  8
AM_0
 10
473.64951585803692
 20
545.60591702586021
 30
0.0
 11
493.2375658580371
 21
545.60591702586021
 31
0.0
  0
ARC
  5
2AB6
  8
AM_0
 10
470.44356585803689
 20
534.60596702586031
 30
0.0
 40
2.0000000500000001
 50
90.000003000000007
 51
180.00001
  0
ARC
  5
2AB7
  8
AM_0
 10
473.44356585803689
 20
533.62696702586015
 30
0.0
 40
2.0000000500000001
 50
91.999997999999948
 51
180.00001
  0
LINE
  5
2AB8
  8
AM_0
 10
422.4435158580369
 20
467.1059020258603
 30
0.0
 11
440.6180158580371
 21
467.74057202586022
 31
0.0
  0
LINE
  5
2AB9
  8
AM_0
 10
410.44356585803689
 20
469.10590202586008
 30
0.0
 11
420.44356585803689
 21
469.10590202586008
 31
0.0
  0
ARC
  5
2ABA
  8
AM_0
 10
410.44356585803689
 20
466.10593202586023
 30
0.0
 40
3.0000000500000001
 50
90.000003000000007
 51
180.00001
  0
LINE
  5
2ABB
  8
AM_0
 10
420.44356585803689
 20
469.10586702586022
 30
0.0
 11
422.44356585803661
 21
467.10586702585999
 31
0.0
  0
LINE
  5
2ABC
  8
AM_0
 10
446.8419658580367
 20
486.05804702586022
 30
0.0
 11
467.04511585803698
 21
507.03830202586039
 31
0.0
  0
ARC
  5
2ABD
  8
AM_0
 10
440.44356585803689
 20
472.73755202586023
 30
0.0
 40
5.0
 50
272.0
 51
0.0
  0
ARC
  5
2ABE
  8
AM_0
 10
450.44356585803672
 20
482.58990702586033
 30
0.0
 40
5.0
 50
136.08091999999999
 51
180.00001
  0
LINE
  5
2ABF
  8
AM_0
 10
468.44356585803672
 20
534.60596702586031
 30
0.0
 11
468.44356585803672
 21
510.50656702586031
 31
0.0
  0
ARC
  5
2AC0
  8
AM_0
 10
466.44356585803712
 20
513.62196702586016
 30
0.0
 40
5.0
 50
316.08091999999999
 51
0.0
  0
ARC
  5
2AC1
  8
AM_0
 10
463.44356585803661
 20
510.50656702586031
 30
0.0
 40
5.0
 50
316.08091999999999
 51
0.0
  0
LINE
  5
2AC2
  8
AM_0
 10
467.04511585803698
 20
507.03830202586039
 30
0.0
 11
470.04516585803691
 21
510.15366702586022
 31
0.0
  0
LINE
  5
2AC3
  8
AM_0
 10
473.96551585803712
 20
545.72681702586033
 30
0.0
 11
483.44356585803678
 21
547.60576702586036
 31
0.0
  0
ARC
  5
2AC4
  8
AM_0
 10
474.16001585803713
 20
544.7460170258604
 30
0.0
 40
1.0
 50
101.21329
 51
164.99999
  0
ARC
  5
2AC5
  8
AM_0
 10
465.01851585803678
 20
537.67566702586032
 30
0.0
 40
6.0
 50
349.72994999999997
 51
53.533291000000013
  0
LINE
  5
2AC6
  8
AM_0
 10
470.94356585803678
 20
536.60591702585998
 30
0.0
 11
473.19406585803682
 21
545.00481702586035
 31
0.0
  0
LINE
  5
2AC7
  8
AM_0
 10
501.44361585803688
 20
536.60591702585998
 30
0.0
 11
603.22506585803706
 21
539.27116702586022
 31
0.0
  0
LINE
  5
2AC8
  8
AM_0
 10
586.37266585803729
 20
502.2564120258603
 30
0.0
 11
621.94181585803699
 21
523.78291702586034
 31
0.0
  0
LINE
  5
2AC9
  8
AM_0
 10
586.38196585803689
 20
500.47946702586017
 30
0.0
 11
610.13681585803715
 21
500.47946702586017
 31
0.0
  0
LINE
  5
2ACA
  8
AM_0
 10
583.79311585803646
 20
511.96996702586023
 30
0.0
 11
622.03236585803722
 21
535.1124170258604
 31
0.0
  0
ARC
  5
2ACB
  8
AM_0
 10
586.38196585803689
 20
505.47946702586017
 30
0.0
 40
5.0
 50
179.99998999999991
 51
270.0
  0
ARC
  5
2ACC
  8
AM_0
 10
586.38196585803689
 20
507.69232702586021
 30
0.0
 40
5.0
 50
121.18236
 51
180.00001
  0
LINE
  5
2ACD
  8
AM_0
 10
581.38196585803689
 20
507.69232702586021
 30
0.0
 11
581.38196585803689
 21
505.47946702586017
 31
0.0
  0
ARC
  5
2ACE
  8
AM_0
 10
501.8685658580369
 20
537.67566702586032
 30
0.0
 40
6.0
 50
126.4666999999999
 51
190.27006
  0
ARC
  5
2ACF
  8
AM_0
 10
492.7272158580372
 20
544.7460170258604
 30
0.0
 40
1.0
 50
15.0
 51
78.786709999999999
  0
LINE
  5
2AD0
  8
AM_0
 10
495.94356585803678
 20
536.60591702585998
 30
0.0
 11
493.69306585803679
 21
545.00481702586035
 31
0.0
  0
LINE
  5
2AD1
  8
AM_0
 10
609.2414158580367
 20
528.78526702586032
 30
0.0
 11
608.17056585803675
 21
540.33286702586042
 31
0.0
  0
ARC
  5
2AD2
  8
AM_0
 10
625.44356585803666
 20
480.94257202586022
 30
0.0
 40
8.0
 50
0.0
 51
90.000003000000007
  0
LINE
  5
2AD3
  8
AM_0
 10
613.09376585803693
 20
501.44754202586017
 30
0.0
 11
624.44361585803699
 21
509.7713170258603
 31
0.0
  0
ARC
  5
2AD4
  8
AM_0
 10
610.13681585803715
 20
505.47946702586017
 30
0.0
 40
5.0
 50
270.0
 51
306.25555000000008
  0
ARC
  5
2AD5
  8
AM_0
 10
625.44356585803666
 20
538.95506702586022
 30
0.0
 40
8.0
 50
0.0
 51
90.000003000000007
  0
LINE
  5
2AD6
  8
AM_0
 10
610.0343158580373
 20
542.19666702586005
 30
0.0
 11
624.44361585803699
 21
556.60591702586009
 31
0.0
  0
ARC
  5
2AD7
  8
AM_0
 10
602.96321585803696
 20
549.26771702585995
 30
0.0
 40
10.0
 50
271.49999999999972
 51
315.0
  0
ARC
  5
2AD8
  8
AM_0
 10
619.44356585803689
 20
539.39001702586017
 30
0.0
 40
5.0
 50
301.18236000000002
 51
0.0
  0
LINE
  5
2AD9
  8
AM_0
 10
646.44356585803666
 20
554.6059670258602
 30
0.0
 11
651.44356585803666
 21
554.6059670258602
 31
0.0
  0
ARC
  5
2ADA
  8
AM_0
 10
629.44356585803678
 20
574.00921702586038
 30
0.0
 40
5.0
 50
91.999997999999948
 51
180.00001
  0
LINE
  5
2ADB
  8
AM_0
 10
629.26901585803705
 20
579.00616702586035
 30
0.0
 11
646.44351585803724
 21
579.60591702586055
 31
0.0
  0
ARC
  5
2ADC
  8
AM_0
 10
1117.479480210274
 20
462.8590120258603
 30
0.0
 40
5.0
 50
135.0
 51
217.0967999999998
  0
CIRCLE
  5
2ADD
  8
AM_0
 10
1053.6700902102741
 20
414.6059270258603
 30
0.0
 40
132.0
  0
ARC
  5
2ADE
  8
AM_0
 10
1053.6700902102741
 20
414.6059270258603
 30
0.0
 40
60.0
 50
90.000003000000007
 51
270.0
  0
ARC
  5
2ADF
  8
AM_0
 10
989.86064021027505
 20
462.8590120258603
 30
0.0
 40
5.0
 50
322.90320999999989
 51
45.00000099999999
  0
ARC
  5
2AE0
  8
AM_0
 10
1053.6700902102741
 20
414.6059270258603
 30
0.0
 40
60.0
 50
270.0
 51
90.000003000000007
  0
CIRCLE
  5
2AE1
  8
AM_0
 10
1053.6700902102741
 20
414.6059270258603
 30
0.0
 40
140.0
  0
LINE
  5
2AE2
  8
ﾁｭｳｼﾝｾﾝ
 10
1053.6700902102741
 20
207.58074702586021
 30
0.0
 11
1053.6700902102741
 21
594.05861702586014
 31
0.0
  0
LINE
  5
2AE3
  8
AM_0
 10
888.6700702102753
 20
359.6059270258603
 30
0.0
 11
888.6700702102753
 21
469.60593202586023
 31
0.0
  0
LINE
  5
2AE4
  8
AM_0
 10
1218.670065210275
 20
359.6059270258603
 30
0.0
 11
1218.670065210275
 21
469.60593202586023
 31
0.0
  0
ARC
  5
2AE5
  8
AM_0
 10
1086.6700602102751
 20
321.27673702586031
 30
0.0
 40
102.81999499999991
 50
305.0
 51
317.98482000000001
  0
LINE
  5
2AE6
  8
AM_0
 10
1180.275760210274
 20
399.6059270258603
 30
0.0
 11
1133.6700602102751
 21
399.6059270258603
 31
0.0
  0
LINE
  5
2AE7
  8
AM_0
 10
1108.670090210275
 20
249.6059270258601
 30
0.0
 11
1195.2089102102741
 21
254.14123702586011
 31
0.0
  0
LINE
  5
2AE8
  8
ﾁｭｳｼﾝｾﾝ
 10
877.68837021027491
 20
414.6059270258603
 30
0.0
 11
1231.096655210275
 21
414.6059270258603
 31
0.0
  0
LINE
  5
2AE9
  8
AM_0
 10
927.06440521027525
 20
399.6059270258603
 30
0.0
 11
973.67009021027525
 21
399.6059270258603
 31
0.0
  0
LINE
  5
2AEA
  8
AM_0
 10
998.67009021027525
 20
249.6059270258601
 30
0.0
 11
912.13124021027454
 21
254.14123702586011
 31
0.0
  0
LINE
  5
2AEB
  8
AM_0
 10
888.6700702102753
 20
359.60599202586019
 30
0.0
 11
893.20542021027541
 21
273.06710702586031
 31
0.0
  0
CIRCLE
  5
2AEC
  8
AM_0
 10
915.78425521027532
 20
276.72012202586012
 30
0.0
 40
9.5
  0
ARC
  5
2AED
  8
ﾁｭｳｼﾝｾﾝ1
 10
1053.6700902102721
 20
414.6059270258578
 30
0.0
 40
195.00000499999601
 50
218.16531999999989
 51
231.2744117796841
  0
LINE
  5
2AEE
  8
ﾁｭｳｼﾝｾﾝ1
 10
929.40567723305685
 20
290.34151319846922
 30
0.0
 11
903.35839408675815
 21
264.29422149525442
 31
0.0
  0
ARC
  5
2AEF
  8
AM_0
 10
913.1779952102753
 20
274.11380202586042
 30
0.0
 40
20.000000499999999
 50
183.00001
 51
267.0
  0
LINE
  5
2AF0
  8
AM_0
 10
736.443565858037
 20
446.10593202586023
 30
0.0
 11
736.443565858037
 21
387.1059270258603
 31
0.0
  0
ARC
  5
2AF1
  8
AM_0
 10
927.06440521027525
 20
404.60592702586018
 30
0.0
 40
5.0
 50
184.51616000000001
 51
270.0
  0
LINE
  5
2AF2
  8
AM_0
 10
991.82304521027515
 20
218.78593202586021
 30
0.0
 11
1115.517075210274
 21
218.78593202586021
 31
0.0
  0
LINE
  5
2AF3
  8
AM_0
 10
998.67009021027525
 20
249.6059270258601
 30
0.0
 11
1108.6700602102751
 21
249.6059270258601
 31
0.0
  0
ARC
  5
2AF4
  8
AM_0
 10
1020.670060210274
 20
321.27673702586031
 30
0.0
 40
102.81999499999991
 50
222.01517999999999
 51
235.0
  0
ARC
  5
2AF5
  8
AM_0
 10
991.82304521027515
 20
231.6059270258601
 30
0.0
 40
12.82
 50
235.0
 51
270.0
  0
LINE
  5
2AF6
  8
AM_0
 10
984.4698052102749
 20
221.10440202586031
 30
0.0
 11
961.69493021027529
 21
237.05152702586011
 31
0.0
  0
LINE
  5
2AF7
  8
AM_0
 10
1122.8703502102751
 20
221.1043720258603
 30
0.0
 11
1145.6452202102751
 21
237.0514970258603
 31
0.0
  0
ARC
  5
2AF8
  8
AM_0
 10
1115.517075210274
 20
231.6059270258601
 30
0.0
 40
12.82
 50
270.0
 51
305.0
  0
ARC
  5
2AF9
  8
AM_0
 10
1053.6700902102741
 20
414.6059270258603
 30
0.0
 40
27.500000499999999
 50
106.91239
 51
73.087597000000002
  0
LINE
  5
2AFA
  8
ﾁｭｳｼﾝｾﾝ
 10
979.1603200741331
 20
369.6059270258603
 30
0.0
 11
1128.179860346416
 21
369.6059270258603
 31
0.0
  0
ARC
  5
2AFB
  8
AM_0
 10
1053.6700902102741
 20
414.6059270258603
 30
0.0
 40
75.0
 50
142.90321
 51
180.00001
  0
LINE
  5
2AFC
  8
AM_0
 10
978.67009021027525
 20
414.6059270258603
 30
0.0
 11
978.67009021027525
 21
404.60592702586018
 31
0.0
  0
ARC
  5
2AFD
  8
AM_0
 10
973.67009021027525
 20
404.60592702586018
 30
0.0
 40
5.0
 50
270.0
 51
0.0
  0
CIRCLE
  5
2AFE
  8
AM_5
 10
1053.6700902102741
 20
414.6059270258603
 30
0.0
 40
6.0
  0
CIRCLE
  5
2AFF
  8
AM_0
 10
1053.6700902102741
 20
414.6059270258603
 30
0.0
 40
4.500000049999997
  0
LINE
  5
2B00
  8
AM_0
 10
1045.6700602102751
 20
436.10593202586023
 30
0.0
 11
1045.6700602102751
 21
446.10593202586023
 31
0.0
  0
LINE
  5
2B01
  8
AM_0
 10
1061.6700602102751
 20
436.10593202586023
 30
0.0
 11
1061.6700602102751
 21
446.10593202586023
 31
0.0
  0
LINE
  5
2B02
  8
AM_0
 10
1045.6700602102751
 20
436.10593202586023
 30
0.0
 11
1061.6700602102751
 21
436.10593202586023
 31
0.0
  0
LINE
  5
2B03
  8
AM_0
 10
1045.6700602102751
 20
446.10593202586023
 30
0.0
 11
1061.6700602102751
 21
446.10593202586023
 31
0.0
  0
ARC
  5
2B04
  8
AM_0
 10
1053.6700902102741
 20
414.6059270258603
 30
0.0
 40
75.0
 50
0.0
 51
37.096792999999991
  0
ARC
  5
2B05
  8
AM_0
 10
1133.6700602102751
 20
404.60592702586018
 30
0.0
 40
5.0
 50
179.99998999999991
 51
270.0
  0
LINE
  5
2B06
  8
AM_0
 10
1128.6700602102751
 20
414.6059270258603
 30
0.0
 11
1128.6700602102751
 21
404.60592702586018
 31
0.0
  0
LINE
  5
2B07
  8
AM_0
 10
1218.670065210275
 20
359.60595702586022
 30
0.0
 11
1214.134755210275
 21
273.06713702586012
 31
0.0
  0
ARC
  5
2B08
  8
AM_0
 10
1194.1621752102751
 20
274.11380202586042
 30
0.0
 40
20.000000499999999
 50
273.0
 51
357.0
  0
CIRCLE
  5
2B09
  8
AM_0
 10
1191.555895210274
 20
276.72012202586012
 30
0.0
 40
9.5
  0
ARC
  5
2B0A
  8
AM_0
 10
1180.275760210274
 20
404.60592702586018
 30
0.0
 40
5.0
 50
270.0
 51
355.48385000000002
  0
LINE
  5
2B0B
  8
AM_0
 10
1108.670090210275
 20
579.6059670258602
 30
0.0
 11
1195.208865210275
 21
575.07061702586009
 31
0.0
  0
LINE
  5
2B0C
  8
AM_0
 10
998.67006021027476
 20
579.6059670258602
 30
0.0
 11
912.13124021027454
 21
575.07061702586009
 31
0.0
  0
LINE
  5
2B0D
  8
AM_0
 10
888.6700702102753
 20
469.60596202586009
 30
0.0
 11
893.20537021027485
 21
556.14476702586035
 31
0.0
  0
ARC
  5
2B0E
  8
AM_0
 10
913.1779952102753
 20
555.09801702586014
 30
0.0
 40
20.000000499999999
 50
92.999999000000017
 51
176.99999
  0
CIRCLE
  5
2B0F
  8
AM_0
 10
915.78425521027532
 20
552.49176702586033
 30
0.0
 40
9.5
  0
ARC
  5
2B10
  8
AM_0
 10
1053.6700902102741
 20
414.6059270258603
 30
0.0
 40
75.0
 50
52.903206000000019
 51
127.0967899999999
  0
LINE
  5
2B11
  8
AM_0
 10
998.67009021027525
 20
579.6059670258602
 30
0.0
 11
1108.6700602102751
 21
579.6059670258602
 31
0.0
  0
LINE
  5
2B12
  8
AM_0
 10
1001.881515210275
 20
474.87973202586022
 30
0.0
 11
968.44764521027525
 21
508.31363202586022
 31
0.0
  0
LINE
  5
2B13
  8
AM_0
 10
993.39625521027529
 20
466.39447202586018
 30
0.0
 11
959.96235521027529
 21
499.82834202586008
 31
0.0
  0
ARC
  5
2B14
  8
AM_0
 10
956.42680521027523
 20
496.29285202586033
 30
0.0
 40
5.0
 50
45.00000099999999
 51
139.96885
  0
ARC
  5
2B15
  8
AM_0
 10
971.98317021027515
 20
511.8491670258602
 30
0.0
 40
5.0
 50
130.03115
 51
225.0
  0
ARC
  5
2B16
  8
AM_0
 10
1005.416980210274
 20
478.41534702586023
 30
0.0
 40
5.0
 50
225.0
 51
307.09678999999983
  0
ARC
  5
2B17
  8
AM_0
 10
1101.923145210274
 20
478.41534702586023
 30
0.0
 40
5.0
 50
232.9032099999998
 51
315.0
  0
LINE
  5
2B18
  8
AM_0
 10
1105.458695210275
 20
474.87979702586023
 30
0.0
 11
1138.8925352102749
 21
508.31363202586022
 31
0.0
  0
LINE
  5
2B19
  8
AM_0
 10
1113.9439552102749
 20
466.3945370258603
 30
0.0
 11
1147.3777952102751
 21
499.82837202586018
 31
0.0
  0
ARC
  5
2B1A
  8
AM_0
 10
1135.356980210275
 20
511.8491670258602
 30
0.0
 40
5.0
 50
315.0
 51
49.968851000000001
  0
ARC
  5
2B1B
  8
AM_0
 10
1150.9133202102751
 20
496.29285202586033
 30
0.0
 40
5.0
 50
40.031147999999973
 51
135.0
  0
ARC
  5
2B1C
  8
AM_0
 10
1053.6700902102741
 20
582.60591702586055
 30
0.0
 40
5.0
 50
359.99998999999991
 51
179.99998999999991
  0
LINE
  5
2B1D
  8
AM_0
 10
1048.670090210275
 20
582.60591702586055
 30
0.0
 11
1048.670090210275
 21
579.6059670258602
 31
0.0
  0
LINE
  5
2B1E
  8
AM_0
 10
1058.670090210275
 20
582.60591702586055
 30
0.0
 11
1058.670090210275
 21
579.6059670258602
 31
0.0
  0
LINE
  5
2B1F
  8
AM_0
 10
1218.670080210275
 20
469.60596202586009
 30
0.0
 11
1214.1347702102739
 21
556.14476702586035
 31
0.0
  0
ARC
  5
2B20
  8
AM_0
 10
1194.1621752102751
 20
555.09801702586014
 30
0.0
 40
20.000000499999999
 50
3.0000000999999981
 51
86.999998999999988
  0
CIRCLE
  5
2B21
  8
AM_0
 10
1191.555895210274
 20
552.49176702586033
 30
0.0
 40
9.5
  0
LINE
  5
2B22
  8
ﾁｭｳｼﾝｾﾝ1
 10
1180.1781197209441
 20
541.11390486235723
 30
0.0
 11
1203.1410028596169
 21
564.07680743604931
 31
0.0
  0
ARC
  5
2B23
  8
ﾁｭｳｼﾝｾﾝ1
 10
1053.6700902102741
 20
414.6059270258603
 30
0.0
 40
195.0000049999999
 50
39.367218999999999
 51
50.896189000000007
  0
LINE
  5
2B24
  8
AM_0
 10
205.4436258580368
 20
867.41622642127425
 30
0.0
 11
233.44362585803671
 21
867.41622642127425
 31
0.0
  0
LINE
  5
2B25
  8
AM_0
 10
205.4436258580368
 20
886.41622642127425
 30
0.0
 11
233.44362585803671
 21
886.41622642127425
 31
0.0
  0
LINE
  5
2B26
  8
AM_0
 10
205.4436258580368
 20
879.91622642127425
 30
0.0
 11
227.44362585803671
 21
879.91622642127425
 31
0.0
  0
LINE
  5
2B27
  8
AM_0
 10
205.4436258580368
 20
873.91622642127425
 30
0.0
 11
227.44362585803671
 21
873.91622642127425
 31
0.0
  0
LINE
  5
2B28
  8
AM_0
 10
205.4436258580368
 20
867.41622642127425
 30
0.0
 11
205.4436258580368
 21
886.41622642127425
 31
0.0
  0
ARC
  5
2B29
  8
AM_0
 10
328.4436258580368
 20
815.40700142127423
 30
0.0
 40
2.0
 50
270.0
 51
0.0
  0
ARC
  5
2B2A
  8
AM_0
 10
322.4436258580368
 20
815.40700142127423
 30
0.0
 40
2.0
 50
180.0
 51
270.0
  0
LINE
  5
2B2B
  8
AM_0
 10
320.4436258580368
 20
808.35777542127448
 30
0.0
 11
320.4436258580368
 21
945.47467742127446
 31
0.0
  0
LINE
  5
2B2C
  8
AM_0
 10
319.63155485803679
 20
806.48484442127403
 30
0.0
 11
270.87757385803678
 21
840.62274942127442
 31
0.0
  0
LINE
  5
2B2D
  8
AM_0
 10
322.4436258580368
 20
813.40700142127423
 30
0.0
 11
328.4436258580368
 21
813.40700142127423
 31
0.0
  0
LINE
  5
2B2E
  8
AM_0
 10
322.4436258580368
 20
803.41622642127425
 30
0.0
 11
332.4436258580368
 21
803.41622642127425
 31
0.0
  0
ARC
  5
2B2F
  8
AM_0
 10
322.4436258580368
 20
805.41622642127425
 30
0.0
 40
2.0
 50
188.1879840000033
 51
270.0
  0
ARC
  5
2B30
  8
AM_0
 10
318.4844018580369
 20
804.84654042127454
 30
0.0
 40
2.0
 50
8.1879840000034303
 51
55.000000000002629
  0
LINE
  5
2B31
  8
AM_0
 10
237.44362585803671
 20
902.91622642127413
 30
0.0
 11
235.44362585803671
 21
900.91622642127436
 31
0.0
  0
LINE
  5
2B32
  8
AM_0
 10
242.80177185803689
 20
844.82300442127439
 30
0.0
 11
242.80177185803689
 21
909.00944842127456
 31
0.0
  0
LINE
  5
2B33
  8
AM_0
 10
268.3731748580368
 20
844.37665342127445
 30
0.0
 11
268.3731748580368
 21
909.45579842127427
 31
0.0
  0
LINE
  5
2B34
  8
AM_0
 10
237.44362585803671
 20
847.64827742127443
 30
0.0
 11
237.44362585803671
 21
906.1841754212744
 31
0.0
  0
LINE
  5
2B35
  8
AM_0
 10
235.44362585803671
 20
852.91622642127413
 30
0.0
 11
235.44362585803671
 21
900.91622642127436
 31
0.0
  0
LINE
  5
2B36
  8
AM_0
 10
243.5775068580368
 20
842.80915942127444
 30
0.0
 11
265.31633385803678
 21
842.42970642127443
 31
0.0
  0
LINE
  5
2B37
  8
AM_0
 10
238.9436258580368
 20
845.05020042127444
 30
0.0
 11
242.12986385803671
 21
843.21062542127424
 31
0.0
  0
ARC
  5
2B38
  8
AM_0
 10
240.44362585803671
 20
847.64827742127443
 30
0.0
 40
3.0
 50
180.0
 51
239.99999999999949
  0
LINE
  5
2B39
  8
AM_0
 10
235.44362585803671
 20
852.91622642127413
 30
0.0
 11
237.44362585803671
 21
850.91622642127425
 31
0.0
  0
ARC
  5
2B3A
  8
AM_0
 10
243.62986385803671
 20
845.80870242127423
 30
0.0
 40
3.0
 50
239.99999999999949
 51
269.00000000000148
  0
ARC
  5
2B3B
  8
AM_0
 10
265.14180985803682
 20
832.43122942127422
 30
0.0
 40
10.0
 50
55.000000000002629
 51
89.000000000001506
  0
LINE
  5
2B3C
  8
AM_0
 10
227.44362585803671
 20
873.91622642127425
 30
0.0
 11
227.44362585803671
 21
879.91622642127425
 31
0.0
  0
ARC
  5
2B3D
  8
AM_0
 10
227.44362585803671
 20
876.91622642127425
 30
0.0
 40
3.0
 50
270.0
 51
90.0
  0
LINE
  5
2B3E
  8
AM_0
 10
233.44362585803671
 20
866.91622642127425
 30
0.0
 11
233.44362585803671
 21
886.91622642127425
 31
0.0
  0
LINE
  5
2B3F
  8
AM_0
 10
233.44362585803671
 20
866.91622642127425
 30
0.0
 11
235.44362585803671
 21
866.91622642127425
 31
0.0
  0
LINE
  5
2B40
  8
AM_0
 10
233.44362585803671
 20
886.91622642127425
 30
0.0
 11
235.44362585803671
 21
886.91622642127425
 31
0.0
  0
LINE
  5
2B41
  8
AM_0
 10
322.4436258580368
 20
837.44155042127431
 30
0.0
 11
330.4436258580368
 21
837.44155042127431
 31
0.0
  0
ARC
  5
2B42
  8
AM_0
 10
332.4436258580368
 20
835.44155042127431
 30
0.0
 40
2.0
 50
120.0000000000005
 51
180.0
  0
LINE
  5
2B43
  8
AM_0
 10
330.4436258580368
 20
815.40700142127423
 30
0.0
 11
330.4436258580368
 21
835.44155042127431
 31
0.0
  0
LINE
  5
2B44
  8
AM_0
 10
319.63155485803679
 20
947.34760742127435
 30
0.0
 11
270.87757385803678
 21
913.2097024212743
 31
0.0
  0
LINE
  5
2B45
  8
AM_0
 10
265.31633385803678
 20
911.4027464212744
 30
0.0
 11
243.5775068580368
 21
911.02329342127462
 31
0.0
  0
LINE
  5
2B46
  8
AM_0
 10
242.12986385803671
 20
910.62182642127436
 30
0.0
 11
238.9436258580368
 21
908.7822514212744
 31
0.0
  0
ARC
  5
2B47
  8
AM_0
 10
240.44362585803671
 20
906.1841754212744
 30
0.0
 40
3.0
 50
120.0000000000005
 51
180.0
  0
ARC
  5
2B48
  8
AM_0
 10
243.62986385803671
 20
908.02375042127437
 30
0.0
 40
3.0
 50
90.999999999998494
 51
120.0000000000005
  0
ARC
  5
2B49
  8
AM_0
 10
265.14180985803682
 20
921.40122342127449
 30
0.0
 40
10.0
 50
270.99999999999841
 51
304.99999999999739
  0
LINE
  5
2B4A
  8
AM_0
 10
322.4436258580368
 20
916.39090142127452
 30
0.0
 11
330.4436258580368
 21
916.39090142127452
 31
0.0
  0
LINE
  5
2B4B
  8
AM_0
 10
322.4436258580368
 20
940.4254514212746
 30
0.0
 11
328.4436258580368
 21
940.4254514212746
 31
0.0
  0
ARC
  5
2B4C
  8
AM_0
 10
322.4436258580368
 20
938.42545142127449
 30
0.0
 40
2.0
 50
90.0
 51
180.0
  0
LINE
  5
2B4D
  8
AM_0
 10
330.4436258580368
 20
938.42545142127449
 30
0.0
 11
330.4436258580368
 21
918.39090142127441
 31
0.0
  0
ARC
  5
2B4E
  8
AM_0
 10
332.4436258580368
 20
918.39090142127441
 30
0.0
 40
2.0
 50
180.0
 51
239.99999999999949
  0
ARC
  5
2B4F
  8
AM_0
 10
328.4436258580368
 20
938.42545142127449
 30
0.0
 40
2.0
 50
0.0
 51
90.0
  0
LINE
  5
2B50
  8
AM_0
 10
322.4436258580368
 20
950.41622642127425
 30
0.0
 11
332.4436258580368
 21
950.41622642127425
 31
0.0
  0
ARC
  5
2B51
  8
AM_0
 10
318.4844018580369
 20
948.98591142127452
 30
0.0
 40
2.0
 50
304.99999999999739
 51
351.81201599999628
  0
ARC
  5
2B52
  8
AM_0
 10
322.4436258580368
 20
948.41622642127413
 30
0.0
 40
2.0
 50
90.0
 51
171.8120159999965
  0
ARC
  5
2B54
  8
ﾁｭｳｼﾝｾﾝ1
 10
1053.6700902102741
 20
414.6059270258603
 30
0.0
 40
195.0000049999999
 50
309.36721899999992
 51
320.89618899999988
  0
LINE
  5
2B55
  8
ﾁｭｳｼﾝｾﾝ1
 10
1180.1780680467721
 20
288.09789751519111
 30
0.0
 11
1203.140970620464
 21
265.13501437651792
 31
0.0
  0
ARC
  5
2B56
  8
ﾁｭｳｼﾝｾﾝ1
 10
1053.6700902102721
 20
414.60592702586359
 30
0.0
 40
195.00000499999601
 50
128.16531999999981
 51
141.27441177968441
  0
LINE
  5
2B57
  8
ﾁｭｳｼﾝｾﾝ1
 10
929.40567638288405
 20
538.87034000307881
 30
0.0
 11
903.35838467966914
 21
564.9176231493775
 31
0.0
  0
LINE
  5
2B58
  8
AM_0
 10
654.44356585803678
 20
904.41625642127383
 30
0.0
 11
736.443565858037
 21
904.41625642127383
 31
0.0
  0
LINE
  5
2B59
  8
AM_0
 10
654.44356585803678
 20
849.41625642127428
 30
0.0
 11
736.443565858037
 21
849.41625642127428
 31
0.0
  0
LINE
  5
2B5A
  8
AM_0
 10
674.44362585803685
 20
868.91619642127421
 30
0.0
 11
736.443565858037
 21
868.91619642127421
 31
0.0
  0
LINE
  5
2B5B
  8
AM_0
 10
674.44362585803685
 20
884.91619642127421
 30
0.0
 11
736.443565858037
 21
884.91619642127421
 31
0.0
  0
LINE
  5
2B5C
  8
ﾁｭｳｼﾝｾﾝ
 10
198.3489601604733
 20
876.91625642127428
 30
0.0
 11
747.06080585803682
 21
876.91625642127428
 31
0.0
  0
POLYLINE
  5
2B5D
  8
AM_0
 66
     1
 10
0.0
 20
0.0
 30
0.0
  0
VERTEX
  5
2B5E
  8
AM_0
 10
391.50624585803672
 20
801.35369642127409
 30
0.0
 42
-0.10362759
  0
VERTEX
  5
2B5F
  8
AM_0
 10
352.09788585803682
 20
847.57938642127385
 30
0.0
 42
-0.26090923
  0
VERTEX
  5
2B60
  8
AM_0
 10
352.09788585803682
 20
906.25313642127446
 30
0.0
 42
-0.10362793
  0
VERTEX
  5
2B61
  8
AM_0
 10
391.50618585803682
 20
952.47875642127383
 30
0.0
  0
SEQEND
  5
2B62
  8
AM_0
  0
LINE
  5
2B63
  8
AM_0
 10
389.53785585803672
 20
801.42241642127385
 30
0.0
 11
332.4436258580368
 21
803.41619642127421
 31
0.0
  0
LINE
  5
2B64
  8
AM_0
 10
389.53785585803672
 20
952.41002642127444
 30
0.0
 11
332.4436258580368
 21
950.41625642127428
 31
0.0
  0
LINE
  5
2B65
  8
AM_0
 10
344.44362585803663
 20
803.41619642127421
 30
0.0
 11
344.44362585803663
 21
950.41625642127428
 31
0.0
  0
LINE
  5
2B66
  8
AM_0
 10
332.4436258580368
 20
803.41619642127421
 30
0.0
 11
332.4436258580368
 21
950.41625642127428
 31
0.0
  0
LINE
  5
2B67
  8
AM_0
 10
332.4436258580368
 20
815.33623642127372
 30
0.0
 11
344.44362585803663
 21
815.33623642127372
 31
0.0
  0
LINE
  5
2B68
  8
AM_0
 10
332.4436258580368
 20
837.44158642127434
 30
0.0
 11
344.44362585803663
 21
837.44158642127434
 31
0.0
  0
LINE
  5
2B69
  8
AM_0
 10
332.4436258580368
 20
916.39092642127423
 30
0.0
 11
344.44362585803663
 21
916.39092642127423
 31
0.0
  0
LINE
  5
2B6A
  8
AM_0
 10
332.4436258580368
 20
938.49627642127393
 30
0.0
 11
344.44362585803663
 21
938.49627642127393
 31
0.0
  0
POLYLINE
  5
2B6B
  8
AM_0
 66
     1
 10
0.0
 20
0.0
 30
0.0
  0
VERTEX
  5
2B6C
  8
AM_0
 10
612.34645585803673
 20
963.30450642127425
 30
0.0
 42
0.01720808
  0
VERTEX
  5
2B6D
  8
AM_0
 10
607.93018585803691
 20
905.9293164212736
 30
0.0
 42
0.0088311605
  0
VERTEX
  5
2B6E
  8
AM_0
 10
607.21333585803677
 20
876.91625642127428
 30
0.0
 42
0.025919753
  0
VERTEX
  5
2B6F
  8
AM_0
 10
611.08216585803689
 20
790.95256642127424
 30
0.0
  0
SEQEND
  5
2B70
  8
AM_0
  0
ARC
  5
2B71
  8
AM_0
 10
483.44362585803668
 20
876.91625642127428
 30
0.0
 40
12.5
 50
203.5781799999973
 51
336.42183000000068
  0
LINE
  5
2B72
  8
AM_0
 10
633.44368585803647
 20
1001.265376421274
 30
0.0
 11
633.44368585803647
 21
752.56713642127386
 31
0.0
  0
LINE
  5
2B73
  8
AM_0
 10
651.44362585803685
 20
1016.916256421273
 30
0.0
 11
651.44362585803685
 21
736.91625642127428
 31
0.0
  0
LINE
  5
2B74
  8
AM_0
 10
646.44362585803685
 20
1041.9162564212741
 30
0.0
 11
646.44362585803685
 21
711.91619642127444
 31
0.0
  0
LINE
  5
2B75
  8
AM_0
 10
624.44362585803685
 20
1036.319516421273
 30
0.0
 11
624.44362585803685
 21
717.51299642127424
 31
0.0
  0
LINE
  5
2B76
  8
AM_0
 10
654.44356585803678
 20
906.91625642127394
 30
0.0
 11
654.44356585803678
 21
846.91625642127428
 31
0.0
  0
LINE
  5
2B77
  8
AM_0
 10
389.4436258580368
 20
858.91625642127383
 30
0.0
 11
389.4436258580368
 21
894.91625642127428
 31
0.0
  0
LINE
  5
2B78
  8
AM_0
 10
357.4436258580368
 20
863.91625642127372
 30
0.0
 11
357.4436258580368
 21
889.91625642127394
 31
0.0
  0
LINE
  5
2B79
  8
AM_0
 10
407.4436258580368
 20
779.91625642127428
 30
0.0
 11
407.4436258580368
 21
973.91619642127421
 31
0.0
  0
LINE
  5
2B7A
  8
AM_0
 10
422.44368585803682
 20
974.41625642127428
 30
0.0
 11
422.44368585803682
 21
779.41625642127428
 31
0.0
  0
LINE
  5
2B7B
  8
AM_0
 10
471.44356585803672
 20
749.79229642127382
 30
0.0
 11
471.44356585803672
 21
866.38066642127421
 31
0.0
  0
LINE
  5
2B7C
  8
AM_0
 10
501.44362585803668
 20
871.91625642127428
 30
0.0
 11
501.44362585803668
 21
743.91619642127421
 31
0.0
  0
LINE
  5
2B7D
  8
AM_0
 10
445.44356585803689
 20
770.46056642127382
 30
0.0
 11
445.44356585803689
 21
983.37188642127455
 31
0.0
  0
LINE
  5
2B7E
  8
AM_0
 10
501.44362585803668
 20
743.91619642127421
 30
0.0
 11
617.60035585803678
 21
739.85991642127385
 31
0.0
  0
LINE
  5
2B7F
  8
AM_0
 10
422.44362585803668
 20
779.41619642127421
 30
0.0
 11
440.61812585803671
 21
778.78154642127424
 31
0.0
  0
LINE
  5
2B80
  8
AM_0
 10
424.44356585803689
 20
793.72106642127414
 30
0.0
 11
445.44356585803689
 21
793.72106642127414
 31
0.0
  0
LINE
  5
2B81
  8
AM_0
 10
424.44356585803689
 20
820.1404364212741
 30
0.0
 11
445.44356585803689
 21
820.1404364212741
 31
0.0
  0
LINE
  5
2B82
  8
AM_0
 10
424.44356585803689
 20
803.9100264212741
 30
0.0
 11
445.44356585803689
 21
803.9100264212741
 31
0.0
  0
LINE
  5
2B83
  8
AM_0
 10
391.50624585803672
 20
801.35369642127409
 30
0.0
 11
405.97914585803682
 21
786.88079642127423
 31
0.0
  0
LINE
  5
2B84
  8
AM_0
 10
409.44362585803668
 20
777.91625642127383
 30
0.0
 11
420.44356585803689
 21
777.91625642127383
 31
0.0
  0
ARC
  5
2B85
  8
AM_0
 10
402.4436258580368
 20
783.34514642127431
 30
0.0
 40
5.0
 50
0.0
 51
45.000001000003799
  0
ARC
  5
2B86
  8
AM_0
 10
409.44362585803668
 20
779.91625642127428
 30
0.0
 40
2.0
 50
179.9999899999988
 51
270.0
  0
LINE
  5
2B87
  8
AM_0
 10
420.44356585803689
 20
777.91625642127383
 30
0.0
 11
422.44356585803661
 21
779.91625642127428
 31
0.0
  0
ARC
  5
2B88
  8
AM_0
 10
389.36336585803679
 20
796.42546642127422
 30
0.0
 40
5.0
 50
44.999998000001611
 51
88.000000000002785
  0
LINE
  5
2B89
  8
AM_0
 10
362.44362585803668
 20
858.91625642127383
 30
0.0
 11
384.4436258580368
 21
858.91625642127383
 31
0.0
  0
ARC
  5
2B8A
  8
AM_0
 10
362.44362585803668
 20
863.91625642127372
 30
0.0
 40
5.0
 50
180.00001000000091
 51
270.0
  0
ARC
  5
2B8B
  8
AM_0
 10
384.4436258580368
 20
853.91625642127428
 30
0.0
 40
5.0
 50
0.0
 51
90.00000299999769
  0
LINE
  5
2B8C
  8
AM_0
 10
407.4436258580368
 20
820.64043642127422
 30
0.0
 11
422.44362585803668
 21
820.64043642127422
 31
0.0
  0
LINE
  5
2B8D
  8
AM_0
 10
407.4436258580368
 20
804.41002642127421
 30
0.0
 11
422.44362585803668
 21
804.41002642127421
 31
0.0
  0
LINE
  5
2B8E
  8
AM_0
 10
407.4436258580368
 20
794.22106642127414
 30
0.0
 11
422.44362585803668
 21
794.22106642127414
 31
0.0
  0
LINE
  5
2B8F
  8
AM_0
 10
424.44356585803689
 20
820.1404364212741
 30
0.0
 11
424.44356585803689
 21
793.72106642127414
 31
0.0
  0
LINE
  5
2B90
  8
AM_0
 10
501.44362585803668
 20
743.91619642127421
 30
0.0
 11
476.26912585803677
 21
744.79534642127419
 31
0.0
  0
ARC
  5
2B91
  8
AM_0
 10
476.44356585803661
 20
749.79229642127382
 30
0.0
 40
5.0
 50
180.00001000000091
 51
268.00000000000261
  0
LINE
  5
2B92
  8
AM_0
 10
466.61806585803669
 20
764.8926964212742
 30
0.0
 11
450.26906585803681
 21
765.4636164212742
 31
0.0
  0
ARC
  5
2B93
  8
AM_0
 10
450.44356585803672
 20
770.46056642127382
 30
0.0
 40
5.0
 50
180.00001000000091
 51
268.00000000000261
  0
ARC
  5
2B94
  8
AM_0
 10
440.4436258580368
 20
773.78460642127425
 30
0.0
 40
5.0
 50
0.0
 51
88.000000000002785
  0
ARC
  5
2B95
  8
AM_0
 10
466.44356585803689
 20
759.89574642127423
 30
0.0
 40
5.0
 50
0.0
 51
88.000000000002785
  0
ARC
  5
2B96
  8
AM_0
 10
629.44362585803685
 20
717.51299642127424
 30
0.0
 40
5.0
 50
179.9999899999988
 51
268.00000999999861
  0
LINE
  5
2B97
  8
AM_0
 10
629.26918585803685
 20
712.51598642127385
 30
0.0
 11
646.44368585803647
 21
711.9162564212744
 31
0.0
  0
LINE
  5
2B98
  8
AM_0
 10
586.37275585803673
 20
789.26580642127385
 30
0.0
 11
621.94185585803666
 21
767.7393764212743
 31
0.0
  0
LINE
  5
2B99
  8
AM_0
 10
583.7931658580369
 20
779.55217642127423
 30
0.0
 11
622.03242585803685
 21
756.40978642127425
 31
0.0
  0
LINE
  5
2B9A
  8
AM_0
 10
613.0937658580367
 20
790.0745764212744
 30
0.0
 11
624.44362585803685
 21
781.75084642127422
 31
0.0
  0
ARC
  5
2B9B
  8
AM_0
 10
610.13685585803671
 20
786.04271642127424
 30
0.0
 40
5.0
 50
53.744453000003212
 51
90.00000299999769
  0
ARC
  5
2B9C
  8
AM_0
 10
586.38203585803672
 20
786.04271642127424
 30
0.0
 40
5.0
 50
90.00000299999769
 51
180.00001000000091
  0
ARC
  5
2B9D
  8
AM_0
 10
586.38203585803672
 20
783.82982642127422
 30
0.0
 40
5.0
 50
179.9999899999988
 51
238.81764999999689
  0
LINE
  5
2B9E
  8
AM_0
 10
581.3820358580366
 20
783.82982642127422
 30
0.0
 11
581.3820358580366
 21
786.04271642127424
 31
0.0
  0
LINE
  5
2B9F
  8
AM_0
 10
586.38203585803672
 20
791.04271642127424
 30
0.0
 11
610.13685585803671
 21
791.04271642127424
 31
0.0
  0
POLYLINE
  5
2BA0
  8
AM_0
 66
     1
 10
0.0
 20
0.0
 30
0.0
  0
VERTEX
  5
2BA1
  8
AM_0
 10
614.52716585803671
 20
760.95195642127419
 30
0.0
 42
0.0020909347
  0
VERTEX
  5
2BA2
  8
AM_0
 10
615.49301585803676
 20
753.91144642127415
 30
0.0
 42
0.0020881749
  0
VERTEX
  5
2BA3
  8
AM_0
 10
616.51759585803666
 20
746.87982642127383
 30
0.0
 42
0.0020849591
  0
VERTEX
  5
2BA4
  8
AM_0
 10
617.60035585803678
 20
739.85997642127415
 30
0.0
  0
SEQEND
  5
2BA5
  8
AM_0
  0
ARC
  5
2BA6
  8
AM_0
 10
619.44362585803685
 20
752.13213642127425
 30
0.0
 40
5.0
 50
0.0
 51
58.817640999998339
  0
LINE
  5
2BA7
  8
AM_0
 10
620.96144585803665
 20
738.39855642127441
 30
0.0
 11
624.4436858580367
 21
734.91631642127425
 31
0.0
  0
ARC
  5
2BA8
  8
AM_0
 10
617.42586585803667
 20
734.86303642127382
 30
0.0
 40
5.0
 50
45.000001000003799
 51
88.000000000002785
  0
ARC
  5
2BA9
  8
AM_0
 10
625.44362585803685
 20
752.56713642127386
 30
0.0
 40
8.0
 50
270.0
 51
0.0
  0
LINE
  5
2BAA
  8
AM_0
 10
646.44362585803685
 20
736.91625642127428
 30
0.0
 11
651.44362585803685
 21
736.91625642127428
 31
0.0
  0
ARC
  5
2BAB
  8
AM_0
 10
625.44362585803685
 20
810.57958642127414
 30
0.0
 40
8.0
 50
270.0
 51
0.0
  0
LINE
  5
2BAC
  8
AM_0
 10
651.44362585803685
 20
846.91625642127428
 30
0.0
 11
654.44356585803678
 21
846.91625642127428
 31
0.0
  0
LINE
  5
2BAD
  8
AM_0
 10
501.44362585803668
 20
1009.9162564212741
 30
0.0
 11
617.60035585803678
 21
1013.972526421274
 31
0.0
  0
LINE
  5
2BAE
  8
AM_0
 10
422.44368585803682
 20
974.41625642127428
 30
0.0
 11
440.61818585803661
 21
975.05089642127427
 31
0.0
  0
LINE
  5
2BAF
  8
AM_0
 10
424.44356585803689
 20
949.92241642127385
 30
0.0
 11
445.44356585803689
 21
949.92241642127385
 31
0.0
  0
LINE
  5
2BB0
  8
AM_0
 10
424.44356585803689
 20
960.11138642127446
 30
0.0
 11
445.44356585803689
 21
960.11138642127446
 31
0.0
  0
LINE
  5
2BB1
  8
AM_0
 10
424.44356585803689
 20
933.69200642127385
 30
0.0
 11
445.44356585803689
 21
933.69200642127385
 31
0.0
  0
LINE
  5
2BB2
  8
AM_0
 10
424.44356585803689
 20
960.11138642127446
 30
0.0
 11
424.44356585803689
 21
933.69200642127385
 31
0.0
  0
LINE
  5
2BB3
  8
AM_0
 10
362.44362585803668
 20
894.91625642127428
 30
0.0
 11
384.4436258580368
 21
894.91625642127428
 31
0.0
  0
ARC
  5
2BB4
  8
AM_0
 10
362.44362585803668
 20
889.91625642127394
 30
0.0
 40
5.0
 50
90.00000299999769
 51
180.00001000000091
  0
ARC
  5
2BB5
  8
AM_0
 10
384.4436258580368
 20
899.91625642127383
 30
0.0
 40
5.0
 50
270.0
 51
0.0
  0
LINE
  5
2BB6
  8
AM_0
 10
407.4436258580368
 20
934.19200642127385
 30
0.0
 11
422.44362585803668
 21
934.19200642127385
 31
0.0
  0
ARC
  5
2BB7
  8
AM_0
 10
389.36336585803679
 20
957.40697642127395
 30
0.0
 40
5.0
 50
271.9999999999971
 51
315.0
  0
ARC
  5
2BB8
  8
AM_0
 10
410.44356585803672
 20
973.91619642127421
 30
0.0
 40
3.0
 50
90.00000299999769
 51
180.00001000000091
  0
LINE
  5
2BB9
  8
AM_0
 10
420.4436258580368
 20
976.91625642127428
 30
0.0
 11
422.44356585803661
 21
974.91631642127425
 31
0.0
  0
LINE
  5
2BBA
  8
AM_0
 10
407.4436258580368
 20
960.61138642127423
 30
0.0
 11
422.44362585803668
 21
960.61138642127423
 31
0.0
  0
LINE
  5
2BBB
  8
AM_0
 10
407.4436258580368
 20
950.42241642127385
 30
0.0
 11
422.44362585803668
 21
950.42241642127385
 31
0.0
  0
LINE
  5
2BBC
  8
AM_0
 10
391.50618585803682
 20
952.47869642127444
 30
0.0
 11
405.97920585803672
 21
966.95171642127355
 31
0.0
  0
ARC
  5
2BBD
  8
AM_0
 10
402.4436258580368
 20
970.48729642127455
 30
0.0
 40
5.0
 50
315.0
 51
0.0
  0
LINE
  5
2BBE
  8
AM_0
 10
410.44356585803672
 20
976.91619642127432
 30
0.0
 11
420.44356585803689
 21
976.91619642127432
 31
0.0
  0
LINE
  5
2BBF
  8
AM_0
 10
471.44356585803672
 20
887.45183642127427
 30
0.0
 11
471.44356585803672
 21
1004.040156421273
 31
0.0
  0
LINE
  5
2BC0
  8
AM_0
 10
501.44362585803668
 20
1009.9162564212741
 30
0.0
 11
501.44362585803668
 21
881.91625642127394
 31
0.0
  0
ARC
  5
2BC1
  8
AM_0
 10
483.44362585803668
 20
876.91625642127428
 30
0.0
 40
12.5
 50
23.578179999997531
 51
156.42182000000241
  0
LINE
  5
2BC2
  8
AM_0
 10
463.44362585803668
 20
881.91625642127394
 30
0.0
 11
503.44362585803691
 21
881.91625642127394
 31
0.0
  0
LINE
  5
2BC3
  8
AM_0
 10
463.44362585803668
 20
871.91625642127428
 30
0.0
 11
503.44362585803691
 21
871.91625642127428
 31
0.0
  0
ARC
  5
2BC4
  8
AM_0
 10
483.44362585803668
 20
876.91625642127428
 30
0.0
 40
15.0
 50
148.21198000000049
 51
160.52876999999901
  0
ARC
  5
2BC5
  8
AM_0
 10
463.44362585803668
 20
876.91625642127428
 30
0.0
 40
5.0
 50
90.00000299999769
 51
270.0
  0
ARC
  5
2BC6
  8
AM_0
 10
466.44356585803689
 20
866.38066642127421
 30
0.0
 40
5.0
 50
0.0
 51
31.78801800000311
  0
ARC
  5
2BC7
  8
AM_0
 10
483.44362585803668
 20
876.91625642127428
 30
0.0
 40
15.0
 50
199.4712300000005
 51
211.78801999999919
  0
ARC
  5
2BC8
  8
AM_0
 10
466.44356585803689
 20
887.45183642127427
 30
0.0
 40
5.0
 50
328.21198000000078
 51
0.0
  0
ARC
  5
2BC9
  8
AM_0
 10
503.44362585803691
 20
876.91625642127428
 30
0.0
 40
5.0
 50
270.0
 51
90.00000299999769
  0
LINE
  5
2BCA
  8
AM_0
 10
501.44356585803661
 20
1009.9162564212741
 30
0.0
 11
476.26899585803659
 21
1009.0371064212731
 31
0.0
  0
ARC
  5
2BCB
  8
AM_0
 10
440.4436258580368
 20
980.04784642127424
 30
0.0
 40
5.0
 50
271.9999999999971
 51
0.0
  0
LINE
  5
2BCC
  8
AM_0
 10
466.61806585803669
 20
988.93981642127369
 30
0.0
 11
450.26906585803681
 21
988.36888642127428
 31
0.0
  0
ARC
  5
2BCD
  8
AM_0
 10
450.44356585803672
 20
983.37188642127455
 30
0.0
 40
5.0
 50
91.999998000000545
 51
180.00001000000091
  0
ARC
  5
2BCE
  8
AM_0
 10
466.44356585803689
 20
993.93676642127423
 30
0.0
 40
5.0
 50
271.9999999999971
 51
0.0
  0
ARC
  5
2BCF
  8
AM_0
 10
476.44356585803661
 20
1004.040156421273
 30
0.0
 40
5.0
 50
91.999998000000545
 51
180.00001000000091
  0
POLYLINE
  5
2BD0
  8
AM_0
 66
     1
 10
0.0
 20
0.0
 30
0.0
  0
VERTEX
  5
2BD1
  8
AM_0
 10
619.56874585803666
 20
1014.041256421273
 30
0.0
  0
VERTEX
  5
2BD2
  8
AM_0
 10
616.33848585803685
 20
993.97674642127424
 30
0.0
 42
-1.0
  0
SEQEND
  5
2BD3
  8
AM_0
  0
LINE
  5
2BD4
  8
AM_0
 10
613.0937658580367
 20
963.75786642127434
 30
0.0
 11
624.44362585803685
 21
972.08165642127426
 31
0.0
  0
LINE
  5
2BD5
  8
AM_0
 10
583.7931658580369
 20
974.28026642127395
 30
0.0
 11
622.03242585803685
 21
997.42272642127409
 31
0.0
  0
LINE
  5
2BD6
  8
AM_0
 10
586.37275585803673
 20
964.56664642127441
 30
0.0
 11
621.94185585803666
 21
986.09307642127385
 31
0.0
  0
LINE
  5
2BD7
  8
AM_0
 10
586.38203585803672
 20
962.78978642127424
 30
0.0
 11
610.13685585803671
 21
962.78978642127424
 31
0.0
  0
ARC
  5
2BD8
  8
AM_0
 10
586.38203585803672
 20
967.78978642127424
 30
0.0
 40
5.0
 50
179.9999899999988
 51
270.0
  0
ARC
  5
2BD9
  8
AM_0
 10
586.38203585803672
 20
970.00261642127384
 30
0.0
 40
5.0
 50
121.18235999999619
 51
180.00001000000091
  0
LINE
  5
2BDA
  8
AM_0
 10
581.3820358580366
 20
970.00261642127384
 30
0.0
 11
581.3820358580366
 21
967.78978642127424
 31
0.0
  0
ARC
  5
2BDB
  8
AM_0
 10
610.13685585803671
 20
967.78978642127424
 30
0.0
 40
5.0
 50
270.0
 51
306.25554999999889
  0
LINE
  5
2BDC
  8
AM_0
 10
651.44362585803685
 20
906.91625642127394
 30
0.0
 11
654.44356585803678
 21
906.91625642127394
 31
0.0
  0
ARC
  5
2BDD
  8
AM_0
 10
674.44362585803685
 20
876.91619642127421
 30
0.0
 40
8.0000113999999982
 50
90.00000299999769
 51
270.0
  0
LINE
  5
2BDE
  8
AM_0
 10
674.44356585803689
 20
884.91619642127421
 30
0.0
 11
674.44356585803689
 21
868.91619642127421
 31
0.0
  0
ARC
  5
2BDF
  8
AM_0
 10
625.44362585803685
 20
943.25286642127435
 30
0.0
 40
8.0
 50
0.0
 51
90.00000299999769
  0
ARC
  5
2BE0
  8
AM_0
 10
619.44362585803685
 20
1001.700316421274
 30
0.0
 40
5.0
 50
301.18235999999632
 51
0.0
  0
ARC
  5
2BE1
  8
AM_0
 10
625.44362585803685
 20
1001.265376421274
 30
0.0
 40
8.0
 50
0.0
 51
90.00000299999769
  0
LINE
  5
2BE2
  8
AM_0
 10
629.26918585803685
 20
1041.3165264212739
 30
0.0
 11
646.44368585803647
 21
1041.9162564212741
 31
0.0
  0
LINE
  5
2BE3
  8
AM_0
 10
620.96144585803665
 20
1015.433956421273
 30
0.0
 11
624.4436858580367
 21
1018.916196421274
 31
0.0
  0
ARC
  5
2BE4
  8
AM_0
 10
617.42586585803667
 20
1018.969476421274
 30
0.0
 40
5.0
 50
271.9999999999971
 51
315.0
  0
ARC
  5
2BE5
  8
AM_0
 10
629.44362585803685
 20
1036.319516421273
 30
0.0
 40
5.0
 50
91.999998000000545
 51
180.00001000000091
  0
LINE
  5
2BE6
  8
AM_0
 10
646.44362585803685
 20
1016.916256421273
 30
0.0
 11
651.44362585803685
 21
1016.916256421273
 31
0.0
  0
LINE
  5
2BE7
  8
AM_0
 10
736.443565858037
 20
904.41625642127383
 30
0.0
 11
736.443565858037
 21
849.41625642127428
 31
0.0
  0
TEXT
  5
2DC7
  8
AM_0
 10
874.45661719548286
 20
916.07007060229625
 30
0.0
 40
20.0
  1
VX08-240GF~VX08-500GF
  0
ENDSEC
  0
EOF
