  0
SECTION
  2
HEADER
  9
$ACADVER
  1
AC1024
  9
$ACADMAINTVER
 70
   226
  9
$DWGCODEPAGE
  3
ANSI_932
  9
$LASTSAVEDBY
  1
y-sakai
  9
$INSBASE
 10
0.0
 20
0.0
 30
0.0
  9
$EXTMIN
 10
246.4200094679325
 20
251.1866032228291
 30
0.0
  9
$EXTMAX
 10
1164.694230641285
 20
959.8280214730767
 30
0.0
  9
$LIMMIN
 10
0.0
 20
0.0
  9
$LIMMAX
 10
1422.5
 20
925.0
  9
$ORTHOMODE
 70
     0
  9
$REGENMODE
 70
     1
  9
$FILLMODE
 70
     1
  9
$QTEXTMODE
 70
     0
  9
$MIRRTEXT
 70
     1
  9
$LTSCALE
 40
5.0
  9
$ATTMODE
 70
     1
  9
$TEXTSIZE
 40
2.5
  9
$TRACEWID
 40
1.0
  9
$TEXTSTYLE
  7
STANDARD
  9
$CLAYER
  8
AM_0
  9
$CELTYPE
  6
ByLayer
  9
$CECOLOR
 62
   256
  9
$CELTSCALE
 40
1.0
  9
$DISPSILH
 70
     0
  9
$DIMSCALE
 40
1.0
  9
$DIMASZ
 40
2.5
  9
$DIMEXO
 40
1.0
  9
$DIMDLI
 40
8.0
  9
$DIMRND
 40
0.0
  9
$DIMDLE
 40
0.0
  9
$DIMEXE
 40
0.6
  9
$DIMTP
 40
0.1
  9
$DIMTM
 40
0.1
  9
$DIMTXT
 40
2.5
  9
$DIMCEN
 40
0.0
  9
$DIMTSZ
 40
0.0
  9
$DIMTOL
 70
     0
  9
$DIMLIM
 70
     0
  9
$DIMTIH
 70
     0
  9
$DIMTOH
 70
     0
  9
$DIMSE1
 70
     0
  9
$DIMSE2
 70
     0
  9
$DIMTAD
 70
     1
  9
$DIMZIN
 70
     8
  9
$DIMBLK
  1

  9
$DIMASO
 70
     1
  9
$DIMSHO
 70
     1
  9
$DIMPOST
  1

  9
$DIMAPOST
  1
"
  9
$DIMALT
 70
     0
  9
$DIMALTD
 70
     2
  9
$DIMALTF
 40
0.0393701
  9
$DIMLFAC
 40
1.0
  9
$DIMTOFL
 70
     1
  9
$DIMTVP
 40
0.0
  9
$DIMTIX
 70
     0
  9
$DIMSOXD
 70
     0
  9
$DIMSAH
 70
     0
  9
$DIMBLK1
  1

  9
$DIMBLK2
  1

  9
$DIMSTYLE
  2
AM_ISO
  9
$DIMCLRD
 70
   256
  9
$DIMCLRE
 70
   256
  9
$DIMCLRT
 70
     4
  9
$DIMTFAC
 40
0.71
  9
$DIMGAP
 40
0.8
  9
$DIMJUST
 70
     0
  9
$DIMSD1
 70
     0
  9
$DIMSD2
 70
     0
  9
$DIMTOLJ
 70
     1
  9
$DIMTZIN
 70
     0
  9
$DIMALTZ
 70
     0
  9
$DIMALTTZ
 70
     0
  9
$DIMUPT
 70
     0
  9
$DIMDEC
 70
     4
  9
$DIMTDEC
 70
     4
  9
$DIMALTU
 70
     2
  9
$DIMALTTD
 70
     2
  9
$DIMTXSTY
  7
STANDARD
  9
$DIMAUNIT
 70
     0
  9
$DIMADEC
 70
     0
  9
$DIMALTRND
 40
0.0
  9
$DIMAZIN
 70
     0
  9
$DIMDSEP
 70
    46
  9
$DIMATFIT
 70
     3
  9
$DIMFRAC
 70
     0
  9
$DIMLDRBLK
  1

  9
$DIMLUNIT
 70
     2
  9
$DIMLWD
 70
    -2
  9
$DIMLWE
 70
    -2
  9
$DIMTMOVE
 70
     0
  9
$DIMFXL
 40
1.0
  9
$DIMFXLON
 70
     0
  9
$DIMJOGANG
 40
0.7853981633974483
  9
$DIMTFILL
 70
     0
  9
$DIMTFILLCLR
 70
     0
  9
$DIMARCSYM
 70
     0
  9
$DIMLTYPE
  6

  9
$DIMLTEX1
  6

  9
$DIMLTEX2
  6

  9
$DIMTXTDIRECTION
 70
     0
  9
$LUNITS
 70
     2
  9
$LUPREC
 70
     2
  9
$SKETCHINC
 40
1.0
  9
$FILLETRAD
 40
25.0
  9
$AUNITS
 70
     0
  9
$AUPREC
 70
     0
  9
$MENU
  1
.
  9
$ELEVATION
 40
0.0
  9
$PELEVATION
 40
0.0
  9
$THICKNESS
 40
0.0
  9
$LIMCHECK
 70
     0
  9
$CHAMFERA
 40
10.0
  9
$CHAMFERB
 40
5.0
  9
$CHAMFERC
 40
0.0
  9
$CHAMFERD
 40
0.0
  9
$SKPOLY
 70
     0
  9
$TDCREATE
 40
2452066.577789352
  9
$TDUCREATE
 40
2452066.202789352
  9
$TDUPDATE
 40
2460362.593159722
  9
$TDUUPDATE
 40
2460362.218159722
  9
$TDINDWG
 40
0.1316032986
  9
$TDUSRTIMER
 40
0.1316032870
  9
$USRTIMER
 70
     1
  9
$ANGBASE
 50
0.0
  9
$ANGDIR
 70
     0
  9
$PDMODE
 70
     0
  9
$PDSIZE
 40
0.0
  9
$PLINEWID
 40
0.0
  9
$SPLFRAME
 70
     0
  9
$SPLINETYPE
 70
     6
  9
$SPLINESEGS
 70
     8
  9
$HANDSEED
  5
2FF3
  9
$SURFTAB1
 70
     6
  9
$SURFTAB2
 70
     6
  9
$SURFTYPE
 70
     6
  9
$SURFU
 70
     6
  9
$SURFV
 70
     6
  9
$UCSBASE
  2

  9
$UCSNAME
  2

  9
$UCSORG
 10
0.0
 20
0.0
 30
0.0
  9
$UCSXDIR
 10
1.0
 20
0.0
 30
0.0
  9
$UCSYDIR
 10
0.0
 20
1.0
 30
0.0
  9
$UCSORTHOREF
  2

  9
$UCSORTHOVIEW
 70
     0
  9
$UCSORGTOP
 10
0.0
 20
0.0
 30
0.0
  9
$UCSORGBOTTOM
 10
0.0
 20
0.0
 30
0.0
  9
$UCSORGLEFT
 10
0.0
 20
0.0
 30
0.0
  9
$UCSORGRIGHT
 10
0.0
 20
0.0
 30
0.0
  9
$UCSORGFRONT
 10
0.0
 20
0.0
 30
0.0
  9
$UCSORGBACK
 10
0.0
 20
0.0
 30
0.0
  9
$PUCSBASE
  2

  9
$PUCSNAME
  2

  9
$PUCSORG
 10
0.0
 20
0.0
 30
0.0
  9
$PUCSXDIR
 10
1.0
 20
0.0
 30
0.0
  9
$PUCSYDIR
 10
0.0
 20
1.0
 30
0.0
  9
$PUCSORTHOREF
  2

  9
$PUCSORTHOVIEW
 70
     0
  9
$PUCSORGTOP
 10
0.0
 20
0.0
 30
0.0
  9
$PUCSORGBOTTOM
 10
0.0
 20
0.0
 30
0.0
  9
$PUCSORGLEFT
 10
0.0
 20
0.0
 30
0.0
  9
$PUCSORGRIGHT
 10
0.0
 20
0.0
 30
0.0
  9
$PUCSORGFRONT
 10
0.0
 20
0.0
 30
0.0
  9
$PUCSORGBACK
 10
0.0
 20
0.0
 30
0.0
  9
$USERI1
 70
     0
  9
$USERI2
 70
     0
  9
$USERI3
 70
     0
  9
$USERI4
 70
     0
  9
$USERI5
 70
     0
  9
$USERR1
 40
0.0
  9
$USERR2
 40
0.0
  9
$USERR3
 40
0.0
  9
$USERR4
 40
0.0
  9
$USERR5
 40
0.0
  9
$WORLDVIEW
 70
     1
  9
$SHADEDGE
 70
     3
  9
$SHADEDIF
 70
    70
  9
$TILEMODE
 70
     1
  9
$MAXACTVP
 70
    64
  9
$PINSBASE
 10
0.0
 20
0.0
 30
0.0
  9
$PLIMCHECK
 70
     0
  9
$PEXTMIN
 10
1.000000000000000E+20
 20
1.000000000000000E+20
 30
1.000000000000000E+20
  9
$PEXTMAX
 10
-1.000000000000000E+20
 20
-1.000000000000000E+20
 30
-1.000000000000000E+20
  9
$PLIMMIN
 10
0.0
 20
0.0
  9
$PLIMMAX
 10
420.0
 20
297.0
  9
$UNITMODE
 70
     0
  9
$VISRETAIN
 70
     1
  9
$PLINEGEN
 70
     0
  9
$PSLTSCALE
 70
     1
  9
$TREEDEPTH
 70
  3020
  9
$CMLSTYLE
  2
Standard
  9
$CMLJUST
 70
     0
  9
$CMLSCALE
 40
1.0
  9
$PROXYGRAPHICS
 70
     1
  9
$MEASUREMENT
 70
     0
  9
$CELWEIGHT
370
    -1
  9
$ENDCAPS
280
     0
  9
$JOINSTYLE
280
     0
  9
$LWDISPLAY
290
     0
  9
$INSUNITS
 70
     0
  9
$HYPERLINKBASE
  1

  9
$STYLESHEET
  1

  9
$XEDIT
290
     1
  9
$CEPSNTYPE
380
     0
  9
$PSTYLEMODE
290
     1
  9
$FINGERPRINTGUID
  2
{E6727D15-3022-6442-8C9D-110254D6CA3C}
  9
$VERSIONGUID
  2
{A9486A4C-FD04-004A-9629-67926E2B1980}
  9
$EXTNAMES
290
     1
  9
$PSVPSCALE
 40
0.0
  9
$OLESTARTUP
290
     0
  9
$SORTENTS
280
   127
  9
$INDEXCTL
280
     0
  9
$HIDETEXT
280
     0
  9
$XCLIPFRAME
280
     2
  9
$HALOGAP
280
     0
  9
$OBSCOLOR
 70
   257
  9
$OBSLTYPE
280
     0
  9
$INTERSECTIONDISPLAY
280
     0
  9
$INTERSECTIONCOLOR
 70
   257
  9
$DIMASSOC
280
     1
  9
$PROJECTNAME
  1

  9
$CAMERADISPLAY
290
     0
  9
$LENSLENGTH
 40
50.0
  9
$CAMERAHEIGHT
 40
0.0
  9
$STEPSPERSEC
 40
2.0
  9
$STEPSIZE
 40
6.0
  9
$3DDWFPREC
 40
2.0
  9
$PSOLWIDTH
 40
0.25
  9
$PSOLHEIGHT
 40
4.0
  9
$LOFTANG1
 40
1.570796326794896
  9
$LOFTANG2
 40
1.570796326794896
  9
$LOFTMAG1
 40
0.0
  9
$LOFTMAG2
 40
0.0
  9
$LOFTPARAM
 70
     7
  9
$LOFTNORMALS
280
     1
  9
$LATITUDE
 40
37.795
  9
$LONGITUDE
 40
-122.394
  9
$NORTHDIRECTION
 40
0.0
  9
$TIMEZONE
 70
 -8000
  9
$LIGHTGLYPHDISPLAY
280
     1
  9
$TILEMODELIGHTSYNCH
280
     1
  9
$CMATERIAL
347
2C7A
  9
$SOLIDHIST
280
     0
  9
$SHOWHIST
280
     1
  9
$DWFFRAME
280
     2
  9
$DGNFRAME
280
     0
  9
$REALWORLDSCALE
290
     1
  9
$INTERFERECOLOR
 62
     1
  9
$INTERFEREOBJVS
345
2C9C
  9
$INTERFEREVPVS
346
2C99
  9
$CSHADOW
280
     0
  9
$SHADOWPLANELOCATION
 40
0.0
  0
ENDSEC
  0
SECTION
  2
CLASSES
  0
CLASS
  1
ACDBDICTIONARYWDFLT
  2
AcDbDictionaryWithDefault
  3
ObjectDBX Classes
 90
        0
 91
        1
280
     0
281
     0
  0
CLASS
  1
MATERIAL
  2
AcDbMaterial
  3
ObjectDBX Classes
 90
     1153
 91
        3
280
     0
281
     0
  0
CLASS
  1
VISUALSTYLE
  2
AcDbVisualStyle
  3
ObjectDBX Classes
 90
     4095
 91
       24
280
     0
281
     0
  0
CLASS
  1
SCALE
  2
AcDbScale
  3
ObjectDBX Classes
 90
     1153
 91
       17
280
     0
281
     0
  0
CLASS
  1
TABLESTYLE
  2
AcDbTableStyle
  3
ObjectDBX Classes
 90
     4095
 91
        1
280
     0
281
     0
  0
CLASS
  1
MLEADERSTYLE
  2
AcDbMLeaderStyle
  3
ACDB_MLEADERSTYLE_CLASS
 90
     4095
 91
        1
280
     0
281
     0
  0
CLASS
  1
ACDBSECTIONVIEWSTYLE
  2
AcDbSectionViewStyle
  3
ObjectDBX Classes
 90
     1025
 91
        2
280
     0
281
     0
  0
CLASS
  1
ACDBDETAILVIEWSTYLE
  2
AcDbDetailViewStyle
  3
ObjectDBX Classes
 90
     1025
 91
        2
280
     0
281
     0
  0
CLASS
  1
AMGSETTINGSOBJ
  2
AmgSettingsObj
  3
"AcadM|Product Description: AutoCAD Mechanical|Company: Autodesk, Inc."
 90
     1024
 91
        2
280
     0
281
     0
  0
CLASS
  1
ACME_DOCUMENT
  2
AcMeDbDoc
  3
AcMeServices
 90
     1024
 91
        1
280
     0
281
     0
  0
CLASS
  1
ACMESCOPE
  2
AcMeScope
  3
AcMeServices
 90
     1024
 91
        1
280
     0
281
     0
  0
CLASS
  1
ACMECOMMANDHISTORY
  2
AcMeCommandHistory
  3
AcMeServices
 90
     1024
 91
        1
280
     0
281
     0
  0
CLASS
  1
ACIMSYSVARMAN
  2
AcImSysVarManager
  3
AcMeServices
 90
     1024
 91
        3
280
     0
281
     0
  0
CLASS
  1
ACIMINTSYSVAR
  2
AcImIntSysVar
  3
AcMeServices
 90
     1024
 91
        2
280
     0
281
     0
  0
CLASS
  1
ACMESTATEMGR
  2
AcMeStateMgr
  3
AcMeServices
 90
     1024
 91
        1
280
     0
281
     0
  0
CLASS
  1
ACDBENTITYCACHE
  2
AcMeEntityCache
  3
AcMeServices
 90
     1024
 91
        1
280
     0
281
     0
  0
CLASS
  1
ACGREFMASTER
  2
AcGrefMaster
  3
AcAttribServices
 90
     1024
 91
        1
280
     0
281
     0
  0
CLASS
  1
ACME_DATABASE
  2
AcMeDbDatabase
  3
AcMeServices
 90
     1024
 91
        1
280
     0
281
     0
  0
CLASS
  1
ACRFINSADJUSTERMGR
  2
AcRfInsAdjusterMgr
  3
AcMeServices
 90
     1024
 91
        1
280
     0
281
     0
  0
CLASS
  1
ACGREFACADMASTER
  2
AcGrefacadMaster
  3
AcGrefServices
 90
     1024
 91
        1
280
     0
281
     0
  0
CLASS
  1
AMIMASTER
  2
AmiMaster
  3
AmiServices
 90
     1024
 91
        1
280
     0
281
     0
  0
CLASS
  1
AMDTMENUSTATEMGR
  2
AmdtMenuStateMgr
  3
McadcomServices
 90
     1024
 91
        1
280
     0
281
     0
  0
CLASS
  1
AMDTMCOMMENUSTATE
  2
AmdtMcomMenuState
  3
McadcomServices
 90
     1024
 91
        1
280
     0
281
     0
  0
CLASS
  1
MAPIAMMOUDLE
  2
MApiAmModule
  3
MApiAmServices
 90
     1024
 91
        1
280
     0
281
     0
  0
CLASS
  1
ACIMSTRSYSVAR
  2
AcImStrSysVar
  3
AcMeServices
 90
     1024
 91
        5
280
     0
281
     0
  0
CLASS
  1
AMDTAMMENUSTATE
  2
AmdtAmMenuState
  3
DesignerAssemblies_arx
 90
     1024
 91
        1
280
     0
281
     0
  0
CLASS
  1
ACAMPROJECT
  2
AcAmProject
  3
DesignerAssemblies
 90
     1024
 91
        1
280
     0
281
     0
  0
CLASS
  1
ACAMGRCOMPDEF
  2
AcAmGrCompDef
  3
DesignerAssemblies
 90
     1024
 91
        1
280
     0
281
     0
  0
CLASS
  1
ACAMCOMPDEF
  2
AcAmCompDef
  3
DesignerAssemblies
 90
     1024
 91
        1
280
     0
281
     0
  0
CLASS
  1
ACAMCOMPDEFMGR
  2
AcAmCompDefMgr
  3
DesignerAssemblies
 90
     1024
 91
        1
280
     0
281
     0
  0
CLASS
  1
AMCONTEXTMGR
  2
AcAmContextMgr
  3
DesignerAssemblies
 90
     1024
 91
        1
280
     0
281
     0
  0
CLASS
  1
ACAMCONTEXTMODELER
  2
AcAmContextModeler
  3
DesignerAssemblies
 90
     1024
 91
        1
280
     0
281
     0
  0
CLASS
  1
ACMDATADICTIONARY
  2
AcmDataDictionary
  3
"AcmSymBB|Product Description: AutoCAD Mechanical|Company: Autodesk, Inc."
 90
     1024
 91
        1
280
     0
281
     0
  0
CLASS
  1
ACAMGRCOMPDEFSET
  2
AcAmGrCompDefSet
  3
DesignerAssemblies
 90
     1024
 91
        1
280
     0
281
     0
  0
CLASS
  1
AMDTBROWSERDBTAB
  2
AmdtBrowserDbTab
  3
McadcomServices
 90
     1024
 91
        1
280
     0
281
     0
  0
CLASS
  1
CBROWSERAPPOBJECT
  2
CBrowserAppObject
  3
McadcomServices
 90
     1024
 91
        2
280
     0
281
     0
  0
CLASS
  1
DM_PLACEHOLDER
  2
AcDmSelsetPlaceholder
  3
McadcomServices
 90
     1024
 91
        1
280
     0
281
     0
  0
CLASS
  1
EXACXREFPANELOBJECT
  2
ExAcXREFPanelObject
  3
EXAC_ESW
 90
     1025
 91
        1
280
     0
281
     0
  0
CLASS
  1
NPOCOLLECTION
  2
AcDbImpNonPersistentObjectsCollection
  3
ObjectDBX Classes
 90
     1153
 91
        1
280
     0
281
     0
  0
CLASS
  1
ACMSTANDARDANSI
  2
AcmStandardANSI
  3
"Amdt_StdImp|Product Description: AutoCAD Mechanical|Company: Autodesk, Inc."
 90
     1024
 91
        1
280
     0
281
     0
  0
CLASS
  1
ACMSURFSTANDARDANSI
  2
AcmSurfTextStdANSI
  3
"Amdt_StdImp|Product Description: AutoCAD Mechanical|Company: Autodesk, Inc."
 90
     1024
 91
        1
280
     0
281
     0
  0
CLASS
  1
ACMFCFSTANDARDANSI
  2
AcmFCFStdANSI
  3
"Amdt_StdImp|Product Description: AutoCAD Mechanical|Company: Autodesk, Inc."
 90
     1024
 91
        1
280
     0
281
     0
  0
CLASS
  1
ACMWELDSTANDARDANSI
  2
AcmWeldingStdANSI
  3
"Amdt_StdImp|Product Description: AutoCAD Mechanical|Company: Autodesk, Inc."
 90
     1024
 91
        1
280
     0
281
     0
  0
CLASS
  1
ACMIDSTANDARDANSI
  2
AcmIdStdANSI
  3
"Amdt_StdImp|Product Description: AutoCAD Mechanical|Company: Autodesk, Inc."
 90
     1024
 91
        1
280
     0
281
     0
  0
CLASS
  1
ACMDATUMSTANDARDANSI
  2
AcmDatumStdANSI
  3
"Amdt_StdImp|Product Description: AutoCAD Mechanical|Company: Autodesk, Inc."
 90
     1024
 91
        1
280
     0
281
     0
  0
CLASS
  1
ACMBOMSTANDARDANSI
  2
AcmBOMStdANSI
  3
"Amdt_StdImp|Product Description: AutoCAD Mechanical|Company: Autodesk, Inc."
 90
     1024
 91
        1
280
     0
281
     0
  0
CLASS
  1
ACMDETAILSTANDARDANSI
  2
AmdtDetailSymStdANSI
  3
"Amdt_StdImp|Product Description: AutoCAD Mechanical|Company: Autodesk, Inc."
 90
     1024
 91
        1
280
     0
281
     0
  0
CLASS
  1
ACMSECTIONSTANDARDANSI
  2
AmdtSectionSymStdANSI
  3
"Amdt_StdImp|Product Description: AutoCAD Mechanical|Company: Autodesk, Inc."
 90
     1024
 91
        1
280
     0
281
     0
  0
CLASS
  1
ACMCENTERLINESTANDARDANSI
  2
AmdtCenterLineStdANSI
  3
"Amdt_StdImp|Product Description: AutoCAD Mechanical|Company: Autodesk, Inc."
 90
     1024
 91
        1
280
     0
281
     0
  0
CLASS
  1
ACMTHREADLINESTANDARDANSI
  2
AmdtThreadLineStdANSI
  3
"Amdt_StdImp|Product Description: AutoCAD Mechanical|Company: Autodesk, Inc."
 90
     1024
 91
        1
280
     0
281
     0
  0
CLASS
  1
ACMNOTESTANDARDANSI
  2
AmdtNoteStdANSI
  3
"Amdt_StdImp|Product Description: AutoCAD Mechanical|Company: Autodesk, Inc."
 90
     1024
 91
        1
280
     0
281
     0
  0
CLASS
  1
ACMTAPERSTANDARDANSI
  2
AcmTaperStdANSI
  3
"Amdt_StdImp|Product Description: AutoCAD Mechanical|Company: Autodesk, Inc."
 90
     1024
 91
        1
280
     0
281
     0
  0
CLASS
  1
ACMANOOTATIONVIEWSTANDARDANSI
  2
AmdtAnViewStdANSI
  3
"Amdt_StdImp|Product Description: AutoCAD Mechanical|Company: Autodesk, Inc."
 90
     1024
 91
        1
280
     0
281
     0
  0
CLASS
  1
ACAMGLAYSTD
  2
AcAmgLayStd
  3
"AmgLay|Product Description: AutoCAD Mechanical|Company: Autodesk, Inc."
 90
     1024
 91
        1
280
     0
281
     0
  0
CLASS
  1
ACAMGDIMSTD
  2
AcAmgDimStd
  3
"AmgDim|Product Description: AutoCAD Mechanical|Company: Autodesk, Inc."
 90
     1024
 91
        1
280
     0
281
     0
  0
CLASS
  1
ACAMGHOLECHARTSTDANSI
  2
AcAmgHoleChartStdANSI
  3
"AmgDim" "Product Description: AutoCAD Mechanical|Company: Autodesk, Inc."
 90
     1024
 91
        1
280
     0
281
     0
  0
CLASS
  1
AMGOBJPROPCFG
  2
AmgObjPropCfg
  3
"AmgLay|Product Description: AutoCAD Mechanical|Company: Autodesk, Inc."
 90
     1024
 91
        1
280
     0
281
     0
  0
CLASS
  1
ACAMGTITLESTD
  2
AcAmgTitleStd
  3
"AmgTitle|Product Description: AutoCAD Mechanical|Company: Autodesk, Inc."
 90
     1024
 91
        1
280
     0
281
     0
  0
CLASS
  1
ACMSECTIONSTANDARDCUSTOM
  2
AmdtSectionSymStdCustom
  3
"Amdt_StdImp|Product Description: AutoCAD Mechanical|Company: Autodesk, Inc."
 90
     1024
 91
        1
280
     0
281
     0
  0
CLASS
  1
ACMDETAILTANDARDCUSTOM
  2
AmdtDetailSymStdCustom
  3
"Amdt_StdImp|Product Description: AutoCAD Mechanical|Company: Autodesk, Inc."
 90
     1024
 91
        1
280
     0
281
     0
  0
CLASS
  1
FIELD
  2
AcDbField
  3
ObjectDBX Classes
 90
     1152
 91
        8
280
     0
281
     0
  0
CLASS
  1
FIELDLIST
  2
AcDbFieldList
  3
ObjectDBX Classes
 90
     1152
 91
        1
280
     0
281
     0
  0
CLASS
  1
AMDTNOTETEMPLATEDB
  2
AmdtNoteTemplateDB
  3
"AcmSymBB" "Product Description: AutoCAD Mechanical|Company: Autodesk, Inc."
 90
     1024
 91
        7
280
     0
281
     0
  0
CLASS
  1
SORTENTSTABLE
  2
AcDbSortentsTable
  3
ObjectDBX Classes
 90
        0
 91
        0
280
     0
281
     0
  0
CLASS
  1
ACAMGFILTERDAT
  2
AcAmgFilterDat
  3
"AcadM|Product Description: AutoCAD Mechanical|Company: Autodesk, Inc."
 90
     1024
 91
        0
280
     0
281
     0
  0
CLASS
  1
DICTIONARYVAR
  2
AcDbDictionaryVar
  3
ObjectDBX Classes
 90
        0
 91
        9
280
     0
281
     0
  0
CLASS
  1
CELLSTYLEMAP
  2
AcDbCellStyleMap
  3
ObjectDBX Classes
 90
     1152
 91
        2
280
     0
281
     0
  0
ENDSEC
  0
SECTION
  2
TABLES
  0
TABLE
  2
VPORT
  5
2C71
330
0
100
AcDbSymbolTable
 70
     1
  0
VPORT
  5
2CDD
330
2C71
100
AcDbSymbolTableRecord
100
AcDbViewportTableRecord
  2
*ACTIVE
 70
     0
 10
0.0
 20
0.0
 11
1.0
 21
1.0
 12
705.5522761020137
 22
605.5195792864779
 13
0.0
 23
0.0
 14
12.5
 24
12.5
 15
50.0
 25
50.0
 16
0.0
 26
0.0
 36
1.0
 17
0.0
 27
0.0
 37
0.0
 40
714.6377399717895
 41
2.197496522948539
 42
50.0
 43
0.0
 44
0.0
 50
0.0
 51
0.0
 71
     0
 72
   100
 73
     1
 74
     3
 75
     0
 76
     0
 77
     0
 78
     0
281
     0
 65
     0
110
0.0
120
0.0
130
0.0
111
1.0
121
0.0
131
0.0
112
0.0
122
1.0
132
0.0
 79
     0
146
0.0
348
2C98
 60
     3
 61
     5
292
     1
282
     0
141
0.0
142
0.0
 63
   250
421
  3355443
1001
ACAD_NAV_VCDISPLAY
1070
     3
  0
ENDTAB
  0
TABLE
  2
LTYPE
  5
2C6E
330
0
100
AcDbSymbolTable
 70
    18
  0
LTYPE
  5
2CC3
330
2C6E
100
AcDbSymbolTableRecord
100
AcDbLinetypeTableRecord
  2
ByBlock
 70
     0
  3

 72
    65
 73
     0
 40
0.0
  0
LTYPE
  5
2CC4
330
2C6E
100
AcDbSymbolTableRecord
100
AcDbLinetypeTableRecord
  2
ByLayer
 70
     0
  3

 72
    65
 73
     0
 40
0.0
  0
LTYPE
  5
2CC5
330
2C6E
100
AcDbSymbolTableRecord
100
AcDbLinetypeTableRecord
  2
CONTINUOUS
 70
     0
  3
Solid line
 72
    65
 73
     0
 40
0.0
  0
LTYPE
  5
2CE1
330
2C6E
100
AcDbSymbolTableRecord
100
AcDbLinetypeTableRecord
  2
AMCONSTR
 70
     0
  3
_______________________
 72
    65
 73
     2
 40
9999.0
 49
9999.0
 74
     0
 49
0.0
 74
     0
  0
LTYPE
  5
2CE9
330
2C6E
100
AcDbSymbolTableRecord
100
AcDbLinetypeTableRecord
  2
PHANTOM2
 70
     0
  3
Phantom (.5x) ___ _ _ ___ _ _ ___ _ _ ___ _ _
 72
    65
 73
     6
 40
31.75
 49
15.875
 74
     0
 49
-3.174999999999998
 74
     0
 49
3.174999999999998
 74
     0
 49
-3.174999999999998
 74
     0
 49
3.174999999999998
 74
     0
 49
-3.174999999999998
 74
     0
  0
LTYPE
  5
2CEC
330
2C6E
100
AcDbSymbolTableRecord
100
AcDbLinetypeTableRecord
  2
GEN7
 70
     0
  3
____ . ____ . ____ . ____ . ____ . ____ . ____
 72
    65
 73
     4
 40
14.25
 49
9.75
 74
     0
 49
-1.5
 74
     0
 49
1.5
 74
     0
 49
-1.5
 74
     0
  0
LTYPE
  5
2CED
330
2C6E
100
AcDbSymbolTableRecord
100
AcDbLinetypeTableRecord
  2
GEN7A
 70
     0
  3
__ . __ . __
 72
    65
 73
     4
 40
7.375
 49
4.75
 74
     0
 49
-0.875
 74
     0
 49
0.875
 74
     0
 49
-0.875
 74
     0
  0
LTYPE
  5
2CF4
330
2C6E
100
AcDbSymbolTableRecord
100
AcDbLinetypeTableRecord
  2
ACANSTGB
 70
     0
  3
__ . . __ . .
 72
    65
 73
     6
 40
0.35433070866
 49
0.15748031496
 74
     0
 49
-0.03937007874
 74
     0
 49
0.03937007874
 74
     0
 49
-0.03937007874
 74
     0
 49
0.03937007874
 74
     0
 49
-0.03937007874
 74
     0
  0
LTYPE
  5
2CF5
330
2C6E
100
AcDbSymbolTableRecord
100
AcDbLinetypeTableRecord
  2
ACANSTGL
 70
     0
  3
_ _ _ _ _
 72
    65
 73
     2
 40
0.11811023622
 49
0.07874015748
 74
     0
 49
-0.03937007874
 74
     0
  0
LTYPE
  5
2F68
330
2C6E
100
AcDbSymbolTableRecord
100
AcDbLinetypeTableRecord
  2
HIDDEN
 70
     0
  3
Hidden __ __ __ __ __ __ __ __ __ __ __ __ __ _
 72
    65
 73
     2
 40
0.375
 49
0.25
 74
     0
 49
-0.125
 74
     0
  0
LTYPE
  5
2F69
330
2C6E
100
AcDbSymbolTableRecord
100
AcDbLinetypeTableRecord
  2
CENTER
 70
     0
  3
Center ____ _ ____ _ ____ _ ____ _ ____ _ ____
 72
    65
 73
     4
 40
2.0
 49
1.25
 74
     0
 49
-0.25
 74
     0
 49
0.25
 74
     0
 49
-0.25
 74
     0
  0
LTYPE
  5
2F9F
330
2C6E
100
AcDbSymbolTableRecord
100
AcDbLinetypeTableRecord
  2
CENTER2
 70
     0
  3
Center (.5x) ___ _ ___ _ ___ _ ___ _ ___ _ ___
 72
    65
 73
     4
 40
1.125
 49
0.75
 74
     0
 49
-0.125
 74
     0
 49
0.125
 74
     0
 49
-0.125
 74
     0
  0
LTYPE
  5
2FA0
330
2C6E
100
AcDbSymbolTableRecord
100
AcDbLinetypeTableRecord
  2
HIDDEN2
 70
     0
  3
Hidden (.5x) _ _ _ _ _ _ _ _ _ _ _ _ _ _ _ _ _
 72
    65
 73
     2
 40
0.1875
 49
0.125
 74
     0
 49
-0.0625
 74
     0
  0
LTYPE
  5
2FA3
330
2C6E
100
AcDbSymbolTableRecord
100
AcDbLinetypeTableRecord
  2
Amzigzag2
 70
     0
  3
/\/-/\/-/\/-/\/-/\/-/\/
 72
    65
 73
     2
 40
0.4401
 49
0.0001
 74
     4
 75
   136
340
2FA2
 46
0.0016
 50
0.0
 44
0.0
 45
0.0
 49
-0.4400000000000001
 74
     0
  0
ENDTAB
  0
TABLE
  2
LAYER
  5
2C6B
102
{ACAD_XDICTIONARY
360
2F0A
102
}
330
0
100
AcDbSymbolTable
 70
     6
  0
LAYER
  5
2CBD
102
{ACAD_XDICTIONARY
360
2EFD
102
}
330
2C6B
100
AcDbSymbolTableRecord
100
AcDbLayerTableRecord
  2
0
 70
     0
 62
     7
  6
CONTINUOUS
370
    -3
390
2C78
347
2C8A
  0
LAYER
  5
2CDC
102
{ACAD_XDICTIONARY
360
2EFF
102
}
330
2C6B
100
AcDbSymbolTableRecord
100
AcDbLayerTableRecord
  2
AM_0
 70
     0
 62
     7
  6
CONTINUOUS
370
    -3
390
2C78
347
2C8A
  0
LAYER
  5
2CF6
102
{ACAD_XDICTIONARY
360
2F01
102
}
330
2C6B
100
AcDbSymbolTableRecord
100
AcDbLayerTableRecord
  2
AM_5
 70
     0
 62
     2
  6
CONTINUOUS
370
    -3
390
2C78
347
2C8A
  0
LAYER
  5
2CF7
330
2C6B
100
AcDbSymbolTableRecord
100
AcDbLayerTableRecord
  2
DEFPOINTS
 70
     0
 62
     7
  6
CONTINUOUS
290
     0
370
    -3
390
2C78
347
2C8A
  0
LAYER
  5
2CF8
102
{ACAD_XDICTIONARY
360
2F03
102
}
330
2C6B
100
AcDbSymbolTableRecord
100
AcDbLayerTableRecord
  2
ﾁｭｳｼﾝｾﾝ
 70
     0
 62
     1
  6
GEN7
370
    -3
390
2C78
347
2C8A
  0
LAYER
  5
2CF9
102
{ACAD_XDICTIONARY
360
2F05
102
}
330
2C6B
100
AcDbSymbolTableRecord
100
AcDbLayerTableRecord
  2
ﾁｭｳｼﾝｾﾝ1
 70
     0
 62
     1
  6
GEN7A
370
    -3
390
2C78
347
2C8A
  0
ENDTAB
  0
TABLE
  2
STYLE
  5
2C6C
330
0
100
AcDbSymbolTable
 70
     4
  0
STYLE
  5
2CBE
330
2C6C
100
AcDbSymbolTableRecord
100
AcDbTextStyleTableRecord
  2
STANDARD
 70
     0
 40
0.0
 41
0.8299999999999998
 50
0.0
 71
     0
 42
2.5
  3
txt.shx
  4
bigfont.shx
  0
STYLE
  5
2CFE
330
2C6C
100
AcDbSymbolTableRecord
100
AcDbTextStyleTableRecord
  2
ACANSGDT
 70
     0
 40
0.0
 41
1.0
 50
0.0
 71
     0
 42
2.5
  3
amgdt.shx
  4

  0
STYLE
  5
2FA2
330
2C6C
100
AcDbSymbolTableRecord
100
AcDbTextStyleTableRecord
  2

 70
     1
 40
0.0
 41
1.0
 50
0.0
 71
     0
 42
2.5
  3
genltshp.shx
  4

  0
ENDTAB
  0
TABLE
  2
VIEW
  5
2C6F
330
0
100
AcDbSymbolTable
 70
     6
  0
VIEW
  5
2D01
330
2C6F
100
AcDbSymbolTableRecord
100
AcDbViewTableRecord
  2
AM_VIEW1
 70
     0
 40
462.5
 10
416.0796500920808
 20
693.75
 41
832.1593001841621
 11
0.0
 21
0.0
 31
1.0
 12
0.0
 22
0.0
 32
0.0
 42
50.0
 43
0.0
 44
0.0
 50
0.0
 71
     0
281
     0
 72
     0
 73
     0
348
2C98
  0
VIEW
  5
2D02
330
2C6F
100
AcDbSymbolTableRecord
100
AcDbViewTableRecord
  2
AM_VIEW2
 70
     0
 40
462.5
 10
1006.420349907918
 20
693.75
 41
832.1593001841621
 11
0.0
 21
0.0
 31
1.0
 12
0.0
 22
0.0
 32
0.0
 42
50.0
 43
0.0
 44
0.0
 50
0.0
 71
     0
281
     0
 72
     0
 73
     0
348
2C98
  0
VIEW
  5
2D03
330
2C6F
100
AcDbSymbolTableRecord
100
AcDbViewTableRecord
  2
AM_VIEW3
 70
     0
 40
462.5
 10
416.0796500920808
 20
231.25
 41
832.1593001841621
 11
0.0
 21
0.0
 31
1.0
 12
0.0
 22
0.0
 32
0.0
 42
50.0
 43
0.0
 44
0.0
 50
0.0
 71
     0
281
     0
 72
     0
 73
     0
348
2C98
  0
VIEW
  5
2D04
330
2C6F
100
AcDbSymbolTableRecord
100
AcDbViewTableRecord
  2
AM_VIEW4
 70
     0
 40
462.5
 10
1006.420349907918
 20
231.25
 41
832.1593001841621
 11
0.0
 21
0.0
 31
1.0
 12
0.0
 22
0.0
 32
0.0
 42
50.0
 43
0.0
 44
0.0
 50
0.0
 71
     0
281
     0
 72
     0
 73
     0
348
2C98
  0
VIEW
  5
2D05
330
2C6F
100
AcDbSymbolTableRecord
100
AcDbViewTableRecord
  2
AM_VIEW5
 70
     0
 40
462.5
 10
711.2499999999997
 20
462.5
 41
832.1593001841616
 11
0.0
 21
0.0
 31
1.0
 12
0.0
 22
0.0
 32
0.0
 42
50.0
 43
0.0
 44
0.0
 50
0.0
 71
     0
281
     0
 72
     0
 73
     0
348
2C98
  0
VIEW
  5
2D06
330
2C6F
100
AcDbSymbolTableRecord
100
AcDbViewTableRecord
  2
AM_VIEW6
 70
     0
 40
924.99075
 10
711.2499999999997
 20
462.5
 41
1664.30195718232
 11
0.0
 21
0.0
 31
1.0
 12
0.0
 22
0.0
 32
0.0
 42
50.0
 43
0.0
 44
0.0
 50
0.0
 71
     0
281
     0
 72
     0
 73
     0
348
2C98
  0
ENDTAB
  0
TABLE
  2
UCS
  5
2C70
330
0
100
AcDbSymbolTable
 70
     0
  0
ENDTAB
  0
TABLE
  2
APPID
  5
2C72
330
0
100
AcDbSymbolTable
 70
    95
  0
APPID
  5
2CBF
330
2C72
100
AcDbSymbolTableRecord
100
AcDbRegAppTableRecord
  2
ACAD
 70
     0
  0
APPID
  5
2CC6
330
2C72
100
AcDbSymbolTableRecord
100
AcDbRegAppTableRecord
  2
ACADANNOTATIVE
 70
     0
  0
APPID
  5
2D07
330
2C72
100
AcDbSymbolTableRecord
100
AcDbRegAppTableRecord
  2
MCAD_NO_VIS
 70
     0
  0
APPID
  5
2D08
330
2C72
100
AcDbSymbolTableRecord
100
AcDbRegAppTableRecord
  2
ACAD_TEMP_GRAPHIC
 70
     0
  0
APPID
  5
2D09
330
2C72
100
AcDbSymbolTableRecord
100
AcDbRegAppTableRecord
  2
ACATTRIBSERVICES
 70
     0
  0
APPID
  5
2D0A
330
2C72
100
AcDbSymbolTableRecord
100
AcDbRegAppTableRecord
  2
GENIUS_GENREC_14
 70
     0
  0
APPID
  5
2D0B
330
2C72
100
AcDbSymbolTableRecord
100
AcDbRegAppTableRecord
  2
GENIUS_GENOBJ-N-REC_13
 70
     0
  0
APPID
  5
2D0C
330
2C72
100
AcDbSymbolTableRecord
100
AcDbRegAppTableRecord
  2
GENIUS_GENODEF_13
 70
     0
  0
APPID
  5
2D0D
330
2C72
100
AcDbSymbolTableRecord
100
AcDbRegAppTableRecord
  2
GENIUS_GENOLIS_13
 70
     0
  0
APPID
  5
2D0E
330
2C72
100
AcDbSymbolTableRecord
100
AcDbRegAppTableRecord
  2
GENIUS_GENOBJ-N-TIT_13
 70
     0
  0
APPID
  5
2D0F
330
2C72
100
AcDbSymbolTableRecord
100
AcDbRegAppTableRecord
  2
GENIUS_GENOENT_13
 70
     0
  0
APPID
  5
2D10
330
2C72
100
AcDbSymbolTableRecord
100
AcDbRegAppTableRecord
  2
GENIUS_GENTITLE_13
 70
     0
  0
APPID
  5
2D11
330
2C72
100
AcDbSymbolTableRecord
100
AcDbRegAppTableRecord
  2
GENIUS_GENOREF_13
 70
     0
  0
APPID
  5
2D12
330
2C72
100
AcDbSymbolTableRecord
100
AcDbRegAppTableRecord
  2
GENIUS_GENSCREG_15
 70
     0
  0
APPID
  5
2D13
330
2C72
100
AcDbSymbolTableRecord
100
AcDbRegAppTableRecord
  2
GENIUS_GENOBJ-N-SDF_13
 70
     0
  0
APPID
  5
2D14
330
2C72
100
AcDbSymbolTableRecord
100
AcDbRegAppTableRecord
  2
GENIUS_GENFIL_13
 70
     0
  0
APPID
  5
2D15
330
2C72
100
AcDbSymbolTableRecord
100
AcDbRegAppTableRecord
  2
GENIUS_GENOBJ-N-CHA_13
 70
     0
  0
APPID
  5
2D16
330
2C72
100
AcDbSymbolTableRecord
100
AcDbRegAppTableRecord
  2
GENIUS_GENDTOL_13
 70
     0
  0
APPID
  5
2D17
330
2C72
100
AcDbSymbolTableRecord
100
AcDbRegAppTableRecord
  2
GENIUS_GENOBJ-N-FIL_13
 70
     0
  0
APPID
  5
2D18
330
2C72
100
AcDbSymbolTableRecord
100
AcDbRegAppTableRecord
  2
AD_DRAW
 70
     0
  0
APPID
  5
2D19
330
2C72
100
AcDbSymbolTableRecord
100
AcDbRegAppTableRecord
  2
DESIGNERASSEMBLIES
 70
     0
  0
APPID
  5
2D1A
330
2C72
100
AcDbSymbolTableRecord
100
AcDbRegAppTableRecord
  2
ASURF_PCURVE_APPNAME
 70
     0
  0
APPID
  5
2D1B
330
2C72
100
AcDbSymbolTableRecord
100
AcDbRegAppTableRecord
  2
GENIUS_GE3SECT_13
 70
     0
  0
APPID
  5
2D1C
330
2C72
100
AcDbSymbolTableRecord
100
AcDbRegAppTableRecord
  2
GENIUS_GENCFG_13
 70
     0
  0
APPID
  5
2D1D
330
2C72
100
AcDbSymbolTableRecord
100
AcDbRegAppTableRecord
  2
GENIUS_GE3CFG0_13
 70
     0
  0
APPID
  5
2D1E
330
2C72
100
AcDbSymbolTableRecord
100
AcDbRegAppTableRecord
  2
GENIUS_GENCFG0_13
 70
     0
  0
APPID
  5
2D1F
330
2C72
100
AcDbSymbolTableRecord
100
AcDbRegAppTableRecord
  2
GENIUS_GENCFG1_13
 70
     0
  0
APPID
  5
2D20
330
2C72
100
AcDbSymbolTableRecord
100
AcDbRegAppTableRecord
  2
GENIUS_GENCFG2_13
 70
     0
  0
APPID
  5
2D21
330
2C72
100
AcDbSymbolTableRecord
100
AcDbRegAppTableRecord
  2
GENIUS_GENCFG3_13
 70
     0
  0
APPID
  5
2D22
330
2C72
100
AcDbSymbolTableRecord
100
AcDbRegAppTableRecord
  2
GENIUS_GENCFG4_13
 70
     0
  0
APPID
  5
2D23
330
2C72
100
AcDbSymbolTableRecord
100
AcDbRegAppTableRecord
  2
GENIUS_GEVCFG0_13
 70
     0
  0
APPID
  5
2D24
330
2C72
100
AcDbSymbolTableRecord
100
AcDbRegAppTableRecord
  2
GENIUS_GENHINW_13
 70
     0
  0
APPID
  5
2D25
330
2C72
100
AcDbSymbolTableRecord
100
AcDbRegAppTableRecord
  2
GENIUS_FIRSTVISTXT_14
 70
     0
  0
APPID
  5
2D26
330
2C72
100
AcDbSymbolTableRecord
100
AcDbRegAppTableRecord
  2
GENIUS_GENOBJ-N-LEADER_13
 70
     0
  0
APPID
  5
2D27
330
2C72
100
AcDbSymbolTableRecord
100
AcDbRegAppTableRecord
  2
GEV_VCCNULL_SWITCH_OFF
 70
     0
  0
APPID
  5
2D28
330
2C72
100
AcDbSymbolTableRecord
100
AcDbRegAppTableRecord
  2
GENIUS_GEFCFG0_13
 70
     0
  0
APPID
  5
2D29
330
2C72
100
AcDbSymbolTableRecord
100
AcDbRegAppTableRecord
  2
GENIUS_GENZVEED_13
 70
     0
  0
APPID
  5
2D2A
330
2C72
100
AcDbSymbolTableRecord
100
AcDbRegAppTableRecord
  2
GENIUS_GENSCREG_13
 70
     0
  0
APPID
  5
2D2B
330
2C72
100
AcDbSymbolTableRecord
100
AcDbRegAppTableRecord
  2
GENIUS_DUMCFG0_13
 70
     0
  0
APPID
  5
2D2C
330
2C72
100
AcDbSymbolTableRecord
100
AcDbRegAppTableRecord
  2
GEVID936201362
 70
     0
  0
APPID
  5
2D2D
330
2C72
100
AcDbSymbolTableRecord
100
AcDbRegAppTableRecord
  2
GEVDC
 70
     0
  0
APPID
  5
2D2E
330
2C72
100
AcDbSymbolTableRecord
100
AcDbRegAppTableRecord
  2
GEVCON
 70
     0
  0
APPID
  5
2D2F
330
2C72
100
AcDbSymbolTableRecord
100
AcDbRegAppTableRecord
  2
VCC
 70
     0
  0
APPID
  5
2D30
330
2C72
100
AcDbSymbolTableRecord
100
AcDbRegAppTableRecord
  2
GEVPT
 70
     0
  0
APPID
  5
2D31
330
2C72
100
AcDbSymbolTableRecord
100
AcDbRegAppTableRecord
  2
GEVIT
 70
     0
  0
APPID
  5
2D32
330
2C72
100
AcDbSymbolTableRecord
100
AcDbRegAppTableRecord
  2
GENBH
 70
     0
  0
APPID
  5
2D33
330
2C72
100
AcDbSymbolTableRecord
100
AcDbRegAppTableRecord
  2
GEVMK
 70
     0
  0
APPID
  5
2D34
330
2C72
100
AcDbSymbolTableRecord
100
AcDbRegAppTableRecord
  2
GENIUS_GENBH_13
 70
     0
  0
APPID
  5
2D35
330
2C72
100
AcDbSymbolTableRecord
100
AcDbRegAppTableRecord
  2
GENIUS_GENOBJ-NBEHI-BHF_13
 70
     0
  0
APPID
  5
2D36
330
2C72
100
AcDbSymbolTableRecord
100
AcDbRegAppTableRecord
  2
GENIUS_GENOBJ-NBEHI-BHB_13
 70
     0
  0
APPID
  5
2D37
330
2C72
100
AcDbSymbolTableRecord
100
AcDbRegAppTableRecord
  2
GENIUS_GENOBJ-F-DESC_13
 70
     0
  0
APPID
  5
2D38
330
2C72
100
AcDbSymbolTableRecord
100
AcDbRegAppTableRecord
  2
GENIUS_GEFDESC_14
 70
     0
  0
APPID
  5
2D39
330
2C72
100
AcDbSymbolTableRecord
100
AcDbRegAppTableRecord
  2
GENIUS_GENOBJ-F-PART_13
 70
     0
  0
APPID
  5
2D3A
330
2C72
100
AcDbSymbolTableRecord
100
AcDbRegAppTableRecord
  2
GENIUS_GEFSTDP_13
 70
     0
  0
APPID
  5
2D3B
330
2C72
100
AcDbSymbolTableRecord
100
AcDbRegAppTableRecord
  2
GENIUS_GEFPARTINS_13
 70
     0
  0
APPID
  5
2D3C
330
2C72
100
AcDbSymbolTableRecord
100
AcDbRegAppTableRecord
  2
GENIUS_GENTRA_14
 70
     0
  0
APPID
  5
2D3D
330
2C72
100
AcDbSymbolTableRecord
100
AcDbRegAppTableRecord
  2
GENIUS_GENINF13_13
 70
     0
  0
APPID
  5
2D3E
330
2C72
100
AcDbSymbolTableRecord
100
AcDbRegAppTableRecord
  2
GENIUS_GENOBJ-N-INFOPT_13
 70
     0
  0
APPID
  5
2D3F
330
2C72
100
AcDbSymbolTableRecord
100
AcDbRegAppTableRecord
  2
GENIUS_GENOBJ-N-RSSYM_13
 70
     0
  0
APPID
  5
2D40
330
2C72
100
AcDbSymbolTableRecord
100
AcDbRegAppTableRecord
  2
GENIUS_GENSYMENT_13
 70
     0
  0
APPID
  5
2D41
330
2C72
100
AcDbSymbolTableRecord
100
AcDbRegAppTableRecord
  2
GENIUS_GENSCSYM_13
 70
     0
  0
APPID
  5
2D42
330
2C72
100
AcDbSymbolTableRecord
100
AcDbRegAppTableRecord
  2
GENIUS_GEFINFNAM_13
 70
     0
  0
APPID
  5
2D43
330
2C72
100
AcDbSymbolTableRecord
100
AcDbRegAppTableRecord
  2
GENIUS_GENOBJ-N-CEN_13
 70
     0
  0
APPID
  5
2D44
330
2C72
100
AcDbSymbolTableRecord
100
AcDbRegAppTableRecord
  2
GENIUS_GENOBJ-N-CRS_13
 70
     0
  0
APPID
  5
2D45
330
2C72
100
AcDbSymbolTableRecord
100
AcDbRegAppTableRecord
  2
GENIUS_GENOBJ-N-CRC_13
 70
     0
  0
APPID
  5
2D46
330
2C72
100
AcDbSymbolTableRecord
100
AcDbRegAppTableRecord
  2
GENIUS_GENCRC_14
 70
     0
  0
APPID
  5
2D47
330
2C72
100
AcDbSymbolTableRecord
100
AcDbRegAppTableRecord
  2
GEVID942827039
 70
     0
  0
APPID
  5
2D48
330
2C72
100
AcDbSymbolTableRecord
100
AcDbRegAppTableRecord
  2
GEVID942827040
 70
     0
  0
APPID
  5
2D49
330
2C72
100
AcDbSymbolTableRecord
100
AcDbRegAppTableRecord
  2
GEVID942827041
 70
     0
  0
APPID
  5
2D4A
330
2C72
100
AcDbSymbolTableRecord
100
AcDbRegAppTableRecord
  2
GENIUS_GENOBJ-F-SCPASSM_13
 70
     0
  0
APPID
  5
2D4B
330
2C72
100
AcDbSymbolTableRecord
100
AcDbRegAppTableRecord
  2
GENIUS_GENDIMSH_14
 70
     0
  0
APPID
  5
2D4C
330
2C72
100
AcDbSymbolTableRecord
100
AcDbRegAppTableRecord
  2
GEVID942827042
 70
     0
  0
APPID
  5
2D4D
330
2C72
100
AcDbSymbolTableRecord
100
AcDbRegAppTableRecord
  2
GEVID946020473
 70
     0
  0
APPID
  5
2D4E
330
2C72
100
AcDbSymbolTableRecord
100
AcDbRegAppTableRecord
  2
GEVID946020474
 70
     0
  0
APPID
  5
2D4F
330
2C72
100
AcDbSymbolTableRecord
100
AcDbRegAppTableRecord
  2
GEVID946020475
 70
     0
  0
APPID
  5
2D50
330
2C72
100
AcDbSymbolTableRecord
100
AcDbRegAppTableRecord
  2
GENIUS_GENOBJ-N-HTC_13
 70
     0
  0
APPID
  5
2D51
330
2C72
100
AcDbSymbolTableRecord
100
AcDbRegAppTableRecord
  2
GENIUS_GENHATCH_13
 70
     0
  0
APPID
  5
2D52
330
2C72
100
AcDbSymbolTableRecord
100
AcDbRegAppTableRecord
  2
GEVID948854295
 70
     0
  0
APPID
  5
2D53
330
2C72
100
AcDbSymbolTableRecord
100
AcDbRegAppTableRecord
  2
GEVID939402019
 70
     0
  0
APPID
  5
2D54
330
2C72
100
AcDbSymbolTableRecord
100
AcDbRegAppTableRecord
  2
GEVID952919491
 70
     0
  0
APPID
  5
2D55
330
2C72
100
AcDbSymbolTableRecord
100
AcDbRegAppTableRecord
  2
GEVID952919492
 70
     0
  0
APPID
  5
2D56
330
2C72
100
AcDbSymbolTableRecord
100
AcDbRegAppTableRecord
  2
GENIUS_GEFWELD_13
 70
     0
  0
APPID
  5
2D57
330
2C72
100
AcDbSymbolTableRecord
100
AcDbRegAppTableRecord
  2
GENIUS_GENOBJ-F-WELS_13
 70
     0
  0
APPID
  5
2D58
330
2C72
100
AcDbSymbolTableRecord
100
AcDbRegAppTableRecord
  2
GEVID952919493
 70
     0
  0
APPID
  5
2D59
330
2C72
100
AcDbSymbolTableRecord
100
AcDbRegAppTableRecord
  2
GENIUS_GENOBJ-N-RSBK_13
 70
     0
  0
APPID
  5
2D5A
330
2C72
100
AcDbSymbolTableRecord
100
AcDbRegAppTableRecord
  2
GENIUS_GENOBJ-N-LIB_13
 70
     0
  0
APPID
  5
2D5B
330
2C72
100
AcDbSymbolTableRecord
100
AcDbRegAppTableRecord
  2
GENIUS_GENSCALE_13
 70
     0
  0
APPID
  5
2D5C
330
2C72
100
AcDbSymbolTableRecord
100
AcDbRegAppTableRecord
  2
GEVID986376691
 70
     0
  0
APPID
  5
2D5D
330
2C72
100
AcDbSymbolTableRecord
100
AcDbRegAppTableRecord
  2
DCO15
 70
     0
  0
APPID
  5
2D5E
330
2C72
100
AcDbSymbolTableRecord
100
AcDbRegAppTableRecord
  2
ACAD_DSTYLE_DIMBREAK
 70
     0
  0
APPID
  5
2D5F
330
2C72
100
AcDbSymbolTableRecord
100
AcDbRegAppTableRecord
  2
ACAD_DSTYLE_DIMJAG
 70
     0
  0
APPID
  5
2D60
330
2C72
100
AcDbSymbolTableRecord
100
AcDbRegAppTableRecord
  2
ACAD_NAV_VCDISPLAY
 70
     0
  0
APPID
  5
2D61
330
2C72
100
AcDbSymbolTableRecord
100
AcDbRegAppTableRecord
  2
ACADANNOPO
 70
     0
  0
APPID
  5
2D62
330
2C72
100
AcDbSymbolTableRecord
100
AcDbRegAppTableRecord
  2
ACAD_EXEMPT_FROM_CAD_STANDARDS
 70
     0
  0
APPID
  5
2D63
330
2C72
100
AcDbSymbolTableRecord
100
AcDbRegAppTableRecord
  2
ACAD_MLEADERVER
 70
     0
  0
ENDTAB
  0
TABLE
  2
DIMSTYLE
  5
2C73
330
0
100
AcDbSymbolTable
 70
     8
100
AcDbDimStyleTable
 71
     1
340
2D64
  0
DIMSTYLE
105
2CC0
330
2C73
100
AcDbSymbolTableRecord
100
AcDbDimStyleTableRecord
  2
STANDARD
 70
     0
271
     2
272
     2
279
     2
284
     8
285
     8
286
     8
340
2CBE
  0
DIMSTYLE
105
2D64
330
2C73
100
AcDbSymbolTableRecord
100
AcDbDimStyleTableRecord
  2
AM_ISO
 70
     0
  4
"
 41
2.5
 42
1.0
 43
8.0
 44
0.6
 47
0.1
 48
0.1
 73
     0
 74
     0
 77
     1
 78
     8
140
2.5
141
0.0
143
0.0393701
146
0.71
147
0.8
172
     1
176
   256
177
   256
178
     4
271
     2
272
     2
279
     2
284
     8
285
     8
286
     8
340
2CBE
  0
DIMSTYLE
105
2D72
102
{ACAD_REACTORS
330
2F8D
102
}
330
2C73
100
AcDbSymbolTableRecord
100
AcDbDimStyleTableRecord
  2
AM_ANSI
 70
     0
  4
mm
 41
0.1
 42
0.05
 43
0.5
 44
0.1
 47
0.1
 48
0.1
 78
     7
140
0.12
141
0.0
146
0.71
147
0.06
176
   256
177
   256
178
     2
271
     2
272
     2
279
     2
284
     8
285
     8
286
     8
340
2CBE
  0
DIMSTYLE
105
2D73
330
2C73
100
AcDbSymbolTableRecord
100
AcDbDimStyleTableRecord
  2
AM_ANSI$3
 70
     0
  4
mm
 41
0.1
 42
0.05
 43
0.5
 44
0.1
 47
0.1
 48
0.1
 78
     7
140
0.12
141
0.0
146
0.71
147
0.06
176
   256
177
   256
178
     2
271
     2
272
     2
279
     2
284
     8
285
     8
286
     8
340
2CBE
  0
DIMSTYLE
105
2D74
330
2C73
100
AcDbSymbolTableRecord
100
AcDbDimStyleTableRecord
  2
AM_ANSI$4
 70
     0
  4
mm
 41
0.1
 42
0.05
 43
0.5
 44
0.1
 47
0.1
 48
0.1
 78
     7
140
0.12
141
0.0
146
0.71
147
0.06
176
   256
177
   256
178
     2
271
     2
272
     2
279
     2
284
     8
285
     8
286
     8
340
2CBE
  0
DIMSTYLE
105
2D75
330
2C73
100
AcDbSymbolTableRecord
100
AcDbDimStyleTableRecord
  2
AM_ANSI$7
 70
     0
  4
mm
 41
0.1
 42
0.05
 43
0.5
 44
0.1
 47
0.1
 48
0.1
 78
     7
140
0.24
141
0.0
146
0.71
147
0.06
176
   256
177
   256
178
     2
271
     2
272
     2
279
     2
284
     8
285
     8
286
     8
340
2CBE
  0
DIMSTYLE
105
2D76
330
2C73
100
AcDbSymbolTableRecord
100
AcDbDimStyleTableRecord
  2
AM_ANSI$SF
 70
     0
  4
mm
 41
0.1
 42
0.05
 43
0.5
 44
0.1
 47
0.1
 48
0.1
 75
     1
 76
     1
 78
     7
140
0.12
141
0.0
146
0.71
147
0.06
176
   256
177
   256
178
     2
271
     2
272
     2
279
     2
284
     8
285
     8
286
     8
340
2CBE
  0
DIMSTYLE
105
2D77
330
2C73
100
AcDbSymbolTableRecord
100
AcDbDimStyleTableRecord
  2
AM_ANSI$SH
 70
     0
  4
mm
 41
0.1
 42
0.05
 43
0.5
 44
0.1
 47
0.1
 48
0.1
 75
     1
 76
     1
 78
     7
140
0.12
141
0.0
146
0.71
147
0.06
173
     1
176
   256
177
   256
178
     2
271
     2
272
     2
279
     2
284
     8
285
     8
286
     8
340
2CBE
  0
ENDTAB
  0
TABLE
  2
BLOCK_RECORD
  5
2C6A
330
0
100
AcDbSymbolTable
 70
     2
  0
BLOCK_RECORD
  5
2CD8
330
2C6A
100
AcDbSymbolTableRecord
100
AcDbBlockTableRecord
  2
*Model_Space
340
2CDB
 70
     0
280
     1
281
     0
  0
BLOCK_RECORD
  5
2CD4
330
2C6A
100
AcDbSymbolTableRecord
100
AcDbBlockTableRecord
  2
*Paper_Space
340
2CD7
 70
     0
280
     1
281
     0
  0
BLOCK_RECORD
  5
2D89
330
2C6A
100
AcDbSymbolTableRecord
100
AcDbBlockTableRecord
  2
_ACMFILLEDHALF
340
0
 70
     0
280
     1
281
     0
  0
ENDTAB
  0
ENDSEC
  0
SECTION
  2
BLOCKS
  0
BLOCK
  5
2CD9
330
2CD8
100
AcDbEntity
  8
0
100
AcDbBlockBegin
  2
*Model_Space
 70
     0
 10
0.0
 20
0.0
 30
0.0
  3
*Model_Space
  1

  0
ENDBLK
  5
2CDA
330
2CD8
100
AcDbEntity
  8
0
100
AcDbBlockEnd
  0
BLOCK
  5
2CD5
330
2CD4
100
AcDbEntity
 67
     1
  8
0
100
AcDbBlockBegin
  2
*Paper_Space
 70
     0
 10
0.0
 20
0.0
 30
0.0
  3
*Paper_Space
  1

  0
ENDBLK
  5
2CD6
330
2CD4
100
AcDbEntity
 67
     1
  8
0
100
AcDbBlockEnd
  0
BLOCK
  5
2D8A
330
2D89
100
AcDbEntity
  8
0
100
AcDbBlockBegin
  2
_ACMFILLEDHALF
 70
     0
 10
0.0
 20
0.0
 30
0.0
  3
_ACMFILLEDHALF
  1

  0
TRACE
  5
2BD4
330
2D89
100
AcDbEntity
  8
AM_0
 62
     0
100
AcDbTrace
 10
-0.8
 20
0.0
 30
0.0
 11
-1.0
 21
0.166666666
 31
0.0
 12
0.0
 22
0.0
 32
0.0
 13
0.0
 23
0.0
 33
0.0
  0
LINE
  5
2BD5
330
2D89
100
AcDbEntity
  8
AM_0
 62
     0
100
AcDbLine
 10
-1.0
 20
0.0
 30
0.0
 11
-0.8
 21
0.0
 31
0.0
  0
ENDBLK
  5
2BD3
330
2D89
100
AcDbEntity
  8
0
100
AcDbBlockEnd
  0
ENDSEC
  0
SECTION
  2
ENTITIES
  0
ARC
  5
28A5
330
2CD8
100
AcDbEntity
  8
AM_0
100
AcDbCircle
 10
394.3590561571189
 20
460.6561982228292
 30
0.0
 40
2.0
100
AcDbArc
 50
90.0
 51
169.0030569999995
  0
LINE
  5
28A6
330
2CD8
100
AcDbEntity
  8
AM_0
100
AcDbLine
 10
404.3590561571185
 20
315.6561632228291
 30
0.0
 11
404.3590561571185
 21
462.6562282228292
 31
0.0
  0
LINE
  5
28A7
330
2CD8
100
AcDbEntity
  8
AM_0
100
AcDbLine
 10
438.8591061571185
 20
275.0316532228291
 30
0.0
 11
438.8591061571185
 21
517.1562232228293
 31
0.0
  0
LINE
  5
28A8
330
2CD8
100
AcDbEntity
  8
AM_0
100
AcDbLine
 10
452.8590561571185
 20
261.5415382228291
 30
0.0
 11
452.8590561571185
 21
516.7708732228292
 31
0.0
  0
LINE
  5
28A9
330
2CD8
100
AcDbEntity
  8
AM_0
100
AcDbLine
 10
465.8591061571184
 20
259.1561932228291
 30
0.0
 11
465.8591061571184
 21
519.1562232228291
 31
0.0
  0
LINE
  5
28AA
330
2CD8
100
AcDbEntity
  8
AM_0
100
AcDbLine
 10
581.8590561571185
 20
284.6561932228291
 30
0.0
 11
581.8590561571185
 21
569.6561732228292
 31
0.0
  0
LINE
  5
28AB
330
2CD8
100
AcDbEntity
  8
AM_0
100
AcDbLine
 10
562.7246061571192
 20
445.5091632228292
 30
0.0
 11
546.4716561571186
 21
494.6451832228292
 31
0.0
  0
LINE
  5
28AC
330
2CD8
100
AcDbEntity
  8
AM_0
100
AcDbLine
 10
571.8590561571184
 20
427.1561982228289
 30
0.0
 11
571.8590561571184
 21
538.1135232228293
 31
0.0
  0
LINE
  5
28AD
330
2CD8
100
AcDbEntity
  8
AM_0
100
AcDbLine
 10
585.8591061571187
 20
427.1561982228289
 30
0.0
 11
585.8591061571187
 21
547.1561732228292
 31
0.0
  0
LINE
  5
28AE
330
2CD8
100
AcDbEntity
  8
AM_0
100
AcDbLine
 10
563.8591061571187
 20
448.6430432228293
 30
0.0
 11
563.8591061571187
 21
566.1305232228293
 31
0.0
  0
LINE
  5
28AF
330
2CD8
100
AcDbEntity
  8
ﾁｭｳｼﾝｾﾝ
100
AcDbLine
 10
246.4200094679325
 20
389.1561982228291
 30
0.0
 11
434.4046367024683
 21
389.1561982228292
 31
0.0
  0
LINE
  5
28B1
330
2CD8
100
AcDbEntity
  8
AM_0
100
AcDbLine
 10
255.3590561571188
 20
401.1561982228291
 30
0.0
 11
291.3590561571187
 21
401.1561982228291
 31
0.0
  0
LINE
  5
28B2
330
2CD8
100
AcDbEntity
  8
AM_0
100
AcDbLine
 10
255.3590561571188
 20
377.1561982228292
 30
0.0
 11
291.3590561571187
 21
377.1561982228292
 31
0.0
  0
LINE
  5
28B3
330
2CD8
100
AcDbEntity
  8
AM_0
100
AcDbLine
 10
255.3590561571188
 20
377.1561982228292
 30
0.0
 11
255.3590561571188
 21
401.1561982228291
 31
0.0
  0
LINE
  5
28B4
330
2CD8
100
AcDbEntity
  8
AM_0
100
AcDbLine
 10
255.3590561571188
 20
401.1561982228291
 30
0.0
 11
255.3590561571188
 21
404.1561982228292
 31
0.0
  0
ARC
  5
28B5
330
2CD8
100
AcDbEntity
  8
AM_0
100
AcDbCircle
 10
493.8591061571185
 20
316.0730632228289
 30
0.0
 40
9.721140999999999
100
AcDbArc
 50
90.00000300000001
 51
270.0
  0
LINE
  5
28B6
330
2CD8
100
AcDbEntity
  8
ﾁｭｳｼﾝｾﾝ
100
AcDbLine
 10
410.6346235168116
 20
427.1561982228289
 30
0.0
 11
665.8034561571189
 21
427.1561982228289
 31
0.0
  0
LINE
  5
28B7
330
2CD8
100
AcDbEntity
  8
AM_0
100
AcDbLine
 10
452.8590561571185
 20
267.4389082228292
 30
0.0
 11
542.6427561571186
 21
267.4389082228292
 31
0.0
  0
LINE
  5
28B8
330
2CD8
100
AcDbEntity
  8
AM_0
100
AcDbLine
 10
452.8590561571185
 20
281.8957282228291
 30
0.0
 11
567.6826061571188
 21
281.8957282228291
 31
0.0
  0
LINE
  5
28B9
330
2CD8
100
AcDbEntity
  8
AM_0
100
AcDbLine
 10
465.8590561571185
 20
259.1562082228291
 30
0.0
 11
525.587656157119
 21
257.5921682228291
 31
0.0
  0
LINE
  5
28BA
330
2CD8
100
AcDbEntity
  8
AM_0
100
AcDbLine
 10
452.8590561571185
 20
379.1751782228292
 30
0.0
 11
571.8590561571184
 21
379.1751782228292
 31
0.0
  0
LINE
  5
28BB
330
2CD8
100
AcDbEntity
  8
AM_0
100
AcDbLine
 10
452.8590561571185
 20
399.1371832228292
 30
0.0
 11
571.8590561571184
 21
399.1371832228292
 31
0.0
  0
LINE
  5
28BC
330
2CD8
100
AcDbEntity
  8
AM_0
100
AcDbLine
 10
409.3590561571184
 20
309.4051882228291
 30
0.0
 11
409.3590561571184
 21
327.1561932228292
 31
0.0
  0
ARC
  5
28BD
330
2CD8
100
AcDbEntity
  8
AM_0
100
AcDbCircle
 10
390.4325061571189
 20
316.8931722228289
 30
0.0
 40
2.0
100
AcDbArc
 50
10.99694300000052
 51
62.99999999999824
  0
LINE
  5
28BE
330
2CD8
100
AcDbEntity
  8
AM_0
100
AcDbLine
 10
412.0976561571187
 20
306.4166332228289
 30
0.0
 11
436.1206061571188
 21
304.3148882228292
 31
0.0
  0
LINE
  5
28BF
330
2CD8
100
AcDbEntity
  8
AM_0
100
AcDbLine
 10
404.3590561571185
 20
315.6561932228291
 30
0.0
 11
406.4638061571188
 21
315.5826782228289
 31
0.0
  0
ARC
  5
28C0
330
2CD8
100
AcDbEntity
  8
AM_0
100
AcDbCircle
 10
394.3590561571189
 20
317.6561982228292
 30
0.0
 40
2.0
100
AcDbArc
 50
190.9969430000004
 51
270.0
  0
LINE
  5
28C1
330
2CD8
100
AcDbEntity
  8
AM_0
100
AcDbLine
 10
394.3590561571189
 20
315.6561982228291
 30
0.0
 11
404.3590561571188
 21
315.6561982228291
 31
0.0
  0
ARC
  5
28C2
330
2CD8
100
AcDbEntity
  8
AM_0
100
AcDbCircle
 10
406.3591061571185
 20
312.5845382228291
 30
0.0
 40
3.00000005
100
AcDbArc
 50
0.0
 51
88.0
  0
ARC
  5
28C3
330
2CD8
100
AcDbEntity
  8
AM_0
100
AcDbCircle
 10
412.3591061571183
 20
309.4051882228291
 30
0.0
 40
3.00000005
100
AcDbArc
 50
179.9999899999999
 51
265.0
  0
LINE
  5
28C4
330
2CD8
100
AcDbEntity
  8
AM_0
100
AcDbLine
 10
454.7893061571189
 20
259.5427432228291
 30
0.0
 11
465.8590561571185
 21
259.1561782228292
 31
0.0
  0
ARC
  5
28C5
330
2CD8
100
AcDbEntity
  8
AM_0
100
AcDbCircle
 10
454.8591061571185
 20
261.5415382228291
 30
0.0
 40
2.00000005
100
AcDbArc
 50
179.9999899999999
 51
268.0000099999999
  0
LINE
  5
28C6
330
2CD8
100
AcDbEntity
  8
AM_0
100
AcDbLine
 10
441.3382061571183
 20
272.0772432228291
 30
0.0
 11
450.3800561571188
 21
270.4828982228292
 31
0.0
  0
ARC
  5
28C7
330
2CD8
100
AcDbEntity
  8
AM_0
100
AcDbCircle
 10
441.8590561571185
 20
275.0316532228291
 30
0.0
 40
3.00000005
100
AcDbArc
 50
179.9999899999999
 51
260.0
  0
ARC
  5
28C8
330
2CD8
100
AcDbEntity
  8
AM_0
100
AcDbCircle
 10
449.8591061571183
 20
267.5284782228291
 30
0.0
 40
3.00000005
100
AcDbArc
 50
0.0
 51
79.99999800000002
  0
ARC
  5
28C9
330
2CD8
100
AcDbEntity
  8
AM_0
100
AcDbCircle
 10
435.8591061571185
 20
301.3262982228292
 30
0.0
 40
3.00000005
100
AcDbArc
 50
0.0
 51
84.99999699999998
  0
LINE
  5
28CA
330
2CD8
100
AcDbEntity
  8
AM_0
100
AcDbLine
 10
391.3404871571188
 20
459.6372122228292
 30
0.0
 11
338.9223001571187
 21
432.9288112228292
 31
0.0
  0
LINE
  5
28CB
330
2CD8
100
AcDbEntity
  8
AM_0
100
AcDbLine
 10
338.9223001571187
 20
345.3835852228292
 30
0.0
 11
391.3404871571188
 21
318.6751852228292
 31
0.0
  0
LINE
  5
28CC
330
2CD8
100
AcDbEntity
  8
AM_0
100
AcDbLine
 10
291.3590561571187
 20
374.1561982228292
 30
0.0
 11
291.3590561571187
 21
404.1561982228292
 31
0.0
  0
LINE
  5
28CD
330
2CD8
100
AcDbEntity
  8
AM_0
100
AcDbLine
 10
293.3590561571188
 20
361.6561982228292
 30
0.0
 11
293.3590561571188
 21
416.6561982228292
 31
0.0
  0
LINE
  5
28CE
330
2CD8
100
AcDbEntity
  8
AM_0
100
AcDbLine
 10
304.2892981571188
 20
350.0007772228292
 30
0.0
 11
304.2892981571188
 21
428.3116192228292
 31
0.0
  0
LINE
  5
28CF
330
2CD8
100
AcDbEntity
  8
AM_0
100
AcDbLine
 10
295.3590561571187
 20
354.4655992228292
 30
0.0
 11
295.3590561571187
 21
423.8467972228288
 31
0.0
  0
LINE
  5
28D0
330
2CD8
100
AcDbEntity
  8
AM_0
100
AcDbLine
 10
336.8652491571188
 20
349.4321622228292
 30
0.0
 11
336.8652491571188
 21
428.8802342228293
 31
0.0
  0
LINE
  5
28D1
330
2CD8
100
AcDbEntity
  8
AM_0
100
AcDbLine
 10
305.3236111571188
 20
346.9822662228291
 30
0.0
 11
334.5569191571188
 21
346.4719972228292
 31
0.0
  0
ARC
  5
28D2
330
2CD8
100
AcDbEntity
  8
AM_0
100
AcDbCircle
 10
299.3590561571187
 20
354.4655992228292
 30
0.0
 40
4.0
100
AcDbArc
 50
180.0
 51
239.9999999999995
  0
ARC
  5
28D3
330
2CD8
100
AcDbEntity
  8
AM_0
100
AcDbCircle
 10
305.3934211571188
 20
350.9816572228292
 30
0.0
 40
4.0
100
AcDbArc
 50
239.9999999999995
 51
269.0000000000015
  0
LINE
  5
28D4
330
2CD8
100
AcDbEntity
  8
AM_0
100
AcDbLine
 10
297.3590561571187
 20
351.0014982228292
 30
0.0
 11
303.3934211571188
 21
347.5175552228292
 31
0.0
  0
LINE
  5
28D5
330
2CD8
100
AcDbEntity
  8
AM_0
100
AcDbLine
 10
293.3590561571188
 20
361.6561982228292
 30
0.0
 11
295.3590561571187
 21
359.6561982228292
 31
0.0
  0
LINE
  5
28D6
330
2CD8
100
AcDbEntity
  8
AM_0
100
AcDbLine
 10
291.3590561571187
 20
374.1561982228292
 30
0.0
 11
293.3590561571188
 21
374.1561982228292
 31
0.0
  0
ARC
  5
28D7
330
2CD8
100
AcDbEntity
  8
AM_0
100
AcDbCircle
 10
334.3823951571188
 20
336.4735202228291
 30
0.0
 40
10.0
100
AcDbArc
 50
62.99999999999824
 51
89.00000000000151
  0
LINE
  5
28D8
330
2CD8
100
AcDbEntity
  8
AM_0
100
AcDbLine
 10
334.5569191571188
 20
431.8403992228292
 30
0.0
 11
305.3236111571188
 21
431.3301302228293
 31
0.0
  0
ARC
  5
28D9
330
2CD8
100
AcDbEntity
  8
AM_0
100
AcDbCircle
 10
299.3590561571187
 20
423.8467972228288
 30
0.0
 40
4.0
100
AcDbArc
 50
120.0000000000005
 51
180.0
  0
LINE
  5
28DA
330
2CD8
100
AcDbEntity
  8
AM_0
100
AcDbLine
 10
295.3590561571187
 20
418.6561982228292
 30
0.0
 11
293.3590561571188
 21
416.6561982228292
 31
0.0
  0
LINE
  5
28DB
330
2CD8
100
AcDbEntity
  8
AM_0
100
AcDbLine
 10
291.3590561571187
 20
404.1561982228292
 30
0.0
 11
293.3590561571188
 21
404.1561982228292
 31
0.0
  0
LINE
  5
28DC
330
2CD8
100
AcDbEntity
  8
AM_0
100
AcDbLine
 10
283.3590561571188
 20
401.1561982228291
 30
0.0
 11
283.3590561571188
 21
404.1561982228292
 31
0.0
  0
ARC
  5
28DD
330
2CD8
100
AcDbEntity
  8
AM_0
100
AcDbCircle
 10
305.3934211571188
 20
427.3307392228292
 30
0.0
 40
4.0
100
AcDbArc
 50
90.99999999999845
 51
120.0000000000005
  0
LINE
  5
28DE
330
2CD8
100
AcDbEntity
  8
AM_0
100
AcDbLine
 10
303.3934211571188
 20
430.7948412228292
 30
0.0
 11
297.3590561571187
 21
427.3108992228292
 31
0.0
  0
ARC
  5
28DF
330
2CD8
100
AcDbEntity
  8
AM_0
100
AcDbCircle
 10
334.3823951571188
 20
441.8388762228293
 30
0.0
 40
10.0
100
AcDbArc
 50
270.9999999999984
 51
296.9999999999988
  0
LINE
  5
28E0
330
2CD8
100
AcDbEntity
  8
AM_0
100
AcDbLine
 10
392.3590561571188
 20
320.4008512228289
 30
0.0
 11
392.3590561571188
 21
457.911546222829
 31
0.0
  0
LINE
  5
28E1
330
2CD8
100
AcDbEntity
  8
AM_0
100
AcDbLine
 10
404.3590561571185
 20
349.6815232228292
 30
0.0
 11
438.8591061571185
 21
349.6815232228292
 31
0.0
  0
LINE
  5
28E2
330
2CD8
100
AcDbEntity
  8
AM_0
100
AcDbLine
 10
404.3590561571185
 20
327.5775532228291
 30
0.0
 11
438.8591061571185
 21
327.5775532228291
 31
0.0
  0
LINE
  5
28E3
330
2CD8
100
AcDbEntity
  8
AM_0
100
AcDbLine
 10
402.3590561571188
 20
327.6469732228292
 30
0.0
 11
402.3590561571188
 21
347.6815232228292
 31
0.0
  0
ARC
  5
28E4
330
2CD8
100
AcDbEntity
  8
AM_0
100
AcDbCircle
 10
400.3590561571188
 20
327.6469732228292
 30
0.0
 40
2.0
100
AcDbArc
 50
270.0
 51
0.0
  0
ARC
  5
28E5
330
2CD8
100
AcDbEntity
  8
AM_0
100
AcDbCircle
 10
394.3590561571189
 20
327.6469732228292
 30
0.0
 40
2.0
100
AcDbArc
 50
180.0
 51
270.0
  0
LINE
  5
28E6
330
2CD8
100
AcDbEntity
  8
AM_0
100
AcDbLine
 10
394.3590561571189
 20
325.6469732228292
 30
0.0
 11
400.3590561571188
 21
325.6469732228292
 31
0.0
  0
ARC
  5
28E7
330
2CD8
100
AcDbEntity
  8
AM_0
100
AcDbCircle
 10
404.3590561571188
 20
347.6815232228292
 30
0.0
 40
2.0
100
AcDbArc
 50
120.0000000000005
 51
180.0
  0
LINE
  5
28E8
330
2CD8
100
AcDbEntity
  8
AM_0
100
AcDbLine
 10
394.3590561571189
 20
349.6815232228292
 30
0.0
 11
402.3590561571188
 21
349.6815232228292
 31
0.0
  0
LINE
  5
28E9
330
2CD8
100
AcDbEntity
  8
AM_0
100
AcDbLine
 10
404.3590561571185
 20
450.7348432228292
 30
0.0
 11
438.8591061571185
 21
450.7348432228292
 31
0.0
  0
LINE
  5
28EA
330
2CD8
100
AcDbEntity
  8
AM_0
100
AcDbLine
 10
404.3590561571185
 20
428.6308682228292
 30
0.0
 11
438.8591061571185
 21
428.6308682228292
 31
0.0
  0
LINE
  5
28EB
330
2CD8
100
AcDbEntity
  8
AM_0
100
AcDbLine
 10
402.3590561571188
 20
450.6654232228289
 30
0.0
 11
402.3590561571188
 21
430.6308742228292
 31
0.0
  0
ARC
  5
28EC
330
2CD8
100
AcDbEntity
  8
AM_0
100
AcDbCircle
 10
404.3590561571188
 20
430.6308742228292
 30
0.0
 40
2.0
100
AcDbArc
 50
180.0
 51
239.9999999999995
  0
LINE
  5
28ED
330
2CD8
100
AcDbEntity
  8
AM_0
100
AcDbLine
 10
394.3590561571189
 20
428.6308742228293
 30
0.0
 11
402.3590561571188
 21
428.6308742228293
 31
0.0
  0
ARC
  5
28EE
330
2CD8
100
AcDbEntity
  8
AM_0
100
AcDbCircle
 10
390.4325061571189
 20
461.4192252228293
 30
0.0
 40
2.0
100
AcDbArc
 50
296.9999999999988
 51
349.0030569999992
  0
ARC
  5
28EF
330
2CD8
100
AcDbEntity
  8
AM_0
100
AcDbCircle
 10
400.3590561571188
 20
450.6654232228289
 30
0.0
 40
2.0
100
AcDbArc
 50
0.0
 51
90.0
  0
ARC
  5
28F0
330
2CD8
100
AcDbEntity
  8
AM_0
100
AcDbCircle
 10
394.3590561571189
 20
450.6654232228289
 30
0.0
 40
2.0
100
AcDbArc
 50
90.0
 51
180.0
  0
LINE
  5
28F1
330
2CD8
100
AcDbEntity
  8
AM_0
100
AcDbLine
 10
394.3590561571189
 20
452.6654232228293
 30
0.0
 11
400.3590561571188
 21
452.6654232228293
 31
0.0
  0
LINE
  5
28F2
330
2CD8
100
AcDbEntity
  8
AM_0
100
AcDbLine
 10
563.8591061571187
 20
287.1342232228291
 30
0.0
 11
563.8591061571187
 21
335.6493282228292
 31
0.0
  0
LINE
  5
28F3
330
2CD8
100
AcDbEntity
  8
AM_0
100
AcDbLine
 10
585.8591061571187
 20
427.1561982228289
 30
0.0
 11
585.8591061571187
 21
307.1561932228291
 31
0.0
  0
LINE
  5
28F4
330
2CD8
100
AcDbEntity
  8
AM_0
100
AcDbLine
 10
571.8590561571184
 20
427.1561982228289
 30
0.0
 11
571.8590561571184
 21
316.1988882228292
 31
0.0
  0
LINE
  5
28F5
330
2CD8
100
AcDbEntity
  8
AM_0
100
AcDbLine
 10
493.8591061571185
 20
308.1985832228288
 30
0.0
 11
493.8591061571185
 21
324.2985882228292
 31
0.0
  0
LINE
  5
28F6
330
2CD8
100
AcDbEntity
  8
AM_0
100
AcDbLine
 10
525.5877061571186
 20
257.5921382228291
 30
0.0
 11
571.8591061571191
 21
284.3069832228291
 31
0.0
  0
LINE
  5
28F7
330
2CD8
100
AcDbEntity
  8
AM_0
100
AcDbLine
 10
493.8591061571185
 20
306.3519332228293
 30
0.0
 11
563.8591061571187
 21
306.3519332228293
 31
0.0
  0
ARC
  5
28F8
330
2CD8
100
AcDbEntity
  8
AM_0
100
AcDbCircle
 10
566.8590561571185
 20
316.1988882228292
 30
0.0
 40
5.0
100
AcDbArc
 50
268.0
 51
0.0
  0
LINE
  5
28F9
330
2CD8
100
AcDbEntity
  8
AM_0
100
AcDbLine
 10
566.9638061571186
 20
284.1360232228291
 30
0.0
 11
581.8591061571192
 21
284.6561932228291
 31
0.0
  0
ARC
  5
28FA
330
2CD8
100
AcDbEntity
  8
AM_0
100
AcDbCircle
 10
566.8590561571185
 20
287.1342232228291
 30
0.0
 40
3.00000005
100
AcDbArc
 50
179.9999899999999
 51
271.9999899999999
  0
LINE
  5
28FB
330
2CD8
100
AcDbEntity
  8
AM_0
100
AcDbLine
 10
581.8590561571185
 20
307.1561932228291
 30
0.0
 11
585.8591061571187
 21
307.1561932228291
 31
0.0
  0
LINE
  5
28FC
330
2CD8
100
AcDbEntity
  8
AM_0
100
AcDbLine
 10
587.8590561571185
 20
406.1561982228292
 30
0.0
 11
657.8590561571185
 21
406.1561982228292
 31
0.0
  0
LINE
  5
28FD
330
2CD8
100
AcDbEntity
  8
AM_0
100
AcDbLine
 10
587.8590561571185
 20
448.1561982228291
 30
0.0
 11
657.8590561571185
 21
448.1561982228291
 31
0.0
  0
LINE
  5
28FE
330
2CD8
100
AcDbEntity
  8
AM_0
100
AcDbLine
 10
493.8591061571185
 20
325.7942282228292
 30
0.0
 11
563.8591061571187
 21
325.7942282228292
 31
0.0
  0
ARC
  5
28FF
330
2CD8
100
AcDbEntity
  8
AM_0
100
AcDbCircle
 10
568.8591061571185
 20
335.6493282228292
 30
0.0
 40
5.0
100
AcDbArc
 50
90.00000300000001
 51
180.00001
  0
LINE
  5
2900
330
2CD8
100
AcDbEntity
  8
AM_0
100
AcDbLine
 10
587.8590561571185
 20
404.6561982228292
 30
0.0
 11
587.8590561571185
 21
449.6561982228292
 31
0.0
  0
LINE
  5
2901
330
2CD8
100
AcDbEntity
  8
AM_0
100
AcDbLine
 10
585.8591061571187
 20
404.6561982228292
 30
0.0
 11
587.8590561571185
 21
404.6561982228292
 31
0.0
  0
ARC
  5
2902
330
2CD8
100
AcDbEntity
  8
AM_0
100
AcDbCircle
 10
567.471656157119
 20
447.0793532228292
 30
0.0
 40
5.0
100
AcDbArc
 50
198.30292
 51
270.0
  0
LINE
  5
2903
330
2CD8
100
AcDbEntity
  8
AM_0
100
AcDbLine
 10
567.471656157119
 20
442.0793532228292
 30
0.0
 11
571.8590561571184
 21
442.0793532228292
 31
0.0
  0
LINE
  5
2904
330
2CD8
100
AcDbEntity
  8
AM_0
100
AcDbLine
 10
585.8591061571187
 20
449.6561982228292
 30
0.0
 11
587.8590561571185
 21
449.6561982228292
 31
0.0
  0
LINE
  5
2905
330
2CD8
100
AcDbEntity
  8
AM_0
100
AcDbLine
 10
601.8590561571185
 20
451.1561982228292
 30
0.0
 11
657.8590561571185
 21
451.1561982228292
 31
0.0
  0
LINE
  5
2906
330
2CD8
100
AcDbEntity
  8
AM_0
100
AcDbLine
 10
601.8590561571185
 20
451.1561982228292
 30
0.0
 11
601.8590561571185
 21
448.1561982228291
 31
0.0
  0
LINE
  5
2907
330
2CD8
100
AcDbEntity
  8
AM_0
100
AcDbLine
 10
657.8590561571185
 20
406.1561982228292
 30
0.0
 11
657.8590561571185
 21
451.1561982228292
 31
0.0
  0
LINE
  5
2908
330
2CD8
100
AcDbEntity
  8
AM_0
100
AcDbLine
 10
465.8591061571184
 20
519.1562232228291
 30
0.0
 11
535.7473561571192
 21
520.9862732228292
 31
0.0
  0
LINE
  5
2909
330
2CD8
100
AcDbEntity
  8
AM_0
100
AcDbLine
 10
452.8590561571185
 20
496.4166982228291
 30
0.0
 11
514.9206061571188
 21
496.4166982228291
 31
0.0
  0
LINE
  5
290A
330
2CD8
100
AcDbEntity
  8
AM_0
100
AcDbLine
 10
452.8590561571185
 20
510.8734832228292
 30
0.0
 11
528.7696561571188
 21
510.8734832228292
 31
0.0
  0
CIRCLE
  5
290B
330
2CD8
100
AcDbEntity
  8
AM_0
100
AcDbCircle
 10
449.8591061571183
 20
539.6562232228292
 30
0.0
 40
12.5
  0
ARC
  5
290C
330
2CD8
100
AcDbEntity
  8
AM_0
100
AcDbCircle
 10
449.8591061571183
 20
539.6562232228292
 30
0.0
 40
20.50000049999999
100
AcDbArc
 50
304.6136399999999
 51
235.38635
  0
LINE
  5
290D
330
2CD8
100
AcDbEntity
  8
AM_0
100
AcDbLine
 10
404.3590561571185
 20
462.6562582228292
 30
0.0
 11
434.0335561571187
 21
463.6925132228292
 31
0.0
  0
LINE
  5
290E
330
2CD8
100
AcDbEntity
  8
AM_0
100
AcDbLine
 10
394.3590561571189
 20
462.6561982228293
 30
0.0
 11
404.3590561571188
 21
462.6561982228293
 31
0.0
  0
ARC
  5
290F
330
2CD8
100
AcDbEntity
  8
AM_0
100
AcDbCircle
 10
433.8591061571185
 20
468.6894332228292
 30
0.0
 40
5.0
100
AcDbArc
 50
272.0
 51
0.0
  0
ARC
  5
2910
330
2CD8
100
AcDbEntity
  8
AM_0
100
AcDbCircle
 10
463.776056157119
 20
519.4926732228292
 30
0.0
 40
4.000000049999997
100
AcDbArc
 50
124.61365
 51
187.86825
  0
LINE
  5
2911
330
2CD8
100
AcDbEntity
  8
AM_0
100
AcDbLine
 10
454.7893061571189
 20
518.7696732228292
 30
0.0
 11
465.8590561571185
 21
519.1562732228292
 31
0.0
  0
LINE
  5
2912
330
2CD8
100
AcDbEntity
  8
AM_0
100
AcDbLine
 10
441.3382061571183
 20
506.2351782228293
 30
0.0
 11
450.3800561571188
 21
507.8295082228292
 31
0.0
  0
ARC
  5
2913
330
2CD8
100
AcDbEntity
  8
AM_0
100
AcDbCircle
 10
441.8590561571185
 20
503.2807732228292
 30
0.0
 40
3.00000005
100
AcDbArc
 50
100.0
 51
180.00001
  0
ARC
  5
2914
330
2CD8
100
AcDbEntity
  8
AM_0
100
AcDbCircle
 10
449.8591061571183
 20
510.7839132228289
 30
0.0
 40
3.00000005
100
AcDbArc
 50
280.0
 51
0.0
  0
LINE
  5
2915
330
2CD8
100
AcDbEntity
  8
AM_0
100
AcDbLine
 10
442.3557061571185
 20
525.7708732228293
 30
0.0
 11
449.8591061571183
 21
527.1562232228293
 31
0.0
  0
LINE
  5
2916
330
2CD8
100
AcDbEntity
  8
AM_0
100
AcDbLine
 10
439.5362561571188
 20
518.6562232228292
 30
0.0
 11
454.1917561571191
 21
518.6562232228292
 31
0.0
  0
LINE
  5
2917
330
2CD8
100
AcDbEntity
  8
AM_0
100
AcDbLine
 10
442.0420061571189
 20
525.6562732228291
 30
0.0
 11
457.6762061571185
 21
525.6562732228291
 31
0.0
  0
LINE
  5
2918
330
2CD8
100
AcDbEntity
  8
AM_0
100
AcDbLine
 10
439.8591061571185
 20
518.6562232228292
 30
0.0
 11
441.5713561571187
 21
525.0463232228289
 31
0.0
  0
ARC
  5
2919
330
2CD8
100
AcDbEntity
  8
AM_0
100
AcDbCircle
 10
442.5373061571185
 20
524.7874732228292
 30
0.0
 40
1.0
100
AcDbArc
 50
100.4607199999999
 51
164.99999
  0
ARC
  5
291A
330
2CD8
100
AcDbEntity
  8
AM_0
100
AcDbCircle
 10
435.9421561571184
 20
519.4926732228292
 30
0.0
 40
4.000000049999997
100
AcDbArc
 50
347.92933
 51
55.38635899999999
  0
ARC
  5
291B
330
2CD8
100
AcDbEntity
  8
AM_0
100
AcDbCircle
 10
440.8591061571184
 20
517.1562232228293
 30
0.0
 40
2.00000005
100
AcDbArc
 50
131.4096199999999
 51
180.00001
  0
LINE
  5
291C
330
2CD8
100
AcDbEntity
  8
AM_0
100
AcDbLine
 10
459.7819561571191
 20
518.9440732228289
 30
0.0
 11
458.1468561571185
 21
525.0463232228289
 31
0.0
  0
ARC
  5
291D
330
2CD8
100
AcDbEntity
  8
AM_0
100
AcDbCircle
 10
457.180956157119
 20
524.7874732228292
 30
0.0
 40
1.0
100
AcDbArc
 50
15.0
 51
79.539281
  0
ARC
  5
291E
330
2CD8
100
AcDbEntity
  8
AM_0
100
AcDbCircle
 10
454.8591061571185
 20
516.7708732228292
 30
0.0
 40
2.00000005
100
AcDbArc
 50
91.99999799999996
 51
180.00001
  0
LINE
  5
291F
330
2CD8
100
AcDbEntity
  8
AM_0
100
AcDbLine
 10
449.8591061571183
 20
527.1562732228292
 30
0.0
 11
457.3625561571189
 21
525.7709232228291
 31
0.0
  0
LINE
  5
2920
330
2CD8
100
AcDbEntity
  8
AM_0
100
AcDbLine
 10
463.8591061571185
 20
519.1562232228291
 30
0.0
 11
465.8591061571184
 21
519.1562232228291
 31
0.0
  0
LINE
  5
2921
330
2CD8
100
AcDbEntity
  8
AM_0
100
AcDbLine
 10
463.8591061571185
 20
519.0863732228292
 30
0.0
 11
463.8591061571185
 21
519.1562232228291
 31
0.0
  0
LINE
  5
2922
330
2CD8
100
AcDbEntity
  8
AM_0
100
AcDbLine
 10
539.151956157119
 20
522.4490232228292
 30
0.0
 11
562.3947061571189
 21
545.6916732228288
 31
0.0
  0
LINE
  5
2923
330
2CD8
100
AcDbEntity
  8
AM_0
100
AcDbLine
 10
517.3591061571187
 20
494.6451182228293
 30
0.0
 11
544.8121561571188
 21
494.6451182228293
 31
0.0
  0
LINE
  5
2924
330
2CD8
100
AcDbEntity
  8
AM_0
100
AcDbLine
 10
561.4254061571186
 20
530.4028232228289
 30
0.0
 11
524.3665061571185
 21
508.2402132228292
 31
0.0
  0
LINE
  5
2925
330
2CD8
100
AcDbEntity
  8
AM_0
100
AcDbLine
 10
561.7118061571185
 20
524.1598232228292
 30
0.0
 11
519.9537561571191
 21
499.1869882228292
 31
0.0
  0
ARC
  5
2926
330
2CD8
100
AcDbEntity
  8
AM_0
100
AcDbCircle
 10
496.0589061571186
 20
520.9513232228289
 30
0.0
 40
30.9468845
100
AcDbArc
 50
307.5523099999998
 51
335.5961299999999
  0
ARC
  5
2927
330
2CD8
100
AcDbEntity
  8
AM_0
100
AcDbCircle
 10
517.3591061571187
 20
499.6451182228293
 30
0.0
 40
5.0
100
AcDbArc
 50
229.7633299999999
 51
270.0
  0
ARC
  5
2928
330
2CD8
100
AcDbEntity
  8
AM_0
100
AcDbCircle
 10
535.6164061571189
 20
525.9845732228292
 30
0.0
 40
5.0
100
AcDbArc
 50
271.4999999999997
 51
315.0
  0
LINE
  5
2929
330
2CD8
100
AcDbEntity
  8
AM_0
100
AcDbLine
 10
539.0668061571187
 20
517.0315732228291
 30
0.0
 11
537.7414061571185
 21
521.0385732228288
 31
0.0
  0
LINE
  5
292A
330
2CD8
100
AcDbEntity
  8
AM_0
100
AcDbLine
 10
547.8018561571189
 20
495.6374882228292
 30
0.0
 11
563.8591061571187
 21
507.6163132228292
 31
0.0
  0
ARC
  5
292B
330
2CD8
100
AcDbEntity
  8
AM_0
100
AcDbCircle
 10
544.8121561571188
 20
499.6451182228293
 30
0.0
 40
5.0
100
AcDbArc
 50
270.0
 51
306.72321
  0
ARC
  5
292C
330
2CD8
100
AcDbEntity
  8
AM_0
100
AcDbCircle
 10
558.8591061571187
 20
534.6940232228289
 30
0.0
 40
5.0
100
AcDbArc
 50
300.8809799999998
 51
0.0
  0
LINE
  5
292D
330
2CD8
100
AcDbEntity
  8
AM_0
100
AcDbLine
 10
566.7544061571187
 20
569.1287732228293
 30
0.0
 11
581.8591061571192
 21
569.6562232228293
 31
0.0
  0
ARC
  5
292E
330
2CD8
100
AcDbEntity
  8
AM_0
100
AcDbCircle
 10
566.8590561571185
 20
538.1135232228293
 30
0.0
 40
5.0
100
AcDbArc
 50
0.0
 51
91.99999799999996
  0
ARC
  5
292F
330
2CD8
100
AcDbEntity
  8
AM_0
100
AcDbCircle
 10
558.8591061571187
 20
549.2272732228292
 30
0.0
 40
5.0
100
AcDbArc
 50
315.0
 51
0.0
  0
ARC
  5
2930
330
2CD8
100
AcDbEntity
  8
AM_0
100
AcDbCircle
 10
566.8590561571185
 20
566.1305232228293
 30
0.0
 40
3.00000005
100
AcDbArc
 50
91.99999799999996
 51
180.00001
  0
LINE
  5
2931
330
2CD8
100
AcDbEntity
  8
AM_0
100
AcDbLine
 10
581.8590561571185
 20
547.1561732228292
 30
0.0
 11
585.8591061571187
 21
547.1561732228292
 31
0.0
  0
LINE
  5
2932
330
2CD8
100
AcDbEntity
  8
AM_0
100
AcDbLine
 10
1079.90827871653
 20
477.1561982228289
 30
0.0
 11
1079.90827871653
 21
427.1561982228289
 31
0.0
  0
CIRCLE
  5
2933
330
2CD8
100
AcDbEntity
  8
AM_0
100
AcDbCircle
 10
937.4083087165297
 20
427.1561982228289
 30
0.0
 40
46.999997
  0
ARC
  5
2934
330
2CD8
100
AcDbEntity
  8
AM_0
100
AcDbCircle
 10
937.4083087165297
 20
427.1561982228289
 30
0.0
 40
61.999995
100
AcDbArc
 50
0.0
 51
36.41631799999998
  0
LINE
  5
2935
330
2CD8
100
AcDbEntity
  8
AM_0
100
AcDbLine
 10
794.9082687165297
 20
477.1561982228289
 30
0.0
 11
794.9082687165297
 21
427.1561982228289
 31
0.0
  0
ARC
  5
2936
330
2CD8
100
AcDbEntity
  8
AM_0
100
AcDbCircle
 10
937.4083087165297
 20
427.1561982228289
 30
0.0
 40
61.999995
100
AcDbArc
 50
142.1149899999998
 51
180.00001
  0
LINE
  5
2937
330
2CD8
100
AcDbEntity
  8
ﾁｭｳｼﾝｾﾝ
100
AcDbLine
 10
937.4083087165297
 20
574.8089642386936
 30
0.0
 11
937.4083087165297
 21
251.1866032228291
 31
0.0
  0
ARC
  5
2938
330
2CD8
100
AcDbEntity
  8
AM_0
100
AcDbCircle
 10
937.4083087165297
 20
389.1561982228292
 30
0.0
 40
122.0
100
AcDbArc
 50
124.67318
 51
157.42802
  0
ARC
  5
2939
330
2CD8
100
AcDbEntity
  8
AM_0
100
AcDbCircle
 10
937.4083087165297
 20
389.1561982228292
 30
0.0
 40
122.0
100
AcDbArc
 50
22.57198199999999
 51
55.32682000000001
  0
CIRCLE
  5
293A
330
2CD8
100
AcDbEntity
  8
AM_0
100
AcDbCircle
 10
937.4083087165297
 20
427.1561982228289
 30
0.0
 40
113.0
  0
CIRCLE
  5
293B
330
2CD8
100
AcDbEntity
  8
AM_0
100
AcDbCircle
 10
937.4083087165297
 20
427.1561982228289
 30
0.0
 40
120.0
  0
LINE
  5
293C
330
2CD8
100
AcDbEntity
  8
AM_0
100
AcDbLine
 10
831.8857837165301
 20
399.1561982228292
 30
0.0
 11
867.4083087165298
 21
399.1561982228292
 31
0.0
  0
ARC
  5
293D
330
2CD8
100
AcDbEntity
  8
AM_0
100
AcDbCircle
 10
872.4083087165297
 20
276.5728832228291
 30
0.0
 40
10.0
100
AcDbArc
 50
195.00001
 51
285.0
  0
LINE
  5
293E
330
2CD8
100
AcDbEntity
  8
ﾁｭｳｼﾝｾﾝ
100
AcDbLine
 10
789.2172690696934
 20
427.1561982228289
 30
0.0
 11
1085.322981070723
 21
427.1561982228289
 31
0.0
  0
LINE
  5
293F
330
2CD8
100
AcDbEntity
  8
AM_0
100
AcDbLine
 10
815.7364587165297
 20
287.1590332228291
 30
0.0
 11
887.4083087165297
 21
284.6562232228292
 31
0.0
  0
LINE
  5
2940
330
2CD8
100
AcDbEntity
  8
ﾁｭｳｼﾝｾﾝ1
100
AcDbLine
 10
806.6792731091423
 20
296.4271664550292
 30
0.0
 11
828.8674604114046
 21
318.6153505425798
 31
0.0
  0
ARC
  5
2941
330
2CD8
100
AcDbEntity
  8
ﾁｭｳｼﾝｾﾝ1
100
AcDbCircle
 10
937.4083087165267
 20
427.1561982228265
 30
0.0
 40
170.0000049999958
100
AcDbArc
 50
218.5427743107556
 51
231.0146100000002
  0
LINE
  5
2942
330
2CD8
100
AcDbEntity
  8
AM_0
100
AcDbLine
 10
797.4111187165297
 20
305.4843832228292
 30
0.0
 11
794.9082687165297
 21
377.1562282228292
 31
0.0
  0
ARC
  5
2943
330
2CD8
100
AcDbEntity
  8
AM_0
100
AcDbCircle
 10
816.3995487165296
 20
306.1474682228291
 30
0.0
 40
19.0000005
100
AcDbArc
 50
182.0
 51
268.0
  0
CIRCLE
  5
2944
330
2CD8
100
AcDbEntity
  8
AM_0
100
AcDbCircle
 10
817.2001137165301
 20
306.9480632228291
 30
0.0
 40
9.5
  0
LINE
  5
2945
330
2CD8
100
AcDbEntity
  8
AM_0
100
AcDbLine
 10
862.7490037165303
 20
273.9846882228291
 30
0.0
 11
859.6296787165297
 21
285.6262282228292
 31
0.0
  0
LINE
  5
2946
330
2CD8
100
AcDbEntity
  8
AM_0
100
AcDbLine
 10
794.9082687165297
 20
377.1561982228291
 30
0.0
 11
794.9082687165297
 21
427.1561982228289
 31
0.0
  0
ARC
  5
2947
330
2CD8
100
AcDbEntity
  8
AM_0
100
AcDbCircle
 10
831.8857837165301
 20
404.1561982228292
 30
0.0
 40
5.0
100
AcDbArc
 50
192.2960399999998
 51
270.0
  0
LINE
  5
2948
330
2CD8
100
AcDbEntity
  8
AM_0
100
AcDbLine
 10
1077.40543871653
 20
305.4843832228292
 30
0.0
 11
1079.90827871653
 21
377.1561982228291
 31
0.0
  0
LINE
  5
2949
330
2CD8
100
AcDbEntity
  8
AM_0
100
AcDbLine
 10
987.4083087165297
 20
284.6561932228291
 30
0.0
 11
937.4083087165297
 21
284.6561932228291
 31
0.0
  0
ARC
  5
294A
330
2CD8
100
AcDbEntity
  8
AM_0
100
AcDbCircle
 10
937.4083087165297
 20
389.1561982228292
 30
0.0
 40
130.0
100
AcDbArc
 50
246.6310399999999
 51
293.36896
  0
LINE
  5
294B
330
2CD8
100
AcDbEntity
  8
AM_0
100
AcDbLine
 10
887.4083087165297
 20
284.6561932228291
 30
0.0
 11
937.4083087165297
 21
284.6561932228291
 31
0.0
  0
LINE
  5
294C
330
2CD8
100
AcDbEntity
  8
AM_0
100
AcDbLine
 10
874.9964737165301
 20
266.9136232228292
 30
0.0
 11
885.8436687165296
 21
269.8201332228291
 31
0.0
  0
LINE
  5
294D
330
2CD8
100
AcDbEntity
  8
AM_0
100
AcDbLine
 10
1059.08009371653
 20
287.1590332228291
 30
0.0
 11
987.4082787165303
 21
284.6561932228291
 31
0.0
  0
LINE
  5
294E
330
2CD8
100
AcDbEntity
  8
AM_0
100
AcDbLine
 10
1012.06751871653
 20
273.9846882228291
 30
0.0
 11
1015.18684371653
 21
285.6262282228292
 31
0.0
  0
ARC
  5
294F
330
2CD8
100
AcDbEntity
  8
AM_0
100
AcDbCircle
 10
1002.40830871653
 20
276.5728832228291
 30
0.0
 40
10.0
100
AcDbArc
 50
255.0
 51
345.0
  0
LINE
  5
2950
330
2CD8
100
AcDbEntity
  8
AM_0
100
AcDbLine
 10
999.8200537165297
 20
266.9136432228291
 30
0.0
 11
988.97282371653
 21
269.8201482228291
 31
0.0
  0
ARC
  5
2951
330
2CD8
100
AcDbEntity
  8
AM_0
100
AcDbCircle
 10
1058.41702371653
 20
306.1474682228291
 30
0.0
 40
19.0000005
100
AcDbArc
 50
272.0
 51
358.0
  0
CIRCLE
  5
2952
330
2CD8
100
AcDbEntity
  8
AM_0
100
AcDbCircle
 10
1057.616423716529
 20
306.9480632228291
 30
0.0
 40
9.5
  0
LINE
  5
2953
330
2CD8
100
AcDbEntity
  8
ﾁｭｳｼﾝｾﾝ
100
AcDbLine
 10
864.2328464588914
 20
389.1561982228292
 30
0.0
 11
1010.583770974168
 21
389.1561982228292
 31
0.0
  0
ARC
  5
2954
330
2CD8
100
AcDbEntity
  8
AM_0
100
AcDbCircle
 10
937.4083087165297
 20
427.1561982228289
 30
0.0
 40
20.9999985
100
AcDbArc
 50
106.60155
 51
73.398452
  0
LINE
  5
2955
330
2CD8
100
AcDbEntity
  8
AM_0
100
AcDbLine
 10
875.4082737165298
 20
427.1561982228289
 30
0.0
 11
875.4082737165298
 21
407.1561982228291
 31
0.0
  0
ARC
  5
2956
330
2CD8
100
AcDbEntity
  8
AM_0
100
AcDbCircle
 10
867.4083087165298
 20
407.1561982228291
 30
0.0
 40
8.0
100
AcDbArc
 50
270.0
 51
0.0
  0
CIRCLE
  5
2957
330
2CD8
100
AcDbEntity
  8
AM_5
100
AcDbCircle
 10
937.4083087165297
 20
427.1561982228289
 30
0.0
 40
5.0
  0
CIRCLE
  5
2958
330
2CD8
100
AcDbEntity
  8
AM_0
100
AcDbCircle
 10
937.4083087165297
 20
427.1561982228289
 30
0.0
 40
3.50000005
  0
LINE
  5
2959
330
2CD8
100
AcDbEntity
  8
AM_0
100
AcDbLine
 10
943.4082787165303
 20
451.1561982228292
 30
0.0
 11
943.4082787165303
 21
443.1561982228291
 31
0.0
  0
LINE
  5
295A
330
2CD8
100
AcDbEntity
  8
AM_0
100
AcDbLine
 10
931.40827871653
 20
451.1561982228292
 30
0.0
 11
931.40827871653
 21
443.1561982228291
 31
0.0
  0
LINE
  5
295B
330
2CD8
100
AcDbEntity
  8
AM_0
100
AcDbLine
 10
931.40827871653
 20
443.1561982228291
 30
0.0
 11
943.4082787165303
 21
443.1561982228291
 31
0.0
  0
LINE
  5
295C
330
2CD8
100
AcDbEntity
  8
AM_0
100
AcDbLine
 10
931.40827871653
 20
451.1561982228292
 30
0.0
 11
943.4082787165303
 21
451.1561982228292
 31
0.0
  0
LINE
  5
295D
330
2CD8
100
AcDbEntity
  8
AM_0
100
AcDbLine
 10
1079.90827871653
 20
377.1561982228291
 30
0.0
 11
1079.90827871653
 21
427.1561982228289
 31
0.0
  0
LINE
  5
295E
330
2CD8
100
AcDbEntity
  8
AM_0
100
AcDbLine
 10
1042.93076871653
 20
399.1561982228292
 30
0.0
 11
1007.40830871653
 21
399.1561982228292
 31
0.0
  0
LINE
  5
295F
330
2CD8
100
AcDbEntity
  8
AM_0
100
AcDbLine
 10
999.4082787165297
 20
427.1561982228289
 30
0.0
 11
999.4082787165297
 21
407.1561982228291
 31
0.0
  0
ARC
  5
2960
330
2CD8
100
AcDbEntity
  8
AM_0
100
AcDbCircle
 10
1007.40830871653
 20
407.1561982228291
 30
0.0
 40
8.0
100
AcDbArc
 50
179.9999899999999
 51
270.0
  0
ARC
  5
2961
330
2CD8
100
AcDbEntity
  8
AM_0
100
AcDbCircle
 10
1042.93076871653
 20
404.1561982228292
 30
0.0
 40
5.0
100
AcDbArc
 50
270.0
 51
347.70395
  0
LINE
  5
2962
330
2CD8
100
AcDbEntity
  8
AM_0
100
AcDbLine
 10
815.7364587165297
 20
567.1534232228292
 30
0.0
 11
887.4083087165297
 21
569.6562232228293
 31
0.0
  0
LINE
  5
2963
330
2CD8
100
AcDbEntity
  8
AM_0
100
AcDbLine
 10
857.8332937165297
 20
499.6601332228292
 30
0.0
 11
887.0272637165296
 21
470.4661632228292
 31
0.0
  0
LINE
  5
2964
330
2CD8
100
AcDbEntity
  8
AM_0
100
AcDbLine
 10
864.9043687165297
 20
506.7311782228292
 30
0.0
 11
894.0983387165298
 21
477.5372082228292
 31
0.0
  0
LINE
  5
2965
330
2CD8
100
AcDbEntity
  8
AM_0
100
AcDbLine
 10
797.4111187165297
 20
548.8280232228293
 30
0.0
 11
794.9082687165297
 21
477.1561682228289
 31
0.0
  0
ARC
  5
2966
330
2CD8
100
AcDbEntity
  8
AM_0
100
AcDbCircle
 10
854.2977387165301
 20
496.1245832228292
 30
0.0
 40
5.0
100
AcDbArc
 50
45.00000099999999
 51
140.31278
  0
ARC
  5
2967
330
2CD8
100
AcDbEntity
  8
AM_0
100
AcDbCircle
 10
868.4398937165301
 20
510.2667332228292
 30
0.0
 40
5.0
100
AcDbArc
 50
129.6872199999999
 51
225.0
  0
ARC
  5
2968
330
2CD8
100
AcDbEntity
  8
AM_0
100
AcDbCircle
 10
816.3995487165296
 20
548.1649732228292
 30
0.0
 40
19.0000005
100
AcDbArc
 50
91.99999799999996
 51
178.0
  0
CIRCLE
  5
2969
330
2CD8
100
AcDbEntity
  8
AM_0
100
AcDbCircle
 10
817.2001137165301
 20
547.3643732228293
 30
0.0
 40
9.5
  0
LINE
  5
296A
330
2CD8
100
AcDbEntity
  8
AM_0
100
AcDbLine
 10
987.4083087165297
 20
569.6561732228292
 30
0.0
 11
937.4083087165297
 21
569.6561732228292
 31
0.0
  0
ARC
  5
296B
330
2CD8
100
AcDbEntity
  8
AM_0
100
AcDbCircle
 10
937.4083087165297
 20
389.1561982228292
 30
0.0
 40
122.0
100
AcDbArc
 50
60.14306
 51
86.16237199999996
  0
ARC
  5
296C
330
2CD8
100
AcDbEntity
  8
AM_0
100
AcDbCircle
 10
977.18269371653
 20
481.0727632228291
 30
0.0
 40
5.0
100
AcDbArc
 50
233.5836799999999
 51
315.0
  0
LINE
  5
296D
330
2CD8
100
AcDbEntity
  8
AM_0
100
AcDbLine
 10
940.9082787165303
 20
534.8211232228292
 30
0.0
 11
940.9082787165303
 21
515.8714232228292
 31
0.0
  0
LINE
  5
296E
330
2CD8
100
AcDbEntity
  8
AM_0
100
AcDbLine
 10
933.9082787165303
 20
534.8211232228292
 30
0.0
 11
933.9082787165303
 21
515.8714232228292
 31
0.0
  0
ARC
  5
296F
330
2CD8
100
AcDbEntity
  8
AM_0
100
AcDbCircle
 10
937.4083087165297
 20
389.15619822283
 30
0.0
 40
122.0
100
AcDbArc
 50
93.83762600000357
 51
119.8569400000037
  0
ARC
  5
2970
330
2CD8
100
AcDbEntity
  8
AM_0
100
AcDbCircle
 10
937.4083087165297
 20
427.1561982228289
 30
0.0
 40
61.999995
100
AcDbArc
 50
53.583681
 51
126.41632
  0
ARC
  5
2971
330
2CD8
100
AcDbEntity
  8
AM_0
100
AcDbCircle
 10
883.4917437165296
 20
466.9306132228292
 30
0.0
 40
5.0
100
AcDbArc
 50
323.5836799999999
 51
45.00000099999999
  0
ARC
  5
2972
330
2CD8
100
AcDbEntity
  8
AM_0
100
AcDbCircle
 10
897.6338637165296
 20
481.0727632228291
 30
0.0
 40
5.0
100
AcDbArc
 50
225.0
 51
306.4163199999999
  0
ARC
  5
2973
330
2CD8
100
AcDbEntity
  8
AM_0
100
AcDbCircle
 10
928.9082787165297
 20
515.8714232228292
 30
0.0
 40
5.0
100
AcDbArc
 50
273.83763
 51
0.0
  0
ARC
  5
2974
330
2CD8
100
AcDbEntity
  8
AM_0
100
AcDbCircle
 10
945.9082787165296
 20
515.8714232228292
 30
0.0
 40
5.0
100
AcDbArc
 50
179.9999899999999
 51
266.1623599999999
  0
LINE
  5
2975
330
2CD8
100
AcDbEntity
  8
AM_0
100
AcDbLine
 10
887.4083087165297
 20
569.6561732228292
 30
0.0
 11
937.4083087165297
 21
569.6561732228292
 31
0.0
  0
ARC
  5
2976
330
2CD8
100
AcDbEntity
  8
AM_0
100
AcDbCircle
 10
928.9082787165297
 20
534.8211232228292
 30
0.0
 40
5.0
100
AcDbArc
 50
0.0
 51
94.51406099999998
  0
ARC
  5
2977
330
2CD8
100
AcDbEntity
  8
AM_0
100
AcDbCircle
 10
945.9082787165296
 20
534.8211232228292
 30
0.0
 40
5.0
100
AcDbArc
 50
85.48594399999997
 51
180.00001
  0
ARC
  5
2978
330
2CD8
100
AcDbEntity
  8
ﾁｭｳｼﾝｾﾝ1
100
AcDbCircle
 10
937.4083087165203
 20
427.1561982228186
 30
0.0
 40
170.0000050000141
100
AcDbArc
 50
38.9915459836431
 51
51.01460399999965
  0
LINE
  5
2979
330
2CD8
100
AcDbEntity
  8
AM_0
100
AcDbLine
 10
1077.40542371653
 20
548.8281232228293
 30
0.0
 11
1079.908263716529
 21
477.1562282228292
 31
0.0
  0
LINE
  5
297A
330
2CD8
100
AcDbEntity
  8
AM_0
100
AcDbLine
 10
1009.91221371653
 20
506.7311782228292
 30
0.0
 11
980.7182437165296
 21
477.5372082228292
 31
0.0
  0
LINE
  5
297B
330
2CD8
100
AcDbEntity
  8
AM_0
100
AcDbLine
 10
1016.983288716529
 20
499.6601032228292
 30
0.0
 11
987.7893187165296
 21
470.4661332228292
 31
0.0
  0
ARC
  5
297C
330
2CD8
100
AcDbEntity
  8
AM_0
100
AcDbCircle
 10
991.3248437165297
 20
466.9306132228292
 30
0.0
 40
5.0
100
AcDbArc
 50
135.0
 51
216.41632
  0
ARC
  5
297D
330
2CD8
100
AcDbEntity
  8
AM_0
100
AcDbCircle
 10
1020.51881371653
 20
496.1245832228292
 30
0.0
 40
5.0
100
AcDbArc
 50
39.687224
 51
135.0
  0
ARC
  5
297E
330
2CD8
100
AcDbEntity
  8
AM_0
100
AcDbCircle
 10
1006.37669371653
 20
510.2667332228292
 30
0.0
 40
5.0
100
AcDbArc
 50
315.0
 51
50.312775
  0
LINE
  5
297F
330
2CD8
100
AcDbEntity
  8
AM_0
100
AcDbLine
 10
1059.08010871653
 20
567.1533732228292
 30
0.0
 11
987.4083087165297
 21
569.6562232228293
 31
0.0
  0
ARC
  5
2980
330
2CD8
100
AcDbEntity
  8
AM_0
100
AcDbCircle
 10
1058.41702371653
 20
548.1649732228292
 30
0.0
 40
19.0000005
100
AcDbArc
 50
2.0
 51
88.0
  0
LINE
  5
2981
330
2CD8
100
AcDbEntity
  8
ﾁｭｳｼﾝｾﾝ1
100
AcDbLine
 10
1068.880223970956
 20
558.6281538505577
 30
0.0
 11
1045.574960523252
 21
535.3228683473449
 31
0.0
  0
CIRCLE
  5
2982
330
2CD8
100
AcDbEntity
  8
AM_0
100
AcDbCircle
 10
1057.616423716529
 20
547.3643732228293
 30
0.0
 40
9.5
  0
LINE
  5
2983
330
2CD8
100
AcDbEntity
  8
AM_0
100
AcDbLine
 10
297.3589861571186
 20
779.1732914730769
 30
0.0
 11
303.3933511571185
 21
775.689348473077
 31
0.0
  0
LINE
  5
2984
330
2CD8
100
AcDbEntity
  8
AM_0
100
AcDbLine
 10
303.3933511571185
 20
858.9666344730765
 30
0.0
 11
297.3589861571186
 21
855.4826924730768
 31
0.0
  0
LINE
  5
2985
330
2CD8
100
AcDbEntity
  8
AM_0
100
AcDbLine
 10
295.3589861571184
 20
846.827991473077
 30
0.0
 11
293.3589861571184
 21
844.827991473077
 31
0.0
  0
LINE
  5
2986
330
2CD8
100
AcDbEntity
  8
AM_0
100
AcDbLine
 10
295.3589861571184
 20
782.6373924730769
 30
0.0
 11
295.3589861571184
 21
852.0185904730766
 31
0.0
  0
LINE
  5
2987
330
2CD8
100
AcDbEntity
  8
AM_0
100
AcDbLine
 10
293.3589861571184
 20
789.8279914730766
 30
0.0
 11
293.3589861571184
 21
844.827991473077
 31
0.0
  0
ARC
  5
2988
330
2CD8
100
AcDbEntity
  8
AM_0
100
AcDbCircle
 10
299.3589861571186
 20
782.6373924730769
 30
0.0
 40
4.0
100
AcDbArc
 50
180.0
 51
239.9999999999995
  0
LINE
  5
2989
330
2CD8
100
AcDbEntity
  8
AM_0
100
AcDbLine
 10
293.3589861571184
 20
789.8279914730766
 30
0.0
 11
295.3589861571184
 21
787.8279914730766
 31
0.0
  0
LINE
  5
298A
330
2CD8
100
AcDbEntity
  8
AM_0
100
AcDbLine
 10
255.3589861571186
 20
829.3279914730765
 30
0.0
 11
291.3589861571184
 21
829.3279914730765
 31
0.0
  0
LINE
  5
298B
330
2CD8
100
AcDbEntity
  8
AM_0
100
AcDbLine
 10
255.3589861571186
 20
805.3279914730765
 30
0.0
 11
291.3589861571184
 21
805.3279914730765
 31
0.0
  0
LINE
  5
298C
330
2CD8
100
AcDbEntity
  8
AM_0
100
AcDbLine
 10
255.3589861571186
 20
821.3279914730765
 30
0.0
 11
283.3589861571184
 21
821.3279914730765
 31
0.0
  0
LINE
  5
298D
330
2CD8
100
AcDbEntity
  8
AM_0
100
AcDbLine
 10
255.3589861571186
 20
813.3279914730765
 30
0.0
 11
283.3589861571184
 21
813.3279914730765
 31
0.0
  0
LINE
  5
298E
330
2CD8
100
AcDbEntity
  8
AM_0
100
AcDbLine
 10
255.3589861571186
 20
805.3279914730765
 30
0.0
 11
255.3589861571186
 21
829.3279914730765
 31
0.0
  0
LINE
  5
298F
330
2CD8
100
AcDbEntity
  8
AM_0
100
AcDbLine
 10
291.3589861571184
 20
802.3279914730768
 30
0.0
 11
291.3589861571184
 21
832.327991473077
 31
0.0
  0
LINE
  5
2990
330
2CD8
100
AcDbEntity
  8
AM_0
100
AcDbLine
 10
291.3589861571184
 20
802.3279914730768
 30
0.0
 11
293.3589861571184
 21
802.3279914730768
 31
0.0
  0
ARC
  5
2991
330
2CD8
100
AcDbEntity
  8
AM_0
100
AcDbCircle
 10
283.3589861571184
 20
817.327991473077
 30
0.0
 40
4.000000000000055
100
AcDbArc
 50
270.0
 51
90.0
  0
LINE
  5
2992
330
2CD8
100
AcDbEntity
  8
AM_0
100
AcDbLine
 10
283.3589861571184
 20
813.3279914730765
 30
0.0
 11
283.3589861571184
 21
821.3279914730765
 31
0.0
  0
LINE
  5
2993
330
2CD8
100
AcDbEntity
  8
AM_0
100
AcDbLine
 10
291.3589861571184
 20
832.327991473077
 30
0.0
 11
293.3589861571184
 21
832.327991473077
 31
0.0
  0
ARC
  5
2994
330
2CD8
100
AcDbEntity
  8
AM_0
100
AcDbCircle
 10
299.3589861571186
 20
852.0185904730766
 30
0.0
 40
4.0
100
AcDbArc
 50
120.0000000000005
 51
180.0
  0
LINE
  5
2995
330
2CD8
100
AcDbEntity
  8
AM_0
100
AcDbLine
 10
402.3589861571185
 20
755.8187664730769
 30
0.0
 11
402.3589861571185
 21
775.8533164730769
 31
0.0
  0
LINE
  5
2996
330
2CD8
100
AcDbEntity
  8
AM_0
100
AcDbLine
 10
338.9222301571185
 20
773.5553784730766
 30
0.0
 11
391.3404171571185
 21
746.8469784730769
 31
0.0
  0
LINE
  5
2997
330
2CD8
100
AcDbEntity
  8
AM_0
100
AcDbLine
 10
392.3589861571185
 20
748.5726444730769
 30
0.0
 11
392.3589861571185
 21
886.0833394730766
 31
0.0
  0
LINE
  5
2998
330
2CD8
100
AcDbEntity
  8
AM_0
100
AcDbLine
 10
394.3589861571185
 20
743.8279914730766
 30
0.0
 11
404.3589861571183
 21
743.8279914730766
 31
0.0
  0
LINE
  5
2999
330
2CD8
100
AcDbEntity
  8
AM_0
100
AcDbLine
 10
394.3589861571185
 20
753.8187664730769
 30
0.0
 11
400.3589861571184
 21
753.8187664730769
 31
0.0
  0
ARC
  5
299A
330
2CD8
100
AcDbEntity
  8
AM_0
100
AcDbCircle
 10
394.3589861571185
 20
745.8279914730766
 30
0.0
 40
2.0
100
AcDbArc
 50
190.9969429999972
 51
270.0
  0
ARC
  5
299B
330
2CD8
100
AcDbEntity
  8
AM_0
100
AcDbCircle
 10
390.4324361571184
 20
745.0649654730766
 30
0.0
 40
2.0
100
AcDbArc
 50
10.99694299999732
 51
62.99999999999824
  0
ARC
  5
299C
330
2CD8
100
AcDbEntity
  8
AM_0
100
AcDbCircle
 10
394.3589861571185
 20
755.8187664730769
 30
0.0
 40
2.0
100
AcDbArc
 50
180.0
 51
270.0
  0
ARC
  5
299D
330
2CD8
100
AcDbEntity
  8
AM_0
100
AcDbCircle
 10
400.3589861571184
 20
755.8187664730769
 30
0.0
 40
2.0
100
AcDbArc
 50
270.0
 51
0.0
  0
LINE
  5
299E
330
2CD8
100
AcDbEntity
  8
AM_0
100
AcDbLine
 10
336.8651791571185
 20
777.6039554730767
 30
0.0
 11
336.8651791571185
 21
857.0520274730769
 31
0.0
  0
LINE
  5
299F
330
2CD8
100
AcDbEntity
  8
AM_0
100
AcDbLine
 10
304.2892281571184
 20
778.1725704730769
 30
0.0
 11
304.2892281571184
 21
856.4834124730769
 31
0.0
  0
LINE
  5
29A0
330
2CD8
100
AcDbEntity
  8
AM_0
100
AcDbLine
 10
305.3235411571185
 20
775.1540594730769
 30
0.0
 11
334.5568491571185
 21
774.6437904730769
 31
0.0
  0
ARC
  5
29A1
330
2CD8
100
AcDbEntity
  8
AM_0
100
AcDbCircle
 10
305.3933511571185
 20
779.1534504730771
 30
0.0
 40
4.0
100
AcDbArc
 50
239.9999999999995
 51
269.0000000000015
  0
ARC
  5
29A2
330
2CD8
100
AcDbEntity
  8
AM_0
100
AcDbCircle
 10
334.3823251571184
 20
764.6453134730769
 30
0.0
 40
10.0
100
AcDbArc
 50
62.99999999999824
 51
89.00000000000151
  0
LINE
  5
29A3
330
2CD8
100
AcDbEntity
  8
AM_0
100
AcDbLine
 10
394.3589861571185
 20
777.8533164730768
 30
0.0
 11
402.3589861571185
 21
777.8533164730768
 31
0.0
  0
ARC
  5
29A4
330
2CD8
100
AcDbEntity
  8
AM_0
100
AcDbCircle
 10
404.3589861571183
 20
775.8533164730769
 30
0.0
 40
2.0
100
AcDbArc
 50
120.0000000000005
 51
180.0
  0
LINE
  5
29A5
330
2CD8
100
AcDbEntity
  8
AM_0
100
AcDbLine
 10
391.3404171571185
 20
887.8090054730769
 30
0.0
 11
338.9222301571185
 21
861.1006044730768
 31
0.0
  0
LINE
  5
29A6
330
2CD8
100
AcDbEntity
  8
AM_0
100
AcDbLine
 10
334.5568491571185
 20
860.0121924730766
 30
0.0
 11
305.3235411571185
 21
859.5019234730768
 31
0.0
  0
ARC
  5
29A7
330
2CD8
100
AcDbEntity
  8
AM_0
100
AcDbCircle
 10
305.3933511571185
 20
855.5025324730769
 30
0.0
 40
4.0
100
AcDbArc
 50
90.9999999999985
 51
120.0000000000005
  0
ARC
  5
29A8
330
2CD8
100
AcDbEntity
  8
AM_0
100
AcDbCircle
 10
334.3823251571184
 20
870.0106694730767
 30
0.0
 40
10.0
100
AcDbArc
 50
270.9999999999984
 51
296.999999999998
  0
ARC
  5
29A9
330
2CD8
100
AcDbEntity
  8
AM_0
100
AcDbCircle
 10
390.4324361571184
 20
889.5910184730769
 30
0.0
 40
2.0
100
AcDbArc
 50
296.999999999998
 51
349.0030569999962
  0
LINE
  5
29AA
330
2CD8
100
AcDbEntity
  8
AM_0
100
AcDbLine
 10
394.3589861571185
 20
880.8372164730766
 30
0.0
 11
400.3589861571184
 21
880.8372164730766
 31
0.0
  0
LINE
  5
29AB
330
2CD8
100
AcDbEntity
  8
AM_0
100
AcDbLine
 10
394.3589861571185
 20
856.8026674730768
 30
0.0
 11
402.3589861571185
 21
856.8026674730768
 31
0.0
  0
ARC
  5
29AC
330
2CD8
100
AcDbEntity
  8
AM_0
100
AcDbCircle
 10
394.3589861571185
 20
878.8372164730771
 30
0.0
 40
2.0
100
AcDbArc
 50
90.0
 51
180.0
  0
LINE
  5
29AD
330
2CD8
100
AcDbEntity
  8
AM_0
100
AcDbLine
 10
402.3589861571185
 20
878.8372164730771
 30
0.0
 11
402.3589861571185
 21
858.8026674730768
 31
0.0
  0
ARC
  5
29AE
330
2CD8
100
AcDbEntity
  8
AM_0
100
AcDbCircle
 10
404.3589861571183
 20
858.8026674730768
 30
0.0
 40
2.0
100
AcDbArc
 50
180.0
 51
239.9999999999995
  0
ARC
  5
29AF
330
2CD8
100
AcDbEntity
  8
AM_0
100
AcDbCircle
 10
400.3589861571184
 20
878.8372164730771
 30
0.0
 40
2.0
100
AcDbArc
 50
0.0
 51
90.0
  0
LINE
  5
29B0
330
2CD8
100
AcDbEntity
  8
AM_0
100
AcDbLine
 10
394.3589861571185
 20
890.8279914730766
 30
0.0
 11
404.3589861571183
 21
890.8279914730766
 31
0.0
  0
ARC
  5
29B1
330
2CD8
100
AcDbEntity
  8
AM_0
100
AcDbCircle
 10
394.3589861571185
 20
888.827991473077
 30
0.0
 40
2.0
100
AcDbArc
 50
90.0
 51
169.0030570000025
  0
ARC
  5
29B3
330
2CD8
100
AcDbEntity
  8
ﾁｭｳｼﾝｾﾝ1
100
AcDbCircle
 10
937.4083087165193
 20
427.1561982228385
 30
0.0
 40
170.0000050000141
100
AcDbArc
 50
308.9915459836429
 51
321.0146039999996
  0
LINE
  5
29B4
330
2CD8
100
AcDbEntity
  8
ﾁｭｳｼﾝｾﾝ1
100
AcDbLine
 10
1068.880264344258
 20
295.684282968403
 30
0.0
 11
1045.574978841045
 21
318.9895464161056
 31
0.0
  0
LINE
  5
29B5
330
2CD8
100
AcDbEntity
  8
ﾁｭｳｼﾝｾﾝ1
100
AcDbLine
 10
806.6792769487301
 20
557.8852338302165
 30
0.0
 11
828.8674610362804
 21
535.6970465279543
 31
0.0
  0
ARC
  5
29B6
330
2CD8
100
AcDbEntity
  8
ﾁｭｳｼﾝｾﾝ1
100
AcDbCircle
 10
937.4083087165272
 20
427.156198222832
 30
0.0
 40
170.0000049999958
100
AcDbArc
 50
128.5427743107556
 51
141.0146100000002
  0
LINE
  5
29B7
330
2CD8
100
AcDbEntity
  8
ﾁｭｳｼﾝｾﾝ
100
AcDbLine
 10
246.4200094679325
 20
817.327961473077
 30
0.0
 11
669.3730261571186
 21
817.327961473077
 31
0.0
  0
POLYLINE
  5
29B8
330
2CD8
100
AcDbEntity
  8
AM_0
100
AcDb2dPolyline
 66
     1
 10
0.0
 20
0.0
 30
0.0
  0
VERTEX
  5
29B9
330
29B8
100
AcDbEntity
  8
AM_0
100
AcDbVertex
100
AcDb2dVertex
 10
542.7232961571187
 20
868.892481473077
 30
0.0
 42
0.030646372
  0
VERTEX
  5
29BA
330
29B8
100
AcDbEntity
  8
AM_0
100
AcDbVertex
100
AcDb2dVertex
 10
538.3137661571187
 20
834.6090714730769
 30
0.0
 42
0.064801293
  0
VERTEX
  5
29BB
330
29B8
100
AcDbEntity
  8
AM_0
100
AcDbVertex
100
AcDb2dVertex
 10
542.7232961571187
 20
765.7634214730766
 30
0.0
  0
SEQEND
  5
29BC
330
29B8
100
AcDbEntity
  8
AM_0
  0
LINE
  5
29BD
330
2CD8
100
AcDbEntity
  8
AM_0
100
AcDbLine
 10
585.8590561571185
 20
697.3279614730769
 30
0.0
 11
585.8590561571185
 21
937.3279614730773
 31
0.0
  0
LINE
  5
29BE
330
2CD8
100
AcDbEntity
  8
AM_0
100
AcDbLine
 10
571.8590561571184
 20
706.3706914730769
 30
0.0
 11
571.8590561571184
 21
928.2852414730767
 31
0.0
  0
LINE
  5
29BF
330
2CD8
100
AcDbEntity
  8
AM_0
100
AcDbLine
 10
581.8590561571185
 20
674.827961473077
 30
0.0
 11
581.8590561571185
 21
959.8279614730769
 31
0.0
  0
LINE
  5
29C0
330
2CD8
100
AcDbEntity
  8
AM_0
100
AcDbLine
 10
563.8590561571182
 20
678.337001473077
 30
0.0
 11
563.8590561571182
 21
956.3023314730768
 31
0.0
  0
LINE
  5
29C1
330
2CD8
100
AcDbEntity
  8
AM_0
100
AcDbLine
 10
657.8590561571185
 20
796.3279614730769
 30
0.0
 11
657.8590561571185
 21
838.3279614730771
 31
0.0
  0
LINE
  5
29C2
330
2CD8
100
AcDbEntity
  8
AM_0
100
AcDbLine
 10
587.8590561571185
 20
794.8279614730769
 30
0.0
 11
587.8590561571185
 21
839.8279614730769
 31
0.0
  0
LINE
  5
29C3
330
2CD8
100
AcDbEntity
  8
AM_0
100
AcDbLine
 10
404.3589861571183
 20
743.8279614730769
 30
0.0
 11
404.3589861571183
 21
890.8280214730769
 31
0.0
  0
LINE
  5
29C4
330
2CD8
100
AcDbEntity
  8
AM_0
100
AcDbLine
 10
465.8590561571185
 20
677.589991473077
 30
0.0
 11
465.8590561571185
 21
813.3279614730771
 31
0.0
  0
LINE
  5
29C5
330
2CD8
100
AcDbEntity
  8
AM_0
100
AcDbLine
 10
452.8589861571185
 20
681.1181814730771
 30
0.0
 11
452.8589861571185
 21
807.7885314730771
 31
0.0
  0
LINE
  5
29C6
330
2CD8
100
AcDbEntity
  8
AM_0
100
AcDbLine
 10
438.8590561571183
 20
703.2199914730767
 30
0.0
 11
438.8590561571183
 21
813.3279614730771
 31
0.0
  0
LINE
  5
29C7
330
2CD8
100
AcDbEntity
  8
AM_0
100
AcDbLine
 10
465.8590561571185
 20
765.7634514730766
 30
0.0
 11
563.8590561571182
 21
765.7634514730766
 31
0.0
  0
LINE
  5
29C8
330
2CD8
100
AcDbEntity
  8
AM_0
100
AcDbLine
 10
465.8590561571185
 20
739.7621714730769
 30
0.0
 11
517.6548261571185
 21
739.7621714730769
 31
0.0
  0
LINE
  5
29C9
330
2CD8
100
AcDbEntity
  8
AM_0
100
AcDbLine
 10
465.8590561571185
 20
677.589991473077
 30
0.0
 11
566.7926461571187
 21
675.3543314730769
 31
0.0
  0
LINE
  5
29CA
330
2CD8
100
AcDbEntity
  8
AM_0
100
AcDbLine
 10
465.8590561571185
 20
688.1975914730769
 30
0.0
 11
563.8590561571182
 21
684.7753514730769
 31
0.0
  0
ARC
  5
29CB
330
2CD8
100
AcDbEntity
  8
AM_0
100
AcDbCircle
 10
433.8590561571185
 20
737.7947014730766
 30
0.0
 40
5.0
100
AcDbArc
 50
0.0
 51
87.99999999999625
  0
LINE
  5
29CC
330
2CD8
100
AcDbEntity
  8
AM_0
100
AcDbLine
 10
404.3590561571185
 20
777.8532914730771
 30
0.0
 11
438.8590561571183
 21
777.8532914730771
 31
0.0
  0
LINE
  5
29CD
330
2CD8
100
AcDbEntity
  8
AM_0
100
AcDbLine
 10
404.3590561571185
 20
755.7492914730769
 30
0.0
 11
438.8590561571183
 21
755.7492914730769
 31
0.0
  0
LINE
  5
29CE
330
2CD8
100
AcDbEntity
  8
AM_0
100
AcDbLine
 10
404.3590561571185
 20
743.8279614730769
 30
0.0
 11
434.0336161571185
 21
742.7917114730769
 31
0.0
  0
LINE
  5
29CF
330
2CD8
100
AcDbEntity
  8
AM_0
100
AcDbLine
 10
454.7892861571185
 20
688.5841914730767
 30
0.0
 11
465.8591161571187
 21
688.1975914730769
 31
0.0
  0
LINE
  5
29D0
330
2CD8
100
AcDbEntity
  8
AM_0
100
AcDbLine
 10
455.6890661571187
 20
678.1230114730771
 30
0.0
 11
465.8590561571185
 21
677.590051473077
 31
0.0
  0
ARC
  5
29D1
330
2CD8
100
AcDbEntity
  8
AM_0
100
AcDbCircle
 10
455.8589861571185
 20
681.1181814730771
 30
0.0
 40
3.0
100
AcDbArc
 50
180.0000100000009
 51
266.9999900000001
  0
ARC
  5
29D2
330
2CD8
100
AcDbEntity
  8
AM_0
100
AcDbCircle
 10
454.8590561571185
 20
690.583031473077
 30
0.0
 40
2.0
100
AcDbArc
 50
179.9999899999988
 51
268.0000099999986
  0
LINE
  5
29D3
330
2CD8
100
AcDbEntity
  8
AM_0
100
AcDbLine
 10
441.3380561571186
 20
700.2489814730769
 30
0.0
 11
450.3799861571185
 21
698.6546214730769
 31
0.0
  0
ARC
  5
29D4
330
2CD8
100
AcDbEntity
  8
AM_0
100
AcDbCircle
 10
441.8590561571185
 20
703.2033914730769
 30
0.0
 40
3.0
100
AcDbArc
 50
179.9999899999988
 51
260.0000000000012
  0
ARC
  5
29D5
330
2CD8
100
AcDbEntity
  8
AM_0
100
AcDbCircle
 10
449.8590561571185
 20
695.7002214730769
 30
0.0
 40
3.0
100
AcDbArc
 50
0.0
 51
79.9999980000011
  0
LINE
  5
29D6
330
2CD8
100
AcDbEntity
  8
AM_0
100
AcDbLine
 10
452.8589861571185
 20
765.7634514730766
 30
0.0
 11
465.8590561571185
 21
765.7634514730766
 31
0.0
  0
LINE
  5
29D7
330
2CD8
100
AcDbEntity
  8
AM_0
100
AcDbLine
 10
452.8589861571185
 20
739.7621714730769
 30
0.0
 11
465.8590561571185
 21
739.7621714730769
 31
0.0
  0
ARC
  5
29D8
330
2CD8
100
AcDbEntity
  8
AM_0
100
AcDbCircle
 10
566.8590561571185
 20
678.353601473077
 30
0.0
 40
3.0
100
AcDbArc
 50
179.9999899999988
 51
268.0000099999986
  0
LINE
  5
29D9
330
2CD8
100
AcDbEntity
  8
AM_0
100
AcDbLine
 10
587.8590561571185
 20
796.3279614730769
 30
0.0
 11
657.8590561571185
 21
796.3279614730769
 31
0.0
  0
ARC
  5
29DA
330
2CD8
100
AcDbEntity
  8
AM_0
100
AcDbCircle
 10
517.6548261571185
 20
736.7621714730769
 30
0.0
 40
3.0
100
AcDbArc
 50
59.11902300000196
 51
90.00000299999769
  0
ARC
  5
29DB
330
2CD8
100
AcDbEntity
  8
AM_0
100
AcDbCircle
 10
521.5465561571185
 20
741.4258614730769
 30
0.0
 40
3.0
100
AcDbArc
 50
90.00000299999769
 51
239.1190199999998
  0
LINE
  5
29DC
330
2CD8
100
AcDbEntity
  8
AM_0
100
AcDbLine
 10
561.7117161571185
 20
720.3243014730767
 30
0.0
 11
529.2089061571186
 21
739.7621714730769
 31
0.0
  0
LINE
  5
29DD
330
2CD8
100
AcDbEntity
  8
AM_0
100
AcDbLine
 10
553.7276461571186
 20
744.4258614730768
 30
0.0
 11
563.8589861571185
 21
736.8678214730769
 31
0.0
  0
LINE
  5
29DE
330
2CD8
100
AcDbEntity
  8
AM_0
100
AcDbLine
 10
561.4252761571186
 20
714.0813814730769
 30
0.0
 11
520.0068161571185
 21
738.8511614730771
 31
0.0
  0
POLYLINE
  5
29DF
330
2CD8
100
AcDbEntity
  8
AM_0
100
AcDb2dPolyline
 66
     1
 10
0.0
 20
0.0
 30
0.0
  0
VERTEX
  5
29E0
330
29DF
100
AcDbEntity
  8
AM_0
100
AcDbVertex
100
AcDb2dVertex
 10
556.2001561571185
 20
717.2059814730769
 30
0.0
 42
0.0052467582
  0
VERTEX
  5
29E1
330
29DF
100
AcDbEntity
  8
AM_0
100
AcDbVertex
100
AcDb2dVertex
 10
558.6203761571185
 20
710.7961514730769
 30
0.0
 42
0.0052066449
  0
VERTEX
  5
29E2
330
29DF
100
AcDbEntity
  8
AM_0
100
AcDbVertex
100
AcDb2dVertex
 10
561.1740561571186
 20
704.4383214730769
 30
0.0
 42
0.0051740769
  0
VERTEX
  5
29E3
330
29DF
100
AcDbEntity
  8
AM_0
100
AcDbVertex
100
AcDb2dVertex
 10
563.8590561571182
 20
698.1350914730769
 30
0.0
  0
SEQEND
  5
29E4
330
29DF
100
AcDbEntity
  8
AM_0
  0
LINE
  5
29E5
330
2CD8
100
AcDbEntity
  8
AM_0
100
AcDbLine
 10
566.7543161571187
 20
675.3554314730772
 30
0.0
 11
581.8590561571185
 21
674.827961473077
 31
0.0
  0
ARC
  5
29E6
330
2CD8
100
AcDbEntity
  8
AM_0
100
AcDbCircle
 10
566.8590561571185
 20
706.3706914730769
 30
0.0
 40
5.0
100
AcDbArc
 50
267.9999999999963
 51
0.0
  0
LINE
  5
29E7
330
2CD8
100
AcDbEntity
  8
AM_0
100
AcDbLine
 10
581.8590561571185
 20
697.3279614730769
 30
0.0
 11
585.8590561571185
 21
697.3279614730769
 31
0.0
  0
ARC
  5
29E8
330
2CD8
100
AcDbEntity
  8
AM_0
100
AcDbCircle
 10
558.8590561571185
 20
709.7901814730769
 30
0.0
 40
5.0
100
AcDbArc
 50
0.0
 51
59.11901699999779
  0
LINE
  5
29E9
330
2CD8
100
AcDbEntity
  8
AM_0
100
AcDbLine
 10
521.5465561571185
 20
744.4258614730768
 30
0.0
 11
563.8590561571182
 21
744.4258614730768
 31
0.0
  0
ARC
  5
29EA
330
2CD8
100
AcDbEntity
  8
AM_0
100
AcDbCircle
 10
568.8590561571185
 20
751.1935614730771
 30
0.0
 40
5.0
100
AcDbArc
 50
90.00000299999769
 51
180.0000100000009
  0
LINE
  5
29EB
330
2CD8
100
AcDbEntity
  8
AM_0
100
AcDbLine
 10
585.8590561571185
 20
794.8279614730769
 30
0.0
 11
587.8590561571185
 21
794.8279614730769
 31
0.0
  0
LINE
  5
29EC
330
2CD8
100
AcDbEntity
  8
AM_0
100
AcDbLine
 10
465.8590561571185
 20
868.892481473077
 30
0.0
 11
563.8590561571182
 21
868.892481473077
 31
0.0
  0
LINE
  5
29ED
330
2CD8
100
AcDbEntity
  8
AM_0
100
AcDbLine
 10
465.8590561571185
 20
946.4583314730772
 30
0.0
 11
563.8591161571187
 21
949.8805114730767
 31
0.0
  0
LINE
  5
29EE
330
2CD8
100
AcDbEntity
  8
AM_0
100
AcDbLine
 10
465.8590561571185
 20
957.0659414730767
 30
0.0
 11
566.7925861571186
 21
959.3016614730768
 31
0.0
  0
LINE
  5
29EF
330
2CD8
100
AcDbEntity
  8
AM_0
100
AcDbLine
 10
465.8590561571185
 20
894.8937614730771
 30
0.0
 11
517.6548261571185
 21
894.8937614730771
 31
0.0
  0
ARC
  5
29F0
330
2CD8
100
AcDbEntity
  8
AM_0
100
AcDbCircle
 10
441.8590561571185
 20
931.452531473077
 30
0.0
 40
3.0
100
AcDbArc
 50
99.99999999999859
 51
180.0000100000009
  0
LINE
  5
29F1
330
2CD8
100
AcDbEntity
  8
AM_0
100
AcDbLine
 10
452.8589861571185
 20
826.8673914730765
 30
0.0
 11
452.8589861571185
 21
953.5377414730769
 31
0.0
  0
LINE
  5
29F2
330
2CD8
100
AcDbEntity
  8
AM_0
100
AcDbLine
 10
465.8590561571185
 20
821.3279014730765
 30
0.0
 11
465.8590561571185
 21
957.0659414730767
 31
0.0
  0
ARC
  5
29F3
330
2CD8
100
AcDbEntity
  8
AM_0
100
AcDbCircle
 10
433.8590561571185
 20
896.8612314730769
 30
0.0
 40
5.0
100
AcDbArc
 50
272.0000000000037
 51
0.0
  0
LINE
  5
29F4
330
2CD8
100
AcDbEntity
  8
AM_0
100
AcDbLine
 10
433.3591161571185
 20
821.3279014730765
 30
0.0
 11
466.3591161571185
 21
821.3279014730765
 31
0.0
  0
LINE
  5
29F5
330
2CD8
100
AcDbEntity
  8
AM_0
100
AcDbLine
 10
433.3591161571185
 20
813.3279614730771
 30
0.0
 11
466.3591161571185
 21
813.3279614730771
 31
0.0
  0
LINE
  5
29F6
330
2CD8
100
AcDbEntity
  8
AM_0
100
AcDbLine
 10
404.3590561571185
 20
856.802631473077
 30
0.0
 11
438.8590561571183
 21
856.802631473077
 31
0.0
  0
LINE
  5
29F7
330
2CD8
100
AcDbEntity
  8
AM_0
100
AcDbLine
 10
404.3590561571185
 20
878.9065814730768
 30
0.0
 11
438.8590561571183
 21
878.9065814730768
 31
0.0
  0
ARC
  5
29F8
330
2CD8
100
AcDbEntity
  8
AM_0
100
AcDbCircle
 10
433.3591161571185
 20
817.327961473077
 30
0.0
 40
3.9999962
100
AcDbArc
 50
90.00000299999769
 51
270.0
  0
LINE
  5
29F9
330
2CD8
100
AcDbEntity
  8
AM_0
100
AcDbLine
 10
404.3590561571185
 20
890.8279614730771
 30
0.0
 11
434.0334861571186
 21
891.8642214730768
 31
0.0
  0
LINE
  5
29FA
330
2CD8
100
AcDbEntity
  8
AM_0
100
AcDbLine
 10
438.8590561571183
 20
821.3279014730765
 30
0.0
 11
438.8590561571183
 21
931.4691414730768
 31
0.0
  0
ARC
  5
29FB
330
2CD8
100
AcDbEntity
  8
AM_0
100
AcDbCircle
 10
449.8591161571185
 20
817.327961473077
 30
0.0
 40
10.0
100
AcDbArc
 50
203.5782699999985
 51
336.4217200000013
  0
ARC
  5
29FC
330
2CD8
100
AcDbEntity
  8
AM_0
100
AcDbCircle
 10
449.8591161571185
 20
817.327961473077
 30
0.0
 40
10.0
100
AcDbArc
 50
23.57803699999776
 51
156.4219600000008
  0
ARC
  5
29FD
330
2CD8
100
AcDbEntity
  8
AM_0
100
AcDbCircle
 10
466.3591161571185
 20
817.327961473077
 30
0.0
 40
3.9999962
100
AcDbArc
 50
270.0
 51
90.00000299999769
  0
LINE
  5
29FE
330
2CD8
100
AcDbEntity
  8
AM_0
100
AcDbLine
 10
452.8589861571185
 20
868.892481473077
 30
0.0
 11
465.8590561571185
 21
868.892481473077
 31
0.0
  0
LINE
  5
29FF
330
2CD8
100
AcDbEntity
  8
AM_0
100
AcDbLine
 10
452.8589861571185
 20
894.8937614730771
 30
0.0
 11
465.8590561571185
 21
894.8937614730771
 31
0.0
  0
LINE
  5
2A00
330
2CD8
100
AcDbEntity
  8
AM_0
100
AcDbLine
 10
455.7019461571185
 20
956.5335914730766
 30
0.0
 11
465.8590561571185
 21
957.0658814730768
 31
0.0
  0
LINE
  5
2A01
330
2CD8
100
AcDbEntity
  8
AM_0
100
AcDbLine
 10
454.7892861571185
 20
946.0717414730767
 30
0.0
 11
465.8590561571185
 21
946.4583314730772
 31
0.0
  0
LINE
  5
2A02
330
2CD8
100
AcDbEntity
  8
AM_0
100
AcDbLine
 10
441.3381161571185
 20
934.4069414730768
 30
0.0
 11
450.3799861571185
 21
936.0013014730768
 31
0.0
  0
ARC
  5
2A03
330
2CD8
100
AcDbEntity
  8
AM_0
100
AcDbCircle
 10
449.8590561571185
 20
938.9557114730768
 30
0.0
 40
3.0
100
AcDbArc
 50
280.0000100000013
 51
0.0
  0
ARC
  5
2A04
330
2CD8
100
AcDbEntity
  8
AM_0
100
AcDbCircle
 10
454.8590561571185
 20
944.0729614730768
 30
0.0
 40
2.0
100
AcDbArc
 50
91.99999800000055
 51
180.0000100000009
  0
ARC
  5
2A05
330
2CD8
100
AcDbEntity
  8
AM_0
100
AcDbCircle
 10
455.8589861571185
 20
953.5377414730769
 30
0.0
 40
3.0
100
AcDbArc
 50
92.99999900000168
 51
180.0000100000009
  0
POLYLINE
  5
2A06
330
2CD8
100
AcDbEntity
  8
AM_0
100
AcDb2dPolyline
 66
     1
 10
0.0
 20
0.0
 30
0.0
  0
VERTEX
  5
2A07
330
2A06
100
AcDbEntity
  8
AM_0
100
AcDbVertex
100
AcDb2dVertex
 10
563.8590561571182
 20
936.5208314730772
 30
0.0
  0
VERTEX
  5
2A08
330
2A06
100
AcDbEntity
  8
AM_0
100
AcDbVertex
100
AcDb2dVertex
 10
556.2002261571185
 20
917.4501414730768
 30
0.0
 42
-1.0
  0
SEQEND
  5
2A09
330
2A06
100
AcDbEntity
  8
AM_0
  0
ARC
  5
2A0A
330
2CD8
100
AcDbEntity
  8
AM_0
100
AcDbCircle
 10
566.8590561571185
 20
928.2852414730767
 30
0.0
 40
5.0
100
AcDbArc
 50
0.0
 51
91.99999800000055
  0
LINE
  5
2A0B
330
2CD8
100
AcDbEntity
  8
AM_0
100
AcDbLine
 10
587.8590561571185
 20
838.3279614730771
 30
0.0
 11
657.8590561571185
 21
838.3279614730771
 31
0.0
  0
LINE
  5
2A0C
330
2CD8
100
AcDbEntity
  8
AM_0
100
AcDbLine
 10
585.8590561571185
 20
839.8279614730769
 30
0.0
 11
587.8590561571185
 21
839.8279614730769
 31
0.0
  0
LINE
  5
2A0D
330
2CD8
100
AcDbEntity
  8
AM_0
100
AcDbLine
 10
553.7276461571186
 20
890.2300614730769
 30
0.0
 11
563.8590561571182
 21
897.7881714730768
 31
0.0
  0
LINE
  5
2A0E
330
2CD8
100
AcDbEntity
  8
AM_0
100
AcDbLine
 10
561.7116561571186
 20
914.3316214730768
 30
0.0
 11
529.2089061571186
 21
894.8937614730771
 31
0.0
  0
LINE
  5
2A0F
330
2CD8
100
AcDbEntity
  8
AM_0
100
AcDbLine
 10
561.4253361571185
 20
920.5745414730769
 30
0.0
 11
520.0068161571185
 21
895.8047714730771
 31
0.0
  0
LINE
  5
2A10
330
2CD8
100
AcDbEntity
  8
AM_0
100
AcDbLine
 10
521.5465561571185
 20
890.2300614730769
 30
0.0
 11
563.8590561571182
 21
890.2300614730769
 31
0.0
  0
ARC
  5
2A11
330
2CD8
100
AcDbEntity
  8
AM_0
100
AcDbCircle
 10
517.6548261571185
 20
897.8937614730771
 30
0.0
 40
3.0
100
AcDbArc
 50
270.0
 51
300.88098
  0
ARC
  5
2A12
330
2CD8
100
AcDbEntity
  8
AM_0
100
AcDbCircle
 10
521.5465561571185
 20
893.2300614730769
 30
0.0
 40
3.0
100
AcDbArc
 50
120.8809700000043
 51
270.0
  0
ARC
  5
2A13
330
2CD8
100
AcDbEntity
  8
AM_0
100
AcDbCircle
 10
568.8590561571185
 20
883.4623614730769
 30
0.0
 40
5.0
100
AcDbArc
 50
179.9999899999988
 51
270.0
  0
ARC
  5
2A14
330
2CD8
100
AcDbEntity
  8
AM_0
100
AcDbCircle
 10
558.8590561571185
 20
924.865741473077
 30
0.0
 40
5.0
100
AcDbArc
 50
300.88098
 51
0.0
  0
LINE
  5
2A15
330
2CD8
100
AcDbEntity
  8
AM_0
100
AcDbLine
 10
601.8590561571185
 20
811.3279614730769
 30
0.0
 11
657.8590561571185
 21
811.3279614730769
 31
0.0
  0
LINE
  5
2A16
330
2CD8
100
AcDbEntity
  8
AM_0
100
AcDbLine
 10
601.8590561571185
 20
823.3279614730768
 30
0.0
 11
657.8590561571185
 21
823.3279614730768
 31
0.0
  0
ARC
  5
2A17
330
2CD8
100
AcDbEntity
  8
AM_0
100
AcDbCircle
 10
601.8590561571185
 20
817.327961473077
 30
0.0
 40
6.000003799999999
100
AcDbArc
 50
90.00000299999769
 51
270.0
  0
LINE
  5
2A18
330
2CD8
100
AcDbEntity
  8
AM_0
100
AcDbLine
 10
601.8590561571185
 20
823.3279614730768
 30
0.0
 11
601.8590561571185
 21
811.3279614730769
 31
0.0
  0
LINE
  5
2A19
330
2CD8
100
AcDbEntity
  8
AM_0
100
AcDbLine
 10
566.7542561571186
 20
959.3005614730767
 30
0.0
 11
581.8590561571185
 21
959.8280214730767
 31
0.0
  0
ARC
  5
2A1A
330
2CD8
100
AcDbEntity
  8
AM_0
100
AcDbCircle
 10
566.8590561571185
 20
956.3023314730768
 30
0.0
 40
3.0
100
AcDbArc
 50
91.99999800000055
 51
180.0000100000009
  0
LINE
  5
2A1B
330
2CD8
100
AcDbEntity
  8
AM_0
100
AcDbLine
 10
581.8590561571185
 20
937.3279614730773
 30
0.0
 11
585.8590561571185
 21
937.3279614730773
 31
0.0
  0
TEXT
  5
2BFB
330
2CD8
100
AcDbEntity
  8
AM_0
100
AcDbText
 10
771.3608973079523
 20
854.8413254225369
 30
0.0
 40
20.0
  1
VX15-060GF~VX15-100GF
100
AcDbText
  0
LINE
  5
2DF6
330
2CD8
100
AcDbEntity
  8
AM_0
100
AcDbLine
 10
255.3590561571188
 20
404.1561982228292
 30
0.0
 11
283.3590561571188
 21
404.1561982228292
 31
0.0
  0
ENDSEC
  0
SECTION
  2
OBJECTS
  0
DICTIONARY
  5
2C75
330
0
100
AcDbDictionary
281
     1
  3
ACAD_CIP_PREVIOUS_PRODUCT_INFO
350
2D8C
  3
ACAD_COLOR
350
2CCB
  3
ACAD_DETAILVIEWSTYLE
350
2CD2
  3
ACAD_FIELDLIST
350
2DD6
  3
ACAD_GROUP
350
2C76
  3
ACAD_LAYOUT
350
2CCA
  3
ACAD_MATERIAL
350
2C79
  3
ACAD_MLEADERSTYLE
350
2CCE
  3
ACAD_MLINESTYLE
350
2CC7
  3
ACAD_PLOTSETTINGS
350
2CC9
  3
ACAD_PLOTSTYLENAME
350
2C77
  3
ACAD_SCALELIST
350
2CAB
  3
ACAD_SECTIONVIEWSTYLE
350
2CD0
  3
ACAD_TABLESTYLE
350
2CCC
  3
ACAD_VISUALSTYLE
350
2C92
  3
ACDB_RECOMPOSE_DATA
350
2FBE
  3
AcDbVariableDictionary
350
2F10
  3
AcmDictionary
350
2DB2
  3
AMG
350
2D8D
  3
AMGSNAPSETTINGS
350
2DEE
  0
DICTIONARY
  5
2F0A
330
2C6B
100
AcDbDictionary
280
     1
281
     1
  3
ACAD_LAYERSTATES
360
2F0B
  0
DICTIONARY
  5
2EFD
330
2CBD
100
AcDbDictionary
280
     1
281
     1
  3
ADSK_XREC_LAYER_RECONCILED
360
2EFE
  0
DICTIONARY
  5
2EFF
330
2CDC
100
AcDbDictionary
280
     1
281
     1
  3
ADSK_XREC_LAYER_RECONCILED
360
2F00
  0
DICTIONARY
  5
2F01
330
2CF6
100
AcDbDictionary
280
     1
281
     1
  3
ADSK_XREC_LAYER_RECONCILED
360
2F02
  0
DICTIONARY
  5
2F03
330
2CF8
100
AcDbDictionary
280
     1
281
     1
  3
ADSK_XREC_LAYER_RECONCILED
360
2F04
  0
DICTIONARY
  5
2F05
330
2CF9
100
AcDbDictionary
280
     1
281
     1
  3
ADSK_XREC_LAYER_RECONCILED
360
2F06
  0
XRECORD
  5
2D8C
102
{ACAD_REACTORS
330
2C75
102
}
330
2C75
100
AcDbXrecord
280
     1
300
AMECH_PP
300
2019
300

  0
DICTIONARY
  5
2CCB
102
{ACAD_REACTORS
330
2C75
102
}
330
2C75
100
AcDbDictionary
281
     1
  0
DICTIONARY
  5
2CD2
102
{ACAD_REACTORS
330
2C75
102
}
330
2C75
100
AcDbDictionary
281
     1
  3
Imperial24
350
2CD3
  0
FIELDLIST
  5
2DD6
102
{ACAD_REACTORS
330
2C75
102
}
330
2C75
100
AcDbIdSet
 90
        8
330
2FAB
330
2FAC
330
2FAD
330
2FAE
330
2FB2
330
2FB3
330
2FB4
330
2FB5
100
AcDbFieldList
  0
DICTIONARY
  5
2C76
102
{ACAD_REACTORS
330
2C75
102
}
330
2C75
100
AcDbDictionary
281
     1
  0
DICTIONARY
  5
2CCA
102
{ACAD_REACTORS
330
2C75
102
}
330
2C75
100
AcDbDictionary
281
     1
  3
Model
350
2CDB
  3
レイアウト1
350
2CD7
  0
DICTIONARY
  5
2C79
102
{ACAD_REACTORS
330
2C75
102
}
330
2C75
100
AcDbDictionary
281
     1
  3
ByBlock
350
2C82
  3
ByLayer
350
2C7A
  3
Global
350
2C8A
  0
DICTIONARY
  5
2CCE
102
{ACAD_REACTORS
330
2C75
102
}
330
2C75
100
AcDbDictionary
281
     1
  3
Standard
350
2CCF
  0
DICTIONARY
  5
2CC7
102
{ACAD_REACTORS
330
2C75
102
}
330
2C75
100
AcDbDictionary
281
     1
  3
Standard
350
2CC8
  0
DICTIONARY
  5
2CC9
102
{ACAD_REACTORS
330
2C75
102
}
330
2C75
100
AcDbDictionary
281
     1
  0
ACDBDICTIONARYWDFLT
  5
2C77
102
{ACAD_REACTORS
330
2C75
102
}
330
2C75
100
AcDbDictionary
281
     1
  3
Normal
350
2C78
100
AcDbDictionaryWithDefault
340
2C78
  0
DICTIONARY
  5
2CAB
102
{ACAD_REACTORS
330
2C75
102
}
330
2C75
100
AcDbDictionary
281
     1
  3
A0
350
2CAC
  3
A1
350
2CAD
  3
A2
350
2CAE
  3
A3
350
2CAF
  3
A4
350
2CB0
  3
A5
350
2CB1
  3
A6
350
2CB2
  3
A7
350
2CB3
  3
A8
350
2CB4
  3
A9
350
2CB5
  3
B0
350
2CB6
  3
B1
350
2CB7
  3
B2
350
2CB8
  3
B3
350
2CB9
  3
B4
350
2CBA
  3
B5
350
2CBB
  3
B6
350
2CBC
  0
DICTIONARY
  5
2CD0
102
{ACAD_REACTORS
330
2C75
102
}
330
2C75
100
AcDbDictionary
281
     1
  3
Imperial24
350
2CD1
  0
DICTIONARY
  5
2CCC
102
{ACAD_REACTORS
330
2C75
102
}
330
2C75
100
AcDbDictionary
281
     1
  3
Standard
350
2CCD
  0
DICTIONARY
  5
2C92
102
{ACAD_REACTORS
330
2C75
102
}
330
2C75
100
AcDbDictionary
281
     1
  3
2dWireframe
350
2C98
  3
Basic
350
2C97
  3
Brighten
350
2C9E
  3
ColorChange
350
2CA2
  3
Conceptual
350
2C9B
  3
Dim
350
2C9D
  3
EdgeColorOff
350
2CAA
  3
Facepattern
350
2CA1
  3
Flat
350
2C93
  3
FlatWithEdges
350
2C94
  3
Gouraud
350
2C95
  3
GouraudWithEdges
350
2C96
  3
Hidden
350
2C9A
  3
JitterOff
350
2CA8
  3
Linepattern
350
2CA0
  3
OverhangOff
350
2CA9
  3
Realistic
350
2C9C
  3
Shaded
350
2CA7
  3
Shaded with edges
350
2CA6
  3
Shades of Gray
350
2CA3
  3
Sketchy
350
2CA4
  3
Thicken
350
2C9F
  3
Wireframe
350
2C99
  3
X-Ray
350
2CA5
  0
XRECORD
  5
2FBE
102
{ACAD_REACTORS
330
2C75
102
}
330
2C75
100
AcDbXrecord
280
     1
 90
        1
330
2CCD
  0
DICTIONARY
  5
2F10
102
{ACAD_REACTORS
330
2C75
102
}
330
2C75
100
AcDbDictionary
281
     1
  3
CANNOSCALE
350
2F16
  3
CMLEADERSTYLE
350
2F12
  3
CTABLESTYLE
350
2F11
  3
CVIEWDETAILSTYLE
350
2F13
  3
CVIEWSECTIONSTYLE
350
2F14
  3
LAYEREVAL
350
2F18
  3
LAYERNOTIFY
350
2F19
  3
LIGHTINGUNITS
350
2F17
  3
MSLTSCALE
350
2F15
  0
DICTIONARY
  5
2DB2
102
{ACAD_REACTORS
330
2C75
102
}
330
2C75
100
AcDbDictionary
281
     1
  3
AcmStdDictionary
350
2DBB
  0
DICTIONARY
  5
2D8D
102
{ACAD_REACTORS
330
2C75
102
}
330
2C75
100
AcDbDictionary
281
     1
  0
DICTIONARY
  5
2DEE
102
{ACAD_REACTORS
330
2C75
102
}
330
2C75
100
AcDbDictionary
281
     1
  0
DICTIONARY
  5
2F0B
102
{ACAD_REACTORS
330
2F0A
102
}
330
2F0A
100
AcDbDictionary
281
     1
  0
XRECORD
  5
2EFE
102
{ACAD_REACTORS
330
2EFD
102
}
330
2EFD
100
AcDbXrecord
280
     1
290
     1
  0
XRECORD
  5
2F00
102
{ACAD_REACTORS
330
2EFF
102
}
330
2EFF
100
AcDbXrecord
280
     1
290
     1
  0
XRECORD
  5
2F02
102
{ACAD_REACTORS
330
2F01
102
}
330
2F01
100
AcDbXrecord
280
     1
290
     1
  0
XRECORD
  5
2F04
102
{ACAD_REACTORS
330
2F03
102
}
330
2F03
100
AcDbXrecord
280
     1
290
     1
  0
XRECORD
  5
2F06
102
{ACAD_REACTORS
330
2F05
102
}
330
2F05
100
AcDbXrecord
280
     1
290
     1
  0
ACDBDETAILVIEWSTYLE
  5
2CD3
102
{ACAD_XDICTIONARY
360
2FF1
102
}
102
{ACAD_REACTORS
330
2CD2
330
2FA6
102
}
330
2CD2
100
AcDbModelDocViewStyle
 70
     0
  3
Imperial24
290
     0
100
AcDbDetailViewStyle
 70
     0
 71
     0
 90
        3
 71
     1
340
2CBE
 62
   256
 40
0.24
340
0
 62
   256
 40
0.24
300

 40
0.36
280
     3
 71
     2
340
2CC5
 90
       25
 62
   256
 71
     3
340
2CBE
 62
   256
 40
0.24
 90
        1
 40
0.75
 90
        1
300
%<\AcVar ViewType \f "%tc1">% %<\AcVar ViewDetailId>%\PSCALE %<\AcVar ViewScale \f "%sn">%
 71
     4
340
2CC5
 90
       25
 62
   256
340
2CC5
 90
       25
 62
   256
280
     0
  0
LAYOUT
  5
2CDB
102
{ACAD_REACTORS
330
2CCA
102
}
330
2CCA
100
AcDbPlotSettings
  1

  2
JUST PDF 3
  4

  6

 40
0.0
 41
0.0
 42
0.0
 43
0.0
 44
0.0
 45
0.0
 46
0.0
 47
0.0
 48
0.0
 49
0.0
140
0.0
141
0.0
142
1.0
143
1.0
 70
  1712
 72
     0
 73
     0
 74
     0
  7

 75
     0
147
1.0
 76
     0
 77
     2
 78
   300
148
0.0
149
0.0
100
AcDbLayout
  1
Model
 70
     1
 71
     0
 10
0.0
 20
0.0
 11
12.0
 21
9.0
 12
0.0
 22
0.0
 32
0.0
 14
0.0
 24
0.0
 34
0.0
 15
0.0
 25
0.0
 35
0.0
146
0.0
 13
0.0
 23
0.0
 33
0.0
 16
1.0
 26
0.0
 36
0.0
 17
0.0
 27
1.0
 37
0.0
 76
     0
330
2CD8
331
2CDD
  0
LAYOUT
  5
2CD7
102
{ACAD_REACTORS
330
2CCA
102
}
330
2CCA
100
AcDbPlotSettings
  1

  2
JUST PDF 3
  4

  6

 40
0.0
 41
0.0
 42
0.0
 43
0.0
 44
0.0
 45
0.0
 46
0.0
 47
0.0
 48
0.0
 49
0.0
140
0.0
141
0.0
142
1.0
143
1.0
 70
   688
 72
     0
 73
     0
 74
     5
  7

 75
    16
147
1.0
 76
     0
 77
     2
 78
   300
148
0.0
149
0.0
100
AcDbLayout
  1
レイアウト1
 70
     1
 71
     1
 10
0.0
 20
0.0
 11
420.0
 21
297.0
 12
0.0
 22
0.0
 32
0.0
 14
1.000000000000000E+20
 24
1.000000000000000E+20
 34
1.000000000000000E+20
 15
-1.000000000000000E+20
 25
-1.000000000000000E+20
 35
-1.000000000000000E+20
146
0.0
 13
0.0
 23
0.0
 33
0.0
 16
1.0
 26
0.0
 36
0.0
 17
0.0
 27
1.0
 37
0.0
 76
     0
330
2CD4
  0
MATERIAL
  5
2C82
102
{ACAD_XDICTIONARY
360
2C83
102
}
102
{ACAD_REACTORS
330
2C79
102
}
330
2C79
100
AcDbMaterial
  1
ByBlock
 72
     0
 43
0.0208333333333333
 43
0.0
 43
0.0
 43
0.0
 43
0.0
 43
0.0208333333333333
 43
0.0
 43
0.0
 43
0.0
 43
0.0
 43
1.0
 43
0.0
 43
0.0
 43
0.0
 43
0.0
 43
1.0
 77
     0
 47
0.0208333333333333
 47
0.0
 47
0.0
 47
0.0
 47
0.0
 47
0.0208333333333333
 47
0.0
 47
0.0
 47
0.0
 47
0.0
 47
1.0
 47
0.0
 47
0.0
 47
0.0
 47
0.0
 47
1.0
171
     0
 49
0.0208333333333333
 49
0.0
 49
0.0
 49
0.0
 49
0.0
 49
0.0208333333333333
 49
0.0
 49
0.0
 49
0.0
 49
0.0
 49
1.0
 49
0.0
 49
0.0
 49
0.0
 49
0.0
 49
1.0
175
     0
142
0.0208333333333333
142
0.0
142
0.0
142
0.0
142
0.0
142
0.0208333333333333
142
0.0
142
0.0
142
0.0
142
0.0
142
1.0
142
0.0
142
0.0
142
0.0
142
0.0
142
1.0
179
     0
144
0.0208333333333333
144
0.0
144
0.0
144
0.0
144
0.0
144
0.0208333333333333
144
0.0
144
0.0
144
0.0
144
0.0
144
1.0
144
0.0
144
0.0
144
0.0
144
0.0
144
1.0
147
0.0208333333333333
147
0.0
147
0.0
147
0.0
147
0.0
147
0.0208333333333333
147
0.0
147
0.0
147
0.0
147
0.0
147
1.0
147
0.0
147
0.0
147
0.0
147
0.0
147
1.0
  0
MATERIAL
  5
2C7A
102
{ACAD_XDICTIONARY
360
2C7B
102
}
102
{ACAD_REACTORS
330
2C79
102
}
330
2C79
100
AcDbMaterial
  1
ByLayer
 72
     0
 43
0.0208333333333333
 43
0.0
 43
0.0
 43
0.0
 43
0.0
 43
0.0208333333333333
 43
0.0
 43
0.0
 43
0.0
 43
0.0
 43
1.0
 43
0.0
 43
0.0
 43
0.0
 43
0.0
 43
1.0
 77
     0
 47
0.0208333333333333
 47
0.0
 47
0.0
 47
0.0
 47
0.0
 47
0.0208333333333333
 47
0.0
 47
0.0
 47
0.0
 47
0.0
 47
1.0
 47
0.0
 47
0.0
 47
0.0
 47
0.0
 47
1.0
171
     0
 49
0.0208333333333333
 49
0.0
 49
0.0
 49
0.0
 49
0.0
 49
0.0208333333333333
 49
0.0
 49
0.0
 49
0.0
 49
0.0
 49
1.0
 49
0.0
 49
0.0
 49
0.0
 49
0.0
 49
1.0
175
     0
142
0.0208333333333333
142
0.0
142
0.0
142
0.0
142
0.0
142
0.0208333333333333
142
0.0
142
0.0
142
0.0
142
0.0
142
1.0
142
0.0
142
0.0
142
0.0
142
0.0
142
1.0
179
     0
144
0.0208333333333333
144
0.0
144
0.0
144
0.0
144
0.0
144
0.0208333333333333
144
0.0
144
0.0
144
0.0
144
0.0
144
1.0
144
0.0
144
0.0
144
0.0
144
0.0
144
1.0
147
0.0208333333333333
147
0.0
147
0.0
147
0.0
147
0.0
147
0.0208333333333333
147
0.0
147
0.0
147
0.0
147
0.0
147
1.0
147
0.0
147
0.0
147
0.0
147
0.0
147
1.0
  0
MATERIAL
  5
2C8A
102
{ACAD_XDICTIONARY
360
2C8B
102
}
102
{ACAD_REACTORS
330
2C79
102
}
330
2C79
100
AcDbMaterial
  1
Global
 72
     0
 43
0.0208333333333333
 43
0.0
 43
0.0
 43
0.0
 43
0.0
 43
0.0208333333333333
 43
0.0
 43
0.0
 43
0.0
 43
0.0
 43
1.0
 43
0.0
 43
0.0
 43
0.0
 43
0.0
 43
1.0
 77
     0
 47
0.0208333333333333
 47
0.0
 47
0.0
 47
0.0
 47
0.0
 47
0.0208333333333333
 47
0.0
 47
0.0
 47
0.0
 47
0.0
 47
1.0
 47
0.0
 47
0.0
 47
0.0
 47
0.0
 47
1.0
171
     0
 49
0.0208333333333333
 49
0.0
 49
0.0
 49
0.0
 49
0.0
 49
0.0208333333333333
 49
0.0
 49
0.0
 49
0.0
 49
0.0
 49
1.0
 49
0.0
 49
0.0
 49
0.0
 49
0.0
 49
1.0
175
     0
142
0.0208333333333333
142
0.0
142
0.0
142
0.0
142
0.0
142
0.0208333333333333
142
0.0
142
0.0
142
0.0
142
0.0
142
1.0
142
0.0
142
0.0
142
0.0
142
0.0
142
1.0
179
     0
144
0.0208333333333333
144
0.0
144
0.0
144
0.0
144
0.0
144
0.0208333333333333
144
0.0
144
0.0
144
0.0
144
0.0
144
1.0
144
0.0
144
0.0
144
0.0
144
0.0
144
1.0
147
0.0208333333333333
147
0.0
147
0.0
147
0.0
147
0.0
147
0.0208333333333333
147
0.0
147
0.0
147
0.0
147
0.0
147
1.0
147
0.0
147
0.0
147
0.0
147
0.0
147
1.0
  0
MLEADERSTYLE
  5
2CCF
102
{ACAD_REACTORS
330
2CCE
102
}
330
2CCE
100
AcDbMLeaderStyle
179
     2
170
     2
171
     1
172
     0
 90
        2
 40
0.0
 41
0.0
173
     1
 91
-1056964608
340
2CC3
 92
       -2
290
     1
 42
0.09
291
     1
 43
0.36
  3
Standard
 44
0.18
300

342
2CBE
174
     1
178
     6
175
     1
176
     0
 93
-1056964608
 45
0.18
292
     0
297
     0
 46
0.18
 94
-1056964608
 47
1.0
 49
1.0
140
1.0
293
     1
141
0.0
294
     1
177
     0
142
1.0
295
     0
296
     0
143
0.125
271
     0
272
     9
273
     9
  0
MLINESTYLE
  5
2CC8
102
{ACAD_REACTORS
330
2CC7
102
}
330
2CC7
100
AcDbMlineStyle
  2
STANDARD
 70
     0
  3

 62
   256
 51
90.0
 52
90.0
 71
     2
 49
0.5
 62
   256
  6
BYLAYER
 49
-0.5
 62
   256
  6
BYLAYER
  0
ACDBPLACEHOLDER
  5
2C78
102
{ACAD_REACTORS
330
2C77
102
}
330
2C77
  0
SCALE
  5
2CAC
102
{ACAD_REACTORS
330
2CAB
102
}
330
2CAB
100
AcDbScale
 70
     0
300
1:1
140
1.0
141
1.0
290
     1
  0
SCALE
  5
2CAD
102
{ACAD_REACTORS
330
2CAB
102
}
330
2CAB
100
AcDbScale
 70
     0
300
1/128" = 1'-0"
140
0.0078125
141
12.0
290
     0
  0
SCALE
  5
2CAE
102
{ACAD_REACTORS
330
2CAB
102
}
330
2CAB
100
AcDbScale
 70
     0
300
1/64" = 1'-0"
140
0.015625
141
12.0
290
     0
  0
SCALE
  5
2CAF
102
{ACAD_REACTORS
330
2CAB
102
}
330
2CAB
100
AcDbScale
 70
     0
300
1/32" = 1'-0"
140
0.03125
141
12.0
290
     0
  0
SCALE
  5
2CB0
102
{ACAD_REACTORS
330
2CAB
102
}
330
2CAB
100
AcDbScale
 70
     0
300
1/16" = 1'-0"
140
0.0625
141
12.0
290
     0
  0
SCALE
  5
2CB1
102
{ACAD_REACTORS
330
2CAB
102
}
330
2CAB
100
AcDbScale
 70
     0
300
3/32" = 1'-0"
140
0.09375
141
12.0
290
     0
  0
SCALE
  5
2CB2
102
{ACAD_REACTORS
330
2CAB
102
}
330
2CAB
100
AcDbScale
 70
     0
300
1/8" = 1'-0"
140
0.125
141
12.0
290
     0
  0
SCALE
  5
2CB3
102
{ACAD_REACTORS
330
2CAB
102
}
330
2CAB
100
AcDbScale
 70
     0
300
3/16" = 1'-0"
140
0.1875
141
12.0
290
     0
  0
SCALE
  5
2CB4
102
{ACAD_REACTORS
330
2CAB
102
}
330
2CAB
100
AcDbScale
 70
     0
300
1/4" = 1'-0"
140
0.25
141
12.0
290
     0
  0
SCALE
  5
2CB5
102
{ACAD_REACTORS
330
2CAB
102
}
330
2CAB
100
AcDbScale
 70
     0
300
3/8" = 1'-0"
140
0.375
141
12.0
290
     0
  0
SCALE
  5
2CB6
102
{ACAD_REACTORS
330
2CAB
102
}
330
2CAB
100
AcDbScale
 70
     0
300
1/2" = 1'-0"
140
0.5
141
12.0
290
     0
  0
SCALE
  5
2CB7
102
{ACAD_REACTORS
330
2CAB
102
}
330
2CAB
100
AcDbScale
 70
     0
300
3/4" = 1'-0"
140
0.75
141
12.0
290
     0
  0
SCALE
  5
2CB8
102
{ACAD_REACTORS
330
2CAB
102
}
330
2CAB
100
AcDbScale
 70
     0
300
1" = 1'-0"
140
1.0
141
12.0
290
     0
  0
SCALE
  5
2CB9
102
{ACAD_REACTORS
330
2CAB
102
}
330
2CAB
100
AcDbScale
 70
     0
300
1-1/2" = 1'-0"
140
1.5
141
12.0
290
     0
  0
SCALE
  5
2CBA
102
{ACAD_REACTORS
330
2CAB
102
}
330
2CAB
100
AcDbScale
 70
     0
300
3" = 1'-0"
140
3.0
141
12.0
290
     0
  0
SCALE
  5
2CBB
102
{ACAD_REACTORS
330
2CAB
102
}
330
2CAB
100
AcDbScale
 70
     0
300
6" = 1'-0"
140
6.0
141
12.0
290
     0
  0
SCALE
  5
2CBC
102
{ACAD_REACTORS
330
2CAB
102
}
330
2CAB
100
AcDbScale
 70
     0
300
1'-0" = 1'-0"
140
12.0
141
12.0
290
     0
  0
ACDBSECTIONVIEWSTYLE
  5
2CD1
102
{ACAD_XDICTIONARY
360
2FEF
102
}
102
{ACAD_REACTORS
330
2CD0
330
2FA5
102
}
330
2CD0
100
AcDbModelDocViewStyle
 70
     0
  3
Imperial24
290
     0
100
AcDbSectionViewStyle
 70
     0
 71
     0
 90
       78
 71
     1
340
2CBE
 62
   256
 40
0.24
340
0
340
0
 62
   256
 40
0.24
300
I, O, Q, S, X, Z
 40
0.48
 90
        3
 40
0.18
 90
        1
 71
     2
340
2CC5
 90
       25
 62
   256
340
2CC5
 90
       50
 62
   256
 40
0.24
 40
0.0
 40
0.24
 71
     3
340
2CBE
 62
   256
 40
0.24
 90
        1
 40
0.75
 90
        1
300
%<\AcVar ViewType \f "%tc1">% %<\AcVar ViewSectionStartId>%-%<\AcVar ViewSectionEndId>%\PSCALE %<\AcVar ViewScale \f "%sn">%
 71
     4
 62
   256
 62
   257
300
ANSI31
 40
1.0
 90
        0
290
     0
290
     0
 90
        6
 40
0.0
 40
1.570796326794896
 40
0.2617993877991494
 40
1.308996938995747
 40
-0.2617993877991494
 40
1.832595714594045
  0
TABLESTYLE
  5
2CCD
102
{ACAD_XDICTIONARY
360
2F1A
102
}
102
{ACAD_REACTORS
330
2CCC
102
}
330
2CCC
100
AcDbTableStyle
280
     0
  3
Standard
 70
     0
 71
     0
 40
0.06
 41
0.06
280
     0
281
     0
  7
STANDARD
140
0.18
170
     2
 62
     0
 63
     7
283
     0
 90
      512
 91
        0
  1

274
    -2
284
     1
 64
     0
275
    -2
285
     1
 65
     0
276
    -2
286
     1
 66
     0
277
    -2
287
     1
 67
     0
278
    -2
288
     1
 68
     0
279
    -2
289
     1
 69
     0
  7
STANDARD
140
0.25
170
     5
 62
     0
 63
     7
283
     0
 90
      512
 91
        0
  1

274
    -2
284
     1
 64
     0
275
    -2
285
     1
 65
     0
276
    -2
286
     1
 66
     0
277
    -2
287
     1
 67
     0
278
    -2
288
     1
 68
     0
279
    -2
289
     1
 69
     0
  7
STANDARD
140
0.18
170
     5
 62
     0
 63
     7
283
     0
 90
      512
 91
        0
  1

274
    -2
284
     1
 64
     0
275
    -2
285
     1
 65
     0
276
    -2
286
     1
 66
     0
277
    -2
287
     1
 67
     0
278
    -2
288
     1
 68
     0
279
    -2
289
     1
 69
     0
  0
VISUALSTYLE
  5
2C98
102
{ACAD_XDICTIONARY
360
2FC9
102
}
102
{ACAD_REACTORS
330
2C92
102
}
330
2C92
100
AcDbVisualStyle
  2
2dWireframe
 70
     4
177
     2
291
     0
 71
     0
176
     1
 72
     2
176
     1
 73
     0
176
     1
 90
        0
176
     1
 40
0.6
176
     1
 41
30.0
176
     1
 63
     7
421
 16777215
176
     1
 74
     1
176
     1
 91
        4
176
     1
 64
     7
176
     1
 65
   257
176
     1
 75
     1
176
     1
175
     1
176
     1
 42
1.0
176
     1
 92
        0
176
     1
 66
   257
176
     1
 43
1.0
176
     1
 76
     1
176
     1
 77
     6
176
     1
 78
     2
176
     1
 67
     7
176
     1
 79
     5
176
     1
170
     0
176
     1
171
     0
176
     1
290
     0
176
     1
 93
        1
176
     1
 44
0.0
176
     1
173
     0
176
     1
1001
ACAD
1000
AcDbSavedByObjectVersion
1070
     0
  0
VISUALSTYLE
  5
2C97
102
{ACAD_XDICTIONARY
360
2FC7
102
}
102
{ACAD_REACTORS
330
2C92
102
}
330
2C92
100
AcDbVisualStyle
  2
Basic
 70
     7
177
     2
291
     1
 71
     1
176
     1
 72
     0
176
     1
 73
     1
176
     1
 90
        0
176
     1
 40
0.6
176
     1
 41
30.0
176
     1
 63
     7
421
 16777215
176
     1
 74
     0
176
     1
 91
        4
176
     1
 64
     7
176
     1
 65
   257
176
     1
 75
     1
176
     1
175
     1
176
     1
 42
1.0
176
     1
 92
        8
176
     1
 66
     7
176
     1
 43
1.0
176
     1
 76
     1
176
     1
 77
     6
176
     1
 78
     2
176
     1
 67
     7
176
     1
 79
     5
176
     1
170
     0
176
     1
171
     0
176
     1
290
     0
176
     1
 93
        1
176
     1
 44
0.0
176
     1
173
     0
176
     1
1001
ACAD
1000
AcDbSavedByObjectVersion
1070
     0
  0
VISUALSTYLE
  5
2C9E
102
{ACAD_XDICTIONARY
360
2FD5
102
}
102
{ACAD_REACTORS
330
2C92
102
}
330
2C92
100
AcDbVisualStyle
  2
Brighten
 70
    12
177
     2
291
     1
 71
     2
176
     1
 72
     2
176
     1
 73
     0
176
     1
 90
        0
176
     1
 40
0.6
176
     1
 41
30.0
176
     1
 63
     7
421
 16777215
176
     1
 74
     1
176
     1
 91
        4
176
     1
 64
     7
176
     1
 65
   257
176
     1
 75
     1
176
     1
175
     1
176
     1
 42
1.0
176
     1
 92
        8
176
     1
 66
     7
176
     1
 43
1.0
176
     1
 76
     1
176
     1
 77
     6
176
     1
 78
     2
176
     1
 67
     7
176
     1
 79
     5
176
     1
170
     0
176
     1
171
     0
176
     1
290
     0
176
     1
 93
        1
176
     1
 44
50.0
176
     1
173
     0
176
     1
1001
ACAD
1000
AcDbSavedByObjectVersion
1070
     0
  0
VISUALSTYLE
  5
2CA2
102
{ACAD_XDICTIONARY
360
2FDD
102
}
102
{ACAD_REACTORS
330
2C92
102
}
330
2C92
100
AcDbVisualStyle
  2
ColorChange
 70
    16
177
     2
291
     1
 71
     2
176
     1
 72
     2
176
     1
 73
     3
176
     1
 90
        0
176
     1
 40
0.6
176
     1
 41
30.0
176
     1
 63
     8
421
  8421504
176
     1
 74
     1
176
     1
 91
        4
176
     1
 64
     7
176
     1
 65
   257
176
     1
 75
     1
176
     1
175
     1
176
     1
 42
1.0
176
     1
 92
        8
176
     1
 66
     8
424
  8421504
176
     1
 43
1.0
176
     1
 76
     1
176
     1
 77
     6
176
     1
 78
     2
176
     1
 67
     7
176
     1
 79
     5
176
     1
170
     0
176
     1
171
     0
176
     1
290
     0
176
     1
 93
        1
176
     1
 44
0.0
176
     1
173
     0
176
     1
1001
ACAD
1000
AcDbSavedByObjectVersion
1070
     0
  0
VISUALSTYLE
  5
2C9B
102
{ACAD_XDICTIONARY
360
2FCF
102
}
102
{ACAD_REACTORS
330
2C92
102
}
330
2C92
100
AcDbVisualStyle
  2
Conceptual
 70
     9
177
     2
291
     0
 71
     3
176
     1
 72
     2
176
     1
 73
     0
176
     1
 90
        0
176
     1
 40
0.6
176
     1
 41
30.0
176
     1
 63
     7
421
 16777215
176
     1
 74
     2
176
     1
 91
        2
176
     1
 64
     7
176
     1
 65
   257
176
     1
 75
     1
176
     1
175
     1
176
     1
 42
179.0
176
     1
 92
        8
176
     1
 66
     7
176
     1
 43
1.0
176
     1
 76
     1
176
     1
 77
     6
176
     1
 78
     2
176
     1
 67
     7
176
     1
 79
     3
176
     1
170
     0
176
     1
171
     0
176
     1
290
     0
176
     1
 93
        1
176
     1
 44
0.0
176
     1
173
     0
176
     1
1001
ACAD
1000
AcDbSavedByObjectVersion
1070
     0
  0
VISUALSTYLE
  5
2C9D
102
{ACAD_XDICTIONARY
360
2FD3
102
}
102
{ACAD_REACTORS
330
2C92
102
}
330
2C92
100
AcDbVisualStyle
  2
Dim
 70
    11
177
     2
291
     1
 71
     2
176
     1
 72
     2
176
     1
 73
     0
176
     1
 90
        0
176
     1
 40
0.6
176
     1
 41
30.0
176
     1
 63
     7
421
 16777215
176
     1
 74
     1
176
     1
 91
        4
176
     1
 64
     7
176
     1
 65
   257
176
     1
 75
     1
176
     1
175
     1
176
     1
 42
1.0
176
     1
 92
        8
176
     1
 66
     7
176
     1
 43
1.0
176
     1
 76
     1
176
     1
 77
     6
176
     1
 78
     2
176
     1
 67
     7
176
     1
 79
     5
176
     1
170
     0
176
     1
171
     0
176
     1
290
     0
176
     1
 93
        1
176
     1
 44
-50.0
176
     1
173
     0
176
     1
1001
ACAD
1000
AcDbSavedByObjectVersion
1070
     0
  0
VISUALSTYLE
  5
2CAA
102
{ACAD_XDICTIONARY
360
2FED
102
}
102
{ACAD_REACTORS
330
2C92
102
}
330
2C92
100
AcDbVisualStyle
  2
EdgeColorOff
 70
    22
177
     2
291
     1
 71
     2
176
     0
 72
     2
176
     0
 73
     0
176
     0
 90
        0
176
     0
 40
0.6
176
     0
 41
30.0
176
     0
 63
     7
421
 16777215
176
     0
 74
     1
176
     0
 91
        4
176
     0
 64
     7
176
     0
 65
   257
176
     0
 75
     1
176
     0
175
     1
176
     0
 42
1.0
176
     0
 92
        8
176
     2
 66
     7
176
     0
 43
1.0
176
     0
 76
     1
176
     0
 77
     6
176
     0
 78
     2
176
     0
 67
     7
176
     0
 79
     5
176
     0
170
     0
176
     0
171
     0
176
     0
290
     0
176
     0
 93
        1
176
     0
 44
0.0
176
     0
173
     0
176
     0
1001
ACAD
1000
AcDbSavedByObjectVersion
1070
     0
  0
VISUALSTYLE
  5
2CA1
102
{ACAD_XDICTIONARY
360
2FDB
102
}
102
{ACAD_REACTORS
330
2C92
102
}
330
2C92
100
AcDbVisualStyle
  2
Facepattern
 70
    15
177
     2
291
     1
 71
     2
176
     1
 72
     2
176
     1
 73
     0
176
     1
 90
        0
176
     1
 40
0.6
176
     1
 41
30.0
176
     1
 63
     7
421
 16777215
176
     1
 74
     1
176
     1
 91
        4
176
     1
 64
     7
176
     1
 65
   257
176
     1
 75
     1
176
     1
175
     1
176
     1
 42
1.0
176
     1
 92
        8
176
     1
 66
     7
176
     1
 43
1.0
176
     1
 76
     1
176
     1
 77
     6
176
     1
 78
     2
176
     1
 67
     7
176
     1
 79
     5
176
     1
170
     0
176
     1
171
     0
176
     1
290
     0
176
     1
 93
        1
176
     1
 44
0.0
176
     1
173
     0
176
     1
1001
ACAD
1000
AcDbSavedByObjectVersion
1070
     0
  0
VISUALSTYLE
  5
2C93
102
{ACAD_XDICTIONARY
360
2FBF
102
}
102
{ACAD_REACTORS
330
2C92
102
}
330
2C92
100
AcDbVisualStyle
  2
Flat
 70
     0
177
     2
291
     1
 71
     2
176
     1
 72
     1
176
     1
 73
     1
176
     1
 90
        2
176
     1
 40
0.6
176
     1
 41
30.0
176
     1
 63
     7
421
 16777215
176
     1
 74
     0
176
     1
 91
        0
176
     1
 64
     7
176
     1
 65
   257
176
     1
 75
     1
176
     1
175
     1
176
     1
 42
1.0
176
     1
 92
        8
176
     1
 66
     7
176
     1
 43
1.0
176
     1
 76
     1
176
     1
 77
     6
176
     1
 78
     2
176
     1
 67
     7
176
     1
 79
     5
176
     1
170
     0
176
     1
171
     0
176
     1
290
     0
176
     1
 93
       13
176
     1
 44
0.0
176
     1
173
     0
176
     1
1001
ACAD
1000
AcDbSavedByObjectVersion
1070
     0
  0
VISUALSTYLE
  5
2C94
102
{ACAD_XDICTIONARY
360
2FC1
102
}
102
{ACAD_REACTORS
330
2C92
102
}
330
2C92
100
AcDbVisualStyle
  2
FlatWithEdges
 70
     1
177
     2
291
     1
 71
     2
176
     1
 72
     1
176
     1
 73
     1
176
     1
 90
        2
176
     1
 40
0.6
176
     1
 41
30.0
176
     1
 63
     7
421
 16777215
176
     1
 74
     1
176
     1
 91
        0
176
     1
 64
     7
176
     1
 65
   257
176
     1
 75
     1
176
     1
175
     1
176
     1
 42
1.0
176
     1
 92
        0
176
     1
 66
   257
176
     1
 43
1.0
176
     1
 76
     1
176
     1
 77
     6
176
     1
 78
     2
176
     1
 67
     7
176
     1
 79
     5
176
     1
170
     0
176
     1
171
     0
176
     1
290
     0
176
     1
 93
       13
176
     1
 44
0.0
176
     1
173
     0
176
     1
1001
ACAD
1000
AcDbSavedByObjectVersion
1070
     0
  0
VISUALSTYLE
  5
2C95
102
{ACAD_XDICTIONARY
360
2FC3
102
}
102
{ACAD_REACTORS
330
2C92
102
}
330
2C92
100
AcDbVisualStyle
  2
Gouraud
 70
     2
177
     2
291
     1
 71
     2
176
     1
 72
     2
176
     1
 73
     1
176
     1
 90
        2
176
     1
 40
0.6
176
     1
 41
30.0
176
     1
 63
     7
421
 16777215
176
     1
 74
     0
176
     1
 91
        0
176
     1
 64
     7
176
     1
 65
   257
176
     1
 75
     1
176
     1
175
     1
176
     1
 42
1.0
176
     1
 92
        0
176
     1
 66
     7
176
     1
 43
1.0
176
     1
 76
     1
176
     1
 77
     6
176
     1
 78
     2
176
     1
 67
     7
176
     1
 79
     5
176
     1
170
     0
176
     1
171
     0
176
     1
290
     0
176
     1
 93
       13
176
     1
 44
0.0
176
     1
173
     0
176
     1
1001
ACAD
1000
AcDbSavedByObjectVersion
1070
     0
  0
VISUALSTYLE
  5
2C96
102
{ACAD_XDICTIONARY
360
2FC5
102
}
102
{ACAD_REACTORS
330
2C92
102
}
330
2C92
100
AcDbVisualStyle
  2
GouraudWithEdges
 70
     3
177
     2
291
     1
 71
     2
176
     1
 72
     2
176
     1
 73
     1
176
     1
 90
        2
176
     1
 40
0.6
176
     1
 41
30.0
176
     1
 63
     7
421
 16777215
176
     1
 74
     1
176
     1
 91
        0
176
     1
 64
     7
176
     1
 65
   257
176
     1
 75
     1
176
     1
175
     1
176
     1
 42
1.0
176
     1
 92
        0
176
     1
 66
   257
176
     1
 43
1.0
176
     1
 76
     1
176
     1
 77
     6
176
     1
 78
     2
176
     1
 67
     7
176
     1
 79
     5
176
     1
170
     0
176
     1
171
     0
176
     1
290
     0
176
     1
 93
       13
176
     1
 44
0.0
176
     1
173
     0
176
     1
1001
ACAD
1000
AcDbSavedByObjectVersion
1070
     0
  0
VISUALSTYLE
  5
2C9A
102
{ACAD_XDICTIONARY
360
2FCD
102
}
102
{ACAD_REACTORS
330
2C92
102
}
330
2C92
100
AcDbVisualStyle
  2
Hidden
 70
     6
177
     2
291
     0
 71
     1
176
     1
 72
     2
176
     1
 73
     2
176
     1
 90
        0
176
     1
 40
0.6
176
     1
 41
30.0
176
     1
 63
     7
421
 16777215
176
     1
 74
     2
176
     1
 91
        2
176
     1
 64
     7
176
     1
 65
   257
176
     1
 75
     2
176
     1
175
     1
176
     1
 42
40.0
176
     1
 92
        0
176
     1
 66
   257
176
     1
 43
1.0
176
     1
 76
     1
176
     1
 77
     6
176
     1
 78
     2
176
     1
 67
     7
176
     1
 79
     3
176
     1
170
     0
176
     1
171
     0
176
     1
290
     0
176
     1
 93
        1
176
     1
 44
0.0
176
     1
173
     0
176
     1
1001
ACAD
1000
AcDbSavedByObjectVersion
1070
     0
  0
VISUALSTYLE
  5
2CA8
102
{ACAD_XDICTIONARY
360
2FE9
102
}
102
{ACAD_REACTORS
330
2C92
102
}
330
2C92
100
AcDbVisualStyle
  2
JitterOff
 70
    20
177
     2
291
     1
 71
     2
176
     0
 72
     2
176
     0
 73
     0
176
     0
 90
        0
176
     0
 40
0.6
176
     0
 41
30.0
176
     0
 63
     7
421
 16777215
176
     0
 74
     1
176
     0
 91
        4
176
     0
 64
     7
176
     0
 65
   257
176
     0
 75
     1
176
     0
175
     1
176
     0
 42
1.0
176
     0
 92
       10
176
     2
 66
     7
176
     0
 43
1.0
176
     0
 76
     1
176
     0
 77
     6
176
     0
 78
     2
176
     0
 67
     7
176
     0
 79
     5
176
     0
170
     0
176
     0
171
     0
176
     0
290
     0
176
     0
 93
        1
176
     0
 44
0.0
176
     0
173
     0
176
     0
1001
ACAD
1000
AcDbSavedByObjectVersion
1070
     0
  0
VISUALSTYLE
  5
2CA0
102
{ACAD_XDICTIONARY
360
2FD9
102
}
102
{ACAD_REACTORS
330
2C92
102
}
330
2C92
100
AcDbVisualStyle
  2
Linepattern
 70
    14
177
     2
291
     1
 71
     2
176
     1
 72
     2
176
     1
 73
     0
176
     1
 90
        0
176
     1
 40
0.6
176
     1
 41
30.0
176
     1
 63
     7
421
 16777215
176
     1
 74
     1
176
     1
 91
        4
176
     1
 64
     7
176
     1
 65
   257
176
     1
 75
     7
176
     1
175
     7
176
     1
 42
1.0
176
     1
 92
        8
176
     1
 66
     7
176
     1
 43
1.0
176
     1
 76
     1
176
     1
 77
     6
176
     1
 78
     2
176
     1
 67
     7
176
     1
 79
     5
176
     1
170
     0
176
     1
171
     0
176
     1
290
     0
176
     1
 93
        1
176
     1
 44
0.0
176
     1
173
     0
176
     1
1001
ACAD
1000
AcDbSavedByObjectVersion
1070
     0
  0
VISUALSTYLE
  5
2CA9
102
{ACAD_XDICTIONARY
360
2FEB
102
}
102
{ACAD_REACTORS
330
2C92
102
}
330
2C92
100
AcDbVisualStyle
  2
OverhangOff
 70
    21
177
     2
291
     1
 71
     2
176
     0
 72
     2
176
     0
 73
     0
176
     0
 90
        0
176
     0
 40
0.6
176
     0
 41
30.0
176
     0
 63
     7
421
 16777215
176
     0
 74
     1
176
     0
 91
        4
176
     0
 64
     7
176
     0
 65
   257
176
     0
 75
     1
176
     0
175
     1
176
     0
 42
1.0
176
     0
 92
        9
176
     2
 66
     7
176
     0
 43
1.0
176
     0
 76
     1
176
     0
 77
     6
176
     0
 78
     2
176
     0
 67
     7
176
     0
 79
     5
176
     0
170
     0
176
     0
171
     0
176
     0
290
     0
176
     0
 93
        1
176
     0
 44
0.0
176
     0
173
     0
176
     0
1001
ACAD
1000
AcDbSavedByObjectVersion
1070
     0
  0
VISUALSTYLE
  5
2C9C
102
{ACAD_XDICTIONARY
360
2FD1
102
}
102
{ACAD_REACTORS
330
2C92
102
}
330
2C92
100
AcDbVisualStyle
  2
Realistic
 70
     8
177
     2
291
     0
 71
     2
176
     1
 72
     3
176
     1
 73
     0
176
     1
 90
        2
176
     1
 40
0.6
176
     1
 41
30.0
176
     1
 63
     7
421
 16777215
176
     1
 74
     0
176
     1
 91
        0
176
     1
 64
     7
176
     1
 65
   257
176
     1
 75
     1
176
     1
175
     1
176
     1
 42
1.0
176
     1
 92
        8
176
     1
 66
   257
176
     1
 43
1.0
176
     1
 76
     1
176
     1
 77
     6
176
     1
 78
     2
176
     1
 67
     7
176
     1
 79
     3
176
     1
170
     0
176
     1
171
     0
176
     1
290
     0
176
     1
 93
       13
176
     1
 44
0.0
176
     1
173
     0
176
     1
1001
ACAD
1000
AcDbSavedByObjectVersion
1070
     0
  0
VISUALSTYLE
  5
2CA7
102
{ACAD_XDICTIONARY
360
2FE7
102
}
102
{ACAD_REACTORS
330
2C92
102
}
330
2C92
100
AcDbVisualStyle
  2
Shaded
 70
    27
177
     2
291
     0
 71
     2
176
     1
 72
     2
176
     1
 73
     1
176
     1
 90
        2
176
     1
 40
0.6
176
     1
 41
30.0
176
     1
 63
     7
421
 16777215
176
     1
 74
     0
176
     1
 91
        4
176
     1
 64
     7
176
     1
 65
   257
176
     1
 75
     1
176
     1
175
     1
176
     1
 42
1.0
176
     1
 92
        8
176
     1
 66
   257
176
     1
 43
1.0
176
     1
 76
     1
176
     1
 77
     6
176
     1
 78
     2
176
     1
 67
     8
425
  7895160
176
     1
 79
     3
176
     1
170
     0
176
     1
171
     0
176
     1
290
     0
176
     1
 93
        5
176
     1
 44
0.0
176
     1
173
     0
176
     1
1001
ACAD
1000
AcDbSavedByObjectVersion
1070
     0
  0
VISUALSTYLE
  5
2CA6
102
{ACAD_XDICTIONARY
360
2FE5
102
}
102
{ACAD_REACTORS
330
2C92
102
}
330
2C92
100
AcDbVisualStyle
  2
Shaded with edges
 70
    26
177
     2
291
     0
 71
     2
176
     1
 72
     2
176
     1
 73
     1
176
     1
 90
        2
176
     1
 40
0.6
176
     1
 41
30.0
176
     1
 63
     7
421
 16777215
176
     1
 74
     1
176
     1
 91
        2
176
     1
 64
     7
176
     1
 65
   257
176
     1
 75
     2
176
     1
175
     1
176
     1
 42
1.0
176
     1
 92
        8
176
     1
 66
   257
176
     1
 43
1.0
176
     1
 76
     1
176
     1
 77
     6
176
     1
 78
     2
176
     1
 67
     7
176
     1
 79
     3
176
     1
170
     0
176
     1
171
     0
176
     1
290
     0
176
     1
 93
        5
176
     1
 44
0.0
176
     1
173
     0
176
     1
1001
ACAD
1000
AcDbSavedByObjectVersion
1070
     0
  0
VISUALSTYLE
  5
2CA3
102
{ACAD_XDICTIONARY
360
2FDF
102
}
102
{ACAD_REACTORS
330
2C92
102
}
330
2C92
100
AcDbVisualStyle
  2
Shades of Gray
 70
    23
177
     2
291
     0
 71
     2
176
     1
 72
     2
176
     1
 73
     3
176
     1
 90
        0
176
     1
 40
0.6
176
     1
 41
30.0
176
     1
 63
     7
421
 16777215
176
     1
 74
     2
176
     1
 91
        2
176
     1
 64
     7
176
     1
 65
     7
176
     1
 75
     1
176
     1
175
     1
176
     1
 42
40.0
176
     1
 92
        8
176
     1
 66
     7
176
     1
 43
1.0
176
     1
 76
     1
176
     1
 77
     6
176
     1
 78
     2
176
     1
 67
     7
176
     1
 79
     3
176
     1
170
     0
176
     1
171
     0
176
     1
290
     0
176
     1
 93
        1
176
     1
 44
0.0
176
     1
173
     0
176
     1
1001
ACAD
1000
AcDbSavedByObjectVersion
1070
     0
  0
VISUALSTYLE
  5
2CA4
102
{ACAD_XDICTIONARY
360
2FE1
102
}
102
{ACAD_REACTORS
330
2C92
102
}
330
2C92
100
AcDbVisualStyle
  2
Sketchy
 70
    24
177
     2
291
     0
 71
     1
176
     1
 72
     2
176
     1
 73
     2
176
     1
 90
        0
176
     1
 40
0.6
176
     1
 41
30.0
176
     1
 63
     7
421
 16777215
176
     1
 74
     2
176
     1
 91
        2
176
     1
 64
     7
176
     1
 65
     7
176
     1
 75
     1
176
     1
175
     1
176
     1
 42
40.0
176
     1
 92
       11
176
     1
 66
     7
176
     1
 43
1.0
176
     1
 76
     1
176
     1
 77
     6
176
     1
 78
     2
176
     1
 67
     7
176
     1
 79
     6
176
     1
170
     0
176
     1
171
     0
176
     1
290
     0
176
     1
 93
        1
176
     1
 44
0.0
176
     1
173
     0
176
     1
1001
ACAD
1000
AcDbSavedByObjectVersion
1070
     0
  0
VISUALSTYLE
  5
2C9F
102
{ACAD_XDICTIONARY
360
2FD7
102
}
102
{ACAD_REACTORS
330
2C92
102
}
330
2C92
100
AcDbVisualStyle
  2
Thicken
 70
    13
177
     2
291
     1
 71
     2
176
     1
 72
     2
176
     1
 73
     0
176
     1
 90
        0
176
     1
 40
0.6
176
     1
 41
30.0
176
     1
 63
     7
421
 16777215
176
     1
 74
     1
176
     1
 91
        4
176
     1
 64
     7
176
     1
 65
   257
176
     1
 75
     1
176
     1
175
     1
176
     1
 42
1.0
176
     1
 92
       12
176
     1
 66
     7
176
     1
 43
1.0
176
     1
 76
     1
176
     1
 77
     6
176
     1
 78
     2
176
     1
 67
     7
176
     1
 79
     5
176
     1
170
     0
176
     1
171
     0
176
     1
290
     0
176
     1
 93
        1
176
     1
 44
0.0
176
     1
173
     0
176
     1
1001
ACAD
1000
AcDbSavedByObjectVersion
1070
     0
  0
VISUALSTYLE
  5
2C99
102
{ACAD_XDICTIONARY
360
2FCB
102
}
102
{ACAD_REACTORS
330
2C92
102
}
330
2C92
100
AcDbVisualStyle
  2
Wireframe
 70
     5
177
     2
291
     0
 71
     0
176
     1
 72
     2
176
     1
 73
     0
176
     1
 90
        0
176
     1
 40
0.6
176
     1
 41
30.0
176
     1
 63
     7
421
 16777215
176
     1
 74
     1
176
     1
 91
        4
176
     1
 64
     7
176
     1
 65
   257
176
     1
 75
     1
176
     1
175
     1
176
     1
 42
1.0
176
     1
 92
        0
176
     1
 66
   257
176
     1
 43
1.0
176
     1
 76
     1
176
     1
 77
     6
176
     1
 78
     2
176
     1
 67
     7
176
     1
 79
     3
176
     1
170
     0
176
     1
171
     0
176
     1
290
     0
176
     1
 93
        1
176
     1
 44
0.0
176
     1
173
     0
176
     1
1001
ACAD
1000
AcDbSavedByObjectVersion
1070
     0
  0
VISUALSTYLE
  5
2CA5
102
{ACAD_XDICTIONARY
360
2FE3
102
}
102
{ACAD_REACTORS
330
2C92
102
}
330
2C92
100
AcDbVisualStyle
  2
X-Ray
 70
    25
177
     2
291
     0
 71
     2
176
     1
 72
     2
176
     1
 73
     1
176
     1
 90
        1
176
     1
 40
0.5
176
     1
 41
30.0
176
     1
 63
     7
421
 16777215
176
     1
 74
     1
176
     1
 91
        0
176
     1
 64
     7
176
     1
 65
   257
176
     1
 75
     1
176
     1
175
     1
176
     1
 42
1.0
176
     1
 92
        8
176
     1
 66
     7
176
     1
 43
1.0
176
     1
 76
     1
176
     1
 77
     6
176
     1
 78
     2
176
     1
 67
     7
176
     1
 79
     3
176
     1
170
     0
176
     1
171
     0
176
     1
290
     0
176
     1
 93
       13
176
     1
 44
0.0
176
     1
173
     0
176
     1
1001
ACAD
1000
AcDbSavedByObjectVersion
1070
     0
  0
DICTIONARYVAR
  5
2F16
102
{ACAD_REACTORS
330
2F10
102
}
330
2F10
100
DictionaryVariables
280
     0
  1
1:1
  0
DICTIONARYVAR
  5
2F12
102
{ACAD_REACTORS
330
2F10
102
}
330
2F10
100
DictionaryVariables
280
     0
  1
STANDARD
  0
DICTIONARYVAR
  5
2F11
102
{ACAD_REACTORS
330
2F10
102
}
330
2F10
100
DictionaryVariables
280
     0
  1
STANDARD
  0
DICTIONARYVAR
  5
2F13
102
{ACAD_REACTORS
330
2F10
102
}
330
2F10
100
DictionaryVariables
280
     0
  1
Imperial24
  0
DICTIONARYVAR
  5
2F14
102
{ACAD_REACTORS
330
2F10
102
}
330
2F10
100
DictionaryVariables
280
     0
  1
Imperial24
  0
DICTIONARYVAR
  5
2F18
102
{ACAD_REACTORS
330
2F10
102
}
330
2F10
100
DictionaryVariables
280
     0
  1
1
  0
DICTIONARYVAR
  5
2F19
102
{ACAD_REACTORS
330
2F10
102
}
330
2F10
100
DictionaryVariables
280
     0
  1
15
  0
DICTIONARYVAR
  5
2F17
102
{ACAD_REACTORS
330
2F10
102
}
330
2F10
100
DictionaryVariables
280
     0
  1
0
  0
DICTIONARYVAR
  5
2F15
102
{ACAD_REACTORS
330
2F10
102
}
330
2F10
100
DictionaryVariables
280
     0
  1
0
  0
DICTIONARY
  5
2DBB
102
{ACAD_REACTORS
330
2DB2
102
}
330
2DB2
100
AcDbDictionary
281
     1
  0
DICTIONARY
  5
2FF1
330
2CD3
100
AcDbDictionary
280
     1
281
     1
  3
ACAD_XREC_ROUNDTRIP
360
2FF2
  0
DICTIONARY
  5
2C83
330
2C82
100
AcDbDictionary
280
     1
281
     1
  3
BUMPTILE
360
2C85
  3
DIFFUSETILE
360
2C84
  3
OPACITYTILE
360
2C88
  3
REFLECTIONTILE
360
2C87
  3
REFRACTIONTILE
360
2C89
  3
SPECULARTILE
360
2C86
  0
DICTIONARY
  5
2C7B
330
2C7A
100
AcDbDictionary
280
     1
281
     1
  3
BUMPTILE
360
2C7D
  3
DIFFUSETILE
360
2C7C
  3
OPACITYTILE
360
2C80
  3
REFLECTIONTILE
360
2C7F
  3
REFRACTIONTILE
360
2C81
  3
SPECULARTILE
360
2C7E
  0
DICTIONARY
  5
2C8B
330
2C8A
100
AcDbDictionary
280
     1
281
     1
  3
BUMPTILE
360
2C8D
  3
DIFFUSETILE
360
2C8C
  3
OPACITYTILE
360
2C90
  3
REFLECTIONTILE
360
2C8F
  3
REFRACTIONTILE
360
2C91
  3
SPECULARTILE
360
2C8E
  0
DICTIONARY
  5
2FEF
330
2CD1
100
AcDbDictionary
280
     1
281
     1
  3
ACAD_XREC_ROUNDTRIP
360
2FF0
  0
DICTIONARY
  5
2F1A
330
2CCD
100
AcDbDictionary
280
     1
281
     1
  3
ACAD_ROUNDTRIP_2008_TABLESTYLE_CELLSTYLEMAP
360
2FBD
  0
DICTIONARY
  5
2FC9
330
2C98
100
AcDbDictionary
280
     1
281
     1
  3
ACAD_XREC_ROUNDTRIP
360
2FCA
  0
DICTIONARY
  5
2FC7
330
2C97
100
AcDbDictionary
280
     1
281
     1
  3
ACAD_XREC_ROUNDTRIP
360
2FC8
  0
DICTIONARY
  5
2FD5
330
2C9E
100
AcDbDictionary
280
     1
281
     1
  3
ACAD_XREC_ROUNDTRIP
360
2FD6
  0
DICTIONARY
  5
2FDD
330
2CA2
100
AcDbDictionary
280
     1
281
     1
  3
ACAD_XREC_ROUNDTRIP
360
2FDE
  0
DICTIONARY
  5
2FCF
330
2C9B
100
AcDbDictionary
280
     1
281
     1
  3
ACAD_XREC_ROUNDTRIP
360
2FD0
  0
DICTIONARY
  5
2FD3
330
2C9D
100
AcDbDictionary
280
     1
281
     1
  3
ACAD_XREC_ROUNDTRIP
360
2FD4
  0
DICTIONARY
  5
2FED
330
2CAA
100
AcDbDictionary
280
     1
281
     1
  3
ACAD_XREC_ROUNDTRIP
360
2FEE
  0
DICTIONARY
  5
2FDB
330
2CA1
100
AcDbDictionary
280
     1
281
     1
  3
ACAD_XREC_ROUNDTRIP
360
2FDC
  0
DICTIONARY
  5
2FBF
330
2C93
100
AcDbDictionary
280
     1
281
     1
  3
ACAD_XREC_ROUNDTRIP
360
2FC0
  0
DICTIONARY
  5
2FC1
330
2C94
100
AcDbDictionary
280
     1
281
     1
  3
ACAD_XREC_ROUNDTRIP
360
2FC2
  0
DICTIONARY
  5
2FC3
330
2C95
100
AcDbDictionary
280
     1
281
     1
  3
ACAD_XREC_ROUNDTRIP
360
2FC4
  0
DICTIONARY
  5
2FC5
330
2C96
100
AcDbDictionary
280
     1
281
     1
  3
ACAD_XREC_ROUNDTRIP
360
2FC6
  0
DICTIONARY
  5
2FCD
330
2C9A
100
AcDbDictionary
280
     1
281
     1
  3
ACAD_XREC_ROUNDTRIP
360
2FCE
  0
DICTIONARY
  5
2FE9
330
2CA8
100
AcDbDictionary
280
     1
281
     1
  3
ACAD_XREC_ROUNDTRIP
360
2FEA
  0
DICTIONARY
  5
2FD9
330
2CA0
100
AcDbDictionary
280
     1
281
     1
  3
ACAD_XREC_ROUNDTRIP
360
2FDA
  0
DICTIONARY
  5
2FEB
330
2CA9
100
AcDbDictionary
280
     1
281
     1
  3
ACAD_XREC_ROUNDTRIP
360
2FEC
  0
DICTIONARY
  5
2FD1
330
2C9C
100
AcDbDictionary
280
     1
281
     1
  3
ACAD_XREC_ROUNDTRIP
360
2FD2
  0
DICTIONARY
  5
2FE7
330
2CA7
100
AcDbDictionary
280
     1
281
     1
  3
ACAD_XREC_ROUNDTRIP
360
2FE8
  0
DICTIONARY
  5
2FE5
330
2CA6
100
AcDbDictionary
280
     1
281
     1
  3
ACAD_XREC_ROUNDTRIP
360
2FE6
  0
DICTIONARY
  5
2FDF
330
2CA3
100
AcDbDictionary
280
     1
281
     1
  3
ACAD_XREC_ROUNDTRIP
360
2FE0
  0
DICTIONARY
  5
2FE1
330
2CA4
100
AcDbDictionary
280
     1
281
     1
  3
ACAD_XREC_ROUNDTRIP
360
2FE2
  0
DICTIONARY
  5
2FD7
330
2C9F
100
AcDbDictionary
280
     1
281
     1
  3
ACAD_XREC_ROUNDTRIP
360
2FD8
  0
DICTIONARY
  5
2FCB
330
2C99
100
AcDbDictionary
280
     1
281
     1
  3
ACAD_XREC_ROUNDTRIP
360
2FCC
  0
DICTIONARY
  5
2FE3
330
2CA5
100
AcDbDictionary
280
     1
281
     1
  3
ACAD_XREC_ROUNDTRIP
360
2FE4
  0
XRECORD
  5
2FF2
102
{ACAD_REACTORS
330
2FF1
102
}
330
2FF1
100
AcDbXrecord
280
     1
102
DISPLAYNAME
  1
Imperial24
102
FLAGS
 90
        0
  0
XRECORD
  5
2C85
102
{ACAD_REACTORS
330
2C83
102
}
330
2C83
100
AcDbXrecord
280
     1
270
     1
271
     1
  0
XRECORD
  5
2C84
102
{ACAD_REACTORS
330
2C83
102
}
330
2C83
100
AcDbXrecord
280
     1
270
     1
271
     1
  0
XRECORD
  5
2C88
102
{ACAD_REACTORS
330
2C83
102
}
330
2C83
100
AcDbXrecord
280
     1
270
     1
271
     1
  0
XRECORD
  5
2C87
102
{ACAD_REACTORS
330
2C83
102
}
330
2C83
100
AcDbXrecord
280
     1
270
     1
271
     1
  0
XRECORD
  5
2C89
102
{ACAD_REACTORS
330
2C83
102
}
330
2C83
100
AcDbXrecord
280
     1
270
     1
271
     1
  0
XRECORD
  5
2C86
102
{ACAD_REACTORS
330
2C83
102
}
330
2C83
100
AcDbXrecord
280
     1
270
     1
271
     1
  0
XRECORD
  5
2C7D
102
{ACAD_REACTORS
330
2C7B
102
}
330
2C7B
100
AcDbXrecord
280
     1
270
     1
271
     1
  0
XRECORD
  5
2C7C
102
{ACAD_REACTORS
330
2C7B
102
}
330
2C7B
100
AcDbXrecord
280
     1
270
     1
271
     1
  0
XRECORD
  5
2C80
102
{ACAD_REACTORS
330
2C7B
102
}
330
2C7B
100
AcDbXrecord
280
     1
270
     1
271
     1
  0
XRECORD
  5
2C7F
102
{ACAD_REACTORS
330
2C7B
102
}
330
2C7B
100
AcDbXrecord
280
     1
270
     1
271
     1
  0
XRECORD
  5
2C81
102
{ACAD_REACTORS
330
2C7B
102
}
330
2C7B
100
AcDbXrecord
280
     1
270
     1
271
     1
  0
XRECORD
  5
2C7E
102
{ACAD_REACTORS
330
2C7B
102
}
330
2C7B
100
AcDbXrecord
280
     1
270
     1
271
     1
  0
XRECORD
  5
2C8D
102
{ACAD_REACTORS
330
2C8B
102
}
330
2C8B
100
AcDbXrecord
280
     1
270
     1
271
     1
  0
XRECORD
  5
2C8C
102
{ACAD_REACTORS
330
2C8B
102
}
330
2C8B
100
AcDbXrecord
280
     1
270
     1
271
     1
  0
XRECORD
  5
2C90
102
{ACAD_REACTORS
330
2C8B
102
}
330
2C8B
100
AcDbXrecord
280
     1
270
     1
271
     1
  0
XRECORD
  5
2C8F
102
{ACAD_REACTORS
330
2C8B
102
}
330
2C8B
100
AcDbXrecord
280
     1
270
     1
271
     1
  0
XRECORD
  5
2C91
102
{ACAD_REACTORS
330
2C8B
102
}
330
2C8B
100
AcDbXrecord
280
     1
270
     1
271
     1
  0
XRECORD
  5
2C8E
102
{ACAD_REACTORS
330
2C8B
102
}
330
2C8B
100
AcDbXrecord
280
     1
270
     1
271
     1
  0
XRECORD
  5
2FF0
102
{ACAD_REACTORS
330
2FEF
102
}
330
2FEF
100
AcDbXrecord
280
     1
102
DISPLAYNAME
  1
Imperial24
102
FLAGS
 90
        0
  0
CELLSTYLEMAP
  5
2FBD
102
{ACAD_REACTORS
330
2F1A
102
}
330
2F1A
100
AcDbCellStyleMap
 90
        3
300
CELLSTYLE
  1
TABLEFORMAT_BEGIN
 90
        5
170
     1
 91
        0
 92
    32768
 62
   257
 93
        1
300
CONTENTFORMAT
  1
CONTENTFORMAT_BEGIN
 90
        0
 91
        0
 92
      512
 93
        0
300

 40
0.0
140
1.0
 94
        5
 62
     0
340
2CBE
144
0.25
309
CONTENTFORMAT_END
171
     1
301
MARGIN
  1
CELLMARGIN_BEGIN
 40
0.06
 40
0.06
 40
0.06
 40
0.06
 40
0.18
 40
0.18
309
CELLMARGIN_END
 94
        6
 95
        1
302
GRIDFORMAT
  1
GRIDFORMAT_BEGIN
 90
        0
 91
        1
 62
     0
 92
       -2
340
0
 93
        0
 40
0.045
309
GRIDFORMAT_END
 95
        2
302
GRIDFORMAT
  1
GRIDFORMAT_BEGIN
 90
        0
 91
        1
 62
     0
 92
       -2
340
0
 93
        0
 40
0.045
309
GRIDFORMAT_END
 95
        4
302
GRIDFORMAT
  1
GRIDFORMAT_BEGIN
 90
        0
 91
        1
 62
     0
 92
       -2
340
0
 93
        0
 40
0.045
309
GRIDFORMAT_END
 95
        8
302
GRIDFORMAT
  1
GRIDFORMAT_BEGIN
 90
        0
 91
        1
 62
     0
 92
       -2
340
0
 93
        0
 40
0.045
309
GRIDFORMAT_END
 95
       16
302
GRIDFORMAT
  1
GRIDFORMAT_BEGIN
 90
        0
 91
        1
 62
     0
 92
       -2
340
0
 93
        0
 40
0.045
309
GRIDFORMAT_END
 95
       32
302
GRIDFORMAT
  1
GRIDFORMAT_BEGIN
 90
        0
 91
        1
 62
     0
 92
       -2
340
0
 93
        0
 40
0.045
309
GRIDFORMAT_END
309
TABLEFORMAT_END
  1
CELLSTYLE_BEGIN
 90
        1
 91
        1
300
_TITLE
309
CELLSTYLE_END
300
CELLSTYLE
  1
TABLEFORMAT_BEGIN
 90
        5
170
     1
 91
        0
 92
        0
 62
   257
 93
        1
300
CONTENTFORMAT
  1
CONTENTFORMAT_BEGIN
 90
        0
 91
        0
 92
      512
 93
        0
300

 40
0.0
140
1.0
 94
        5
 62
     0
340
2CBE
144
0.18
309
CONTENTFORMAT_END
171
     1
301
MARGIN
  1
CELLMARGIN_BEGIN
 40
0.06
 40
0.06
 40
0.06
 40
0.06
 40
0.18
 40
0.18
309
CELLMARGIN_END
 94
        6
 95
        1
302
GRIDFORMAT
  1
GRIDFORMAT_BEGIN
 90
        0
 91
        1
 62
     0
 92
       -2
340
0
 93
        0
 40
0.045
309
GRIDFORMAT_END
 95
        2
302
GRIDFORMAT
  1
GRIDFORMAT_BEGIN
 90
        0
 91
        1
 62
     0
 92
       -2
340
0
 93
        0
 40
0.045
309
GRIDFORMAT_END
 95
        4
302
GRIDFORMAT
  1
GRIDFORMAT_BEGIN
 90
        0
 91
        1
 62
     0
 92
       -2
340
0
 93
        0
 40
0.045
309
GRIDFORMAT_END
 95
        8
302
GRIDFORMAT
  1
GRIDFORMAT_BEGIN
 90
        0
 91
        1
 62
     0
 92
       -2
340
0
 93
        0
 40
0.045
309
GRIDFORMAT_END
 95
       16
302
GRIDFORMAT
  1
GRIDFORMAT_BEGIN
 90
        0
 91
        1
 62
     0
 92
       -2
340
0
 93
        0
 40
0.045
309
GRIDFORMAT_END
 95
       32
302
GRIDFORMAT
  1
GRIDFORMAT_BEGIN
 90
        0
 91
        1
 62
     0
 92
       -2
340
0
 93
        0
 40
0.045
309
GRIDFORMAT_END
309
TABLEFORMAT_END
  1
CELLSTYLE_BEGIN
 90
        2
 91
        1
300
_HEADER
309
CELLSTYLE_END
300
CELLSTYLE
  1
TABLEFORMAT_BEGIN
 90
        5
170
     1
 91
        0
 92
        0
 62
   257
 93
        1
300
CONTENTFORMAT
  1
CONTENTFORMAT_BEGIN
 90
        0
 91
        0
 92
      512
 93
        0
300

 40
0.0
140
1.0
 94
        2
 62
     0
340
2CBE
144
0.18
309
CONTENTFORMAT_END
171
     1
301
MARGIN
  1
CELLMARGIN_BEGIN
 40
0.06
 40
0.06
 40
0.06
 40
0.06
 40
0.18
 40
0.18
309
CELLMARGIN_END
 94
        6
 95
        1
302
GRIDFORMAT
  1
GRIDFORMAT_BEGIN
 90
        0
 91
        1
 62
     0
 92
       -2
340
0
 93
        0
 40
0.045
309
GRIDFORMAT_END
 95
        2
302
GRIDFORMAT
  1
GRIDFORMAT_BEGIN
 90
        0
 91
        1
 62
     0
 92
       -2
340
0
 93
        0
 40
0.045
309
GRIDFORMAT_END
 95
        4
302
GRIDFORMAT
  1
GRIDFORMAT_BEGIN
 90
        0
 91
        1
 62
     0
 92
       -2
340
0
 93
        0
 40
0.045
309
GRIDFORMAT_END
 95
        8
302
GRIDFORMAT
  1
GRIDFORMAT_BEGIN
 90
        0
 91
        1
 62
     0
 92
       -2
340
0
 93
        0
 40
0.045
309
GRIDFORMAT_END
 95
       16
302
GRIDFORMAT
  1
GRIDFORMAT_BEGIN
 90
        0
 91
        1
 62
     0
 92
       -2
340
0
 93
        0
 40
0.045
309
GRIDFORMAT_END
 95
       32
302
GRIDFORMAT
  1
GRIDFORMAT_BEGIN
 90
        0
 91
        1
 62
     0
 92
       -2
340
0
 93
        0
 40
0.045
309
GRIDFORMAT_END
309
TABLEFORMAT_END
  1
CELLSTYLE_BEGIN
 90
        3
 91
        2
300
_DATA
309
CELLSTYLE_END
  0
XRECORD
  5
2FCA
102
{ACAD_REACTORS
330
2FC9
102
}
330
2FC9
100
AcDbXrecord
280
     1
102
RTVSPost2010Prop28
280
     1
102
RTVSPost2010PropOp28
 70
     1
102
RTVSPost2010Prop29
280
     1
102
RTVSPost2010PropOp29
 70
     1
102
RTVSPost2010Prop30
280
     0
102
RTVSPost2010PropOp30
 70
     1
102
RTVSPost2010Prop31
280
     0
102
RTVSPost2010PropOp31
 70
     1
102
RTVSPost2010Prop32
280
     0
102
RTVSPost2010PropOp32
 70
     1
102
RTVSPost2010Prop33
280
     0
102
RTVSPost2010PropOp33
 70
     1
102
RTVSPost2010Prop34
280
     0
102
RTVSPost2010PropOp34
 70
     1
102
RTVSPost2010Prop35
280
     0
102
RTVSPost2010PropOp35
 70
     1
102
RTVSPost2010Prop36
280
     0
102
RTVSPost2010PropOp36
 70
     1
102
RTVSPost2010Prop37
 90
       50
102
RTVSPost2010PropOp37
 70
     1
102
RTVSPost2010Prop38
140
0.0
102
RTVSPost2010PropOp38
 70
     1
102
RTVSPost2010Prop39
140
1.0
102
RTVSPost2010PropOp39
 70
     1
102
RTVSPost2010Prop40
 90
        0
102
RTVSPost2010PropOp40
 70
     1
102
RTVSPost2010Prop41ColorIndex
 90
       18
102
RTVSPost2010Prop41ColorRGB
 90
        0
102
RTVSPost2010PropOp41
 70
     1
102
RTVSPost2010Prop42
 90
       50
102
RTVSPost2010PropOp42
 70
     1
102
RTVSPost2010Prop43
 90
        3
102
RTVSPost2010PropOp43
 70
     1
102
RTVSPost2010Prop44ColorIndex
 90
        5
102
RTVSPost2010Prop44ColorRGB
 90
      255
102
RTVSPost2010PropOp44
 70
     1
102
RTVSPost2010Prop45
280
     0
102
RTVSPost2010PropOp45
 70
     1
102
RTVSPost2010Prop46
 90
       50
102
RTVSPost2010PropOp46
 70
     1
102
RTVSPost2010Prop47
 90
       50
102
RTVSPost2010PropOp47
 70
     1
102
RTVSPost2010Prop48
 90
       50
102
RTVSPost2010PropOp48
 70
     1
102
RTVSPost2010Prop49
280
     0
102
RTVSPost2010PropOp49
 70
     1
102
RTVSPost2010Prop50
 90
       50
102
RTVSPost2010PropOp50
 70
     1
102
RTVSPost2010Prop51ColorIndex
 90
      256
102
RTVSPost2010Prop51ColorRGB
 90
-16777216
102
RTVSPost2010PropOp51
 70
     0
102
RTVSPost2010Prop52
140
1.0
102
RTVSPost2010PropOp52
 70
     0
102
RTVSPost2010Prop53
 90
        2
102
RTVSPost2010PropOp53
 70
     1
102
RTVSPost2010Prop54
  1
strokes_ogs.tif
102
RTVSPost2010PropOp54
 70
     1
102
RTVSPost2010Prop55
280
     0
102
RTVSPost2010PropOp55
 70
     1
102
RTVSPost2010Prop56
140
1.0
102
RTVSPost2010PropOp56
 70
     1
102
RTVSPost2010Prop57
140
1.0
102
RTVSPost2010PropOp57
 70
     1
  0
XRECORD
  5
2FC8
102
{ACAD_REACTORS
330
2FC7
102
}
330
2FC7
100
AcDbXrecord
280
     1
102
RTVSPost2010Prop28
280
     0
102
RTVSPost2010PropOp28
 70
     1
102
RTVSPost2010Prop29
280
     1
102
RTVSPost2010PropOp29
 70
     1
102
RTVSPost2010Prop30
280
     1
102
RTVSPost2010PropOp30
 70
     1
102
RTVSPost2010Prop31
280
     0
102
RTVSPost2010PropOp31
 70
     1
102
RTVSPost2010Prop32
280
     0
102
RTVSPost2010PropOp32
 70
     1
102
RTVSPost2010Prop33
280
     0
102
RTVSPost2010PropOp33
 70
     1
102
RTVSPost2010Prop34
280
     0
102
RTVSPost2010PropOp34
 70
     1
102
RTVSPost2010Prop35
280
     0
102
RTVSPost2010PropOp35
 70
     1
102
RTVSPost2010Prop36
280
     0
102
RTVSPost2010PropOp36
 70
     1
102
RTVSPost2010Prop37
 90
       50
102
RTVSPost2010PropOp37
 70
     1
102
RTVSPost2010Prop38
140
0.0
102
RTVSPost2010PropOp38
 70
     1
102
RTVSPost2010Prop39
140
1.0
102
RTVSPost2010PropOp39
 70
     1
102
RTVSPost2010Prop40
 90
        0
102
RTVSPost2010PropOp40
 70
     1
102
RTVSPost2010Prop41ColorIndex
 90
       18
102
RTVSPost2010Prop41ColorRGB
 90
        0
102
RTVSPost2010PropOp41
 70
     1
102
RTVSPost2010Prop42
 90
       50
102
RTVSPost2010PropOp42
 70
     1
102
RTVSPost2010Prop43
 90
        3
102
RTVSPost2010PropOp43
 70
     1
102
RTVSPost2010Prop44ColorIndex
 90
        5
102
RTVSPost2010Prop44ColorRGB
 90
      255
102
RTVSPost2010PropOp44
 70
     1
102
RTVSPost2010Prop45
280
     0
102
RTVSPost2010PropOp45
 70
     1
102
RTVSPost2010Prop46
 90
       50
102
RTVSPost2010PropOp46
 70
     1
102
RTVSPost2010Prop47
 90
       50
102
RTVSPost2010PropOp47
 70
     1
102
RTVSPost2010Prop48
 90
       50
102
RTVSPost2010PropOp48
 70
     1
102
RTVSPost2010Prop49
280
     0
102
RTVSPost2010PropOp49
 70
     1
102
RTVSPost2010Prop50
 90
       50
102
RTVSPost2010PropOp50
 70
     1
102
RTVSPost2010Prop51ColorIndex
 90
      256
102
RTVSPost2010Prop51ColorRGB
 90
-16777216
102
RTVSPost2010PropOp51
 70
     0
102
RTVSPost2010Prop52
140
1.0
102
RTVSPost2010PropOp52
 70
     0
102
RTVSPost2010Prop53
 90
        2
102
RTVSPost2010PropOp53
 70
     1
102
RTVSPost2010Prop54
  1
strokes_ogs.tif
102
RTVSPost2010PropOp54
 70
     1
102
RTVSPost2010Prop55
280
     0
102
RTVSPost2010PropOp55
 70
     1
102
RTVSPost2010Prop56
140
1.0
102
RTVSPost2010PropOp56
 70
     1
102
RTVSPost2010Prop57
140
1.0
102
RTVSPost2010PropOp57
 70
     1
  0
XRECORD
  5
2FD6
102
{ACAD_REACTORS
330
2FD5
102
}
330
2FD5
100
AcDbXrecord
280
     1
102
RTVSPost2010Prop28
280
     0
102
RTVSPost2010PropOp28
 70
     1
102
RTVSPost2010Prop29
280
     1
102
RTVSPost2010PropOp29
 70
     1
102
RTVSPost2010Prop30
280
     1
102
RTVSPost2010PropOp30
 70
     1
102
RTVSPost2010Prop31
280
     0
102
RTVSPost2010PropOp31
 70
     1
102
RTVSPost2010Prop32
280
     0
102
RTVSPost2010PropOp32
 70
     1
102
RTVSPost2010Prop33
280
     0
102
RTVSPost2010PropOp33
 70
     1
102
RTVSPost2010Prop34
280
     0
102
RTVSPost2010PropOp34
 70
     1
102
RTVSPost2010Prop35
280
     0
102
RTVSPost2010PropOp35
 70
     1
102
RTVSPost2010Prop36
280
     0
102
RTVSPost2010PropOp36
 70
     1
102
RTVSPost2010Prop37
 90
       50
102
RTVSPost2010PropOp37
 70
     1
102
RTVSPost2010Prop38
140
0.0
102
RTVSPost2010PropOp38
 70
     1
102
RTVSPost2010Prop39
140
1.0
102
RTVSPost2010PropOp39
 70
     1
102
RTVSPost2010Prop40
 90
        0
102
RTVSPost2010PropOp40
 70
     1
102
RTVSPost2010Prop41ColorIndex
 90
       18
102
RTVSPost2010Prop41ColorRGB
 90
        0
102
RTVSPost2010PropOp41
 70
     1
102
RTVSPost2010Prop42
 90
       50
102
RTVSPost2010PropOp42
 70
     1
102
RTVSPost2010Prop43
 90
        3
102
RTVSPost2010PropOp43
 70
     1
102
RTVSPost2010Prop44ColorIndex
 90
        5
102
RTVSPost2010Prop44ColorRGB
 90
      255
102
RTVSPost2010PropOp44
 70
     1
102
RTVSPost2010Prop45
280
     0
102
RTVSPost2010PropOp45
 70
     1
102
RTVSPost2010Prop46
 90
       50
102
RTVSPost2010PropOp46
 70
     1
102
RTVSPost2010Prop47
 90
       50
102
RTVSPost2010PropOp47
 70
     1
102
RTVSPost2010Prop48
 90
       50
102
RTVSPost2010PropOp48
 70
     1
102
RTVSPost2010Prop49
280
     0
102
RTVSPost2010PropOp49
 70
     1
102
RTVSPost2010Prop50
 90
       50
102
RTVSPost2010PropOp50
 70
     1
102
RTVSPost2010Prop51ColorIndex
 90
      256
102
RTVSPost2010Prop51ColorRGB
 90
-16777216
102
RTVSPost2010PropOp51
 70
     0
102
RTVSPost2010Prop52
140
1.0
102
RTVSPost2010PropOp52
 70
     0
102
RTVSPost2010Prop53
 90
        2
102
RTVSPost2010PropOp53
 70
     1
102
RTVSPost2010Prop54
  1
strokes_ogs.tif
102
RTVSPost2010PropOp54
 70
     1
102
RTVSPost2010Prop55
280
     0
102
RTVSPost2010PropOp55
 70
     1
102
RTVSPost2010Prop56
140
1.0
102
RTVSPost2010PropOp56
 70
     1
102
RTVSPost2010Prop57
140
1.0
102
RTVSPost2010PropOp57
 70
     1
  0
XRECORD
  5
2FDE
102
{ACAD_REACTORS
330
2FDD
102
}
330
2FDD
100
AcDbXrecord
280
     1
102
RTVSPost2010Prop28
280
     0
102
RTVSPost2010PropOp28
 70
     1
102
RTVSPost2010Prop29
280
     1
102
RTVSPost2010PropOp29
 70
     1
102
RTVSPost2010Prop30
280
     1
102
RTVSPost2010PropOp30
 70
     1
102
RTVSPost2010Prop31
280
     0
102
RTVSPost2010PropOp31
 70
     1
102
RTVSPost2010Prop32
280
     0
102
RTVSPost2010PropOp32
 70
     1
102
RTVSPost2010Prop33
280
     0
102
RTVSPost2010PropOp33
 70
     1
102
RTVSPost2010Prop34
280
     0
102
RTVSPost2010PropOp34
 70
     1
102
RTVSPost2010Prop35
280
     0
102
RTVSPost2010PropOp35
 70
     1
102
RTVSPost2010Prop36
280
     0
102
RTVSPost2010PropOp36
 70
     1
102
RTVSPost2010Prop37
 90
       50
102
RTVSPost2010PropOp37
 70
     1
102
RTVSPost2010Prop38
140
0.0
102
RTVSPost2010PropOp38
 70
     1
102
RTVSPost2010Prop39
140
1.0
102
RTVSPost2010PropOp39
 70
     1
102
RTVSPost2010Prop40
 90
        0
102
RTVSPost2010PropOp40
 70
     1
102
RTVSPost2010Prop41ColorIndex
 90
       18
102
RTVSPost2010Prop41ColorRGB
 90
        0
102
RTVSPost2010PropOp41
 70
     1
102
RTVSPost2010Prop42
 90
       50
102
RTVSPost2010PropOp42
 70
     1
102
RTVSPost2010Prop43
 90
        3
102
RTVSPost2010PropOp43
 70
     1
102
RTVSPost2010Prop44ColorIndex
 90
        5
102
RTVSPost2010Prop44ColorRGB
 90
      255
102
RTVSPost2010PropOp44
 70
     1
102
RTVSPost2010Prop45
280
     0
102
RTVSPost2010PropOp45
 70
     1
102
RTVSPost2010Prop46
 90
       50
102
RTVSPost2010PropOp46
 70
     1
102
RTVSPost2010Prop47
 90
       50
102
RTVSPost2010PropOp47
 70
     1
102
RTVSPost2010Prop48
 90
       50
102
RTVSPost2010PropOp48
 70
     1
102
RTVSPost2010Prop49
280
     0
102
RTVSPost2010PropOp49
 70
     1
102
RTVSPost2010Prop50
 90
       50
102
RTVSPost2010PropOp50
 70
     1
102
RTVSPost2010Prop51ColorIndex
 90
      256
102
RTVSPost2010Prop51ColorRGB
 90
-16777216
102
RTVSPost2010PropOp51
 70
     0
102
RTVSPost2010Prop52
140
1.0
102
RTVSPost2010PropOp52
 70
     0
102
RTVSPost2010Prop53
 90
        2
102
RTVSPost2010PropOp53
 70
     1
102
RTVSPost2010Prop54
  1
strokes_ogs.tif
102
RTVSPost2010PropOp54
 70
     1
102
RTVSPost2010Prop55
280
     0
102
RTVSPost2010PropOp55
 70
     1
102
RTVSPost2010Prop56
140
1.0
102
RTVSPost2010PropOp56
 70
     1
102
RTVSPost2010Prop57
140
1.0
102
RTVSPost2010PropOp57
 70
     1
  0
XRECORD
  5
2FD0
102
{ACAD_REACTORS
330
2FCF
102
}
330
2FCF
100
AcDbXrecord
280
     1
102
RTVSPost2010Prop28
280
     0
102
RTVSPost2010PropOp28
 70
     1
102
RTVSPost2010Prop29
280
     1
102
RTVSPost2010PropOp29
 70
     1
102
RTVSPost2010Prop30
280
     1
102
RTVSPost2010PropOp30
 70
     1
102
RTVSPost2010Prop31
280
     0
102
RTVSPost2010PropOp31
 70
     1
102
RTVSPost2010Prop32
280
     0
102
RTVSPost2010PropOp32
 70
     1
102
RTVSPost2010Prop33
280
     0
102
RTVSPost2010PropOp33
 70
     1
102
RTVSPost2010Prop34
280
     0
102
RTVSPost2010PropOp34
 70
     1
102
RTVSPost2010Prop35
280
     0
102
RTVSPost2010PropOp35
 70
     1
102
RTVSPost2010Prop36
280
     0
102
RTVSPost2010PropOp36
 70
     1
102
RTVSPost2010Prop37
 90
       50
102
RTVSPost2010PropOp37
 70
     1
102
RTVSPost2010Prop38
140
0.0
102
RTVSPost2010PropOp38
 70
     1
102
RTVSPost2010Prop39
140
1.0
102
RTVSPost2010PropOp39
 70
     1
102
RTVSPost2010Prop40
 90
        0
102
RTVSPost2010PropOp40
 70
     1
102
RTVSPost2010Prop41ColorIndex
 90
       18
102
RTVSPost2010Prop41ColorRGB
 90
        0
102
RTVSPost2010PropOp41
 70
     1
102
RTVSPost2010Prop42
 90
       50
102
RTVSPost2010PropOp42
 70
     1
102
RTVSPost2010Prop43
 90
        3
102
RTVSPost2010PropOp43
 70
     1
102
RTVSPost2010Prop44ColorIndex
 90
        5
102
RTVSPost2010Prop44ColorRGB
 90
      255
102
RTVSPost2010PropOp44
 70
     1
102
RTVSPost2010Prop45
280
     0
102
RTVSPost2010PropOp45
 70
     1
102
RTVSPost2010Prop46
 90
       50
102
RTVSPost2010PropOp46
 70
     1
102
RTVSPost2010Prop47
 90
       50
102
RTVSPost2010PropOp47
 70
     1
102
RTVSPost2010Prop48
 90
       50
102
RTVSPost2010PropOp48
 70
     1
102
RTVSPost2010Prop49
280
     0
102
RTVSPost2010PropOp49
 70
     1
102
RTVSPost2010Prop50
 90
       50
102
RTVSPost2010PropOp50
 70
     1
102
RTVSPost2010Prop51ColorIndex
 90
      256
102
RTVSPost2010Prop51ColorRGB
 90
-16777216
102
RTVSPost2010PropOp51
 70
     0
102
RTVSPost2010Prop52
140
1.0
102
RTVSPost2010PropOp52
 70
     0
102
RTVSPost2010Prop53
 90
        2
102
RTVSPost2010PropOp53
 70
     1
102
RTVSPost2010Prop54
  1
strokes_ogs.tif
102
RTVSPost2010PropOp54
 70
     1
102
RTVSPost2010Prop55
280
     0
102
RTVSPost2010PropOp55
 70
     1
102
RTVSPost2010Prop56
140
1.0
102
RTVSPost2010PropOp56
 70
     1
102
RTVSPost2010Prop57
140
1.0
102
RTVSPost2010PropOp57
 70
     1
  0
XRECORD
  5
2FD4
102
{ACAD_REACTORS
330
2FD3
102
}
330
2FD3
100
AcDbXrecord
280
     1
102
RTVSPost2010Prop28
280
     0
102
RTVSPost2010PropOp28
 70
     1
102
RTVSPost2010Prop29
280
     1
102
RTVSPost2010PropOp29
 70
     1
102
RTVSPost2010Prop30
280
     1
102
RTVSPost2010PropOp30
 70
     1
102
RTVSPost2010Prop31
280
     0
102
RTVSPost2010PropOp31
 70
     1
102
RTVSPost2010Prop32
280
     0
102
RTVSPost2010PropOp32
 70
     1
102
RTVSPost2010Prop33
280
     0
102
RTVSPost2010PropOp33
 70
     1
102
RTVSPost2010Prop34
280
     0
102
RTVSPost2010PropOp34
 70
     1
102
RTVSPost2010Prop35
280
     0
102
RTVSPost2010PropOp35
 70
     1
102
RTVSPost2010Prop36
280
     0
102
RTVSPost2010PropOp36
 70
     1
102
RTVSPost2010Prop37
 90
       50
102
RTVSPost2010PropOp37
 70
     1
102
RTVSPost2010Prop38
140
0.0
102
RTVSPost2010PropOp38
 70
     1
102
RTVSPost2010Prop39
140
1.0
102
RTVSPost2010PropOp39
 70
     1
102
RTVSPost2010Prop40
 90
        0
102
RTVSPost2010PropOp40
 70
     1
102
RTVSPost2010Prop41ColorIndex
 90
       18
102
RTVSPost2010Prop41ColorRGB
 90
        0
102
RTVSPost2010PropOp41
 70
     1
102
RTVSPost2010Prop42
 90
       50
102
RTVSPost2010PropOp42
 70
     1
102
RTVSPost2010Prop43
 90
        3
102
RTVSPost2010PropOp43
 70
     1
102
RTVSPost2010Prop44ColorIndex
 90
        5
102
RTVSPost2010Prop44ColorRGB
 90
      255
102
RTVSPost2010PropOp44
 70
     1
102
RTVSPost2010Prop45
280
     0
102
RTVSPost2010PropOp45
 70
     1
102
RTVSPost2010Prop46
 90
       50
102
RTVSPost2010PropOp46
 70
     1
102
RTVSPost2010Prop47
 90
       50
102
RTVSPost2010PropOp47
 70
     1
102
RTVSPost2010Prop48
 90
       50
102
RTVSPost2010PropOp48
 70
     1
102
RTVSPost2010Prop49
280
     0
102
RTVSPost2010PropOp49
 70
     1
102
RTVSPost2010Prop50
 90
       50
102
RTVSPost2010PropOp50
 70
     1
102
RTVSPost2010Prop51ColorIndex
 90
      256
102
RTVSPost2010Prop51ColorRGB
 90
-16777216
102
RTVSPost2010PropOp51
 70
     0
102
RTVSPost2010Prop52
140
1.0
102
RTVSPost2010PropOp52
 70
     0
102
RTVSPost2010Prop53
 90
        2
102
RTVSPost2010PropOp53
 70
     1
102
RTVSPost2010Prop54
  1
strokes_ogs.tif
102
RTVSPost2010PropOp54
 70
     1
102
RTVSPost2010Prop55
280
     0
102
RTVSPost2010PropOp55
 70
     1
102
RTVSPost2010Prop56
140
1.0
102
RTVSPost2010PropOp56
 70
     1
102
RTVSPost2010Prop57
140
1.0
102
RTVSPost2010PropOp57
 70
     1
  0
XRECORD
  5
2FEE
102
{ACAD_REACTORS
330
2FED
102
}
330
2FED
100
AcDbXrecord
280
     1
102
RTVSPost2010Prop28
280
     0
102
RTVSPost2010PropOp28
 70
     1
102
RTVSPost2010Prop29
280
     1
102
RTVSPost2010PropOp29
 70
     1
102
RTVSPost2010Prop30
280
     1
102
RTVSPost2010PropOp30
 70
     1
102
RTVSPost2010Prop31
280
     0
102
RTVSPost2010PropOp31
 70
     1
102
RTVSPost2010Prop32
280
     0
102
RTVSPost2010PropOp32
 70
     1
102
RTVSPost2010Prop33
280
     0
102
RTVSPost2010PropOp33
 70
     1
102
RTVSPost2010Prop34
280
     0
102
RTVSPost2010PropOp34
 70
     1
102
RTVSPost2010Prop35
280
     0
102
RTVSPost2010PropOp35
 70
     1
102
RTVSPost2010Prop36
280
     0
102
RTVSPost2010PropOp36
 70
     1
102
RTVSPost2010Prop37
 90
       50
102
RTVSPost2010PropOp37
 70
     0
102
RTVSPost2010Prop38
140
0.0
102
RTVSPost2010PropOp38
 70
     0
102
RTVSPost2010Prop39
140
1.0
102
RTVSPost2010PropOp39
 70
     0
102
RTVSPost2010Prop40
 90
        0
102
RTVSPost2010PropOp40
 70
     0
102
RTVSPost2010Prop41ColorIndex
 90
       18
102
RTVSPost2010Prop41ColorRGB
 90
        0
102
RTVSPost2010PropOp41
 70
     0
102
RTVSPost2010Prop42
 90
       50
102
RTVSPost2010PropOp42
 70
     0
102
RTVSPost2010Prop43
 90
        3
102
RTVSPost2010PropOp43
 70
     0
102
RTVSPost2010Prop44ColorIndex
 90
        5
102
RTVSPost2010Prop44ColorRGB
 90
      255
102
RTVSPost2010PropOp44
 70
     0
102
RTVSPost2010Prop45
280
     0
102
RTVSPost2010PropOp45
 70
     1
102
RTVSPost2010Prop46
 90
       50
102
RTVSPost2010PropOp46
 70
     0
102
RTVSPost2010Prop47
 90
       50
102
RTVSPost2010PropOp47
 70
     0
102
RTVSPost2010Prop48
 90
       50
102
RTVSPost2010PropOp48
 70
     0
102
RTVSPost2010Prop49
280
     0
102
RTVSPost2010PropOp49
 70
     1
102
RTVSPost2010Prop50
 90
       50
102
RTVSPost2010PropOp50
 70
     0
102
RTVSPost2010Prop51ColorIndex
 90
      256
102
RTVSPost2010Prop51ColorRGB
 90
-16777216
102
RTVSPost2010PropOp51
 70
     0
102
RTVSPost2010Prop52
140
1.0
102
RTVSPost2010PropOp52
 70
     0
102
RTVSPost2010Prop53
 90
        2
102
RTVSPost2010PropOp53
 70
     0
102
RTVSPost2010Prop54
  1
strokes_ogs.tif
102
RTVSPost2010PropOp54
 70
     0
102
RTVSPost2010Prop55
280
     0
102
RTVSPost2010PropOp55
 70
     1
102
RTVSPost2010Prop56
140
1.0
102
RTVSPost2010PropOp56
 70
     0
102
RTVSPost2010Prop57
140
1.0
102
RTVSPost2010PropOp57
 70
     0
  0
XRECORD
  5
2FDC
102
{ACAD_REACTORS
330
2FDB
102
}
330
2FDB
100
AcDbXrecord
280
     1
102
RTVSPost2010Prop28
280
     0
102
RTVSPost2010PropOp28
 70
     1
102
RTVSPost2010Prop29
280
     1
102
RTVSPost2010PropOp29
 70
     1
102
RTVSPost2010Prop30
280
     1
102
RTVSPost2010PropOp30
 70
     1
102
RTVSPost2010Prop31
280
     0
102
RTVSPost2010PropOp31
 70
     1
102
RTVSPost2010Prop32
280
     0
102
RTVSPost2010PropOp32
 70
     1
102
RTVSPost2010Prop33
280
     0
102
RTVSPost2010PropOp33
 70
     1
102
RTVSPost2010Prop34
280
     0
102
RTVSPost2010PropOp34
 70
     1
102
RTVSPost2010Prop35
280
     0
102
RTVSPost2010PropOp35
 70
     1
102
RTVSPost2010Prop36
280
     0
102
RTVSPost2010PropOp36
 70
     1
102
RTVSPost2010Prop37
 90
       50
102
RTVSPost2010PropOp37
 70
     1
102
RTVSPost2010Prop38
140
0.0
102
RTVSPost2010PropOp38
 70
     1
102
RTVSPost2010Prop39
140
1.0
102
RTVSPost2010PropOp39
 70
     1
102
RTVSPost2010Prop40
 90
        0
102
RTVSPost2010PropOp40
 70
     1
102
RTVSPost2010Prop41ColorIndex
 90
       18
102
RTVSPost2010Prop41ColorRGB
 90
        0
102
RTVSPost2010PropOp41
 70
     1
102
RTVSPost2010Prop42
 90
       50
102
RTVSPost2010PropOp42
 70
     1
102
RTVSPost2010Prop43
 90
        3
102
RTVSPost2010PropOp43
 70
     1
102
RTVSPost2010Prop44ColorIndex
 90
        5
102
RTVSPost2010Prop44ColorRGB
 90
      255
102
RTVSPost2010PropOp44
 70
     1
102
RTVSPost2010Prop45
280
     0
102
RTVSPost2010PropOp45
 70
     1
102
RTVSPost2010Prop46
 90
       50
102
RTVSPost2010PropOp46
 70
     1
102
RTVSPost2010Prop47
 90
       50
102
RTVSPost2010PropOp47
 70
     1
102
RTVSPost2010Prop48
 90
       50
102
RTVSPost2010PropOp48
 70
     1
102
RTVSPost2010Prop49
280
     0
102
RTVSPost2010PropOp49
 70
     1
102
RTVSPost2010Prop50
 90
       50
102
RTVSPost2010PropOp50
 70
     1
102
RTVSPost2010Prop51ColorIndex
 90
      256
102
RTVSPost2010Prop51ColorRGB
 90
-16777216
102
RTVSPost2010PropOp51
 70
     0
102
RTVSPost2010Prop52
140
1.0
102
RTVSPost2010PropOp52
 70
     0
102
RTVSPost2010Prop53
 90
        2
102
RTVSPost2010PropOp53
 70
     1
102
RTVSPost2010Prop54
  1
strokes_ogs.tif
102
RTVSPost2010PropOp54
 70
     1
102
RTVSPost2010Prop55
280
     0
102
RTVSPost2010PropOp55
 70
     1
102
RTVSPost2010Prop56
140
1.0
102
RTVSPost2010PropOp56
 70
     1
102
RTVSPost2010Prop57
140
1.0
102
RTVSPost2010PropOp57
 70
     1
  0
XRECORD
  5
2FC0
102
{ACAD_REACTORS
330
2FBF
102
}
330
2FBF
100
AcDbXrecord
280
     1
102
RTVSPost2010Prop28
280
     0
102
RTVSPost2010PropOp28
 70
     1
102
RTVSPost2010Prop29
280
     1
102
RTVSPost2010PropOp29
 70
     1
102
RTVSPost2010Prop30
280
     1
102
RTVSPost2010PropOp30
 70
     1
102
RTVSPost2010Prop31
280
     0
102
RTVSPost2010PropOp31
 70
     1
102
RTVSPost2010Prop32
280
     0
102
RTVSPost2010PropOp32
 70
     1
102
RTVSPost2010Prop33
280
     0
102
RTVSPost2010PropOp33
 70
     1
102
RTVSPost2010Prop34
280
     0
102
RTVSPost2010PropOp34
 70
     1
102
RTVSPost2010Prop35
280
     0
102
RTVSPost2010PropOp35
 70
     1
102
RTVSPost2010Prop36
280
     0
102
RTVSPost2010PropOp36
 70
     1
102
RTVSPost2010Prop37
 90
       50
102
RTVSPost2010PropOp37
 70
     1
102
RTVSPost2010Prop38
140
0.0
102
RTVSPost2010PropOp38
 70
     1
102
RTVSPost2010Prop39
140
1.0
102
RTVSPost2010PropOp39
 70
     1
102
RTVSPost2010Prop40
 90
        0
102
RTVSPost2010PropOp40
 70
     1
102
RTVSPost2010Prop41ColorIndex
 90
       18
102
RTVSPost2010Prop41ColorRGB
 90
        0
102
RTVSPost2010PropOp41
 70
     1
102
RTVSPost2010Prop42
 90
       50
102
RTVSPost2010PropOp42
 70
     1
102
RTVSPost2010Prop43
 90
        3
102
RTVSPost2010PropOp43
 70
     1
102
RTVSPost2010Prop44ColorIndex
 90
        5
102
RTVSPost2010Prop44ColorRGB
 90
      255
102
RTVSPost2010PropOp44
 70
     1
102
RTVSPost2010Prop45
280
     0
102
RTVSPost2010PropOp45
 70
     1
102
RTVSPost2010Prop46
 90
       50
102
RTVSPost2010PropOp46
 70
     1
102
RTVSPost2010Prop47
 90
       50
102
RTVSPost2010PropOp47
 70
     1
102
RTVSPost2010Prop48
 90
       50
102
RTVSPost2010PropOp48
 70
     1
102
RTVSPost2010Prop49
280
     0
102
RTVSPost2010PropOp49
 70
     1
102
RTVSPost2010Prop50
 90
       50
102
RTVSPost2010PropOp50
 70
     1
102
RTVSPost2010Prop51ColorIndex
 90
      256
102
RTVSPost2010Prop51ColorRGB
 90
-16777216
102
RTVSPost2010PropOp51
 70
     0
102
RTVSPost2010Prop52
140
1.0
102
RTVSPost2010PropOp52
 70
     0
102
RTVSPost2010Prop53
 90
        2
102
RTVSPost2010PropOp53
 70
     1
102
RTVSPost2010Prop54
  1
strokes_ogs.tif
102
RTVSPost2010PropOp54
 70
     1
102
RTVSPost2010Prop55
280
     0
102
RTVSPost2010PropOp55
 70
     1
102
RTVSPost2010Prop56
140
1.0
102
RTVSPost2010PropOp56
 70
     1
102
RTVSPost2010Prop57
140
1.0
102
RTVSPost2010PropOp57
 70
     1
  0
XRECORD
  5
2FC2
102
{ACAD_REACTORS
330
2FC1
102
}
330
2FC1
100
AcDbXrecord
280
     1
102
RTVSPost2010Prop28
280
     0
102
RTVSPost2010PropOp28
 70
     1
102
RTVSPost2010Prop29
280
     1
102
RTVSPost2010PropOp29
 70
     1
102
RTVSPost2010Prop30
280
     1
102
RTVSPost2010PropOp30
 70
     1
102
RTVSPost2010Prop31
280
     0
102
RTVSPost2010PropOp31
 70
     1
102
RTVSPost2010Prop32
280
     0
102
RTVSPost2010PropOp32
 70
     1
102
RTVSPost2010Prop33
280
     0
102
RTVSPost2010PropOp33
 70
     1
102
RTVSPost2010Prop34
280
     0
102
RTVSPost2010PropOp34
 70
     1
102
RTVSPost2010Prop35
280
     0
102
RTVSPost2010PropOp35
 70
     1
102
RTVSPost2010Prop36
280
     0
102
RTVSPost2010PropOp36
 70
     1
102
RTVSPost2010Prop37
 90
       50
102
RTVSPost2010PropOp37
 70
     1
102
RTVSPost2010Prop38
140
0.0
102
RTVSPost2010PropOp38
 70
     1
102
RTVSPost2010Prop39
140
1.0
102
RTVSPost2010PropOp39
 70
     1
102
RTVSPost2010Prop40
 90
        0
102
RTVSPost2010PropOp40
 70
     1
102
RTVSPost2010Prop41ColorIndex
 90
       18
102
RTVSPost2010Prop41ColorRGB
 90
        0
102
RTVSPost2010PropOp41
 70
     1
102
RTVSPost2010Prop42
 90
       50
102
RTVSPost2010PropOp42
 70
     1
102
RTVSPost2010Prop43
 90
        3
102
RTVSPost2010PropOp43
 70
     1
102
RTVSPost2010Prop44ColorIndex
 90
        5
102
RTVSPost2010Prop44ColorRGB
 90
      255
102
RTVSPost2010PropOp44
 70
     1
102
RTVSPost2010Prop45
280
     0
102
RTVSPost2010PropOp45
 70
     1
102
RTVSPost2010Prop46
 90
       50
102
RTVSPost2010PropOp46
 70
     1
102
RTVSPost2010Prop47
 90
       50
102
RTVSPost2010PropOp47
 70
     1
102
RTVSPost2010Prop48
 90
       50
102
RTVSPost2010PropOp48
 70
     1
102
RTVSPost2010Prop49
280
     0
102
RTVSPost2010PropOp49
 70
     1
102
RTVSPost2010Prop50
 90
       50
102
RTVSPost2010PropOp50
 70
     1
102
RTVSPost2010Prop51ColorIndex
 90
      256
102
RTVSPost2010Prop51ColorRGB
 90
-16777216
102
RTVSPost2010PropOp51
 70
     0
102
RTVSPost2010Prop52
140
1.0
102
RTVSPost2010PropOp52
 70
     0
102
RTVSPost2010Prop53
 90
        2
102
RTVSPost2010PropOp53
 70
     1
102
RTVSPost2010Prop54
  1
strokes_ogs.tif
102
RTVSPost2010PropOp54
 70
     1
102
RTVSPost2010Prop55
280
     0
102
RTVSPost2010PropOp55
 70
     1
102
RTVSPost2010Prop56
140
1.0
102
RTVSPost2010PropOp56
 70
     1
102
RTVSPost2010Prop57
140
1.0
102
RTVSPost2010PropOp57
 70
     1
  0
XRECORD
  5
2FC4
102
{ACAD_REACTORS
330
2FC3
102
}
330
2FC3
100
AcDbXrecord
280
     1
102
RTVSPost2010Prop28
280
     0
102
RTVSPost2010PropOp28
 70
     1
102
RTVSPost2010Prop29
280
     1
102
RTVSPost2010PropOp29
 70
     1
102
RTVSPost2010Prop30
280
     1
102
RTVSPost2010PropOp30
 70
     1
102
RTVSPost2010Prop31
280
     0
102
RTVSPost2010PropOp31
 70
     1
102
RTVSPost2010Prop32
280
     0
102
RTVSPost2010PropOp32
 70
     1
102
RTVSPost2010Prop33
280
     0
102
RTVSPost2010PropOp33
 70
     1
102
RTVSPost2010Prop34
280
     0
102
RTVSPost2010PropOp34
 70
     1
102
RTVSPost2010Prop35
280
     0
102
RTVSPost2010PropOp35
 70
     1
102
RTVSPost2010Prop36
280
     0
102
RTVSPost2010PropOp36
 70
     1
102
RTVSPost2010Prop37
 90
       50
102
RTVSPost2010PropOp37
 70
     1
102
RTVSPost2010Prop38
140
0.0
102
RTVSPost2010PropOp38
 70
     1
102
RTVSPost2010Prop39
140
1.0
102
RTVSPost2010PropOp39
 70
     1
102
RTVSPost2010Prop40
 90
        0
102
RTVSPost2010PropOp40
 70
     1
102
RTVSPost2010Prop41ColorIndex
 90
       18
102
RTVSPost2010Prop41ColorRGB
 90
        0
102
RTVSPost2010PropOp41
 70
     1
102
RTVSPost2010Prop42
 90
       50
102
RTVSPost2010PropOp42
 70
     1
102
RTVSPost2010Prop43
 90
        3
102
RTVSPost2010PropOp43
 70
     1
102
RTVSPost2010Prop44ColorIndex
 90
        5
102
RTVSPost2010Prop44ColorRGB
 90
      255
102
RTVSPost2010PropOp44
 70
     1
102
RTVSPost2010Prop45
280
     0
102
RTVSPost2010PropOp45
 70
     1
102
RTVSPost2010Prop46
 90
       50
102
RTVSPost2010PropOp46
 70
     1
102
RTVSPost2010Prop47
 90
       50
102
RTVSPost2010PropOp47
 70
     1
102
RTVSPost2010Prop48
 90
       50
102
RTVSPost2010PropOp48
 70
     1
102
RTVSPost2010Prop49
280
     0
102
RTVSPost2010PropOp49
 70
     1
102
RTVSPost2010Prop50
 90
       50
102
RTVSPost2010PropOp50
 70
     1
102
RTVSPost2010Prop51ColorIndex
 90
      256
102
RTVSPost2010Prop51ColorRGB
 90
-16777216
102
RTVSPost2010PropOp51
 70
     0
102
RTVSPost2010Prop52
140
1.0
102
RTVSPost2010PropOp52
 70
     0
102
RTVSPost2010Prop53
 90
        2
102
RTVSPost2010PropOp53
 70
     1
102
RTVSPost2010Prop54
  1
strokes_ogs.tif
102
RTVSPost2010PropOp54
 70
     1
102
RTVSPost2010Prop55
280
     0
102
RTVSPost2010PropOp55
 70
     1
102
RTVSPost2010Prop56
140
1.0
102
RTVSPost2010PropOp56
 70
     1
102
RTVSPost2010Prop57
140
1.0
102
RTVSPost2010PropOp57
 70
     1
  0
XRECORD
  5
2FC6
102
{ACAD_REACTORS
330
2FC5
102
}
330
2FC5
100
AcDbXrecord
280
     1
102
RTVSPost2010Prop28
280
     0
102
RTVSPost2010PropOp28
 70
     1
102
RTVSPost2010Prop29
280
     1
102
RTVSPost2010PropOp29
 70
     1
102
RTVSPost2010Prop30
280
     1
102
RTVSPost2010PropOp30
 70
     1
102
RTVSPost2010Prop31
280
     0
102
RTVSPost2010PropOp31
 70
     1
102
RTVSPost2010Prop32
280
     0
102
RTVSPost2010PropOp32
 70
     1
102
RTVSPost2010Prop33
280
     0
102
RTVSPost2010PropOp33
 70
     1
102
RTVSPost2010Prop34
280
     0
102
RTVSPost2010PropOp34
 70
     1
102
RTVSPost2010Prop35
280
     0
102
RTVSPost2010PropOp35
 70
     1
102
RTVSPost2010Prop36
280
     0
102
RTVSPost2010PropOp36
 70
     1
102
RTVSPost2010Prop37
 90
       50
102
RTVSPost2010PropOp37
 70
     1
102
RTVSPost2010Prop38
140
0.0
102
RTVSPost2010PropOp38
 70
     1
102
RTVSPost2010Prop39
140
1.0
102
RTVSPost2010PropOp39
 70
     1
102
RTVSPost2010Prop40
 90
        0
102
RTVSPost2010PropOp40
 70
     1
102
RTVSPost2010Prop41ColorIndex
 90
       18
102
RTVSPost2010Prop41ColorRGB
 90
        0
102
RTVSPost2010PropOp41
 70
     1
102
RTVSPost2010Prop42
 90
       50
102
RTVSPost2010PropOp42
 70
     1
102
RTVSPost2010Prop43
 90
        3
102
RTVSPost2010PropOp43
 70
     1
102
RTVSPost2010Prop44ColorIndex
 90
        5
102
RTVSPost2010Prop44ColorRGB
 90
      255
102
RTVSPost2010PropOp44
 70
     1
102
RTVSPost2010Prop45
280
     0
102
RTVSPost2010PropOp45
 70
     1
102
RTVSPost2010Prop46
 90
       50
102
RTVSPost2010PropOp46
 70
     1
102
RTVSPost2010Prop47
 90
       50
102
RTVSPost2010PropOp47
 70
     1
102
RTVSPost2010Prop48
 90
       50
102
RTVSPost2010PropOp48
 70
     1
102
RTVSPost2010Prop49
280
     0
102
RTVSPost2010PropOp49
 70
     1
102
RTVSPost2010Prop50
 90
       50
102
RTVSPost2010PropOp50
 70
     1
102
RTVSPost2010Prop51ColorIndex
 90
      256
102
RTVSPost2010Prop51ColorRGB
 90
-16777216
102
RTVSPost2010PropOp51
 70
     0
102
RTVSPost2010Prop52
140
1.0
102
RTVSPost2010PropOp52
 70
     0
102
RTVSPost2010Prop53
 90
        2
102
RTVSPost2010PropOp53
 70
     1
102
RTVSPost2010Prop54
  1
strokes_ogs.tif
102
RTVSPost2010PropOp54
 70
     1
102
RTVSPost2010Prop55
280
     0
102
RTVSPost2010PropOp55
 70
     1
102
RTVSPost2010Prop56
140
1.0
102
RTVSPost2010PropOp56
 70
     1
102
RTVSPost2010Prop57
140
1.0
102
RTVSPost2010PropOp57
 70
     1
  0
XRECORD
  5
2FCE
102
{ACAD_REACTORS
330
2FCD
102
}
330
2FCD
100
AcDbXrecord
280
     1
102
RTVSPost2010Prop28
280
     0
102
RTVSPost2010PropOp28
 70
     1
102
RTVSPost2010Prop29
280
     1
102
RTVSPost2010PropOp29
 70
     1
102
RTVSPost2010Prop30
280
     1
102
RTVSPost2010PropOp30
 70
     1
102
RTVSPost2010Prop31
280
     0
102
RTVSPost2010PropOp31
 70
     1
102
RTVSPost2010Prop32
280
     0
102
RTVSPost2010PropOp32
 70
     1
102
RTVSPost2010Prop33
280
     0
102
RTVSPost2010PropOp33
 70
     1
102
RTVSPost2010Prop34
280
     0
102
RTVSPost2010PropOp34
 70
     1
102
RTVSPost2010Prop35
280
     0
102
RTVSPost2010PropOp35
 70
     1
102
RTVSPost2010Prop36
280
     0
102
RTVSPost2010PropOp36
 70
     1
102
RTVSPost2010Prop37
 90
       50
102
RTVSPost2010PropOp37
 70
     1
102
RTVSPost2010Prop38
140
0.0
102
RTVSPost2010PropOp38
 70
     1
102
RTVSPost2010Prop39
140
1.0
102
RTVSPost2010PropOp39
 70
     1
102
RTVSPost2010Prop40
 90
        0
102
RTVSPost2010PropOp40
 70
     1
102
RTVSPost2010Prop41ColorIndex
 90
       18
102
RTVSPost2010Prop41ColorRGB
 90
        0
102
RTVSPost2010PropOp41
 70
     1
102
RTVSPost2010Prop42
 90
       50
102
RTVSPost2010PropOp42
 70
     1
102
RTVSPost2010Prop43
 90
        3
102
RTVSPost2010PropOp43
 70
     1
102
RTVSPost2010Prop44ColorIndex
 90
        5
102
RTVSPost2010Prop44ColorRGB
 90
      255
102
RTVSPost2010PropOp44
 70
     1
102
RTVSPost2010Prop45
280
     0
102
RTVSPost2010PropOp45
 70
     1
102
RTVSPost2010Prop46
 90
       50
102
RTVSPost2010PropOp46
 70
     1
102
RTVSPost2010Prop47
 90
       50
102
RTVSPost2010PropOp47
 70
     1
102
RTVSPost2010Prop48
 90
       50
102
RTVSPost2010PropOp48
 70
     1
102
RTVSPost2010Prop49
280
     0
102
RTVSPost2010PropOp49
 70
     1
102
RTVSPost2010Prop50
 90
       50
102
RTVSPost2010PropOp50
 70
     1
102
RTVSPost2010Prop51ColorIndex
 90
      256
102
RTVSPost2010Prop51ColorRGB
 90
-16777216
102
RTVSPost2010PropOp51
 70
     0
102
RTVSPost2010Prop52
140
1.0
102
RTVSPost2010PropOp52
 70
     0
102
RTVSPost2010Prop53
 90
        2
102
RTVSPost2010PropOp53
 70
     1
102
RTVSPost2010Prop54
  1
strokes_ogs.tif
102
RTVSPost2010PropOp54
 70
     1
102
RTVSPost2010Prop55
280
     0
102
RTVSPost2010PropOp55
 70
     1
102
RTVSPost2010Prop56
140
1.0
102
RTVSPost2010PropOp56
 70
     1
102
RTVSPost2010Prop57
140
1.0
102
RTVSPost2010PropOp57
 70
     1
  0
XRECORD
  5
2FEA
102
{ACAD_REACTORS
330
2FE9
102
}
330
2FE9
100
AcDbXrecord
280
     1
102
RTVSPost2010Prop28
280
     0
102
RTVSPost2010PropOp28
 70
     1
102
RTVSPost2010Prop29
280
     1
102
RTVSPost2010PropOp29
 70
     1
102
RTVSPost2010Prop30
280
     1
102
RTVSPost2010PropOp30
 70
     1
102
RTVSPost2010Prop31
280
     0
102
RTVSPost2010PropOp31
 70
     1
102
RTVSPost2010Prop32
280
     0
102
RTVSPost2010PropOp32
 70
     1
102
RTVSPost2010Prop33
280
     0
102
RTVSPost2010PropOp33
 70
     1
102
RTVSPost2010Prop34
280
     0
102
RTVSPost2010PropOp34
 70
     1
102
RTVSPost2010Prop35
280
     0
102
RTVSPost2010PropOp35
 70
     1
102
RTVSPost2010Prop36
280
     0
102
RTVSPost2010PropOp36
 70
     1
102
RTVSPost2010Prop37
 90
       50
102
RTVSPost2010PropOp37
 70
     0
102
RTVSPost2010Prop38
140
0.0
102
RTVSPost2010PropOp38
 70
     0
102
RTVSPost2010Prop39
140
1.0
102
RTVSPost2010PropOp39
 70
     0
102
RTVSPost2010Prop40
 90
        0
102
RTVSPost2010PropOp40
 70
     0
102
RTVSPost2010Prop41ColorIndex
 90
       18
102
RTVSPost2010Prop41ColorRGB
 90
        0
102
RTVSPost2010PropOp41
 70
     0
102
RTVSPost2010Prop42
 90
       50
102
RTVSPost2010PropOp42
 70
     0
102
RTVSPost2010Prop43
 90
        3
102
RTVSPost2010PropOp43
 70
     0
102
RTVSPost2010Prop44ColorIndex
 90
        5
102
RTVSPost2010Prop44ColorRGB
 90
      255
102
RTVSPost2010PropOp44
 70
     0
102
RTVSPost2010Prop45
280
     0
102
RTVSPost2010PropOp45
 70
     1
102
RTVSPost2010Prop46
 90
       50
102
RTVSPost2010PropOp46
 70
     0
102
RTVSPost2010Prop47
 90
       50
102
RTVSPost2010PropOp47
 70
     0
102
RTVSPost2010Prop48
 90
       50
102
RTVSPost2010PropOp48
 70
     0
102
RTVSPost2010Prop49
280
     0
102
RTVSPost2010PropOp49
 70
     1
102
RTVSPost2010Prop50
 90
       50
102
RTVSPost2010PropOp50
 70
     0
102
RTVSPost2010Prop51ColorIndex
 90
      256
102
RTVSPost2010Prop51ColorRGB
 90
-16777216
102
RTVSPost2010PropOp51
 70
     0
102
RTVSPost2010Prop52
140
1.0
102
RTVSPost2010PropOp52
 70
     0
102
RTVSPost2010Prop53
 90
        2
102
RTVSPost2010PropOp53
 70
     0
102
RTVSPost2010Prop54
  1
strokes_ogs.tif
102
RTVSPost2010PropOp54
 70
     0
102
RTVSPost2010Prop55
280
     0
102
RTVSPost2010PropOp55
 70
     1
102
RTVSPost2010Prop56
140
1.0
102
RTVSPost2010PropOp56
 70
     0
102
RTVSPost2010Prop57
140
1.0
102
RTVSPost2010PropOp57
 70
     0
  0
XRECORD
  5
2FDA
102
{ACAD_REACTORS
330
2FD9
102
}
330
2FD9
100
AcDbXrecord
280
     1
102
RTVSPost2010Prop28
280
     0
102
RTVSPost2010PropOp28
 70
     1
102
RTVSPost2010Prop29
280
     1
102
RTVSPost2010PropOp29
 70
     1
102
RTVSPost2010Prop30
280
     1
102
RTVSPost2010PropOp30
 70
     1
102
RTVSPost2010Prop31
280
     0
102
RTVSPost2010PropOp31
 70
     1
102
RTVSPost2010Prop32
280
     0
102
RTVSPost2010PropOp32
 70
     1
102
RTVSPost2010Prop33
280
     0
102
RTVSPost2010PropOp33
 70
     1
102
RTVSPost2010Prop34
280
     0
102
RTVSPost2010PropOp34
 70
     1
102
RTVSPost2010Prop35
280
     0
102
RTVSPost2010PropOp35
 70
     1
102
RTVSPost2010Prop36
280
     0
102
RTVSPost2010PropOp36
 70
     1
102
RTVSPost2010Prop37
 90
       50
102
RTVSPost2010PropOp37
 70
     1
102
RTVSPost2010Prop38
140
0.0
102
RTVSPost2010PropOp38
 70
     1
102
RTVSPost2010Prop39
140
1.0
102
RTVSPost2010PropOp39
 70
     1
102
RTVSPost2010Prop40
 90
        0
102
RTVSPost2010PropOp40
 70
     1
102
RTVSPost2010Prop41ColorIndex
 90
       18
102
RTVSPost2010Prop41ColorRGB
 90
        0
102
RTVSPost2010PropOp41
 70
     1
102
RTVSPost2010Prop42
 90
       50
102
RTVSPost2010PropOp42
 70
     1
102
RTVSPost2010Prop43
 90
        3
102
RTVSPost2010PropOp43
 70
     1
102
RTVSPost2010Prop44ColorIndex
 90
        5
102
RTVSPost2010Prop44ColorRGB
 90
      255
102
RTVSPost2010PropOp44
 70
     1
102
RTVSPost2010Prop45
280
     0
102
RTVSPost2010PropOp45
 70
     1
102
RTVSPost2010Prop46
 90
       50
102
RTVSPost2010PropOp46
 70
     1
102
RTVSPost2010Prop47
 90
       50
102
RTVSPost2010PropOp47
 70
     1
102
RTVSPost2010Prop48
 90
       50
102
RTVSPost2010PropOp48
 70
     1
102
RTVSPost2010Prop49
280
     0
102
RTVSPost2010PropOp49
 70
     1
102
RTVSPost2010Prop50
 90
       50
102
RTVSPost2010PropOp50
 70
     1
102
RTVSPost2010Prop51ColorIndex
 90
      256
102
RTVSPost2010Prop51ColorRGB
 90
-16777216
102
RTVSPost2010PropOp51
 70
     0
102
RTVSPost2010Prop52
140
1.0
102
RTVSPost2010PropOp52
 70
     0
102
RTVSPost2010Prop53
 90
        2
102
RTVSPost2010PropOp53
 70
     1
102
RTVSPost2010Prop54
  1
strokes_ogs.tif
102
RTVSPost2010PropOp54
 70
     1
102
RTVSPost2010Prop55
280
     0
102
RTVSPost2010PropOp55
 70
     1
102
RTVSPost2010Prop56
140
1.0
102
RTVSPost2010PropOp56
 70
     1
102
RTVSPost2010Prop57
140
1.0
102
RTVSPost2010PropOp57
 70
     1
  0
XRECORD
  5
2FEC
102
{ACAD_REACTORS
330
2FEB
102
}
330
2FEB
100
AcDbXrecord
280
     1
102
RTVSPost2010Prop28
280
     0
102
RTVSPost2010PropOp28
 70
     1
102
RTVSPost2010Prop29
280
     1
102
RTVSPost2010PropOp29
 70
     1
102
RTVSPost2010Prop30
280
     1
102
RTVSPost2010PropOp30
 70
     1
102
RTVSPost2010Prop31
280
     0
102
RTVSPost2010PropOp31
 70
     1
102
RTVSPost2010Prop32
280
     0
102
RTVSPost2010PropOp32
 70
     1
102
RTVSPost2010Prop33
280
     0
102
RTVSPost2010PropOp33
 70
     1
102
RTVSPost2010Prop34
280
     0
102
RTVSPost2010PropOp34
 70
     1
102
RTVSPost2010Prop35
280
     0
102
RTVSPost2010PropOp35
 70
     1
102
RTVSPost2010Prop36
280
     0
102
RTVSPost2010PropOp36
 70
     1
102
RTVSPost2010Prop37
 90
       50
102
RTVSPost2010PropOp37
 70
     0
102
RTVSPost2010Prop38
140
0.0
102
RTVSPost2010PropOp38
 70
     0
102
RTVSPost2010Prop39
140
1.0
102
RTVSPost2010PropOp39
 70
     0
102
RTVSPost2010Prop40
 90
        0
102
RTVSPost2010PropOp40
 70
     0
102
RTVSPost2010Prop41ColorIndex
 90
       18
102
RTVSPost2010Prop41ColorRGB
 90
        0
102
RTVSPost2010PropOp41
 70
     0
102
RTVSPost2010Prop42
 90
       50
102
RTVSPost2010PropOp42
 70
     0
102
RTVSPost2010Prop43
 90
        3
102
RTVSPost2010PropOp43
 70
     0
102
RTVSPost2010Prop44ColorIndex
 90
        5
102
RTVSPost2010Prop44ColorRGB
 90
      255
102
RTVSPost2010PropOp44
 70
     0
102
RTVSPost2010Prop45
280
     0
102
RTVSPost2010PropOp45
 70
     1
102
RTVSPost2010Prop46
 90
       50
102
RTVSPost2010PropOp46
 70
     0
102
RTVSPost2010Prop47
 90
       50
102
RTVSPost2010PropOp47
 70
     0
102
RTVSPost2010Prop48
 90
       50
102
RTVSPost2010PropOp48
 70
     0
102
RTVSPost2010Prop49
280
     0
102
RTVSPost2010PropOp49
 70
     1
102
RTVSPost2010Prop50
 90
       50
102
RTVSPost2010PropOp50
 70
     0
102
RTVSPost2010Prop51ColorIndex
 90
      256
102
RTVSPost2010Prop51ColorRGB
 90
-16777216
102
RTVSPost2010PropOp51
 70
     0
102
RTVSPost2010Prop52
140
1.0
102
RTVSPost2010PropOp52
 70
     0
102
RTVSPost2010Prop53
 90
        2
102
RTVSPost2010PropOp53
 70
     0
102
RTVSPost2010Prop54
  1
strokes_ogs.tif
102
RTVSPost2010PropOp54
 70
     0
102
RTVSPost2010Prop55
280
     0
102
RTVSPost2010PropOp55
 70
     1
102
RTVSPost2010Prop56
140
1.0
102
RTVSPost2010PropOp56
 70
     0
102
RTVSPost2010Prop57
140
1.0
102
RTVSPost2010PropOp57
 70
     0
  0
XRECORD
  5
2FD2
102
{ACAD_REACTORS
330
2FD1
102
}
330
2FD1
100
AcDbXrecord
280
     1
102
RTVSPost2010Prop28
280
     0
102
RTVSPost2010PropOp28
 70
     1
102
RTVSPost2010Prop29
280
     1
102
RTVSPost2010PropOp29
 70
     1
102
RTVSPost2010Prop30
280
     1
102
RTVSPost2010PropOp30
 70
     1
102
RTVSPost2010Prop31
280
     0
102
RTVSPost2010PropOp31
 70
     1
102
RTVSPost2010Prop32
280
     0
102
RTVSPost2010PropOp32
 70
     1
102
RTVSPost2010Prop33
280
     0
102
RTVSPost2010PropOp33
 70
     1
102
RTVSPost2010Prop34
280
     0
102
RTVSPost2010PropOp34
 70
     1
102
RTVSPost2010Prop35
280
     0
102
RTVSPost2010PropOp35
 70
     1
102
RTVSPost2010Prop36
280
     0
102
RTVSPost2010PropOp36
 70
     1
102
RTVSPost2010Prop37
 90
       50
102
RTVSPost2010PropOp37
 70
     1
102
RTVSPost2010Prop38
140
0.0
102
RTVSPost2010PropOp38
 70
     1
102
RTVSPost2010Prop39
140
1.0
102
RTVSPost2010PropOp39
 70
     1
102
RTVSPost2010Prop40
 90
        0
102
RTVSPost2010PropOp40
 70
     1
102
RTVSPost2010Prop41ColorIndex
 90
       18
102
RTVSPost2010Prop41ColorRGB
 90
        0
102
RTVSPost2010PropOp41
 70
     1
102
RTVSPost2010Prop42
 90
       50
102
RTVSPost2010PropOp42
 70
     1
102
RTVSPost2010Prop43
 90
        3
102
RTVSPost2010PropOp43
 70
     1
102
RTVSPost2010Prop44ColorIndex
 90
        5
102
RTVSPost2010Prop44ColorRGB
 90
      255
102
RTVSPost2010PropOp44
 70
     1
102
RTVSPost2010Prop45
280
     0
102
RTVSPost2010PropOp45
 70
     1
102
RTVSPost2010Prop46
 90
       50
102
RTVSPost2010PropOp46
 70
     1
102
RTVSPost2010Prop47
 90
       50
102
RTVSPost2010PropOp47
 70
     1
102
RTVSPost2010Prop48
 90
       50
102
RTVSPost2010PropOp48
 70
     1
102
RTVSPost2010Prop49
280
     0
102
RTVSPost2010PropOp49
 70
     1
102
RTVSPost2010Prop50
 90
       50
102
RTVSPost2010PropOp50
 70
     1
102
RTVSPost2010Prop51ColorIndex
 90
      256
102
RTVSPost2010Prop51ColorRGB
 90
-16777216
102
RTVSPost2010PropOp51
 70
     0
102
RTVSPost2010Prop52
140
1.0
102
RTVSPost2010PropOp52
 70
     0
102
RTVSPost2010Prop53
 90
        2
102
RTVSPost2010PropOp53
 70
     1
102
RTVSPost2010Prop54
  1
strokes_ogs.tif
102
RTVSPost2010PropOp54
 70
     1
102
RTVSPost2010Prop55
280
     0
102
RTVSPost2010PropOp55
 70
     1
102
RTVSPost2010Prop56
140
1.0
102
RTVSPost2010PropOp56
 70
     1
102
RTVSPost2010Prop57
140
1.0
102
RTVSPost2010PropOp57
 70
     1
  0
XRECORD
  5
2FE8
102
{ACAD_REACTORS
330
2FE7
102
}
330
2FE7
100
AcDbXrecord
280
     1
102
RTVSPost2010Prop28
280
     0
102
RTVSPost2010PropOp28
 70
     1
102
RTVSPost2010Prop29
280
     1
102
RTVSPost2010PropOp29
 70
     1
102
RTVSPost2010Prop30
280
     1
102
RTVSPost2010PropOp30
 70
     1
102
RTVSPost2010Prop31
280
     0
102
RTVSPost2010PropOp31
 70
     1
102
RTVSPost2010Prop32
280
     0
102
RTVSPost2010PropOp32
 70
     1
102
RTVSPost2010Prop33
280
     0
102
RTVSPost2010PropOp33
 70
     1
102
RTVSPost2010Prop34
280
     0
102
RTVSPost2010PropOp34
 70
     1
102
RTVSPost2010Prop35
280
     0
102
RTVSPost2010PropOp35
 70
     1
102
RTVSPost2010Prop36
280
     0
102
RTVSPost2010PropOp36
 70
     1
102
RTVSPost2010Prop37
 90
       50
102
RTVSPost2010PropOp37
 70
     1
102
RTVSPost2010Prop38
140
0.0
102
RTVSPost2010PropOp38
 70
     1
102
RTVSPost2010Prop39
140
1.0
102
RTVSPost2010PropOp39
 70
     1
102
RTVSPost2010Prop40
 90
        0
102
RTVSPost2010PropOp40
 70
     1
102
RTVSPost2010Prop41ColorIndex
 90
       18
102
RTVSPost2010Prop41ColorRGB
 90
        0
102
RTVSPost2010PropOp41
 70
     1
102
RTVSPost2010Prop42
 90
       50
102
RTVSPost2010PropOp42
 70
     1
102
RTVSPost2010Prop43
 90
        3
102
RTVSPost2010PropOp43
 70
     1
102
RTVSPost2010Prop44ColorIndex
 90
        5
102
RTVSPost2010Prop44ColorRGB
 90
      255
102
RTVSPost2010PropOp44
 70
     1
102
RTVSPost2010Prop45
280
     0
102
RTVSPost2010PropOp45
 70
     1
102
RTVSPost2010Prop46
 90
       50
102
RTVSPost2010PropOp46
 70
     1
102
RTVSPost2010Prop47
 90
       50
102
RTVSPost2010PropOp47
 70
     1
102
RTVSPost2010Prop48
 90
       50
102
RTVSPost2010PropOp48
 70
     1
102
RTVSPost2010Prop49
280
     0
102
RTVSPost2010PropOp49
 70
     1
102
RTVSPost2010Prop50
 90
       50
102
RTVSPost2010PropOp50
 70
     1
102
RTVSPost2010Prop51ColorIndex
 90
      256
102
RTVSPost2010Prop51ColorRGB
 90
-16777216
102
RTVSPost2010PropOp51
 70
     0
102
RTVSPost2010Prop52
140
1.0
102
RTVSPost2010PropOp52
 70
     0
102
RTVSPost2010Prop53
 90
        2
102
RTVSPost2010PropOp53
 70
     1
102
RTVSPost2010Prop54
  1
strokes_ogs.tif
102
RTVSPost2010PropOp54
 70
     1
102
RTVSPost2010Prop55
280
     0
102
RTVSPost2010PropOp55
 70
     1
102
RTVSPost2010Prop56
140
1.0
102
RTVSPost2010PropOp56
 70
     1
102
RTVSPost2010Prop57
140
1.0
102
RTVSPost2010PropOp57
 70
     1
  0
XRECORD
  5
2FE6
102
{ACAD_REACTORS
330
2FE5
102
}
330
2FE5
100
AcDbXrecord
280
     1
102
RTVSPost2010Prop28
280
     0
102
RTVSPost2010PropOp28
 70
     1
102
RTVSPost2010Prop29
280
     1
102
RTVSPost2010PropOp29
 70
     1
102
RTVSPost2010Prop30
280
     1
102
RTVSPost2010PropOp30
 70
     1
102
RTVSPost2010Prop31
280
     0
102
RTVSPost2010PropOp31
 70
     1
102
RTVSPost2010Prop32
280
     0
102
RTVSPost2010PropOp32
 70
     1
102
RTVSPost2010Prop33
280
     0
102
RTVSPost2010PropOp33
 70
     1
102
RTVSPost2010Prop34
280
     0
102
RTVSPost2010PropOp34
 70
     1
102
RTVSPost2010Prop35
280
     0
102
RTVSPost2010PropOp35
 70
     1
102
RTVSPost2010Prop36
280
     0
102
RTVSPost2010PropOp36
 70
     1
102
RTVSPost2010Prop37
 90
       50
102
RTVSPost2010PropOp37
 70
     1
102
RTVSPost2010Prop38
140
0.0
102
RTVSPost2010PropOp38
 70
     1
102
RTVSPost2010Prop39
140
1.0
102
RTVSPost2010PropOp39
 70
     1
102
RTVSPost2010Prop40
 90
        0
102
RTVSPost2010PropOp40
 70
     1
102
RTVSPost2010Prop41ColorIndex
 90
       18
102
RTVSPost2010Prop41ColorRGB
 90
        0
102
RTVSPost2010PropOp41
 70
     1
102
RTVSPost2010Prop42
 90
       50
102
RTVSPost2010PropOp42
 70
     1
102
RTVSPost2010Prop43
 90
        3
102
RTVSPost2010PropOp43
 70
     1
102
RTVSPost2010Prop44ColorIndex
 90
        5
102
RTVSPost2010Prop44ColorRGB
 90
      255
102
RTVSPost2010PropOp44
 70
     1
102
RTVSPost2010Prop45
280
     0
102
RTVSPost2010PropOp45
 70
     1
102
RTVSPost2010Prop46
 90
       50
102
RTVSPost2010PropOp46
 70
     1
102
RTVSPost2010Prop47
 90
       50
102
RTVSPost2010PropOp47
 70
     1
102
RTVSPost2010Prop48
 90
       50
102
RTVSPost2010PropOp48
 70
     1
102
RTVSPost2010Prop49
280
     0
102
RTVSPost2010PropOp49
 70
     1
102
RTVSPost2010Prop50
 90
       50
102
RTVSPost2010PropOp50
 70
     1
102
RTVSPost2010Prop51ColorIndex
 90
      256
102
RTVSPost2010Prop51ColorRGB
 90
-16777216
102
RTVSPost2010PropOp51
 70
     0
102
RTVSPost2010Prop52
140
1.0
102
RTVSPost2010PropOp52
 70
     0
102
RTVSPost2010Prop53
 90
        2
102
RTVSPost2010PropOp53
 70
     1
102
RTVSPost2010Prop54
  1
strokes_ogs.tif
102
RTVSPost2010PropOp54
 70
     1
102
RTVSPost2010Prop55
280
     0
102
RTVSPost2010PropOp55
 70
     1
102
RTVSPost2010Prop56
140
1.0
102
RTVSPost2010PropOp56
 70
     1
102
RTVSPost2010Prop57
140
1.0
102
RTVSPost2010PropOp57
 70
     1
  0
XRECORD
  5
2FE0
102
{ACAD_REACTORS
330
2FDF
102
}
330
2FDF
100
AcDbXrecord
280
     1
102
RTVSPost2010Prop28
280
     0
102
RTVSPost2010PropOp28
 70
     1
102
RTVSPost2010Prop29
280
     1
102
RTVSPost2010PropOp29
 70
     1
102
RTVSPost2010Prop30
280
     1
102
RTVSPost2010PropOp30
 70
     1
102
RTVSPost2010Prop31
280
     0
102
RTVSPost2010PropOp31
 70
     1
102
RTVSPost2010Prop32
280
     0
102
RTVSPost2010PropOp32
 70
     1
102
RTVSPost2010Prop33
280
     0
102
RTVSPost2010PropOp33
 70
     1
102
RTVSPost2010Prop34
280
     0
102
RTVSPost2010PropOp34
 70
     1
102
RTVSPost2010Prop35
280
     0
102
RTVSPost2010PropOp35
 70
     1
102
RTVSPost2010Prop36
280
     0
102
RTVSPost2010PropOp36
 70
     1
102
RTVSPost2010Prop37
 90
       50
102
RTVSPost2010PropOp37
 70
     1
102
RTVSPost2010Prop38
140
0.0
102
RTVSPost2010PropOp38
 70
     1
102
RTVSPost2010Prop39
140
1.0
102
RTVSPost2010PropOp39
 70
     1
102
RTVSPost2010Prop40
 90
        0
102
RTVSPost2010PropOp40
 70
     1
102
RTVSPost2010Prop41ColorIndex
 90
       18
102
RTVSPost2010Prop41ColorRGB
 90
        0
102
RTVSPost2010PropOp41
 70
     1
102
RTVSPost2010Prop42
 90
       50
102
RTVSPost2010PropOp42
 70
     1
102
RTVSPost2010Prop43
 90
        3
102
RTVSPost2010PropOp43
 70
     1
102
RTVSPost2010Prop44ColorIndex
 90
        5
102
RTVSPost2010Prop44ColorRGB
 90
      255
102
RTVSPost2010PropOp44
 70
     1
102
RTVSPost2010Prop45
280
     0
102
RTVSPost2010PropOp45
 70
     1
102
RTVSPost2010Prop46
 90
       50
102
RTVSPost2010PropOp46
 70
     1
102
RTVSPost2010Prop47
 90
       50
102
RTVSPost2010PropOp47
 70
     1
102
RTVSPost2010Prop48
 90
       50
102
RTVSPost2010PropOp48
 70
     1
102
RTVSPost2010Prop49
280
     0
102
RTVSPost2010PropOp49
 70
     1
102
RTVSPost2010Prop50
 90
       50
102
RTVSPost2010PropOp50
 70
     1
102
RTVSPost2010Prop51ColorIndex
 90
      256
102
RTVSPost2010Prop51ColorRGB
 90
-16777216
102
RTVSPost2010PropOp51
 70
     0
102
RTVSPost2010Prop52
140
1.0
102
RTVSPost2010PropOp52
 70
     0
102
RTVSPost2010Prop53
 90
        2
102
RTVSPost2010PropOp53
 70
     1
102
RTVSPost2010Prop54
  1
strokes_ogs.tif
102
RTVSPost2010PropOp54
 70
     1
102
RTVSPost2010Prop55
280
     0
102
RTVSPost2010PropOp55
 70
     1
102
RTVSPost2010Prop56
140
1.0
102
RTVSPost2010PropOp56
 70
     1
102
RTVSPost2010Prop57
140
1.0
102
RTVSPost2010PropOp57
 70
     1
  0
XRECORD
  5
2FE2
102
{ACAD_REACTORS
330
2FE1
102
}
330
2FE1
100
AcDbXrecord
280
     1
102
RTVSPost2010Prop28
280
     0
102
RTVSPost2010PropOp28
 70
     1
102
RTVSPost2010Prop29
280
     1
102
RTVSPost2010PropOp29
 70
     1
102
RTVSPost2010Prop30
280
     1
102
RTVSPost2010PropOp30
 70
     1
102
RTVSPost2010Prop31
280
     0
102
RTVSPost2010PropOp31
 70
     1
102
RTVSPost2010Prop32
280
     0
102
RTVSPost2010PropOp32
 70
     1
102
RTVSPost2010Prop33
280
     0
102
RTVSPost2010PropOp33
 70
     1
102
RTVSPost2010Prop34
280
     0
102
RTVSPost2010PropOp34
 70
     1
102
RTVSPost2010Prop35
280
     0
102
RTVSPost2010PropOp35
 70
     1
102
RTVSPost2010Prop36
280
     0
102
RTVSPost2010PropOp36
 70
     1
102
RTVSPost2010Prop37
 90
       50
102
RTVSPost2010PropOp37
 70
     1
102
RTVSPost2010Prop38
140
0.0
102
RTVSPost2010PropOp38
 70
     1
102
RTVSPost2010Prop39
140
1.0
102
RTVSPost2010PropOp39
 70
     1
102
RTVSPost2010Prop40
 90
        0
102
RTVSPost2010PropOp40
 70
     1
102
RTVSPost2010Prop41ColorIndex
 90
       18
102
RTVSPost2010Prop41ColorRGB
 90
        0
102
RTVSPost2010PropOp41
 70
     1
102
RTVSPost2010Prop42
 90
       50
102
RTVSPost2010PropOp42
 70
     1
102
RTVSPost2010Prop43
 90
        3
102
RTVSPost2010PropOp43
 70
     1
102
RTVSPost2010Prop44ColorIndex
 90
        5
102
RTVSPost2010Prop44ColorRGB
 90
      255
102
RTVSPost2010PropOp44
 70
     1
102
RTVSPost2010Prop45
280
     0
102
RTVSPost2010PropOp45
 70
     1
102
RTVSPost2010Prop46
 90
       50
102
RTVSPost2010PropOp46
 70
     1
102
RTVSPost2010Prop47
 90
       50
102
RTVSPost2010PropOp47
 70
     1
102
RTVSPost2010Prop48
 90
       50
102
RTVSPost2010PropOp48
 70
     1
102
RTVSPost2010Prop49
280
     0
102
RTVSPost2010PropOp49
 70
     1
102
RTVSPost2010Prop50
 90
       50
102
RTVSPost2010PropOp50
 70
     1
102
RTVSPost2010Prop51ColorIndex
 90
      256
102
RTVSPost2010Prop51ColorRGB
 90
-16777216
102
RTVSPost2010PropOp51
 70
     0
102
RTVSPost2010Prop52
140
1.0
102
RTVSPost2010PropOp52
 70
     0
102
RTVSPost2010Prop53
 90
        2
102
RTVSPost2010PropOp53
 70
     1
102
RTVSPost2010Prop54
  1
strokes_ogs.tif
102
RTVSPost2010PropOp54
 70
     1
102
RTVSPost2010Prop55
280
     0
102
RTVSPost2010PropOp55
 70
     1
102
RTVSPost2010Prop56
140
1.0
102
RTVSPost2010PropOp56
 70
     1
102
RTVSPost2010Prop57
140
1.0
102
RTVSPost2010PropOp57
 70
     1
  0
XRECORD
  5
2FD8
102
{ACAD_REACTORS
330
2FD7
102
}
330
2FD7
100
AcDbXrecord
280
     1
102
RTVSPost2010Prop28
280
     0
102
RTVSPost2010PropOp28
 70
     1
102
RTVSPost2010Prop29
280
     1
102
RTVSPost2010PropOp29
 70
     1
102
RTVSPost2010Prop30
280
     1
102
RTVSPost2010PropOp30
 70
     1
102
RTVSPost2010Prop31
280
     0
102
RTVSPost2010PropOp31
 70
     1
102
RTVSPost2010Prop32
280
     0
102
RTVSPost2010PropOp32
 70
     1
102
RTVSPost2010Prop33
280
     0
102
RTVSPost2010PropOp33
 70
     1
102
RTVSPost2010Prop34
280
     0
102
RTVSPost2010PropOp34
 70
     1
102
RTVSPost2010Prop35
280
     0
102
RTVSPost2010PropOp35
 70
     1
102
RTVSPost2010Prop36
280
     0
102
RTVSPost2010PropOp36
 70
     1
102
RTVSPost2010Prop37
 90
       50
102
RTVSPost2010PropOp37
 70
     1
102
RTVSPost2010Prop38
140
0.0
102
RTVSPost2010PropOp38
 70
     1
102
RTVSPost2010Prop39
140
1.0
102
RTVSPost2010PropOp39
 70
     1
102
RTVSPost2010Prop40
 90
        0
102
RTVSPost2010PropOp40
 70
     1
102
RTVSPost2010Prop41ColorIndex
 90
       18
102
RTVSPost2010Prop41ColorRGB
 90
        0
102
RTVSPost2010PropOp41
 70
     1
102
RTVSPost2010Prop42
 90
       50
102
RTVSPost2010PropOp42
 70
     1
102
RTVSPost2010Prop43
 90
        3
102
RTVSPost2010PropOp43
 70
     1
102
RTVSPost2010Prop44ColorIndex
 90
        5
102
RTVSPost2010Prop44ColorRGB
 90
      255
102
RTVSPost2010PropOp44
 70
     1
102
RTVSPost2010Prop45
280
     0
102
RTVSPost2010PropOp45
 70
     1
102
RTVSPost2010Prop46
 90
       50
102
RTVSPost2010PropOp46
 70
     1
102
RTVSPost2010Prop47
 90
       50
102
RTVSPost2010PropOp47
 70
     1
102
RTVSPost2010Prop48
 90
       50
102
RTVSPost2010PropOp48
 70
     1
102
RTVSPost2010Prop49
280
     0
102
RTVSPost2010PropOp49
 70
     1
102
RTVSPost2010Prop50
 90
       50
102
RTVSPost2010PropOp50
 70
     1
102
RTVSPost2010Prop51ColorIndex
 90
      256
102
RTVSPost2010Prop51ColorRGB
 90
-16777216
102
RTVSPost2010PropOp51
 70
     0
102
RTVSPost2010Prop52
140
1.0
102
RTVSPost2010PropOp52
 70
     0
102
RTVSPost2010Prop53
 90
        2
102
RTVSPost2010PropOp53
 70
     1
102
RTVSPost2010Prop54
  1
strokes_ogs.tif
102
RTVSPost2010PropOp54
 70
     1
102
RTVSPost2010Prop55
280
     0
102
RTVSPost2010PropOp55
 70
     1
102
RTVSPost2010Prop56
140
1.0
102
RTVSPost2010PropOp56
 70
     1
102
RTVSPost2010Prop57
140
1.0
102
RTVSPost2010PropOp57
 70
     1
  0
XRECORD
  5
2FCC
102
{ACAD_REACTORS
330
2FCB
102
}
330
2FCB
100
AcDbXrecord
280
     1
102
RTVSPost2010Prop28
280
     0
102
RTVSPost2010PropOp28
 70
     1
102
RTVSPost2010Prop29
280
     1
102
RTVSPost2010PropOp29
 70
     1
102
RTVSPost2010Prop30
280
     1
102
RTVSPost2010PropOp30
 70
     1
102
RTVSPost2010Prop31
280
     0
102
RTVSPost2010PropOp31
 70
     1
102
RTVSPost2010Prop32
280
     0
102
RTVSPost2010PropOp32
 70
     1
102
RTVSPost2010Prop33
280
     0
102
RTVSPost2010PropOp33
 70
     1
102
RTVSPost2010Prop34
280
     0
102
RTVSPost2010PropOp34
 70
     1
102
RTVSPost2010Prop35
280
     0
102
RTVSPost2010PropOp35
 70
     1
102
RTVSPost2010Prop36
280
     0
102
RTVSPost2010PropOp36
 70
     1
102
RTVSPost2010Prop37
 90
       50
102
RTVSPost2010PropOp37
 70
     1
102
RTVSPost2010Prop38
140
0.0
102
RTVSPost2010PropOp38
 70
     1
102
RTVSPost2010Prop39
140
1.0
102
RTVSPost2010PropOp39
 70
     1
102
RTVSPost2010Prop40
 90
        0
102
RTVSPost2010PropOp40
 70
     1
102
RTVSPost2010Prop41ColorIndex
 90
       18
102
RTVSPost2010Prop41ColorRGB
 90
        0
102
RTVSPost2010PropOp41
 70
     1
102
RTVSPost2010Prop42
 90
       50
102
RTVSPost2010PropOp42
 70
     1
102
RTVSPost2010Prop43
 90
        3
102
RTVSPost2010PropOp43
 70
     1
102
RTVSPost2010Prop44ColorIndex
 90
        5
102
RTVSPost2010Prop44ColorRGB
 90
      255
102
RTVSPost2010PropOp44
 70
     1
102
RTVSPost2010Prop45
280
     0
102
RTVSPost2010PropOp45
 70
     1
102
RTVSPost2010Prop46
 90
       50
102
RTVSPost2010PropOp46
 70
     1
102
RTVSPost2010Prop47
 90
       50
102
RTVSPost2010PropOp47
 70
     1
102
RTVSPost2010Prop48
 90
       50
102
RTVSPost2010PropOp48
 70
     1
102
RTVSPost2010Prop49
280
     0
102
RTVSPost2010PropOp49
 70
     1
102
RTVSPost2010Prop50
 90
       50
102
RTVSPost2010PropOp50
 70
     1
102
RTVSPost2010Prop51ColorIndex
 90
      256
102
RTVSPost2010Prop51ColorRGB
 90
-16777216
102
RTVSPost2010PropOp51
 70
     0
102
RTVSPost2010Prop52
140
1.0
102
RTVSPost2010PropOp52
 70
     0
102
RTVSPost2010Prop53
 90
        2
102
RTVSPost2010PropOp53
 70
     1
102
RTVSPost2010Prop54
  1
strokes_ogs.tif
102
RTVSPost2010PropOp54
 70
     1
102
RTVSPost2010Prop55
280
     0
102
RTVSPost2010PropOp55
 70
     1
102
RTVSPost2010Prop56
140
1.0
102
RTVSPost2010PropOp56
 70
     1
102
RTVSPost2010Prop57
140
1.0
102
RTVSPost2010PropOp57
 70
     1
  0
XRECORD
  5
2FE4
102
{ACAD_REACTORS
330
2FE3
102
}
330
2FE3
100
AcDbXrecord
280
     1
102
RTVSPost2010Prop28
280
     0
102
RTVSPost2010PropOp28
 70
     1
102
RTVSPost2010Prop29
280
     1
102
RTVSPost2010PropOp29
 70
     1
102
RTVSPost2010Prop30
280
     1
102
RTVSPost2010PropOp30
 70
     1
102
RTVSPost2010Prop31
280
     0
102
RTVSPost2010PropOp31
 70
     1
102
RTVSPost2010Prop32
280
     0
102
RTVSPost2010PropOp32
 70
     1
102
RTVSPost2010Prop33
280
     0
102
RTVSPost2010PropOp33
 70
     1
102
RTVSPost2010Prop34
280
     0
102
RTVSPost2010PropOp34
 70
     1
102
RTVSPost2010Prop35
280
     0
102
RTVSPost2010PropOp35
 70
     1
102
RTVSPost2010Prop36
280
     0
102
RTVSPost2010PropOp36
 70
     1
102
RTVSPost2010Prop37
 90
       50
102
RTVSPost2010PropOp37
 70
     1
102
RTVSPost2010Prop38
140
0.0
102
RTVSPost2010PropOp38
 70
     1
102
RTVSPost2010Prop39
140
1.0
102
RTVSPost2010PropOp39
 70
     1
102
RTVSPost2010Prop40
 90
        0
102
RTVSPost2010PropOp40
 70
     1
102
RTVSPost2010Prop41ColorIndex
 90
       18
102
RTVSPost2010Prop41ColorRGB
 90
        0
102
RTVSPost2010PropOp41
 70
     1
102
RTVSPost2010Prop42
 90
       50
102
RTVSPost2010PropOp42
 70
     1
102
RTVSPost2010Prop43
 90
        3
102
RTVSPost2010PropOp43
 70
     1
102
RTVSPost2010Prop44ColorIndex
 90
        5
102
RTVSPost2010Prop44ColorRGB
 90
      255
102
RTVSPost2010PropOp44
 70
     1
102
RTVSPost2010Prop45
280
     0
102
RTVSPost2010PropOp45
 70
     1
102
RTVSPost2010Prop46
 90
       50
102
RTVSPost2010PropOp46
 70
     1
102
RTVSPost2010Prop47
 90
       50
102
RTVSPost2010PropOp47
 70
     1
102
RTVSPost2010Prop48
 90
       50
102
RTVSPost2010PropOp48
 70
     1
102
RTVSPost2010Prop49
280
     0
102
RTVSPost2010PropOp49
 70
     1
102
RTVSPost2010Prop50
 90
       50
102
RTVSPost2010PropOp50
 70
     1
102
RTVSPost2010Prop51ColorIndex
 90
      256
102
RTVSPost2010Prop51ColorRGB
 90
-16777216
102
RTVSPost2010PropOp51
 70
     0
102
RTVSPost2010Prop52
140
1.0
102
RTVSPost2010PropOp52
 70
     0
102
RTVSPost2010Prop53
 90
        2
102
RTVSPost2010PropOp53
 70
     1
102
RTVSPost2010Prop54
  1
strokes_ogs.tif
102
RTVSPost2010PropOp54
 70
     1
102
RTVSPost2010Prop55
280
     0
102
RTVSPost2010PropOp55
 70
     1
102
RTVSPost2010Prop56
140
1.0
102
RTVSPost2010PropOp56
 70
     1
102
RTVSPost2010Prop57
140
1.0
102
RTVSPost2010PropOp57
 70
     1
  0
ENDSEC
  0
EOF
