  0
SECTION
  2
HEADER
  9
$ACADVER
  1
AC1024
  9
$ACADMAINTVER
 70
   226
  9
$DWGCODEPAGE
  3
ANSI_932
  9
$LASTSAVEDBY
  1
y-sakai
  9
$INSBASE
 10
0.0
 20
0.0
 30
0.0
  9
$EXTMIN
 10
178.1597935584832
 20
202.9220978902094
 30
-0.0000000000000058
  9
$EXTMAX
 10
1292.201121629566
 20
1075.636471114755
 30
0.0000000000000104
  9
$LIMMIN
 10
0.0
 20
0.0
  9
$LIMMAX
 10
1422.5
 20
925.0
  9
$ORTHOMODE
 70
     0
  9
$REGENMODE
 70
     1
  9
$FILLMODE
 70
     1
  9
$QTEXTMODE
 70
     0
  9
$MIRRTEXT
 70
     1
  9
$LTSCALE
 40
5.0
  9
$ATTMODE
 70
     1
  9
$TEXTSIZE
 40
2.5
  9
$TRACEWID
 40
1.0
  9
$TEXTSTYLE
  7
STANDARD
  9
$CLAYER
  8
AM_0
  9
$CELTYPE
  6
ByLayer
  9
$CECOLOR
 62
   256
  9
$CELTSCALE
 40
1.0
  9
$DISPSILH
 70
     0
  9
$DIMSCALE
 40
1.0
  9
$DIMASZ
 40
2.5
  9
$DIMEXO
 40
1.0
  9
$DIMDLI
 40
8.0
  9
$DIMRND
 40
0.0
  9
$DIMDLE
 40
0.0
  9
$DIMEXE
 40
0.6
  9
$DIMTP
 40
0.1
  9
$DIMTM
 40
0.1
  9
$DIMTXT
 40
2.5
  9
$DIMCEN
 40
0.0
  9
$DIMTSZ
 40
0.0
  9
$DIMTOL
 70
     0
  9
$DIMLIM
 70
     0
  9
$DIMTIH
 70
     0
  9
$DIMTOH
 70
     0
  9
$DIMSE1
 70
     0
  9
$DIMSE2
 70
     0
  9
$DIMTAD
 70
     1
  9
$DIMZIN
 70
     8
  9
$DIMBLK
  1

  9
$DIMASO
 70
     1
  9
$DIMSHO
 70
     1
  9
$DIMPOST
  1

  9
$DIMAPOST
  1
"
  9
$DIMALT
 70
     0
  9
$DIMALTD
 70
     2
  9
$DIMALTF
 40
0.0393701
  9
$DIMLFAC
 40
1.0
  9
$DIMTOFL
 70
     1
  9
$DIMTVP
 40
0.0
  9
$DIMTIX
 70
     0
  9
$DIMSOXD
 70
     0
  9
$DIMSAH
 70
     0
  9
$DIMBLK1
  1

  9
$DIMBLK2
  1

  9
$DIMSTYLE
  2
AM_ISO
  9
$DIMCLRD
 70
   256
  9
$DIMCLRE
 70
   256
  9
$DIMCLRT
 70
     4
  9
$DIMTFAC
 40
0.71
  9
$DIMGAP
 40
0.8
  9
$DIMJUST
 70
     0
  9
$DIMSD1
 70
     0
  9
$DIMSD2
 70
     0
  9
$DIMTOLJ
 70
     1
  9
$DIMTZIN
 70
     0
  9
$DIMALTZ
 70
     0
  9
$DIMALTTZ
 70
     0
  9
$DIMUPT
 70
     0
  9
$DIMDEC
 70
     4
  9
$DIMTDEC
 70
     4
  9
$DIMALTU
 70
     2
  9
$DIMALTTD
 70
     2
  9
$DIMTXSTY
  7
STANDARD
  9
$DIMAUNIT
 70
     0
  9
$DIMADEC
 70
     0
  9
$DIMALTRND
 40
0.0
  9
$DIMAZIN
 70
     0
  9
$DIMDSEP
 70
    46
  9
$DIMATFIT
 70
     3
  9
$DIMFRAC
 70
     0
  9
$DIMLDRBLK
  1

  9
$DIMLUNIT
 70
     2
  9
$DIMLWD
 70
    -2
  9
$DIMLWE
 70
    -2
  9
$DIMTMOVE
 70
     0
  9
$DIMFXL
 40
1.0
  9
$DIMFXLON
 70
     0
  9
$DIMJOGANG
 40
0.7853981633974483
  9
$DIMTFILL
 70
     0
  9
$DIMTFILLCLR
 70
     0
  9
$DIMARCSYM
 70
     0
  9
$DIMLTYPE
  6

  9
$DIMLTEX1
  6

  9
$DIMLTEX2
  6

  9
$DIMTXTDIRECTION
 70
     0
  9
$LUNITS
 70
     2
  9
$LUPREC
 70
     2
  9
$SKETCHINC
 40
1.0
  9
$FILLETRAD
 40
25.0
  9
$AUNITS
 70
     0
  9
$AUPREC
 70
     0
  9
$MENU
  1
.
  9
$ELEVATION
 40
0.0
  9
$PELEVATION
 40
0.0
  9
$THICKNESS
 40
0.0
  9
$LIMCHECK
 70
     0
  9
$CHAMFERA
 40
10.0
  9
$CHAMFERB
 40
5.0
  9
$CHAMFERC
 40
0.0
  9
$CHAMFERD
 40
0.0
  9
$SKPOLY
 70
     0
  9
$TDCREATE
 40
2452066.597384259
  9
$TDUCREATE
 40
2452066.222384259
  9
$TDUPDATE
 40
2460362.593738426
  9
$TDUUPDATE
 40
2460362.218738426
  9
$TDINDWG
 40
0.1586204051
  9
$TDUSRTIMER
 40
0.1586202083
  9
$USRTIMER
 70
     1
  9
$ANGBASE
 50
0.0
  9
$ANGDIR
 70
     0
  9
$PDMODE
 70
     0
  9
$PDSIZE
 40
0.0
  9
$PLINEWID
 40
0.0
  9
$SPLFRAME
 70
     0
  9
$SPLINETYPE
 70
     6
  9
$SPLINESEGS
 70
     8
  9
$HANDSEED
  5
2F33
  9
$SURFTAB1
 70
     6
  9
$SURFTAB2
 70
     6
  9
$SURFTYPE
 70
     6
  9
$SURFU
 70
     6
  9
$SURFV
 70
     6
  9
$UCSBASE
  2

  9
$UCSNAME
  2

  9
$UCSORG
 10
0.0
 20
0.0
 30
0.0
  9
$UCSXDIR
 10
1.0
 20
0.0
 30
0.0
  9
$UCSYDIR
 10
0.0
 20
1.0
 30
0.0
  9
$UCSORTHOREF
  2

  9
$UCSORTHOVIEW
 70
     0
  9
$UCSORGTOP
 10
0.0
 20
0.0
 30
0.0
  9
$UCSORGBOTTOM
 10
0.0
 20
0.0
 30
0.0
  9
$UCSORGLEFT
 10
0.0
 20
0.0
 30
0.0
  9
$UCSORGRIGHT
 10
0.0
 20
0.0
 30
0.0
  9
$UCSORGFRONT
 10
0.0
 20
0.0
 30
0.0
  9
$UCSORGBACK
 10
0.0
 20
0.0
 30
0.0
  9
$PUCSBASE
  2

  9
$PUCSNAME
  2

  9
$PUCSORG
 10
0.0
 20
0.0
 30
0.0
  9
$PUCSXDIR
 10
1.0
 20
0.0
 30
0.0
  9
$PUCSYDIR
 10
0.0
 20
1.0
 30
0.0
  9
$PUCSORTHOREF
  2

  9
$PUCSORTHOVIEW
 70
     0
  9
$PUCSORGTOP
 10
0.0
 20
0.0
 30
0.0
  9
$PUCSORGBOTTOM
 10
0.0
 20
0.0
 30
0.0
  9
$PUCSORGLEFT
 10
0.0
 20
0.0
 30
0.0
  9
$PUCSORGRIGHT
 10
0.0
 20
0.0
 30
0.0
  9
$PUCSORGFRONT
 10
0.0
 20
0.0
 30
0.0
  9
$PUCSORGBACK
 10
0.0
 20
0.0
 30
0.0
  9
$USERI1
 70
     0
  9
$USERI2
 70
     0
  9
$USERI3
 70
     0
  9
$USERI4
 70
     0
  9
$USERI5
 70
     0
  9
$USERR1
 40
0.0
  9
$USERR2
 40
0.0
  9
$USERR3
 40
0.0
  9
$USERR4
 40
0.0
  9
$USERR5
 40
0.0
  9
$WORLDVIEW
 70
     1
  9
$SHADEDGE
 70
     3
  9
$SHADEDIF
 70
    70
  9
$TILEMODE
 70
     1
  9
$MAXACTVP
 70
    64
  9
$PINSBASE
 10
0.0
 20
0.0
 30
0.0
  9
$PLIMCHECK
 70
     0
  9
$PEXTMIN
 10
1.000000000000000E+20
 20
1.000000000000000E+20
 30
1.000000000000000E+20
  9
$PEXTMAX
 10
-1.000000000000000E+20
 20
-1.000000000000000E+20
 30
-1.000000000000000E+20
  9
$PLIMMIN
 10
0.0
 20
0.0
  9
$PLIMMAX
 10
420.0
 20
297.0
  9
$UNITMODE
 70
     0
  9
$VISRETAIN
 70
     1
  9
$PLINEGEN
 70
     0
  9
$PSLTSCALE
 70
     1
  9
$TREEDEPTH
 70
  3020
  9
$CMLSTYLE
  2
Standard
  9
$CMLJUST
 70
     0
  9
$CMLSCALE
 40
1.0
  9
$PROXYGRAPHICS
 70
     1
  9
$MEASUREMENT
 70
     0
  9
$CELWEIGHT
370
    -1
  9
$ENDCAPS
280
     0
  9
$JOINSTYLE
280
     0
  9
$LWDISPLAY
290
     0
  9
$INSUNITS
 70
     0
  9
$HYPERLINKBASE
  1

  9
$STYLESHEET
  1

  9
$XEDIT
290
     1
  9
$CEPSNTYPE
380
     0
  9
$PSTYLEMODE
290
     1
  9
$FINGERPRINTGUID
  2
{B58C944C-AE20-C745-A5C6-D3DAA9695250}
  9
$VERSIONGUID
  2
{709001A0-94A3-D248-B49A-DBD056E3BC01}
  9
$EXTNAMES
290
     1
  9
$PSVPSCALE
 40
0.0
  9
$OLESTARTUP
290
     0
  9
$SORTENTS
280
   127
  9
$INDEXCTL
280
     0
  9
$HIDETEXT
280
     0
  9
$XCLIPFRAME
280
     2
  9
$HALOGAP
280
     0
  9
$OBSCOLOR
 70
   257
  9
$OBSLTYPE
280
     0
  9
$INTERSECTIONDISPLAY
280
     0
  9
$INTERSECTIONCOLOR
 70
   257
  9
$DIMASSOC
280
     1
  9
$PROJECTNAME
  1

  9
$CAMERADISPLAY
290
     0
  9
$LENSLENGTH
 40
50.0
  9
$CAMERAHEIGHT
 40
0.0
  9
$STEPSPERSEC
 40
2.0
  9
$STEPSIZE
 40
6.0
  9
$3DDWFPREC
 40
2.0
  9
$PSOLWIDTH
 40
0.25
  9
$PSOLHEIGHT
 40
4.0
  9
$LOFTANG1
 40
1.570796326794896
  9
$LOFTANG2
 40
1.570796326794896
  9
$LOFTMAG1
 40
0.0
  9
$LOFTMAG2
 40
0.0
  9
$LOFTPARAM
 70
     7
  9
$LOFTNORMALS
280
     1
  9
$LATITUDE
 40
37.795
  9
$LONGITUDE
 40
-122.394
  9
$NORTHDIRECTION
 40
0.0
  9
$TIMEZONE
 70
 -8000
  9
$LIGHTGLYPHDISPLAY
280
     1
  9
$TILEMODELIGHTSYNCH
280
     1
  9
$CMATERIAL
347
2CAA
  9
$SOLIDHIST
280
     0
  9
$SHOWHIST
280
     1
  9
$DWFFRAME
280
     2
  9
$DGNFRAME
280
     0
  9
$REALWORLDSCALE
290
     1
  9
$INTERFERECOLOR
 62
     1
  9
$INTERFEREOBJVS
345
2CCC
  9
$INTERFEREVPVS
346
2CC9
  9
$CSHADOW
280
     0
  9
$SHADOWPLANELOCATION
 40
0.0
  0
ENDSEC
  0
SECTION
  2
CLASSES
  0
CLASS
  1
ACDBDICTIONARYWDFLT
  2
AcDbDictionaryWithDefault
  3
ObjectDBX Classes
 90
        0
 91
        1
280
     0
281
     0
  0
CLASS
  1
MATERIAL
  2
AcDbMaterial
  3
ObjectDBX Classes
 90
     1153
 91
        3
280
     0
281
     0
  0
CLASS
  1
VISUALSTYLE
  2
AcDbVisualStyle
  3
ObjectDBX Classes
 90
     4095
 91
       24
280
     0
281
     0
  0
CLASS
  1
SCALE
  2
AcDbScale
  3
ObjectDBX Classes
 90
     1153
 91
       17
280
     0
281
     0
  0
CLASS
  1
TABLESTYLE
  2
AcDbTableStyle
  3
ObjectDBX Classes
 90
     4095
 91
        1
280
     0
281
     0
  0
CLASS
  1
MLEADERSTYLE
  2
AcDbMLeaderStyle
  3
ACDB_MLEADERSTYLE_CLASS
 90
     4095
 91
        1
280
     0
281
     0
  0
CLASS
  1
ACDBSECTIONVIEWSTYLE
  2
AcDbSectionViewStyle
  3
ObjectDBX Classes
 90
     1025
 91
        2
280
     0
281
     0
  0
CLASS
  1
ACDBDETAILVIEWSTYLE
  2
AcDbDetailViewStyle
  3
ObjectDBX Classes
 90
     1025
 91
        2
280
     0
281
     0
  0
CLASS
  1
AMGSETTINGSOBJ
  2
AmgSettingsObj
  3
"AcadM|Product Description: AutoCAD Mechanical|Company: Autodesk, Inc."
 90
     1024
 91
        2
280
     0
281
     0
  0
CLASS
  1
ACME_DOCUMENT
  2
AcMeDbDoc
  3
AcMeServices
 90
     1024
 91
        1
280
     0
281
     0
  0
CLASS
  1
ACMESCOPE
  2
AcMeScope
  3
AcMeServices
 90
     1024
 91
        1
280
     0
281
     0
  0
CLASS
  1
ACMECOMMANDHISTORY
  2
AcMeCommandHistory
  3
AcMeServices
 90
     1024
 91
        1
280
     0
281
     0
  0
CLASS
  1
ACIMSYSVARMAN
  2
AcImSysVarManager
  3
AcMeServices
 90
     1024
 91
        3
280
     0
281
     0
  0
CLASS
  1
ACIMINTSYSVAR
  2
AcImIntSysVar
  3
AcMeServices
 90
     1024
 91
        4
280
     0
281
     0
  0
CLASS
  1
ACMESTATEMGR
  2
AcMeStateMgr
  3
AcMeServices
 90
     1024
 91
        1
280
     0
281
     0
  0
CLASS
  1
ACDBENTITYCACHE
  2
AcMeEntityCache
  3
AcMeServices
 90
     1024
 91
        1
280
     0
281
     0
  0
CLASS
  1
ACGREFMASTER
  2
AcGrefMaster
  3
AcAttribServices
 90
     1024
 91
        1
280
     0
281
     0
  0
CLASS
  1
ACME_DATABASE
  2
AcMeDbDatabase
  3
AcMeServices
 90
     1024
 91
        2
280
     0
281
     0
  0
CLASS
  1
ACRFINSADJUSTERMGR
  2
AcRfInsAdjusterMgr
  3
AcMeServices
 90
     1024
 91
        1
280
     0
281
     0
  0
CLASS
  1
ACGREFACADMASTER
  2
AcGrefacadMaster
  3
AcGrefServices
 90
     1024
 91
        1
280
     0
281
     0
  0
CLASS
  1
AMIMASTER
  2
AmiMaster
  3
AmiServices
 90
     1024
 91
        1
280
     0
281
     0
  0
CLASS
  1
AMDTMENUSTATEMGR
  2
AmdtMenuStateMgr
  3
McadcomServices
 90
     1024
 91
        1
280
     0
281
     0
  0
CLASS
  1
AMDTMCOMMENUSTATE
  2
AmdtMcomMenuState
  3
McadcomServices
 90
     1024
 91
        1
280
     0
281
     0
  0
CLASS
  1
MAPIAMMOUDLE
  2
MApiAmModule
  3
MApiAmServices
 90
     1024
 91
        1
280
     0
281
     0
  0
CLASS
  1
ACIMSTRSYSVAR
  2
AcImStrSysVar
  3
AcMeServices
 90
     1024
 91
        5
280
     0
281
     0
  0
CLASS
  1
AMDTAMMENUSTATE
  2
AmdtAmMenuState
  3
DesignerAssemblies_arx
 90
     1024
 91
        1
280
     0
281
     0
  0
CLASS
  1
ACAMPROJECT
  2
AcAmProject
  3
DesignerAssemblies
 90
     1024
 91
        1
280
     0
281
     0
  0
CLASS
  1
ACAMGRCOMPDEF
  2
AcAmGrCompDef
  3
DesignerAssemblies
 90
     1024
 91
        1
280
     0
281
     0
  0
CLASS
  1
ACAMCOMPDEF
  2
AcAmCompDef
  3
DesignerAssemblies
 90
     1024
 91
        1
280
     0
281
     0
  0
CLASS
  1
ACAMCOMPDEFMGR
  2
AcAmCompDefMgr
  3
DesignerAssemblies
 90
     1024
 91
        1
280
     0
281
     0
  0
CLASS
  1
AMCONTEXTMGR
  2
AcAmContextMgr
  3
DesignerAssemblies
 90
     1024
 91
        1
280
     0
281
     0
  0
CLASS
  1
ACAMCONTEXTMODELER
  2
AcAmContextModeler
  3
DesignerAssemblies
 90
     1024
 91
        1
280
     0
281
     0
  0
CLASS
  1
ACMDATADICTIONARY
  2
AcmDataDictionary
  3
"AcmSymBB|Product Description: AutoCAD Mechanical|Company: Autodesk, Inc."
 90
     1024
 91
        1
280
     0
281
     0
  0
CLASS
  1
ACAMGRCOMPDEFSET
  2
AcAmGrCompDefSet
  3
DesignerAssemblies
 90
     1024
 91
        1
280
     0
281
     0
  0
CLASS
  1
AMDTBROWSERDBTAB
  2
AmdtBrowserDbTab
  3
McadcomServices
 90
     1024
 91
        1
280
     0
281
     0
  0
CLASS
  1
CBROWSERAPPOBJECT
  2
CBrowserAppObject
  3
McadcomServices
 90
     1024
 91
        2
280
     0
281
     0
  0
CLASS
  1
DM_PLACEHOLDER
  2
AcDmSelsetPlaceholder
  3
McadcomServices
 90
     1024
 91
        1
280
     0
281
     0
  0
CLASS
  1
EXACXREFPANELOBJECT
  2
ExAcXREFPanelObject
  3
EXAC_ESW
 90
     1025
 91
        1
280
     0
281
     0
  0
CLASS
  1
NPOCOLLECTION
  2
AcDbImpNonPersistentObjectsCollection
  3
ObjectDBX Classes
 90
     1153
 91
        1
280
     0
281
     0
  0
CLASS
  1
ACMSTANDARDANSI
  2
AcmStandardANSI
  3
"Amdt_StdImp|Product Description: AutoCAD Mechanical|Company: Autodesk, Inc."
 90
     1024
 91
        1
280
     0
281
     0
  0
CLASS
  1
ACMSURFSTANDARDANSI
  2
AcmSurfTextStdANSI
  3
"Amdt_StdImp|Product Description: AutoCAD Mechanical|Company: Autodesk, Inc."
 90
     1024
 91
        1
280
     0
281
     0
  0
CLASS
  1
ACMFCFSTANDARDANSI
  2
AcmFCFStdANSI
  3
"Amdt_StdImp|Product Description: AutoCAD Mechanical|Company: Autodesk, Inc."
 90
     1024
 91
        1
280
     0
281
     0
  0
CLASS
  1
ACMWELDSTANDARDANSI
  2
AcmWeldingStdANSI
  3
"Amdt_StdImp|Product Description: AutoCAD Mechanical|Company: Autodesk, Inc."
 90
     1024
 91
        1
280
     0
281
     0
  0
CLASS
  1
ACMIDSTANDARDANSI
  2
AcmIdStdANSI
  3
"Amdt_StdImp|Product Description: AutoCAD Mechanical|Company: Autodesk, Inc."
 90
     1024
 91
        1
280
     0
281
     0
  0
CLASS
  1
ACMDATUMSTANDARDANSI
  2
AcmDatumStdANSI
  3
"Amdt_StdImp|Product Description: AutoCAD Mechanical|Company: Autodesk, Inc."
 90
     1024
 91
        1
280
     0
281
     0
  0
CLASS
  1
ACMBOMSTANDARDANSI
  2
AcmBOMStdANSI
  3
"Amdt_StdImp|Product Description: AutoCAD Mechanical|Company: Autodesk, Inc."
 90
     1024
 91
        1
280
     0
281
     0
  0
CLASS
  1
ACMDETAILSTANDARDANSI
  2
AmdtDetailSymStdANSI
  3
"Amdt_StdImp|Product Description: AutoCAD Mechanical|Company: Autodesk, Inc."
 90
     1024
 91
        1
280
     0
281
     0
  0
CLASS
  1
ACMSECTIONSTANDARDANSI
  2
AmdtSectionSymStdANSI
  3
"Amdt_StdImp|Product Description: AutoCAD Mechanical|Company: Autodesk, Inc."
 90
     1024
 91
        1
280
     0
281
     0
  0
CLASS
  1
ACMCENTERLINESTANDARDANSI
  2
AmdtCenterLineStdANSI
  3
"Amdt_StdImp|Product Description: AutoCAD Mechanical|Company: Autodesk, Inc."
 90
     1024
 91
        1
280
     0
281
     0
  0
CLASS
  1
ACMTHREADLINESTANDARDANSI
  2
AmdtThreadLineStdANSI
  3
"Amdt_StdImp|Product Description: AutoCAD Mechanical|Company: Autodesk, Inc."
 90
     1024
 91
        1
280
     0
281
     0
  0
CLASS
  1
ACMNOTESTANDARDANSI
  2
AmdtNoteStdANSI
  3
"Amdt_StdImp|Product Description: AutoCAD Mechanical|Company: Autodesk, Inc."
 90
     1024
 91
        1
280
     0
281
     0
  0
CLASS
  1
ACMTAPERSTANDARDANSI
  2
AcmTaperStdANSI
  3
"Amdt_StdImp|Product Description: AutoCAD Mechanical|Company: Autodesk, Inc."
 90
     1024
 91
        1
280
     0
281
     0
  0
CLASS
  1
ACMANOOTATIONVIEWSTANDARDANSI
  2
AmdtAnViewStdANSI
  3
"Amdt_StdImp|Product Description: AutoCAD Mechanical|Company: Autodesk, Inc."
 90
     1024
 91
        1
280
     0
281
     0
  0
CLASS
  1
ACAMGLAYSTD
  2
AcAmgLayStd
  3
"AmgLay|Product Description: AutoCAD Mechanical|Company: Autodesk, Inc."
 90
     1024
 91
        1
280
     0
281
     0
  0
CLASS
  1
ACAMGDIMSTD
  2
AcAmgDimStd
  3
"AmgDim|Product Description: AutoCAD Mechanical|Company: Autodesk, Inc."
 90
     1024
 91
        1
280
     0
281
     0
  0
CLASS
  1
ACAMGHOLECHARTSTDANSI
  2
AcAmgHoleChartStdANSI
  3
"AmgDim" "Product Description: AutoCAD Mechanical|Company: Autodesk, Inc."
 90
     1024
 91
        1
280
     0
281
     0
  0
CLASS
  1
AMGOBJPROPCFG
  2
AmgObjPropCfg
  3
"AmgLay|Product Description: AutoCAD Mechanical|Company: Autodesk, Inc."
 90
     1024
 91
        1
280
     0
281
     0
  0
CLASS
  1
ACAMGTITLESTD
  2
AcAmgTitleStd
  3
"AmgTitle|Product Description: AutoCAD Mechanical|Company: Autodesk, Inc."
 90
     1024
 91
        1
280
     0
281
     0
  0
CLASS
  1
ACMSECTIONSTANDARDCUSTOM
  2
AmdtSectionSymStdCustom
  3
"Amdt_StdImp|Product Description: AutoCAD Mechanical|Company: Autodesk, Inc."
 90
     1024
 91
        1
280
     0
281
     0
  0
CLASS
  1
ACMDETAILTANDARDCUSTOM
  2
AmdtDetailSymStdCustom
  3
"Amdt_StdImp|Product Description: AutoCAD Mechanical|Company: Autodesk, Inc."
 90
     1024
 91
        1
280
     0
281
     0
  0
CLASS
  1
FIELD
  2
AcDbField
  3
ObjectDBX Classes
 90
     1152
 91
        8
280
     0
281
     0
  0
CLASS
  1
FIELDLIST
  2
AcDbFieldList
  3
ObjectDBX Classes
 90
     1152
 91
        1
280
     0
281
     0
  0
CLASS
  1
AMDTNOTETEMPLATEDB
  2
AmdtNoteTemplateDB
  3
"AcmSymBB" "Product Description: AutoCAD Mechanical|Company: Autodesk, Inc."
 90
     1024
 91
        7
280
     0
281
     0
  0
CLASS
  1
ACAMGFILTERDAT
  2
AcAmgFilterDat
  3
"AcadM|Product Description: AutoCAD Mechanical|Company: Autodesk, Inc."
 90
     1024
 91
        6
280
     0
281
     0
  0
CLASS
  1
SORTENTSTABLE
  2
AcDbSortentsTable
  3
ObjectDBX Classes
 90
        0
 91
        1
280
     0
281
     0
  0
CLASS
  1
DICTIONARYVAR
  2
AcDbDictionaryVar
  3
ObjectDBX Classes
 90
        0
 91
       18
280
     0
281
     0
  0
CLASS
  1
CELLSTYLEMAP
  2
AcDbCellStyleMap
  3
ObjectDBX Classes
 90
     1152
 91
        2
280
     0
281
     0
  0
ENDSEC
  0
SECTION
  2
TABLES
  0
TABLE
  2
VPORT
  5
2CA1
330
0
100
AcDbSymbolTable
 70
     1
  0
VPORT
  5
2D0D
330
2CA1
100
AcDbSymbolTableRecord
100
AcDbViewportTableRecord
  2
*ACTIVE
 70
     0
 10
0.0
 20
0.0
 11
1.0
 21
1.0
 12
735.1804575940246
 22
639.2792845024821
 13
0.0
 23
0.0
 14
12.5
 24
12.5
 15
50.0
 25
50.0
 16
0.0
 26
0.0
 36
1.0
 17
0.0
 27
0.0
 37
0.0
 40
879.9869930014166
 41
2.197496522948539
 42
50.0
 43
0.0
 44
0.0
 50
0.0
 51
0.0
 71
     0
 72
   100
 73
     1
 74
     3
 75
     0
 76
     0
 77
     0
 78
     0
281
     0
 65
     0
110
0.0
120
0.0
130
0.0
111
1.0
121
0.0
131
0.0
112
0.0
122
1.0
132
0.0
 79
     0
146
0.0
348
2CC8
 60
     3
 61
     5
292
     1
282
     0
141
0.0
142
0.0
 63
   250
421
  3355443
1001
ACAD_NAV_VCDISPLAY
1070
     3
  0
ENDTAB
  0
TABLE
  2
LTYPE
  5
2C9E
330
0
100
AcDbSymbolTable
 70
    26
  0
LTYPE
  5
2CF3
330
2C9E
100
AcDbSymbolTableRecord
100
AcDbLinetypeTableRecord
  2
ByBlock
 70
     0
  3

 72
    65
 73
     0
 40
0.0
  0
LTYPE
  5
2CF4
330
2C9E
100
AcDbSymbolTableRecord
100
AcDbLinetypeTableRecord
  2
ByLayer
 70
     0
  3

 72
    65
 73
     0
 40
0.0
  0
LTYPE
  5
2CF5
330
2C9E
100
AcDbSymbolTableRecord
100
AcDbLinetypeTableRecord
  2
CONTINUOUS
 70
     0
  3
Solid line
 72
    65
 73
     0
 40
0.0
  0
LTYPE
  5
2D0E
330
2C9E
100
AcDbSymbolTableRecord
100
AcDbLinetypeTableRecord
  2
AM_ISO02W050
 70
     0
  3
__ __ __ __ __ __ __ __ __ __ __ __ __ __ __
 72
    65
 73
     2
 40
7.5
 49
6.0
 74
     0
 49
-1.5
 74
     0
  0
LTYPE
  5
2D0F
330
2C9E
100
AcDbSymbolTableRecord
100
AcDbLinetypeTableRecord
  2
AM_ISO08W050
 70
     0
  3
____ . ____ . ____ . ____ . ____ . ____ . ____
 72
    65
 73
     4
 40
18.0
 49
12.0
 74
     0
 49
-1.5
 74
     0
 49
3.0
 74
     0
 49
-1.5
 74
     0
  0
LTYPE
  5
2D10
330
2C9E
100
AcDbSymbolTableRecord
100
AcDbLinetypeTableRecord
  2
AM_ISO09W050
 70
     0
  3
_____ . . _____ . . _____ . . ____ .. ____
 72
    65
 73
     6
 40
22.5
 49
12.0
 74
     0
 49
-1.5
 74
     0
 49
3.0
 74
     0
 49
-1.5
 74
     0
 49
3.0
 74
     0
 49
-1.5
 74
     0
  0
LTYPE
  5
2D11
330
2C9E
100
AcDbSymbolTableRecord
100
AcDbLinetypeTableRecord
  2
AMCONSTR
 70
     0
  3
_______________________
 72
    65
 73
     2
 40
9999.0
 49
9999.0
 74
     0
 49
0.0
 74
     0
  0
LTYPE
  5
2D12
330
2C9E
100
AcDbSymbolTableRecord
100
AcDbLinetypeTableRecord
  2
AM_ISO08W050X2
 70
     0
  3
__ . __ . __ . __ . __ . __
 72
    65
 73
     4
 40
9.0
 49
6.0
 74
     0
 49
-0.75
 74
     0
 49
1.5
 74
     0
 49
-0.75
 74
     0
  0
LTYPE
  5
2D13
330
2C9E
100
AcDbSymbolTableRecord
100
AcDbLinetypeTableRecord
  2
AM_ISO02W050X2
 70
     0
  3
 _ _ _ _ _ _ _ _ _ _ _ _
 72
    65
 73
     2
 40
3.75
 49
3.0
 74
     0
 49
-0.75
 74
     0
  0
LTYPE
  5
2D14
330
2C9E
100
AcDbSymbolTableRecord
100
AcDbLinetypeTableRecord
  2
AMZIGZAG
 70
     0
  3
/\/-/\/-/\/-/\/-/\/-/\/
 72
    65
 73
     2
 40
11.00009999999999
 49
0.0001
 74
     0
 49
-11.0
 74
     0
  0
LTYPE
  5
2D19
330
2C9E
100
AcDbSymbolTableRecord
100
AcDbLinetypeTableRecord
  2
PHANTOM2
 70
     0
  3
Phantom (.5x) ___ _ _ ___ _ _ ___ _ _ ___ _ _
 72
    65
 73
     6
 40
31.75
 49
15.875
 74
     0
 49
-3.174999999999998
 74
     0
 49
3.174999999999998
 74
     0
 49
-3.174999999999998
 74
     0
 49
3.174999999999998
 74
     0
 49
-3.174999999999998
 74
     0
  0
LTYPE
  5
2D1C
330
2C9E
100
AcDbSymbolTableRecord
100
AcDbLinetypeTableRecord
  2
GEN7
 70
     0
  3
____ . ____ . ____ . ____ . ____ . ____ . ____
 72
    65
 73
     4
 40
14.25
 49
9.75
 74
     0
 49
-1.5
 74
     0
 49
1.5
 74
     0
 49
-1.5
 74
     0
  0
LTYPE
  5
2D1D
330
2C9E
100
AcDbSymbolTableRecord
100
AcDbLinetypeTableRecord
  2
GEN7A
 70
     0
  3
__ . __ . __
 72
    65
 73
     4
 40
7.375
 49
4.75
 74
     0
 49
-0.875
 74
     0
 49
0.875
 74
     0
 49
-0.875
 74
     0
  0
LTYPE
  5
2D24
330
2C9E
100
AcDbSymbolTableRecord
100
AcDbLinetypeTableRecord
  2
ACANSTGB
 70
     0
  3
__ . . __ . .
 72
    65
 73
     6
 40
0.35433070866
 49
0.15748031496
 74
     0
 49
-0.03937007874
 74
     0
 49
0.03937007874
 74
     0
 49
-0.03937007874
 74
     0
 49
0.03937007874
 74
     0
 49
-0.03937007874
 74
     0
  0
LTYPE
  5
2D25
330
2C9E
100
AcDbSymbolTableRecord
100
AcDbLinetypeTableRecord
  2
ACANSTGL
 70
     0
  3
_ _ _ _ _
 72
    65
 73
     2
 40
0.11811023622
 49
0.07874015748
 74
     0
 49
-0.03937007874
 74
     0
  0
ENDTAB
  0
TABLE
  2
LAYER
  5
2C9B
102
{ACAD_XDICTIONARY
360
2EE4
102
}
330
0
100
AcDbSymbolTable
 70
     6
  0
LAYER
  5
2CED
102
{ACAD_XDICTIONARY
360
2ED7
102
}
330
2C9B
100
AcDbSymbolTableRecord
100
AcDbLayerTableRecord
  2
0
 70
     0
 62
     7
  6
CONTINUOUS
370
    -3
390
2CA8
347
2CBA
  0
LAYER
  5
2D0C
102
{ACAD_XDICTIONARY
360
2ED9
102
}
330
2C9B
100
AcDbSymbolTableRecord
100
AcDbLayerTableRecord
  2
AM_0
 70
     0
 62
     7
  6
CONTINUOUS
370
    -3
390
2CA8
347
2CBA
  0
LAYER
  5
2D26
102
{ACAD_XDICTIONARY
360
2EDB
102
}
330
2C9B
100
AcDbSymbolTableRecord
100
AcDbLayerTableRecord
  2
AM_5
 70
     0
 62
     2
  6
CONTINUOUS
370
    -3
390
2CA8
347
2CBA
  0
LAYER
  5
2D27
330
2C9B
100
AcDbSymbolTableRecord
100
AcDbLayerTableRecord
  2
DEFPOINTS
 70
     0
 62
     7
  6
CONTINUOUS
290
     0
370
    -3
390
2CA8
347
2CBA
  0
LAYER
  5
2D28
102
{ACAD_XDICTIONARY
360
2EDD
102
}
330
2C9B
100
AcDbSymbolTableRecord
100
AcDbLayerTableRecord
  2
ﾁｭｳｼﾝｾﾝ
 70
     0
 62
     1
  6
GEN7
370
    -3
390
2CA8
347
2CBA
  0
LAYER
  5
2D29
102
{ACAD_XDICTIONARY
360
2EDF
102
}
330
2C9B
100
AcDbSymbolTableRecord
100
AcDbLayerTableRecord
  2
ﾁｭｳｼﾝｾﾝ1
 70
     0
 62
     1
  6
GEN7A
370
    -3
390
2CA8
347
2CBA
  0
ENDTAB
  0
TABLE
  2
STYLE
  5
2C9C
330
0
100
AcDbSymbolTable
 70
     9
  0
STYLE
  5
2CEE
330
2C9C
100
AcDbSymbolTableRecord
100
AcDbTextStyleTableRecord
  2
STANDARD
 70
     0
 40
0.0
 41
0.8299999999999998
 50
0.0
 71
     0
 42
2.5
  3
txt.shx
  4
bigfont.shx
  0
STYLE
  5
2D2E
330
2C9C
100
AcDbSymbolTableRecord
100
AcDbTextStyleTableRecord
  2
ACANSGDT
 70
     0
 40
0.0
 41
1.0
 50
0.0
 71
     0
 42
2.5
  3
amgdt.shx
  4

  0
ENDTAB
  0
TABLE
  2
VIEW
  5
2C9F
330
0
100
AcDbSymbolTable
 70
     7
  0
VIEW
  5
2D31
330
2C9F
100
AcDbSymbolTableRecord
100
AcDbViewTableRecord
  2
AM_VIEW1
 70
     0
 40
462.5
 10
416.0796500920808
 20
693.75
 41
832.1593001841621
 11
0.0
 21
0.0
 31
1.0
 12
0.0
 22
0.0
 32
0.0
 42
50.0
 43
0.0
 44
0.0
 50
0.0
 71
     0
281
     0
 72
     0
 73
     0
348
2CC8
  0
VIEW
  5
2D32
330
2C9F
100
AcDbSymbolTableRecord
100
AcDbViewTableRecord
  2
AM_VIEW2
 70
     0
 40
462.5
 10
1006.420349907918
 20
693.75
 41
832.1593001841621
 11
0.0
 21
0.0
 31
1.0
 12
0.0
 22
0.0
 32
0.0
 42
50.0
 43
0.0
 44
0.0
 50
0.0
 71
     0
281
     0
 72
     0
 73
     0
348
2CC8
  0
VIEW
  5
2D33
330
2C9F
100
AcDbSymbolTableRecord
100
AcDbViewTableRecord
  2
AM_VIEW3
 70
     0
 40
462.5
 10
416.0796500920808
 20
231.25
 41
832.1593001841621
 11
0.0
 21
0.0
 31
1.0
 12
0.0
 22
0.0
 32
0.0
 42
50.0
 43
0.0
 44
0.0
 50
0.0
 71
     0
281
     0
 72
     0
 73
     0
348
2CC8
  0
VIEW
  5
2D34
330
2C9F
100
AcDbSymbolTableRecord
100
AcDbViewTableRecord
  2
AM_VIEW4
 70
     0
 40
462.5
 10
1006.420349907918
 20
231.25
 41
832.1593001841621
 11
0.0
 21
0.0
 31
1.0
 12
0.0
 22
0.0
 32
0.0
 42
50.0
 43
0.0
 44
0.0
 50
0.0
 71
     0
281
     0
 72
     0
 73
     0
348
2CC8
  0
VIEW
  5
2D35
330
2C9F
100
AcDbSymbolTableRecord
100
AcDbViewTableRecord
  2
AM_VIEW5
 70
     0
 40
462.5
 10
711.2499999999997
 20
462.5
 41
832.1593001841618
 11
0.0
 21
0.0
 31
1.0
 12
0.0
 22
0.0
 32
0.0
 42
50.0
 43
0.0
 44
0.0
 50
0.0
 71
     0
281
     0
 72
     0
 73
     0
348
2CC8
  0
VIEW
  5
2D36
330
2C9F
100
AcDbSymbolTableRecord
100
AcDbViewTableRecord
  2
AM_VIEW6
 70
     0
 40
924.99075
 10
711.2499999999997
 20
462.5
 41
1664.30195718232
 11
0.0
 21
0.0
 31
1.0
 12
0.0
 22
0.0
 32
0.0
 42
50.0
 43
0.0
 44
0.0
 50
0.0
 71
     0
281
     0
 72
     0
 73
     0
348
2CC8
  0
ENDTAB
  0
TABLE
  2
UCS
  5
2CA0
330
0
100
AcDbSymbolTable
 70
     0
  0
ENDTAB
  0
TABLE
  2
APPID
  5
2CA2
330
0
100
AcDbSymbolTable
 70
    95
  0
APPID
  5
2CEF
330
2CA2
100
AcDbSymbolTableRecord
100
AcDbRegAppTableRecord
  2
ACAD
 70
     0
  0
APPID
  5
2CF6
330
2CA2
100
AcDbSymbolTableRecord
100
AcDbRegAppTableRecord
  2
ACADANNOTATIVE
 70
     0
  0
APPID
  5
2D37
330
2CA2
100
AcDbSymbolTableRecord
100
AcDbRegAppTableRecord
  2
MCAD_NO_VIS
 70
     0
  0
APPID
  5
2D38
330
2CA2
100
AcDbSymbolTableRecord
100
AcDbRegAppTableRecord
  2
ACAD_TEMP_GRAPHIC
 70
     0
  0
APPID
  5
2D39
330
2CA2
100
AcDbSymbolTableRecord
100
AcDbRegAppTableRecord
  2
ACATTRIBSERVICES
 70
     0
  0
APPID
  5
2D3A
330
2CA2
100
AcDbSymbolTableRecord
100
AcDbRegAppTableRecord
  2
GENIUS_GENREC_14
 70
     0
  0
APPID
  5
2D3B
330
2CA2
100
AcDbSymbolTableRecord
100
AcDbRegAppTableRecord
  2
GENIUS_GENOBJ-N-REC_13
 70
     0
  0
APPID
  5
2D3C
330
2CA2
100
AcDbSymbolTableRecord
100
AcDbRegAppTableRecord
  2
GENIUS_GENODEF_13
 70
     0
  0
APPID
  5
2D3D
330
2CA2
100
AcDbSymbolTableRecord
100
AcDbRegAppTableRecord
  2
GENIUS_GENOLIS_13
 70
     0
  0
APPID
  5
2D3E
330
2CA2
100
AcDbSymbolTableRecord
100
AcDbRegAppTableRecord
  2
GENIUS_GENOBJ-N-TIT_13
 70
     0
  0
APPID
  5
2D3F
330
2CA2
100
AcDbSymbolTableRecord
100
AcDbRegAppTableRecord
  2
GENIUS_GENOENT_13
 70
     0
  0
APPID
  5
2D40
330
2CA2
100
AcDbSymbolTableRecord
100
AcDbRegAppTableRecord
  2
GENIUS_GENTITLE_13
 70
     0
  0
APPID
  5
2D41
330
2CA2
100
AcDbSymbolTableRecord
100
AcDbRegAppTableRecord
  2
GENIUS_GENOREF_13
 70
     0
  0
APPID
  5
2D42
330
2CA2
100
AcDbSymbolTableRecord
100
AcDbRegAppTableRecord
  2
GENIUS_GENSCREG_15
 70
     0
  0
APPID
  5
2D43
330
2CA2
100
AcDbSymbolTableRecord
100
AcDbRegAppTableRecord
  2
GENIUS_GENOBJ-N-SDF_13
 70
     0
  0
APPID
  5
2D44
330
2CA2
100
AcDbSymbolTableRecord
100
AcDbRegAppTableRecord
  2
GENIUS_GENFIL_13
 70
     0
  0
APPID
  5
2D45
330
2CA2
100
AcDbSymbolTableRecord
100
AcDbRegAppTableRecord
  2
GENIUS_GENOBJ-N-CHA_13
 70
     0
  0
APPID
  5
2D46
330
2CA2
100
AcDbSymbolTableRecord
100
AcDbRegAppTableRecord
  2
GENIUS_GENDTOL_13
 70
     0
  0
APPID
  5
2D47
330
2CA2
100
AcDbSymbolTableRecord
100
AcDbRegAppTableRecord
  2
GENIUS_GENOBJ-N-FIL_13
 70
     0
  0
APPID
  5
2D48
330
2CA2
100
AcDbSymbolTableRecord
100
AcDbRegAppTableRecord
  2
AD_DRAW
 70
     0
  0
APPID
  5
2D49
330
2CA2
100
AcDbSymbolTableRecord
100
AcDbRegAppTableRecord
  2
DESIGNERASSEMBLIES
 70
     0
  0
APPID
  5
2D4A
330
2CA2
100
AcDbSymbolTableRecord
100
AcDbRegAppTableRecord
  2
ASURF_PCURVE_APPNAME
 70
     0
  0
APPID
  5
2D4B
330
2CA2
100
AcDbSymbolTableRecord
100
AcDbRegAppTableRecord
  2
GENIUS_GE3SECT_13
 70
     0
  0
APPID
  5
2D4C
330
2CA2
100
AcDbSymbolTableRecord
100
AcDbRegAppTableRecord
  2
GENIUS_GENCFG_13
 70
     0
  0
APPID
  5
2D4D
330
2CA2
100
AcDbSymbolTableRecord
100
AcDbRegAppTableRecord
  2
GENIUS_GE3CFG0_13
 70
     0
  0
APPID
  5
2D4E
330
2CA2
100
AcDbSymbolTableRecord
100
AcDbRegAppTableRecord
  2
GENIUS_GENCFG0_13
 70
     0
  0
APPID
  5
2D4F
330
2CA2
100
AcDbSymbolTableRecord
100
AcDbRegAppTableRecord
  2
GENIUS_GENCFG1_13
 70
     0
  0
APPID
  5
2D50
330
2CA2
100
AcDbSymbolTableRecord
100
AcDbRegAppTableRecord
  2
GENIUS_GENCFG2_13
 70
     0
  0
APPID
  5
2D51
330
2CA2
100
AcDbSymbolTableRecord
100
AcDbRegAppTableRecord
  2
GENIUS_GENCFG3_13
 70
     0
  0
APPID
  5
2D52
330
2CA2
100
AcDbSymbolTableRecord
100
AcDbRegAppTableRecord
  2
GENIUS_GENCFG4_13
 70
     0
  0
APPID
  5
2D53
330
2CA2
100
AcDbSymbolTableRecord
100
AcDbRegAppTableRecord
  2
GENIUS_GEVCFG0_13
 70
     0
  0
APPID
  5
2D54
330
2CA2
100
AcDbSymbolTableRecord
100
AcDbRegAppTableRecord
  2
GENIUS_GENHINW_13
 70
     0
  0
APPID
  5
2D55
330
2CA2
100
AcDbSymbolTableRecord
100
AcDbRegAppTableRecord
  2
GENIUS_FIRSTVISTXT_14
 70
     0
  0
APPID
  5
2D56
330
2CA2
100
AcDbSymbolTableRecord
100
AcDbRegAppTableRecord
  2
GENIUS_GENOBJ-N-LEADER_13
 70
     0
  0
APPID
  5
2D57
330
2CA2
100
AcDbSymbolTableRecord
100
AcDbRegAppTableRecord
  2
GEV_VCCNULL_SWITCH_OFF
 70
     0
  0
APPID
  5
2D58
330
2CA2
100
AcDbSymbolTableRecord
100
AcDbRegAppTableRecord
  2
GENIUS_GEFCFG0_13
 70
     0
  0
APPID
  5
2D59
330
2CA2
100
AcDbSymbolTableRecord
100
AcDbRegAppTableRecord
  2
GENIUS_GENZVEED_13
 70
     0
  0
APPID
  5
2D5A
330
2CA2
100
AcDbSymbolTableRecord
100
AcDbRegAppTableRecord
  2
GENIUS_GENSCREG_13
 70
     0
  0
APPID
  5
2D5B
330
2CA2
100
AcDbSymbolTableRecord
100
AcDbRegAppTableRecord
  2
GENIUS_DUMCFG0_13
 70
     0
  0
APPID
  5
2D5C
330
2CA2
100
AcDbSymbolTableRecord
100
AcDbRegAppTableRecord
  2
GEVID936201362
 70
     0
  0
APPID
  5
2D5D
330
2CA2
100
AcDbSymbolTableRecord
100
AcDbRegAppTableRecord
  2
GEVDC
 70
     0
  0
APPID
  5
2D5E
330
2CA2
100
AcDbSymbolTableRecord
100
AcDbRegAppTableRecord
  2
GEVCON
 70
     0
  0
APPID
  5
2D5F
330
2CA2
100
AcDbSymbolTableRecord
100
AcDbRegAppTableRecord
  2
VCC
 70
     0
  0
APPID
  5
2D60
330
2CA2
100
AcDbSymbolTableRecord
100
AcDbRegAppTableRecord
  2
GEVPT
 70
     0
  0
APPID
  5
2D61
330
2CA2
100
AcDbSymbolTableRecord
100
AcDbRegAppTableRecord
  2
GEVIT
 70
     0
  0
APPID
  5
2D62
330
2CA2
100
AcDbSymbolTableRecord
100
AcDbRegAppTableRecord
  2
GENBH
 70
     0
  0
APPID
  5
2D63
330
2CA2
100
AcDbSymbolTableRecord
100
AcDbRegAppTableRecord
  2
GEVMK
 70
     0
  0
APPID
  5
2D64
330
2CA2
100
AcDbSymbolTableRecord
100
AcDbRegAppTableRecord
  2
GENIUS_GENBH_13
 70
     0
  0
APPID
  5
2D65
330
2CA2
100
AcDbSymbolTableRecord
100
AcDbRegAppTableRecord
  2
GENIUS_GENOBJ-NBEHI-BHF_13
 70
     0
  0
APPID
  5
2D66
330
2CA2
100
AcDbSymbolTableRecord
100
AcDbRegAppTableRecord
  2
GENIUS_GENOBJ-NBEHI-BHB_13
 70
     0
  0
APPID
  5
2D67
330
2CA2
100
AcDbSymbolTableRecord
100
AcDbRegAppTableRecord
  2
GENIUS_GENOBJ-F-DESC_13
 70
     0
  0
APPID
  5
2D68
330
2CA2
100
AcDbSymbolTableRecord
100
AcDbRegAppTableRecord
  2
GENIUS_GEFDESC_14
 70
     0
  0
APPID
  5
2D69
330
2CA2
100
AcDbSymbolTableRecord
100
AcDbRegAppTableRecord
  2
GENIUS_GENOBJ-F-PART_13
 70
     0
  0
APPID
  5
2D6A
330
2CA2
100
AcDbSymbolTableRecord
100
AcDbRegAppTableRecord
  2
GENIUS_GEFSTDP_13
 70
     0
  0
APPID
  5
2D6B
330
2CA2
100
AcDbSymbolTableRecord
100
AcDbRegAppTableRecord
  2
GENIUS_GEFPARTINS_13
 70
     0
  0
APPID
  5
2D6C
330
2CA2
100
AcDbSymbolTableRecord
100
AcDbRegAppTableRecord
  2
GENIUS_GENTRA_14
 70
     0
  0
APPID
  5
2D6D
330
2CA2
100
AcDbSymbolTableRecord
100
AcDbRegAppTableRecord
  2
GENIUS_GENINF13_13
 70
     0
  0
APPID
  5
2D6E
330
2CA2
100
AcDbSymbolTableRecord
100
AcDbRegAppTableRecord
  2
GENIUS_GENOBJ-N-INFOPT_13
 70
     0
  0
APPID
  5
2D6F
330
2CA2
100
AcDbSymbolTableRecord
100
AcDbRegAppTableRecord
  2
GENIUS_GENOBJ-N-RSSYM_13
 70
     0
  0
APPID
  5
2D70
330
2CA2
100
AcDbSymbolTableRecord
100
AcDbRegAppTableRecord
  2
GENIUS_GENSYMENT_13
 70
     0
  0
APPID
  5
2D71
330
2CA2
100
AcDbSymbolTableRecord
100
AcDbRegAppTableRecord
  2
GENIUS_GENSCSYM_13
 70
     0
  0
APPID
  5
2D72
330
2CA2
100
AcDbSymbolTableRecord
100
AcDbRegAppTableRecord
  2
GENIUS_GEFINFNAM_13
 70
     0
  0
APPID
  5
2D73
330
2CA2
100
AcDbSymbolTableRecord
100
AcDbRegAppTableRecord
  2
GENIUS_GENOBJ-N-CEN_13
 70
     0
  0
APPID
  5
2D74
330
2CA2
100
AcDbSymbolTableRecord
100
AcDbRegAppTableRecord
  2
GENIUS_GENOBJ-N-CRS_13
 70
     0
  0
APPID
  5
2D75
330
2CA2
100
AcDbSymbolTableRecord
100
AcDbRegAppTableRecord
  2
GENIUS_GENOBJ-N-CRC_13
 70
     0
  0
APPID
  5
2D76
330
2CA2
100
AcDbSymbolTableRecord
100
AcDbRegAppTableRecord
  2
GENIUS_GENCRC_14
 70
     0
  0
APPID
  5
2D77
330
2CA2
100
AcDbSymbolTableRecord
100
AcDbRegAppTableRecord
  2
GEVID942827039
 70
     0
  0
APPID
  5
2D78
330
2CA2
100
AcDbSymbolTableRecord
100
AcDbRegAppTableRecord
  2
GEVID942827040
 70
     0
  0
APPID
  5
2D79
330
2CA2
100
AcDbSymbolTableRecord
100
AcDbRegAppTableRecord
  2
GEVID942827041
 70
     0
  0
APPID
  5
2D7A
330
2CA2
100
AcDbSymbolTableRecord
100
AcDbRegAppTableRecord
  2
GENIUS_GENOBJ-F-SCPASSM_13
 70
     0
  0
APPID
  5
2D7B
330
2CA2
100
AcDbSymbolTableRecord
100
AcDbRegAppTableRecord
  2
GENIUS_GENDIMSH_14
 70
     0
  0
APPID
  5
2D7C
330
2CA2
100
AcDbSymbolTableRecord
100
AcDbRegAppTableRecord
  2
GEVID942827042
 70
     0
  0
APPID
  5
2D7D
330
2CA2
100
AcDbSymbolTableRecord
100
AcDbRegAppTableRecord
  2
GEVID946020473
 70
     0
  0
APPID
  5
2D7E
330
2CA2
100
AcDbSymbolTableRecord
100
AcDbRegAppTableRecord
  2
GEVID946020474
 70
     0
  0
APPID
  5
2D7F
330
2CA2
100
AcDbSymbolTableRecord
100
AcDbRegAppTableRecord
  2
GEVID946020475
 70
     0
  0
APPID
  5
2D80
330
2CA2
100
AcDbSymbolTableRecord
100
AcDbRegAppTableRecord
  2
GENIUS_GENOBJ-N-HTC_13
 70
     0
  0
APPID
  5
2D81
330
2CA2
100
AcDbSymbolTableRecord
100
AcDbRegAppTableRecord
  2
GENIUS_GENHATCH_13
 70
     0
  0
APPID
  5
2D82
330
2CA2
100
AcDbSymbolTableRecord
100
AcDbRegAppTableRecord
  2
GEVID948854295
 70
     0
  0
APPID
  5
2D83
330
2CA2
100
AcDbSymbolTableRecord
100
AcDbRegAppTableRecord
  2
GEVID939402019
 70
     0
  0
APPID
  5
2D84
330
2CA2
100
AcDbSymbolTableRecord
100
AcDbRegAppTableRecord
  2
GEVID952919491
 70
     0
  0
APPID
  5
2D85
330
2CA2
100
AcDbSymbolTableRecord
100
AcDbRegAppTableRecord
  2
GEVID952919492
 70
     0
  0
APPID
  5
2D86
330
2CA2
100
AcDbSymbolTableRecord
100
AcDbRegAppTableRecord
  2
GENIUS_GEFWELD_13
 70
     0
  0
APPID
  5
2D87
330
2CA2
100
AcDbSymbolTableRecord
100
AcDbRegAppTableRecord
  2
GENIUS_GENOBJ-F-WELS_13
 70
     0
  0
APPID
  5
2D88
330
2CA2
100
AcDbSymbolTableRecord
100
AcDbRegAppTableRecord
  2
GEVID952919493
 70
     0
  0
APPID
  5
2D89
330
2CA2
100
AcDbSymbolTableRecord
100
AcDbRegAppTableRecord
  2
GENIUS_GENOBJ-N-RSBK_13
 70
     0
  0
APPID
  5
2D8A
330
2CA2
100
AcDbSymbolTableRecord
100
AcDbRegAppTableRecord
  2
GENIUS_GENOBJ-N-LIB_13
 70
     0
  0
APPID
  5
2D8B
330
2CA2
100
AcDbSymbolTableRecord
100
AcDbRegAppTableRecord
  2
GENIUS_GENSCALE_13
 70
     0
  0
APPID
  5
2D8C
330
2CA2
100
AcDbSymbolTableRecord
100
AcDbRegAppTableRecord
  2
GEVID986376691
 70
     0
  0
APPID
  5
2D8D
330
2CA2
100
AcDbSymbolTableRecord
100
AcDbRegAppTableRecord
  2
DCO15
 70
     0
  0
APPID
  5
2D8E
330
2CA2
100
AcDbSymbolTableRecord
100
AcDbRegAppTableRecord
  2
ACAD_DSTYLE_DIMBREAK
 70
     0
  0
APPID
  5
2D8F
330
2CA2
100
AcDbSymbolTableRecord
100
AcDbRegAppTableRecord
  2
ACAD_DSTYLE_DIMJAG
 70
     0
  0
APPID
  5
2D90
330
2CA2
100
AcDbSymbolTableRecord
100
AcDbRegAppTableRecord
  2
ACAD_NAV_VCDISPLAY
 70
     0
  0
APPID
  5
2D91
330
2CA2
100
AcDbSymbolTableRecord
100
AcDbRegAppTableRecord
  2
ACADANNOPO
 70
     0
  0
APPID
  5
2D92
330
2CA2
100
AcDbSymbolTableRecord
100
AcDbRegAppTableRecord
  2
ACAD_EXEMPT_FROM_CAD_STANDARDS
 70
     0
  0
APPID
  5
2D93
330
2CA2
100
AcDbSymbolTableRecord
100
AcDbRegAppTableRecord
  2
ACAD_MLEADERVER
 70
     0
  0
ENDTAB
  0
TABLE
  2
DIMSTYLE
  5
2CA3
330
0
100
AcDbSymbolTable
 70
    23
100
AcDbDimStyleTable
 71
     1
340
2D94
  0
DIMSTYLE
105
2CF0
330
2CA3
100
AcDbSymbolTableRecord
100
AcDbDimStyleTableRecord
  2
STANDARD
 70
     0
271
     2
272
     2
279
     2
284
     8
285
     8
286
     8
340
2CEE
  0
DIMSTYLE
105
2D94
330
2CA3
100
AcDbSymbolTableRecord
100
AcDbDimStyleTableRecord
  2
AM_ISO
 70
     0
  4
"
 41
2.5
 42
1.0
 43
8.0
 44
0.6
 47
0.1
 48
0.1
 73
     0
 74
     0
 77
     1
 78
     8
140
2.5
141
0.0
143
0.0393701
146
0.71
147
0.8
172
     1
176
   256
177
   256
178
     4
271
     2
272
     2
279
     2
284
     8
285
     8
286
     8
340
2CEE
  0
DIMSTYLE
105
2DA2
102
{ACAD_REACTORS
330
2DF2
102
}
330
2CA3
100
AcDbSymbolTableRecord
100
AcDbDimStyleTableRecord
  2
AM_ANSI
 70
     0
  4
mm
 41
0.1
 42
0.05
 43
0.5
 44
0.1
 47
0.1
 48
0.1
 78
     7
140
0.12
141
0.0
146
0.71
147
0.06
176
   256
177
   256
178
     2
271
     2
272
     2
279
     2
284
     8
285
     8
286
     8
340
2CEE
  0
DIMSTYLE
105
2DA3
330
2CA3
100
AcDbSymbolTableRecord
100
AcDbDimStyleTableRecord
  2
AM_ANSI$3
 70
     0
  4
mm
 41
0.1
 42
0.05
 43
0.5
 44
0.1
 47
0.1
 48
0.1
 78
     7
140
0.12
141
0.0
146
0.71
147
0.06
176
   256
177
   256
178
     2
271
     2
272
     2
279
     2
284
     8
285
     8
286
     8
340
2CEE
  0
DIMSTYLE
105
2DA4
330
2CA3
100
AcDbSymbolTableRecord
100
AcDbDimStyleTableRecord
  2
AM_ANSI$4
 70
     0
  4
mm
 41
0.1
 42
0.05
 43
0.5
 44
0.1
 47
0.1
 48
0.1
 78
     7
140
0.12
141
0.0
146
0.71
147
0.06
176
   256
177
   256
178
     2
271
     2
272
     2
279
     2
284
     8
285
     8
286
     8
340
2CEE
  0
DIMSTYLE
105
2DA5
330
2CA3
100
AcDbSymbolTableRecord
100
AcDbDimStyleTableRecord
  2
AM_ANSI$7
 70
     0
  4
mm
 41
0.1
 42
0.05
 43
0.5
 44
0.1
 47
0.1
 48
0.1
 78
     7
140
0.24
141
0.0
146
0.71
147
0.06
176
   256
177
   256
178
     2
271
     2
272
     2
279
     2
284
     8
285
     8
286
     8
340
2CEE
  0
DIMSTYLE
105
2DA6
330
2CA3
100
AcDbSymbolTableRecord
100
AcDbDimStyleTableRecord
  2
AM_ANSI$SF
 70
     0
  4
mm
 41
0.1
 42
0.05
 43
0.5
 44
0.1
 47
0.1
 48
0.1
 75
     1
 76
     1
 78
     7
140
0.12
141
0.0
146
0.71
147
0.06
176
   256
177
   256
178
     2
271
     2
272
     2
279
     2
284
     8
285
     8
286
     8
340
2CEE
  0
DIMSTYLE
105
2DA7
330
2CA3
100
AcDbSymbolTableRecord
100
AcDbDimStyleTableRecord
  2
AM_ANSI$SH
 70
     0
  4
mm
 41
0.1
 42
0.05
 43
0.5
 44
0.1
 47
0.1
 48
0.1
 75
     1
 76
     1
 78
     7
140
0.12
141
0.0
146
0.71
147
0.06
173
     1
176
   256
177
   256
178
     2
271
     2
272
     2
279
     2
284
     8
285
     8
286
     8
340
2CEE
  0
ENDTAB
  0
TABLE
  2
BLOCK_RECORD
  5
2C9A
330
0
100
AcDbSymbolTable
 70
    12
  0
BLOCK_RECORD
  5
2D08
330
2C9A
100
AcDbSymbolTableRecord
100
AcDbBlockTableRecord
  2
*Model_Space
340
2D0B
 70
     0
280
     1
281
     0
  0
BLOCK_RECORD
  5
2D04
330
2C9A
100
AcDbSymbolTableRecord
100
AcDbBlockTableRecord
  2
*Paper_Space
340
2D07
 70
     0
280
     1
281
     0
  0
BLOCK_RECORD
  5
2DBF
330
2C9A
100
AcDbSymbolTableRecord
100
AcDbBlockTableRecord
  2
_ACMFILLEDHALF
340
0
 70
     0
280
     1
281
     0
  0
ENDTAB
  0
ENDSEC
  0
SECTION
  2
BLOCKS
  0
BLOCK
  5
2D09
330
2D08
100
AcDbEntity
  8
0
100
AcDbBlockBegin
  2
*Model_Space
 70
     0
 10
0.0
 20
0.0
 30
0.0
  3
*Model_Space
  1

  0
ENDBLK
  5
2D0A
330
2D08
100
AcDbEntity
  8
0
100
AcDbBlockEnd
  0
BLOCK
  5
2D05
330
2D04
100
AcDbEntity
 67
     1
  8
0
100
AcDbBlockBegin
  2
*Paper_Space
 70
     0
 10
0.0
 20
0.0
 30
0.0
  3
*Paper_Space
  1

  0
ENDBLK
  5
2D06
330
2D04
100
AcDbEntity
 67
     1
  8
0
100
AcDbBlockEnd
  0
BLOCK
  5
2DC0
330
2DBF
100
AcDbEntity
  8
0
100
AcDbBlockBegin
  2
_ACMFILLEDHALF
 70
     0
 10
0.0
 20
0.0
 30
0.0
  3
_ACMFILLEDHALF
  1

  0
TRACE
  5
2C04
330
2DBF
100
AcDbEntity
  8
AM_0
 62
     0
100
AcDbTrace
 10
-0.8
 20
0.0
 30
0.0
 11
-1.0
 21
0.166666666
 31
0.0
 12
0.0
 22
0.0
 32
0.0
 13
0.0
 23
0.0
 33
0.0
  0
LINE
  5
2C05
330
2DBF
100
AcDbEntity
  8
AM_0
 62
     0
100
AcDbLine
 10
-1.0
 20
0.0
 30
0.0
 11
-0.8
 21
0.0
 31
0.0
  0
ENDBLK
  5
2C03
330
2DBF
100
AcDbEntity
  8
0
100
AcDbBlockEnd
  0
ENDSEC
  0
SECTION
  2
ENTITIES
  0
LINE
  5
2891
330
2D08
100
AcDbEntity
  8
AM_0
100
AcDbLine
 10
658.2233685306545
 20
437.4614649999999
 30
0.0
 11
740.2233685306547
 21
437.4614649999999
 31
0.0
  0
LINE
  5
2892
330
2D08
100
AcDbEntity
  8
AM_0
100
AcDbLine
 10
678.2233685306545
 20
441.4614649999998
 30
0.0
 11
740.2233685306547
 21
441.4614649999998
 31
0.0
  0
LINE
  5
2893
330
2D08
100
AcDbEntity
  8
AM_0
100
AcDbLine
 10
658.2233685306545
 20
382.4614600000002
 30
0.0
 11
740.2233685306547
 21
382.4614600000002
 31
0.0
  0
LINE
  5
2894
330
2D08
100
AcDbEntity
  8
ﾁｭｳｼﾝｾﾝ
100
AcDbLine
 10
389.1404691896548
 20
409.9614600000001
 30
0.0
 11
747.1522185306547
 21
409.9614600000001
 31
0.0
  0
ARC
  5
2895
330
2D08
100
AcDbEntity
  8
AM_0
100
AcDbCircle
 10
444.2233685306548
 20
468.0930850000001
 30
0.0
 40
5.0
100
AcDbArc
 50
272.0
 51
0.0
  0
ARC
  5
2896
330
2D08
100
AcDbEntity
  8
AM_0
100
AcDbCircle
 10
414.2233685306548
 20
461.461465
 30
0.0
 40
3.00000005
100
AcDbArc
 50
90.00000300000001
 51
180.00001
  0
LINE
  5
2897
330
2D08
100
AcDbEntity
  8
AM_0
100
AcDbLine
 10
505.2233685306551
 20
531.96145
 30
0.0
 11
505.2233685306551
 21
216.96146
 31
0.0
  0
LINE
  5
2898
330
2D08
100
AcDbEntity
  8
AM_0
100
AcDbLine
 10
628.2233685306545
 20
569.3647500000001
 30
0.0
 11
628.2233685306545
 21
375.698095
 31
0.0
  0
LINE
  5
2899
330
2D08
100
AcDbEntity
  8
AM_0
100
AcDbLine
 10
650.2233685306548
 20
574.9615000000001
 30
0.0
 11
650.2233685306548
 21
244.96146
 31
0.0
  0
LINE
  5
289A
330
2D08
100
AcDbEntity
  8
AM_0
100
AcDbLine
 10
655.2233685306551
 20
549.9615000000001
 30
0.0
 11
655.2233685306551
 21
269.9614600000003
 31
0.0
  0
LINE
  5
289B
330
2D08
100
AcDbEntity
  8
AM_0
100
AcDbLine
 10
637.2233685306545
 20
534.3106
 30
0.0
 11
637.2233685306545
 21
285.61234
 31
0.0
  0
LINE
  5
289C
330
2D08
100
AcDbEntity
  8
AM_0
100
AcDbLine
 10
627.5500185306551
 20
367.473365
 30
0.0
 11
615.6462685306551
 21
495.8350300000001
 31
0.0
  0
LINE
  5
289D
330
2D08
100
AcDbEntity
  8
AM_0
100
AcDbLine
 10
424.2233685306548
 20
464.4614
 30
0.0
 11
426.2233685306548
 21
462.4614000000001
 31
0.0
  0
LINE
  5
289E
330
2D08
100
AcDbEntity
  8
AM_0
100
AcDbLine
 10
449.2233685306548
 20
477.94544
 30
0.0
 11
449.2233685306548
 21
252.518955
 31
0.0
  0
LINE
  5
289F
330
2D08
100
AcDbEntity
  8
AM_0
100
AcDbLine
 10
426.2233685306548
 20
462.4614649999999
 30
0.0
 11
444.3978685306549
 21
463.0961349999999
 31
0.0
  0
LINE
  5
28A0
330
2D08
100
AcDbEntity
  8
AM_0
100
AcDbLine
 10
475.223368530655
 20
528.9824999999999
 30
0.0
 11
475.223368530655
 21
219.94045
 31
0.0
  0
ARC
  5
28A1
330
2D08
100
AcDbEntity
  8
AM_0
100
AcDbCircle
 10
266.2467575306548
 20
375.1441380000002
 30
0.0
 40
10.0
100
AcDbArc
 50
270.9999999999984
 51
296.9999999999988
  0
ARC
  5
28A2
330
2D08
100
AcDbEntity
  8
AM_0
100
AcDbCircle
 10
266.2467575306548
 20
269.7787820000003
 30
0.0
 40
10.0
100
AcDbArc
 50
62.99999999999824
 51
89.00000000000151
  0
LINE
  5
28A3
330
2D08
100
AcDbEntity
  8
ﾁｭｳｼﾝｾﾝ
100
AcDbLine
 10
178.2347341004762
 20
322.4614600000003
 30
0.0
 11
404.1974932636851
 21
322.4614600000003
 31
0.0
  0
LINE
  5
28A4
330
2D08
100
AcDbEntity
  8
AM_0
100
AcDbLine
 10
227.2234185306548
 20
287.7708610000003
 30
0.0
 11
227.2234185306548
 21
357.1520590000002
 31
0.0
  0
LINE
  5
28A5
330
2D08
100
AcDbEntity
  8
AM_0
100
AcDbLine
 10
225.2234185306548
 20
294.9614600000003
 30
0.0
 11
225.2234185306548
 21
349.9614600000002
 31
0.0
  0
LINE
  5
28A6
330
2D08
100
AcDbEntity
  8
AM_0
100
AcDbLine
 10
187.2234185306549
 20
310.4614600000003
 30
0.0
 11
187.2234185306549
 21
334.4614600000003
 31
0.0
  0
LINE
  5
28A7
330
2D08
100
AcDbEntity
  8
AM_0
100
AcDbLine
 10
223.2234185306548
 20
307.4614600000003
 30
0.0
 11
223.2234185306548
 21
337.4614600000003
 31
0.0
  0
LINE
  5
28A8
330
2D08
100
AcDbEntity
  8
AM_0
100
AcDbLine
 10
236.1536605306548
 20
283.3060390000003
 30
0.0
 11
236.1536605306548
 21
361.6168810000003
 31
0.0
  0
LINE
  5
28A9
330
2D08
100
AcDbEntity
  8
AM_0
100
AcDbLine
 10
187.2234185306549
 20
310.4614600000003
 30
0.0
 11
223.2234185306548
 21
310.4614600000003
 31
0.0
  0
LINE
  5
28AA
330
2D08
100
AcDbEntity
  8
AM_0
100
AcDbLine
 10
229.2234185306548
 20
284.3067600000003
 30
0.0
 11
235.2577835306548
 21
280.8228170000004
 31
0.0
  0
LINE
  5
28AB
330
2D08
100
AcDbEntity
  8
AM_0
100
AcDbLine
 10
237.1879735306548
 20
280.2875280000001
 30
0.0
 11
266.4212815306548
 21
279.7772590000003
 31
0.0
  0
ARC
  5
28AC
330
2D08
100
AcDbEntity
  8
AM_0
100
AcDbCircle
 10
237.2577835306548
 20
284.2869190000003
 30
0.0
 40
4.0
100
AcDbArc
 50
239.9999999999995
 51
269.0000000000015
  0
LINE
  5
28AD
330
2D08
100
AcDbEntity
  8
AM_0
100
AcDbLine
 10
225.2234185306548
 20
294.9614600000003
 30
0.0
 11
227.2234185306548
 21
292.9614600000003
 31
0.0
  0
ARC
  5
28AE
330
2D08
100
AcDbEntity
  8
AM_0
100
AcDbCircle
 10
231.2234185306548
 20
287.7708610000003
 30
0.0
 40
4.0
100
AcDbArc
 50
180.0
 51
239.9999999999995
  0
LINE
  5
28AF
330
2D08
100
AcDbEntity
  8
AM_0
100
AcDbLine
 10
223.2234185306548
 20
307.4614600000003
 30
0.0
 11
225.2234185306548
 21
307.4614600000003
 31
0.0
  0
LINE
  5
28B0
330
2D08
100
AcDbEntity
  8
AM_0
100
AcDbLine
 10
187.2234185306549
 20
334.4614600000003
 30
0.0
 11
223.2234185306548
 21
334.4614600000003
 31
0.0
  0
LINE
  5
28B2
330
2D08
100
AcDbEntity
  8
AM_0
100
AcDbLine
 10
187.2234185306549
 20
334.4614600000003
 30
0.0
 11
187.2234185306549
 21
337.4614600000003
 31
0.0
  0
LINE
  5
28B3
330
2D08
100
AcDbEntity
  8
AM_0
100
AcDbLine
 10
215.2234185306549
 20
334.4614600000003
 30
0.0
 11
215.2234185306549
 21
337.4614600000003
 31
0.0
  0
LINE
  5
28B4
330
2D08
100
AcDbEntity
  8
AM_0
100
AcDbLine
 10
223.2234185306548
 20
337.4614600000003
 30
0.0
 11
225.2234185306548
 21
337.4614600000003
 31
0.0
  0
LINE
  5
28B5
330
2D08
100
AcDbEntity
  8
AM_0
100
AcDbLine
 10
227.2234185306548
 20
351.9614600000002
 30
0.0
 11
225.2234185306548
 21
349.9614600000002
 31
0.0
  0
LINE
  5
28B6
330
2D08
100
AcDbEntity
  8
AM_0
100
AcDbLine
 10
266.4212815306548
 20
365.1456610000001
 30
0.0
 11
237.1879735306548
 21
364.6353920000003
 31
0.0
  0
LINE
  5
28B7
330
2D08
100
AcDbEntity
  8
AM_0
100
AcDbLine
 10
235.2577835306548
 20
364.1001030000002
 30
0.0
 11
229.2234185306548
 21
360.6161610000003
 31
0.0
  0
ARC
  5
28B8
330
2D08
100
AcDbEntity
  8
AM_0
100
AcDbCircle
 10
237.2577835306548
 20
360.6360010000003
 30
0.0
 40
4.0
100
AcDbArc
 50
90.99999999999846
 51
120.0000000000005
  0
ARC
  5
28B9
330
2D08
100
AcDbEntity
  8
AM_0
100
AcDbCircle
 10
231.2234185306548
 20
357.1520590000002
 30
0.0
 40
4.0
100
AcDbArc
 50
120.0000000000005
 51
180.0
  0
LINE
  5
28BA
330
2D08
100
AcDbEntity
  8
AM_0
100
AcDbLine
 10
477.1536185306548
 20
217.9416700000001
 30
0.0
 11
505.2234185306549
 21
216.961445
 31
0.0
  0
LINE
  5
28BB
330
2D08
100
AcDbEntity
  8
AM_0
100
AcDbLine
 10
477.2233685306543
 20
418.427865
 30
0.0
 11
622.8246685306545
 21
418.427865
 31
0.0
  0
LINE
  5
28BC
330
2D08
100
AcDbEntity
  8
AM_0
100
AcDbLine
 10
477.2233685306543
 20
316.6322700000002
 30
0.0
 11
628.2233685306545
 21
316.6322700000002
 31
0.0
  0
LINE
  5
28BD
330
2D08
100
AcDbEntity
  8
AM_0
100
AcDbLine
 10
336.2234185306548
 20
395.9614600000002
 30
0.0
 11
336.2234185306548
 21
248.9614450000002
 31
0.0
  0
LINE
  5
28BE
330
2D08
100
AcDbEntity
  8
AM_0
100
AcDbLine
 10
411.2234185306545
 20
267.4614600000003
 30
0.0
 11
411.2234185306545
 21
461.461465
 31
0.0
  0
LINE
  5
28BF
330
2D08
100
AcDbEntity
  8
AM_0
100
AcDbLine
 10
426.2234185306548
 20
462.4614649999999
 30
0.0
 11
426.2234185306548
 21
267.4614600000003
 31
0.0
  0
LINE
  5
28C0
330
2D08
100
AcDbEntity
  8
AM_0
100
AcDbLine
 10
324.2234185306549
 20
253.7061130000003
 30
0.0
 11
324.2234185306549
 21
391.2168080000001
 31
0.0
  0
LINE
  5
28C1
330
2D08
100
AcDbEntity
  8
AM_0
100
AcDbLine
 10
268.7296115306549
 20
282.7374240000003
 30
0.0
 11
268.7296115306549
 21
362.1854960000002
 31
0.0
  0
LINE
  5
28C2
330
2D08
100
AcDbEntity
  8
AM_0
100
AcDbLine
 10
359.4232685306545
 20
273.9614600000001
 30
0.0
 11
408.2233685306548
 21
273.9614600000001
 31
0.0
  0
LINE
  5
28C3
330
2D08
100
AcDbEntity
  8
AM_0
100
AcDbLine
 10
270.7866625306548
 20
278.6888470000003
 30
0.0
 11
323.2048495306548
 21
251.9804470000003
 31
0.0
  0
LINE
  5
28C4
330
2D08
100
AcDbEntity
  8
AM_0
100
AcDbLine
 10
348.2234185306548
 20
315.50962
 30
0.0
 11
348.2234185306548
 21
250.391775
 31
0.0
  0
LINE
  5
28C5
330
2D08
100
AcDbEntity
  8
AM_0
100
AcDbLine
 10
357.3226685306548
 20
315.50962
 30
0.0
 11
357.3226685306548
 21
273.9614600000001
 31
0.0
  0
ARC
  5
28C6
330
2D08
100
AcDbEntity
  8
AM_0
100
AcDbCircle
 10
336.2234185306549
 20
280.9867850000003
 30
0.0
 40
2.0
100
AcDbArc
 50
120.0000000000005
 51
180.0
  0
LINE
  5
28C7
330
2D08
100
AcDbEntity
  8
AM_0
100
AcDbLine
 10
349.4208185306546
 20
252.25136
 30
0.0
 11
356.6041685306549
 21
271.98752
 31
0.0
  0
LINE
  5
28C8
330
2D08
100
AcDbEntity
  8
AM_0
100
AcDbLine
 10
334.2234185306549
 20
260.9522350000003
 30
0.0
 11
334.2234185306549
 21
280.9867850000003
 31
0.0
  0
LINE
  5
28C9
330
2D08
100
AcDbEntity
  8
AM_0
100
AcDbLine
 10
326.2234185306549
 20
248.9614600000003
 30
0.0
 11
336.2234185306549
 21
248.9614600000003
 31
0.0
  0
LINE
  5
28CA
330
2D08
100
AcDbEntity
  8
AM_0
100
AcDbLine
 10
326.2234185306549
 20
258.9522350000003
 30
0.0
 11
332.2234185306549
 21
258.9522350000003
 31
0.0
  0
ARC
  5
28CB
330
2D08
100
AcDbEntity
  8
AM_0
100
AcDbCircle
 10
332.2234185306549
 20
260.9522350000003
 30
0.0
 40
2.0
100
AcDbArc
 50
270.0
 51
0.0
  0
ARC
  5
28CC
330
2D08
100
AcDbEntity
  8
AM_0
100
AcDbCircle
 10
322.2968685306548
 20
250.1984340000003
 30
0.0
 40
2.0
100
AcDbArc
 50
10.99694300000052
 51
62.99999999999824
  0
ARC
  5
28CD
330
2D08
100
AcDbEntity
  8
AM_0
100
AcDbCircle
 10
326.2234185306549
 20
250.9614600000003
 30
0.0
 40
2.0
100
AcDbArc
 50
190.9969430000004
 51
270.0
  0
ARC
  5
28CE
330
2D08
100
AcDbEntity
  8
AM_0
100
AcDbCircle
 10
326.2234185306549
 20
260.9522350000003
 30
0.0
 40
2.0
100
AcDbArc
 50
180.0
 51
270.0
  0
ARC
  5
28CF
330
2D08
100
AcDbEntity
  8
AM_0
100
AcDbCircle
 10
344.7223185306548
 20
253.9614450000001
 30
0.0
 40
5.0
100
AcDbArc
 50
270.0
 51
340.0
  0
LINE
  5
28D0
330
2D08
100
AcDbEntity
  8
AM_0
100
AcDbLine
 10
336.2234185306548
 20
248.9614450000002
 30
0.0
 11
344.7223185306548
 21
248.9614450000002
 31
0.0
  0
LINE
  5
28D1
330
2D08
100
AcDbEntity
  8
AM_0
100
AcDbLine
 10
336.2234185306548
 20
260.8827850000001
 30
0.0
 11
348.2234185306548
 21
260.8827850000001
 31
0.0
  0
ARC
  5
28D2
330
2D08
100
AcDbEntity
  8
AM_0
100
AcDbCircle
 10
359.4232685306545
 20
270.96146
 30
0.0
 40
3.00000005
100
AcDbArc
 50
90.00000300000001
 51
160.0
  0
LINE
  5
28D3
330
2D08
100
AcDbEntity
  8
AM_0
100
AcDbLine
 10
326.2234185306549
 20
282.9867850000003
 30
0.0
 11
334.2234185306549
 21
282.9867850000003
 31
0.0
  0
LINE
  5
28D4
330
2D08
100
AcDbEntity
  8
AM_0
100
AcDbLine
 10
336.2234185306548
 20
282.98679
 30
0.0
 11
348.2234185306548
 21
282.98679
 31
0.0
  0
LINE
  5
28D5
330
2D08
100
AcDbEntity
  8
AM_0
100
AcDbLine
 10
473.149618530655
 20
232.6923100000001
 30
0.0
 11
451.2971685306549
 21
248.46468
 31
0.0
  0
ARC
  5
28D6
330
2D08
100
AcDbEntity
  8
AM_0
100
AcDbCircle
 10
477.2233685306543
 20
219.94045
 30
0.0
 40
2.00000005
100
AcDbArc
 50
179.9999899999999
 51
268.0000099999999
  0
ARC
  5
28D7
330
2D08
100
AcDbEntity
  8
AM_0
100
AcDbCircle
 10
470.223368530655
 20
228.638065
 30
0.0
 40
5.0
100
AcDbArc
 50
0.0
 51
54.179554
  0
LINE
  5
28D8
330
2D08
100
AcDbEntity
  8
AM_0
100
AcDbLine
 10
428.2233685306549
 20
308.185645
 30
0.0
 11
449.2233685306548
 21
308.185645
 31
0.0
  0
LINE
  5
28D9
330
2D08
100
AcDbEntity
  8
AM_0
100
AcDbLine
 10
428.2233685306549
 20
291.955265
 30
0.0
 11
449.2233685306548
 21
291.955265
 31
0.0
  0
LINE
  5
28DA
330
2D08
100
AcDbEntity
  8
AM_0
100
AcDbLine
 10
428.2233685306549
 20
281.7662700000001
 30
0.0
 11
449.2233685306548
 21
281.7662700000001
 31
0.0
  0
LINE
  5
28DB
330
2D08
100
AcDbEntity
  8
AM_0
100
AcDbLine
 10
426.2233685306548
 20
267.4614600000003
 30
0.0
 11
444.3978685306549
 21
266.826785
 31
0.0
  0
LINE
  5
28DC
330
2D08
100
AcDbEntity
  8
AM_0
100
AcDbLine
 10
428.2233685306549
 20
308.185645
 30
0.0
 11
428.2233685306549
 21
281.7662700000001
 31
0.0
  0
LINE
  5
28DD
330
2D08
100
AcDbEntity
  8
AM_0
100
AcDbLine
 10
411.2234185306545
 20
281.7662700000001
 30
0.0
 11
426.2234185306548
 21
281.7662700000001
 31
0.0
  0
LINE
  5
28DE
330
2D08
100
AcDbEntity
  8
AM_0
100
AcDbLine
 10
413.2233685306548
 20
265.4614600000003
 30
0.0
 11
424.2233685306548
 21
265.4614600000003
 31
0.0
  0
ARC
  5
28DF
330
2D08
100
AcDbEntity
  8
AM_0
100
AcDbCircle
 10
408.2233685306548
 20
270.96146
 30
0.0
 40
3.00000005
100
AcDbArc
 50
0.0
 51
90.00000300000001
  0
ARC
  5
28E0
330
2D08
100
AcDbEntity
  8
AM_0
100
AcDbCircle
 10
413.2233685306548
 20
267.4614600000003
 30
0.0
 40
2.00000005
100
AcDbArc
 50
179.9999899999999
 51
270.0
  0
LINE
  5
28E1
330
2D08
100
AcDbEntity
  8
AM_0
100
AcDbLine
 10
424.2234185306547
 20
265.4614
 30
0.0
 11
426.2234185306548
 21
267.46137
 31
0.0
  0
LINE
  5
28E2
330
2D08
100
AcDbEntity
  8
AM_0
100
AcDbLine
 10
411.2234185306545
 20
291.955265
 30
0.0
 11
426.2234185306548
 21
291.955265
 31
0.0
  0
LINE
  5
28E3
330
2D08
100
AcDbEntity
  8
AM_0
100
AcDbLine
 10
411.2234185306545
 20
308.185645
 30
0.0
 11
426.2234185306548
 21
308.185645
 31
0.0
  0
ARC
  5
28E4
330
2D08
100
AcDbEntity
  8
AM_0
100
AcDbCircle
 10
444.2233685306548
 20
261.82984
 30
0.0
 40
5.0
100
AcDbArc
 50
0.0
 51
88.0
  0
ARC
  5
28E5
330
2D08
100
AcDbEntity
  8
AM_0
100
AcDbCircle
 10
454.2233685306548
 20
252.518955
 30
0.0
 40
5.0
100
AcDbArc
 50
179.9999899999999
 51
234.17957
  0
LINE
  5
28E6
330
2D08
100
AcDbEntity
  8
AM_0
100
AcDbLine
 10
351.2234185306549
 20
318.509585
 30
0.0
 11
408.2233685306548
 21
318.509585
 31
0.0
  0
LINE
  5
28E7
330
2D08
100
AcDbEntity
  8
AM_0
100
AcDbLine
 10
353.1588685306546
 20
397.896855
 30
0.0
 11
409.758968530655
 21
454.4969550000001
 31
0.0
  0
LINE
  5
28E8
330
2D08
100
AcDbEntity
  8
AM_0
100
AcDbLine
 10
351.7661685306546
 20
396.5042150000002
 30
0.0
 11
351.7661685306546
 21
322.4614600000003
 31
0.0
  0
LINE
  5
28E9
330
2D08
100
AcDbEntity
  8
AM_0
100
AcDbLine
 10
323.2048495306548
 20
392.9424740000002
 30
0.0
 11
270.7866625306548
 21
366.2340730000003
 31
0.0
  0
LINE
  5
28EA
330
2D08
100
AcDbEntity
  8
AM_0
100
AcDbLine
 10
336.2234185306548
 20
361.936165
 30
0.0
 11
351.2234185306549
 21
361.936165
 31
0.0
  0
LINE
  5
28EB
330
2D08
100
AcDbEntity
  8
AM_0
100
AcDbLine
 10
336.2234185306548
 20
384.0401050000001
 30
0.0
 11
351.2234185306549
 21
384.0401050000001
 31
0.0
  0
LINE
  5
28EC
330
2D08
100
AcDbEntity
  8
AM_0
100
AcDbLine
 10
334.2234185306549
 20
383.9706850000002
 30
0.0
 11
334.2234185306549
 21
363.9361360000003
 31
0.0
  0
LINE
  5
28ED
330
2D08
100
AcDbEntity
  8
AM_0
100
AcDbLine
 10
326.2234185306549
 20
361.9361360000003
 30
0.0
 11
334.2234185306549
 21
361.9361360000003
 31
0.0
  0
ARC
  5
28EE
330
2D08
100
AcDbEntity
  8
AM_0
100
AcDbCircle
 10
336.2234185306549
 20
363.9361360000003
 30
0.0
 40
2.0
100
AcDbArc
 50
180.0
 51
239.9999999999995
  0
LINE
  5
28EF
330
2D08
100
AcDbEntity
  8
AM_0
100
AcDbLine
 10
326.2234185306549
 20
385.9706850000002
 30
0.0
 11
332.2234185306549
 21
385.9706850000002
 31
0.0
  0
ARC
  5
28F0
330
2D08
100
AcDbEntity
  8
AM_0
100
AcDbCircle
 10
332.2234185306549
 20
383.9706850000002
 30
0.0
 40
2.0
100
AcDbArc
 50
0.0
 51
90.0
  0
ARC
  5
28F1
330
2D08
100
AcDbEntity
  8
AM_0
100
AcDbCircle
 10
326.2234185306549
 20
383.9706850000002
 30
0.0
 40
2.0
100
AcDbArc
 50
90.0
 51
180.0
  0
ARC
  5
28F2
330
2D08
100
AcDbEntity
  8
AM_0
100
AcDbCircle
 10
349.6233185306549
 20
401.4324700000001
 30
0.0
 40
5.0
100
AcDbArc
 50
272.0
 51
315.0
  0
LINE
  5
28F3
330
2D08
100
AcDbEntity
  8
AM_0
100
AcDbLine
 10
326.2234185306549
 20
395.9614600000004
 30
0.0
 11
336.2234185306549
 21
395.9614600000004
 31
0.0
  0
ARC
  5
28F4
330
2D08
100
AcDbEntity
  8
AM_0
100
AcDbCircle
 10
322.2968685306548
 20
394.7244870000001
 30
0.0
 40
2.0
100
AcDbArc
 50
296.9999999999988
 51
349.0030569999992
  0
ARC
  5
28F5
330
2D08
100
AcDbEntity
  8
AM_0
100
AcDbCircle
 10
326.2234185306549
 20
393.9614600000002
 30
0.0
 40
2.0
100
AcDbArc
 50
90.0
 51
169.0030569999995
  0
LINE
  5
28F6
330
2D08
100
AcDbEntity
  8
AM_0
100
AcDbLine
 10
336.2234185306548
 20
395.9614600000002
 30
0.0
 11
349.7977685306545
 21
396.43549
 31
0.0
  0
LINE
  5
28F7
330
2D08
100
AcDbEntity
  8
AM_0
100
AcDbLine
 10
428.2233685306549
 20
448.1566250000001
 30
0.0
 11
449.2233685306548
 21
448.1566250000001
 31
0.0
  0
LINE
  5
28F8
330
2D08
100
AcDbEntity
  8
AM_0
100
AcDbLine
 10
428.2233685306549
 20
437.96766
 30
0.0
 11
449.2233685306548
 21
437.96766
 31
0.0
  0
LINE
  5
28F9
330
2D08
100
AcDbEntity
  8
AM_0
100
AcDbLine
 10
428.2233685306549
 20
421.73725
 30
0.0
 11
449.2233685306548
 21
421.73725
 31
0.0
  0
LINE
  5
28FA
330
2D08
100
AcDbEntity
  8
AM_0
100
AcDbLine
 10
428.2233685306549
 20
448.1566250000001
 30
0.0
 11
428.2233685306549
 21
421.73725
 31
0.0
  0
LINE
  5
28FB
330
2D08
100
AcDbEntity
  8
AM_0
100
AcDbLine
 10
411.2234185306545
 20
421.73725
 30
0.0
 11
426.2234185306548
 21
421.73725
 31
0.0
  0
LINE
  5
28FC
330
2D08
100
AcDbEntity
  8
AM_0
100
AcDbLine
 10
411.2234185306545
 20
437.96766
 30
0.0
 11
426.2234185306548
 21
437.96766
 31
0.0
  0
LINE
  5
28FD
330
2D08
100
AcDbEntity
  8
AM_0
100
AcDbLine
 10
411.2234185306545
 20
448.1566250000001
 30
0.0
 11
426.2234185306548
 21
448.1566250000001
 31
0.0
  0
ARC
  5
28FE
330
2D08
100
AcDbEntity
  8
AM_0
100
AcDbCircle
 10
406.2234185306548
 20
458.0325400000001
 30
0.0
 40
5.0
100
AcDbArc
 50
315.0
 51
0.0
  0
ARC
  5
28FF
330
2D08
100
AcDbEntity
  8
AM_0
100
AcDbCircle
 10
629.2233685306545
 20
325.62482
 30
0.0
 40
8.0
100
AcDbArc
 50
270.0
 51
0.0
  0
LINE
  5
2900
330
2D08
100
AcDbEntity
  8
AM_0
100
AcDbLine
 10
550.2233685306548
 20
290.2073700000002
 30
0.0
 11
628.2233685306545
 21
290.2073700000002
 31
0.0
  0
LINE
  5
2901
330
2D08
100
AcDbEntity
  8
AM_0
100
AcDbLine
 10
550.2233685306548
 20
265.5625050000001
 30
0.0
 11
628.2233685306545
 21
265.5625050000001
 31
0.0
  0
LINE
  5
2902
330
2D08
100
AcDbEntity
  8
AM_0
100
AcDbLine
 10
592.3284685306549
 20
216.15465
 30
0.0
 11
642.2233685306545
 21
244.961475
 31
0.0
  0
LINE
  5
2903
330
2D08
100
AcDbEntity
  8
AM_0
100
AcDbLine
 10
505.2233185306548
 20
216.96146
 30
0.0
 11
587.0667185306547
 21
214.818315
 31
0.0
  0
ARC
  5
2904
330
2D08
100
AcDbEntity
  8
AM_0
100
AcDbCircle
 10
587.3285185306549
 20
224.8149000000001
 30
0.0
 40
10.0
100
AcDbArc
 50
268.5
 51
300.0
  0
ARC
  5
2905
330
2D08
100
AcDbEntity
  8
AM_0
100
AcDbCircle
 10
550.2233685306548
 20
285.2073700000001
 30
0.0
 40
5.0
100
AcDbArc
 50
90.00000300000001
 51
180.00001
  0
ARC
  5
2906
330
2D08
100
AcDbEntity
  8
AM_0
100
AcDbCircle
 10
550.2233685306548
 20
270.562505
 30
0.0
 40
5.0
100
AcDbArc
 50
179.9999899999999
 51
270.0
  0
LINE
  5
2907
330
2D08
100
AcDbEntity
  8
AM_0
100
AcDbLine
 10
545.2233685306548
 20
285.2073700000001
 30
0.0
 11
545.2233685306548
 21
270.562505
 31
0.0
  0
ARC
  5
2908
330
2D08
100
AcDbEntity
  8
AM_0
100
AcDbCircle
 10
633.2233685306545
 20
249.96146
 30
0.0
 40
5.0
100
AcDbArc
 50
179.9999899999999
 51
270.0
  0
LINE
  5
2909
330
2D08
100
AcDbEntity
  8
AM_0
100
AcDbLine
 10
633.2233685306545
 20
244.96146
 30
0.0
 11
650.2233685306548
 21
244.96146
 31
0.0
  0
ARC
  5
290A
330
2D08
100
AcDbEntity
  8
AM_0
100
AcDbCircle
 10
629.2233685306545
 20
285.61234
 30
0.0
 40
8.0
100
AcDbArc
 50
270.0
 51
0.0
  0
LINE
  5
290B
330
2D08
100
AcDbEntity
  8
AM_0
100
AcDbLine
 10
628.2233685306545
 20
317.687565
 30
0.0
 11
628.2233685306545
 21
249.96146
 31
0.0
  0
LINE
  5
290C
330
2D08
100
AcDbEntity
  8
AM_0
100
AcDbLine
 10
650.2233685306548
 20
269.9614600000003
 30
0.0
 11
655.2233685306551
 21
269.9614600000003
 31
0.0
  0
LINE
  5
290D
330
2D08
100
AcDbEntity
  8
AM_0
100
AcDbLine
 10
658.2233685306545
 20
439.9614650000001
 30
0.0
 11
658.2233685306545
 21
379.9614600000002
 31
0.0
  0
LINE
  5
290E
330
2D08
100
AcDbEntity
  8
AM_0
100
AcDbLine
 10
655.2233685306551
 20
379.9614600000002
 30
0.0
 11
658.2233685306545
 21
379.9614600000002
 31
0.0
  0
ARC
  5
290F
330
2D08
100
AcDbEntity
  8
AM_0
100
AcDbCircle
 10
635.5157685306549
 20
368.212105
 30
0.0
 40
8.0
100
AcDbArc
 50
185.2982399999999
 51
270.0
  0
LINE
  5
2910
330
2D08
100
AcDbEntity
  8
AM_0
100
AcDbLine
 10
655.2233685306551
 20
439.9614650000001
 30
0.0
 11
658.2233685306545
 21
439.9614650000001
 31
0.0
  0
LINE
  5
2911
330
2D08
100
AcDbEntity
  8
AM_0
100
AcDbLine
 10
678.2233685306545
 20
441.4614649999998
 30
0.0
 11
678.2233685306545
 21
437.4614649999999
 31
0.0
  0
LINE
  5
2912
330
2D08
100
AcDbEntity
  8
AM_0
100
AcDbLine
 10
487.2234185306549
 20
542.9615
 30
0.0
 11
496.7014185306545
 21
541.0824500000001
 31
0.0
  0
LINE
  5
2913
330
2D08
100
AcDbEntity
  8
AM_0
100
AcDbLine
 10
477.4293185306551
 20
540.9614499999999
 30
0.0
 11
497.0173685306549
 21
540.9614499999999
 31
0.0
  0
CIRCLE
  5
2914
330
2D08
100
AcDbEntity
  8
AM_0
100
AcDbCircle
 10
487.2233685306545
 20
557.9614500000001
 30
0.0
 40
15.0
  0
LINE
  5
2915
330
2D08
100
AcDbEntity
  8
AM_0
100
AcDbLine
 10
477.1535685306548
 20
530.9812500000003
 30
0.0
 11
505.2233685306551
 21
531.96145
 31
0.0
  0
LINE
  5
2916
330
2D08
100
AcDbEntity
  8
AM_0
100
AcDbLine
 10
474.2233685306548
 20
531.96145
 30
0.0
 11
505.2233685306551
 21
531.96145
 31
0.0
  0
ARC
  5
2917
330
2D08
100
AcDbEntity
  8
AM_0
100
AcDbCircle
 10
487.2233685306545
 20
557.9614500000001
 30
0.0
 40
25.0000005
100
AcDbArc
 50
306.46672
 51
233.53329
  0
ARC
  5
2918
330
2D08
100
AcDbEntity
  8
AM_0
100
AcDbCircle
 10
468.7983185306545
 20
533.0312000000001
 30
0.0
 40
6.0
100
AcDbArc
 50
349.72995
 51
53.53329100000001
  0
LINE
  5
2919
330
2D08
100
AcDbEntity
  8
AM_0
100
AcDbLine
 10
474.7233685306545
 20
531.96145
 30
0.0
 11
476.9738685306547
 21
540.3604000000002
 31
0.0
  0
LINE
  5
291A
330
2D08
100
AcDbEntity
  8
AM_0
100
AcDbLine
 10
414.2233685306548
 20
464.461435
 30
0.0
 11
424.2233685306548
 21
464.461435
 31
0.0
  0
LINE
  5
291B
330
2D08
100
AcDbEntity
  8
AM_0
100
AcDbLine
 10
450.6217685306548
 20
481.4136400000001
 30
0.0
 11
470.8249185306549
 21
502.3938499999998
 31
0.0
  0
ARC
  5
291C
330
2D08
100
AcDbEntity
  8
AM_0
100
AcDbCircle
 10
454.2233685306548
 20
477.94544
 30
0.0
 40
5.0
100
AcDbArc
 50
136.08092
 51
180.00001
  0
LINE
  5
291D
330
2D08
100
AcDbEntity
  8
AM_0
100
AcDbLine
 10
472.2233685306544
 20
529.9615000000001
 30
0.0
 11
472.2233685306544
 21
505.8621
 31
0.0
  0
ARC
  5
291E
330
2D08
100
AcDbEntity
  8
AM_0
100
AcDbCircle
 10
470.223368530655
 20
508.9775000000001
 30
0.0
 40
5.0
100
AcDbArc
 50
316.08092
 51
0.0
  0
ARC
  5
291F
330
2D08
100
AcDbEntity
  8
AM_0
100
AcDbCircle
 10
467.2233685306545
 20
505.8621
 30
0.0
 40
5.0
100
AcDbArc
 50
316.08092
 51
0.0
  0
LINE
  5
2920
330
2D08
100
AcDbEntity
  8
AM_0
100
AcDbLine
 10
470.8249185306549
 20
502.3938499999998
 30
0.0
 11
473.8249185306549
 21
505.5092499999999
 31
0.0
  0
ARC
  5
2921
330
2D08
100
AcDbEntity
  8
AM_0
100
AcDbCircle
 10
477.2233685306543
 20
528.9824999999999
 30
0.0
 40
2.00000005
100
AcDbArc
 50
91.99999799999995
 51
180.00001
  0
ARC
  5
2922
330
2D08
100
AcDbEntity
  8
AM_0
100
AcDbCircle
 10
474.2233685306548
 20
529.9615000000001
 30
0.0
 40
2.00000005
100
AcDbArc
 50
90.00000300000001
 51
180.00001
  0
LINE
  5
2923
330
2D08
100
AcDbEntity
  8
AM_0
100
AcDbLine
 10
477.7452685306548
 20
541.0824000000001
 30
0.0
 11
487.2233685306545
 21
542.9614500000001
 31
0.0
  0
ARC
  5
2924
330
2D08
100
AcDbEntity
  8
AM_0
100
AcDbCircle
 10
477.9398185306549
 20
540.1015500000003
 30
0.0
 40
1.0
100
AcDbArc
 50
101.21329
 51
164.99999
  0
LINE
  5
2925
330
2D08
100
AcDbEntity
  8
AM_0
100
AcDbLine
 10
590.1617685306545
 20
495.8350000000002
 30
0.0
 11
613.9166185306549
 21
495.8350000000002
 31
0.0
  0
LINE
  5
2926
330
2D08
100
AcDbEntity
  8
AM_0
100
AcDbLine
 10
590.1524685306549
 20
497.6118849999999
 30
0.0
 11
625.721518530655
 21
519.1383499999999
 31
0.0
  0
LINE
  5
2927
330
2D08
100
AcDbEntity
  8
AM_0
100
AcDbLine
 10
587.5728685306548
 20
507.3255000000001
 30
0.0
 11
625.8121685306551
 21
530.4679500000002
 31
0.0
  0
LINE
  5
2928
330
2D08
100
AcDbEntity
  8
AM_0
100
AcDbLine
 10
505.2233685306551
 20
531.96145
 30
0.0
 11
607.004818530655
 21
534.6267
 31
0.0
  0
ARC
  5
2929
330
2D08
100
AcDbEntity
  8
AM_0
100
AcDbCircle
 10
505.6483685306548
 20
533.0312000000001
 30
0.0
 40
6.0
100
AcDbArc
 50
126.4666999999999
 51
190.27006
  0
LINE
  5
292A
330
2D08
100
AcDbEntity
  8
AM_0
100
AcDbLine
 10
499.7233685306545
 20
531.96145
 30
0.0
 11
497.4728685306549
 21
540.3604000000002
 31
0.0
  0
ARC
  5
292B
330
2D08
100
AcDbEntity
  8
AM_0
100
AcDbCircle
 10
590.1617685306545
 20
500.835
 30
0.0
 40
5.0
100
AcDbArc
 50
179.9999899999999
 51
270.0
  0
ARC
  5
292C
330
2D08
100
AcDbEntity
  8
AM_0
100
AcDbCircle
 10
590.1617685306545
 20
503.04785
 30
0.0
 40
5.0
100
AcDbArc
 50
121.18236
 51
180.00001
  0
LINE
  5
292D
330
2D08
100
AcDbEntity
  8
AM_0
100
AcDbLine
 10
585.1617685306544
 20
503.04785
 30
0.0
 11
585.1617685306544
 21
500.835
 31
0.0
  0
ARC
  5
292E
330
2D08
100
AcDbEntity
  8
AM_0
100
AcDbCircle
 10
496.5070185306549
 20
540.1015500000003
 30
0.0
 40
1.0
100
AcDbArc
 50
15.0
 51
78.78671
  0
ARC
  5
292F
330
2D08
100
AcDbEntity
  8
AM_0
100
AcDbCircle
 10
629.2233685306545
 20
534.3106
 30
0.0
 40
8.0
100
AcDbArc
 50
0.0
 51
90.00000300000001
  0
ARC
  5
2930
330
2D08
100
AcDbEntity
  8
AM_0
100
AcDbCircle
 10
606.7430185306548
 20
544.6232499999998
 30
0.0
 40
10.0
100
AcDbArc
 50
271.4999999999997
 51
315.0
  0
LINE
  5
2931
330
2D08
100
AcDbEntity
  8
AM_0
100
AcDbLine
 10
613.0212685306546
 20
524.1408000000001
 30
0.0
 11
611.9504185306549
 21
535.6883999999999
 31
0.0
  0
LINE
  5
2932
330
2D08
100
AcDbEntity
  8
AM_0
100
AcDbLine
 10
616.873518530655
 20
496.8031100000001
 30
0.0
 11
628.2233685306545
 21
505.1268500000001
 31
0.0
  0
ARC
  5
2933
330
2D08
100
AcDbEntity
  8
AM_0
100
AcDbCircle
 10
613.9166185306549
 20
500.835
 30
0.0
 40
5.0
100
AcDbArc
 50
270.0
 51
306.2555500000001
  0
ARC
  5
2934
330
2D08
100
AcDbEntity
  8
AM_0
100
AcDbCircle
 10
629.2233685306545
 20
476.298105
 30
0.0
 40
8.0
100
AcDbArc
 50
0.0
 51
90.00000300000001
  0
ARC
  5
2935
330
2D08
100
AcDbEntity
  8
AM_0
100
AcDbCircle
 10
623.2233685306545
 20
534.7455500000001
 30
0.0
 40
5.0
100
AcDbArc
 50
301.18236
 51
0.0
  0
ARC
  5
2936
330
2D08
100
AcDbEntity
  8
AM_0
100
AcDbCircle
 10
633.2233685306545
 20
569.3647500000001
 30
0.0
 40
5.0
100
AcDbArc
 50
91.99999799999995
 51
180.00001
  0
LINE
  5
2937
330
2D08
100
AcDbEntity
  8
AM_0
100
AcDbLine
 10
613.8141185306549
 20
537.5522000000001
 30
0.0
 11
628.2234185306547
 21
551.96145
 31
0.0
  0
LINE
  5
2938
330
2D08
100
AcDbEntity
  8
AM_0
100
AcDbLine
 10
650.2233685306548
 20
549.9615000000001
 30
0.0
 11
655.2233685306551
 21
549.9615000000001
 31
0.0
  0
LINE
  5
2939
330
2D08
100
AcDbEntity
  8
AM_0
100
AcDbLine
 10
633.048868530655
 20
574.3617500000002
 30
0.0
 11
650.2233685306548
 21
574.9615000000001
 31
0.0
  0
CIRCLE
  5
293A
330
2D08
100
AcDbEntity
  8
AM_0
100
AcDbCircle
 10
1068.861074109745
 20
409.9614600000001
 30
0.0
 40
132.0
  0
ARC
  5
293B
330
2D08
100
AcDbEntity
  8
AM_0
100
AcDbCircle
 10
1068.861074109745
 20
409.9614600000001
 30
0.0
 40
60.0
100
AcDbArc
 50
90.00000300000001
 51
270.0
  0
ARC
  5
293C
330
2D08
100
AcDbEntity
  8
AM_0
100
AcDbCircle
 10
1068.861074109745
 20
409.9614600000001
 30
0.0
 40
60.0
100
AcDbArc
 50
270.0
 51
90.00000300000001
  0
CIRCLE
  5
293D
330
2D08
100
AcDbEntity
  8
AM_0
100
AcDbCircle
 10
1068.861074109745
 20
409.9614600000001
 30
0.0
 40
140.0
  0
LINE
  5
293E
330
2D08
100
AcDbEntity
  8
ﾁｭｳｼﾝｾﾝ
100
AcDbLine
 10
1068.861074109745
 20
202.93628
 30
0.0
 11
1068.861074109745
 21
589.4141499999999
 31
0.0
  0
LINE
  5
293F
330
2D08
100
AcDbEntity
  8
AM_0
100
AcDbLine
 10
903.861054109746
 20
354.9614600000002
 30
0.0
 11
903.861054109746
 21
464.9614650000001
 31
0.0
  0
LINE
  5
2940
330
2D08
100
AcDbEntity
  8
AM_0
100
AcDbLine
 10
1233.861049109745
 20
354.9614600000002
 30
0.0
 11
1233.861049109745
 21
464.9614650000001
 31
0.0
  0
LINE
  5
2941
330
2D08
100
AcDbEntity
  8
AM_0
100
AcDbLine
 10
1129.134939109744
 20
461.7500699999999
 30
0.0
 11
1162.568779109744
 21
495.1839050000002
 31
0.0
  0
LINE
  5
2942
330
2D08
100
AcDbEntity
  8
AM_0
100
AcDbLine
 10
1008.587209109744
 20
461.7500350000001
 30
0.0
 11
975.1533391097456
 21
495.1838750000002
 31
0.0
  0
LINE
  5
2943
330
2D08
100
AcDbEntity
  8
AM_0
100
AcDbLine
 10
1138.061304109744
 20
216.459935
 30
0.0
 11
1160.836174109744
 21
232.4070600000001
 31
0.0
  0
LINE
  5
2944
330
2D08
100
AcDbEntity
  8
AM_0
100
AcDbLine
 10
1195.466744109744
 20
394.9614600000002
 30
0.0
 11
1148.861044109745
 21
394.9614600000002
 31
0.0
  0
LINE
  5
2945
330
2D08
100
AcDbEntity
  8
AM_0
100
AcDbLine
 10
1123.861074109745
 20
244.96146
 30
0.0
 11
1210.399879109744
 21
249.4967700000001
 31
0.0
  0
LINE
  5
2946
330
2D08
100
AcDbEntity
  8
ﾁｭｳｼﾝｾﾝ
100
AcDbLine
 10
892.8793541097459
 20
409.9614600000001
 30
0.0
 11
1246.287639109745
 21
409.9614600000001
 31
0.0
  0
CIRCLE
  5
2947
330
2D08
100
AcDbEntity
  8
AM_0
100
AcDbCircle
 10
930.9752391097456
 20
272.075655
 30
0.0
 40
9.5
  0
ARC
  5
2948
330
2D08
100
AcDbEntity
  8
ﾁｭｳｼﾝｾﾝ1
100
AcDbCircle
 10
1068.861074109745
 20
409.9614600000001
 30
0.0
 40
195.0000049999999
100
AcDbArc
 50
218.1653199999999
 51
232.1288599999999
  0
LINE
  5
2949
330
2D08
100
AcDbEntity
  8
ﾁｭｳｼﾝｾﾝ1
100
AcDbLine
 10
943.058076765917
 20
284.1584660452164
 30
0.0
 11
919.1568981927996
 21
260.2573071017896
 31
0.0
  0
LINE
  5
294A
330
2D08
100
AcDbEntity
  8
AM_0
100
AcDbLine
 10
1013.861044109745
 20
244.96146
 30
0.0
 11
927.3222241097457
 21
249.4967700000001
 31
0.0
  0
LINE
  5
294B
330
2D08
100
AcDbEntity
  8
AM_0
100
AcDbLine
 10
903.8611041097455
 20
354.9614600000002
 30
0.0
 11
908.3964041097456
 21
268.42264
 31
0.0
  0
ARC
  5
294C
330
2D08
100
AcDbEntity
  8
AM_0
100
AcDbCircle
 10
928.3689791097456
 20
269.4693350000003
 30
0.0
 40
20.0000005
100
AcDbArc
 50
183.00001
 51
267.0
  0
LINE
  5
294D
330
2D08
100
AcDbEntity
  8
AM_0
100
AcDbLine
 10
740.2233685306547
 20
441.4614649999998
 30
0.0
 11
740.2233685306547
 21
382.4614600000002
 31
0.0
  0
LINE
  5
294E
330
2D08
100
AcDbEntity
  8
AM_0
100
AcDbLine
 10
1007.014029109745
 20
214.141465
 30
0.0
 11
1130.708059109744
 21
214.141465
 31
0.0
  0
LINE
  5
294F
330
2D08
100
AcDbEntity
  8
AM_0
100
AcDbLine
 10
1013.861074109745
 20
244.96146
 30
0.0
 11
1123.861044109745
 21
244.96146
 31
0.0
  0
ARC
  5
2950
330
2D08
100
AcDbEntity
  8
AM_0
100
AcDbCircle
 10
1035.861044109745
 20
316.6322700000002
 30
0.0
 40
102.8199949999999
100
AcDbArc
 50
222.01518
 51
235.0
  0
LINE
  5
2951
330
2D08
100
AcDbEntity
  8
AM_0
100
AcDbLine
 10
999.6607891097456
 20
216.459935
 30
0.0
 11
976.8858841097458
 21
232.4070950000002
 31
0.0
  0
ARC
  5
2952
330
2D08
100
AcDbEntity
  8
AM_0
100
AcDbCircle
 10
1007.014029109745
 20
226.96146
 30
0.0
 40
12.82
100
AcDbArc
 50
235.0
 51
270.0
  0
ARC
  5
2953
330
2D08
100
AcDbEntity
  8
AM_0
100
AcDbCircle
 10
1130.708059109744
 20
226.96146
 30
0.0
 40
12.82
100
AcDbArc
 50
270.0
 51
305.0
  0
ARC
  5
2954
330
2D08
100
AcDbEntity
  8
AM_0
100
AcDbCircle
 10
1068.861074109745
 20
409.9614600000001
 30
0.0
 40
27.5000005
100
AcDbArc
 50
106.91239
 51
73.087597
  0
LINE
  5
2955
330
2D08
100
AcDbEntity
  8
ﾁｭｳｼﾝｾﾝ
100
AcDbLine
 10
993.8610741097452
 20
364.9614600000002
 30
0.0
 11
1143.861044109745
 21
364.9614600000002
 31
0.0
  0
ARC
  5
2956
330
2D08
100
AcDbEntity
  8
AM_0
100
AcDbCircle
 10
988.8610741097455
 20
399.9614600000001
 30
0.0
 40
5.0
100
AcDbArc
 50
270.0
 51
0.0
  0
LINE
  5
2957
330
2D08
100
AcDbEntity
  8
AM_0
100
AcDbLine
 10
942.2553891097459
 20
394.9614600000002
 30
0.0
 11
988.8610741097455
 21
394.9614600000002
 31
0.0
  0
ARC
  5
2958
330
2D08
100
AcDbEntity
  8
AM_0
100
AcDbCircle
 10
942.2553891097459
 20
399.9614600000001
 30
0.0
 40
5.0
100
AcDbArc
 50
184.51616
 51
270.0
  0
ARC
  5
2959
330
2D08
100
AcDbEntity
  8
AM_0
100
AcDbCircle
 10
1068.861074109745
 20
409.9614600000001
 30
0.0
 40
75.0
100
AcDbArc
 50
142.90321
 51
180.00001
  0
LINE
  5
295A
330
2D08
100
AcDbEntity
  8
AM_0
100
AcDbLine
 10
993.8610741097452
 20
409.9614600000001
 30
0.0
 11
993.8610741097452
 21
399.9614600000001
 31
0.0
  0
ARC
  5
295B
330
2D08
100
AcDbEntity
  8
AM_0
100
AcDbCircle
 10
1005.051624109745
 20
458.2145450000001
 30
0.0
 40
5.0
100
AcDbArc
 50
322.9032099999999
 51
45.00000099999999
  0
CIRCLE
  5
295C
330
2D08
100
AcDbEntity
  8
AM_5
100
AcDbCircle
 10
1068.861074109745
 20
409.9614600000001
 30
0.0
 40
6.0
  0
CIRCLE
  5
295D
330
2D08
100
AcDbEntity
  8
AM_0
100
AcDbCircle
 10
1068.861074109745
 20
409.9614600000001
 30
0.0
 40
4.500000049999997
  0
LINE
  5
295E
330
2D08
100
AcDbEntity
  8
AM_0
100
AcDbLine
 10
1060.861044109745
 20
431.4614650000001
 30
0.0
 11
1076.861044109745
 21
431.4614650000001
 31
0.0
  0
LINE
  5
295F
330
2D08
100
AcDbEntity
  8
AM_0
100
AcDbLine
 10
1060.861044109745
 20
441.4614649999998
 30
0.0
 11
1076.861044109745
 21
441.4614649999998
 31
0.0
  0
LINE
  5
2960
330
2D08
100
AcDbEntity
  8
AM_0
100
AcDbLine
 10
1060.861044109745
 20
431.4614650000001
 30
0.0
 11
1060.861044109745
 21
441.4614649999998
 31
0.0
  0
LINE
  5
2961
330
2D08
100
AcDbEntity
  8
AM_0
100
AcDbLine
 10
1076.861044109745
 20
431.4614650000001
 30
0.0
 11
1076.861044109745
 21
441.4614649999998
 31
0.0
  0
ARC
  5
2962
330
2D08
100
AcDbEntity
  8
AM_0
100
AcDbCircle
 10
1068.861074109745
 20
409.9614600000001
 30
0.0
 40
75.0
100
AcDbArc
 50
0.0
 51
37.09679299999999
  0
LINE
  5
2963
330
2D08
100
AcDbEntity
  8
AM_0
100
AcDbLine
 10
1143.861044109745
 20
409.9614600000001
 30
0.0
 11
1143.861044109745
 21
399.9614600000001
 31
0.0
  0
ARC
  5
2964
330
2D08
100
AcDbEntity
  8
AM_0
100
AcDbCircle
 10
1148.861044109745
 20
399.9614600000001
 30
0.0
 40
5.0
100
AcDbArc
 50
179.9999899999999
 51
270.0
  0
ARC
  5
2965
330
2D08
100
AcDbEntity
  8
AM_0
100
AcDbCircle
 10
1132.670464109746
 20
458.2145450000001
 30
0.0
 40
5.0
100
AcDbArc
 50
135.0
 51
217.0967999999998
  0
LINE
  5
2966
330
2D08
100
AcDbEntity
  8
AM_0
100
AcDbLine
 10
1233.861049109745
 20
354.9614900000001
 30
0.0
 11
1229.325739109746
 21
268.42261
 31
0.0
  0
ARC
  5
2967
330
2D08
100
AcDbEntity
  8
AM_0
100
AcDbCircle
 10
1101.861044109745
 20
316.6322700000002
 30
0.0
 40
102.8199949999999
100
AcDbArc
 50
305.0
 51
317.98482
  0
CIRCLE
  5
2968
330
2D08
100
AcDbEntity
  8
AM_0
100
AcDbCircle
 10
1206.746879109744
 20
272.075655
 30
0.0
 40
9.5
  0
ARC
  5
2969
330
2D08
100
AcDbEntity
  8
AM_0
100
AcDbCircle
 10
1209.353159109745
 20
269.4693350000003
 30
0.0
 40
20.0000005
100
AcDbArc
 50
273.0
 51
357.0
  0
ARC
  5
296A
330
2D08
100
AcDbEntity
  8
AM_0
100
AcDbCircle
 10
1195.466744109744
 20
399.9614600000001
 30
0.0
 40
5.0
100
AcDbArc
 50
270.0
 51
355.48385
  0
LINE
  5
296B
330
2D08
100
AcDbEntity
  8
AM_0
100
AcDbLine
 10
1123.861014109744
 20
574.9615000000001
 30
0.0
 11
1210.399864109745
 21
570.4261500000001
 31
0.0
  0
CIRCLE
  5
296C
330
2D08
100
AcDbEntity
  8
AM_0
100
AcDbCircle
 10
930.9752391097456
 20
547.8473000000001
 30
0.0
 40
9.5
  0
LINE
  5
296D
330
2D08
100
AcDbEntity
  8
AM_0
100
AcDbLine
 10
1013.861044109745
 20
574.9614500000001
 30
0.0
 11
927.3222541097455
 21
570.4261500000001
 31
0.0
  0
LINE
  5
296E
330
2D08
100
AcDbEntity
  8
AM_0
100
AcDbLine
 10
903.861054109746
 20
464.9614950000001
 30
0.0
 11
908.3963541097457
 21
551.5003000000001
 31
0.0
  0
ARC
  5
296F
330
2D08
100
AcDbEntity
  8
AM_0
100
AcDbCircle
 10
928.3689791097456
 20
550.4535500000002
 30
0.0
 40
20.0000005
100
AcDbArc
 50
92.99999900000001
 51
176.99999
  0
ARC
  5
2970
330
2D08
100
AcDbEntity
  8
AM_0
100
AcDbCircle
 10
1068.861074109745
 20
409.9614600000001
 30
0.0
 40
75.0
100
AcDbArc
 50
52.90320600000002
 51
127.0967899999999
  0
LINE
  5
2971
330
2D08
100
AcDbEntity
  8
AM_0
100
AcDbLine
 10
1013.861074109745
 20
574.9615000000001
 30
0.0
 11
1123.861044109745
 21
574.9615000000001
 31
0.0
  0
LINE
  5
2972
330
2D08
100
AcDbEntity
  8
AM_0
100
AcDbLine
 10
1017.072469109745
 20
470.2353
 30
0.0
 11
983.6386291097456
 21
503.6691499999999
 31
0.0
  0
ARC
  5
2973
330
2D08
100
AcDbEntity
  8
AM_0
100
AcDbCircle
 10
971.6177891097457
 20
491.648385
 30
0.0
 40
5.0
100
AcDbArc
 50
45.00000099999999
 51
139.96885
  0
ARC
  5
2974
330
2D08
100
AcDbEntity
  8
AM_0
100
AcDbCircle
 10
987.1741541097458
 20
507.2047000000002
 30
0.0
 40
5.0
100
AcDbArc
 50
130.03115
 51
225.0
  0
ARC
  5
2975
330
2D08
100
AcDbEntity
  8
AM_0
100
AcDbCircle
 10
1020.607964109744
 20
473.77088
 30
0.0
 40
5.0
100
AcDbArc
 50
225.0
 51
307.0967899999998
  0
LINE
  5
2976
330
2D08
100
AcDbEntity
  8
AM_0
100
AcDbLine
 10
1120.649679109745
 20
470.2353300000001
 30
0.0
 11
1154.083519109745
 21
503.6691499999999
 31
0.0
  0
ARC
  5
2977
330
2D08
100
AcDbEntity
  8
AM_0
100
AcDbCircle
 10
1117.114129109744
 20
473.77088
 30
0.0
 40
5.0
100
AcDbArc
 50
232.9032099999998
 51
315.0
  0
ARC
  5
2978
330
2D08
100
AcDbEntity
  8
AM_0
100
AcDbCircle
 10
1150.547964109746
 20
507.2047000000002
 30
0.0
 40
5.0
100
AcDbArc
 50
315.0
 51
49.968851
  0
ARC
  5
2979
330
2D08
100
AcDbEntity
  8
AM_0
100
AcDbCircle
 10
1068.861074109745
 20
577.96145
 30
0.0
 40
5.0
100
AcDbArc
 50
359.9999899999999
 51
179.9999899999999
  0
LINE
  5
297A
330
2D08
100
AcDbEntity
  8
AM_0
100
AcDbLine
 10
1063.861074109744
 20
577.96145
 30
0.0
 11
1063.861074109744
 21
574.9615000000001
 31
0.0
  0
LINE
  5
297B
330
2D08
100
AcDbEntity
  8
AM_0
100
AcDbLine
 10
1073.861074109744
 20
577.96145
 30
0.0
 11
1073.861074109744
 21
574.9615000000001
 31
0.0
  0
ARC
  5
297C
330
2D08
100
AcDbEntity
  8
ﾁｭｳｼﾝｾﾝ1
100
AcDbCircle
 10
1068.861074109745
 20
409.9614600000001
 30
0.0
 40
195.0000049999999
100
AcDbArc
 50
39.07588813006638
 51
50.89618900000001
  0
LINE
  5
297D
330
2D08
100
AcDbEntity
  8
AM_0
100
AcDbLine
 10
1233.861049109745
 20
464.9614650000001
 30
0.0
 11
1229.325739109746
 21
551.5002500000003
 31
0.0
  0
ARC
  5
297E
330
2D08
100
AcDbEntity
  8
AM_0
100
AcDbCircle
 10
1166.104304109744
 20
491.648385
 30
0.0
 40
5.0
100
AcDbArc
 50
40.03114799999996
 51
135.0
  0
CIRCLE
  5
297F
330
2D08
100
AcDbEntity
  8
AM_0
100
AcDbCircle
 10
1206.746879109744
 20
547.8473000000001
 30
0.0
 40
9.5
  0
LINE
  5
2980
330
2D08
100
AcDbEntity
  8
ﾁｭｳｼﾝｾﾝ1
100
AcDbLine
 10
1194.67683326153
 20
535.7772559320476
 30
0.0
 11
1218.743004927182
 21
559.8433664912827
 31
0.0
  0
ARC
  5
2981
330
2D08
100
AcDbEntity
  8
AM_0
100
AcDbCircle
 10
1209.353159109745
 20
550.4535500000002
 30
0.0
 40
20.0000005
100
AcDbArc
 50
3.000000099999998
 51
86.99999899999999
  0
LINE
  5
2982
330
2D08
100
AcDbEntity
  8
AM_0
100
AcDbLine
 10
229.223428530655
 20
872.4679450281023
 30
0.0
 11
235.257793530655
 21
868.9840020281023
 31
0.0
  0
LINE
  5
2983
330
2D08
100
AcDbEntity
  8
AM_0
100
AcDbLine
 10
235.257793530655
 20
952.2612880281023
 30
0.0
 11
229.223428530655
 21
948.7773460281022
 31
0.0
  0
LINE
  5
2984
330
2D08
100
AcDbEntity
  8
AM_0
100
AcDbLine
 10
227.223428530655
 20
940.1226450281024
 30
0.0
 11
225.223428530655
 21
938.1226450281024
 31
0.0
  0
LINE
  5
2985
330
2D08
100
AcDbEntity
  8
AM_0
100
AcDbLine
 10
227.223428530655
 20
875.9320460281024
 30
0.0
 11
227.223428530655
 21
945.3132440281024
 31
0.0
  0
LINE
  5
2986
330
2D08
100
AcDbEntity
  8
AM_0
100
AcDbLine
 10
225.223428530655
 20
883.1226450281024
 30
0.0
 11
225.223428530655
 21
938.1226450281024
 31
0.0
  0
ARC
  5
2987
330
2D08
100
AcDbEntity
  8
AM_0
100
AcDbCircle
 10
231.223428530655
 20
875.9320460281024
 30
0.0
 40
4.0
100
AcDbArc
 50
180.0
 51
239.9999999999995
  0
LINE
  5
2988
330
2D08
100
AcDbEntity
  8
AM_0
100
AcDbLine
 10
225.223428530655
 20
883.1226450281024
 30
0.0
 11
227.223428530655
 21
881.1226450281024
 31
0.0
  0
LINE
  5
2989
330
2D08
100
AcDbEntity
  8
AM_0
100
AcDbLine
 10
187.2234285306549
 20
922.6226450281023
 30
0.0
 11
223.2234285306549
 21
922.6226450281023
 31
0.0
  0
LINE
  5
298A
330
2D08
100
AcDbEntity
  8
AM_0
100
AcDbLine
 10
187.2234285306549
 20
898.6226450281023
 30
0.0
 11
223.2234285306549
 21
898.6226450281023
 31
0.0
  0
LINE
  5
298B
330
2D08
100
AcDbEntity
  8
AM_0
100
AcDbLine
 10
187.2234285306549
 20
914.6226450281023
 30
0.0
 11
215.2234285306549
 21
914.6226450281023
 31
0.0
  0
LINE
  5
298C
330
2D08
100
AcDbEntity
  8
AM_0
100
AcDbLine
 10
187.2234285306549
 20
906.6226450281023
 30
0.0
 11
215.2234285306549
 21
906.6226450281023
 31
0.0
  0
LINE
  5
298D
330
2D08
100
AcDbEntity
  8
AM_0
100
AcDbLine
 10
187.2234285306549
 20
898.6226450281023
 30
0.0
 11
187.2234285306549
 21
922.6226450281023
 31
0.0
  0
LINE
  5
298E
330
2D08
100
AcDbEntity
  8
AM_0
100
AcDbLine
 10
223.2234285306549
 20
895.6226450281024
 30
0.0
 11
223.2234285306549
 21
925.6226450281024
 31
0.0
  0
LINE
  5
298F
330
2D08
100
AcDbEntity
  8
AM_0
100
AcDbLine
 10
223.2234285306549
 20
895.6226450281024
 30
0.0
 11
225.223428530655
 21
895.6226450281024
 31
0.0
  0
ARC
  5
2990
330
2D08
100
AcDbEntity
  8
AM_0
100
AcDbCircle
 10
215.2234285306549
 20
910.6226450281024
 30
0.0
 40
4.000000000000055
100
AcDbArc
 50
270.0
 51
90.0
  0
LINE
  5
2991
330
2D08
100
AcDbEntity
  8
AM_0
100
AcDbLine
 10
215.2234285306549
 20
906.6226450281023
 30
0.0
 11
215.2234285306549
 21
914.6226450281023
 31
0.0
  0
LINE
  5
2992
330
2D08
100
AcDbEntity
  8
AM_0
100
AcDbLine
 10
223.2234285306549
 20
925.6226450281024
 30
0.0
 11
225.223428530655
 21
925.6226450281024
 31
0.0
  0
ARC
  5
2993
330
2D08
100
AcDbEntity
  8
AM_0
100
AcDbCircle
 10
231.223428530655
 20
945.3132440281024
 30
0.0
 40
4.0
100
AcDbArc
 50
120.0000000000005
 51
180.0
  0
LINE
  5
2994
330
2D08
100
AcDbEntity
  8
AM_0
100
AcDbLine
 10
334.2234285306549
 20
849.1134200281024
 30
0.0
 11
334.2234285306549
 21
869.1479700281021
 31
0.0
  0
LINE
  5
2995
330
2D08
100
AcDbEntity
  8
AM_0
100
AcDbLine
 10
270.786672530655
 20
866.8500320281022
 30
0.0
 11
323.2048595306551
 21
840.1416320281024
 31
0.0
  0
LINE
  5
2996
330
2D08
100
AcDbEntity
  8
AM_0
100
AcDbLine
 10
324.2234285306549
 20
841.8672980281023
 30
0.0
 11
324.2234285306549
 21
979.3779930281022
 31
0.0
  0
LINE
  5
2997
330
2D08
100
AcDbEntity
  8
AM_0
100
AcDbLine
 10
326.2234285306549
 20
837.1226450281024
 30
0.0
 11
336.2234285306549
 21
837.1226450281024
 31
0.0
  0
LINE
  5
2998
330
2D08
100
AcDbEntity
  8
AM_0
100
AcDbLine
 10
326.2234285306549
 20
847.1134200281024
 30
0.0
 11
332.2234285306549
 21
847.1134200281024
 31
0.0
  0
ARC
  5
2999
330
2D08
100
AcDbEntity
  8
AM_0
100
AcDbCircle
 10
326.2234285306549
 20
839.1226450281024
 30
0.0
 40
2.0
100
AcDbArc
 50
190.9969429999972
 51
270.0
  0
ARC
  5
299A
330
2D08
100
AcDbEntity
  8
AM_0
100
AcDbCircle
 10
322.2968785306551
 20
838.3596190281023
 30
0.0
 40
2.0
100
AcDbArc
 50
10.99694299999732
 51
62.99999999999824
  0
ARC
  5
299B
330
2D08
100
AcDbEntity
  8
AM_0
100
AcDbCircle
 10
326.2234285306549
 20
849.1134200281024
 30
0.0
 40
2.0
100
AcDbArc
 50
180.0
 51
270.0
  0
ARC
  5
299C
330
2D08
100
AcDbEntity
  8
AM_0
100
AcDbCircle
 10
332.2234285306549
 20
849.1134200281024
 30
0.0
 40
2.0
100
AcDbArc
 50
270.0
 51
0.0
  0
LINE
  5
299D
330
2D08
100
AcDbEntity
  8
AM_0
100
AcDbLine
 10
268.7296215306549
 20
870.8986090281022
 30
0.0
 11
268.7296215306549
 21
950.3466810281024
 31
0.0
  0
LINE
  5
299E
330
2D08
100
AcDbEntity
  8
AM_0
100
AcDbLine
 10
236.1536705306549
 20
871.4672240281021
 30
0.0
 11
236.1536705306549
 21
949.7780660281025
 31
0.0
  0
LINE
  5
299F
330
2D08
100
AcDbEntity
  8
AM_0
100
AcDbLine
 10
237.1879835306549
 20
868.4487130281022
 30
0.0
 11
266.421291530655
 21
867.9384440281022
 31
0.0
  0
ARC
  5
29A0
330
2D08
100
AcDbEntity
  8
AM_0
100
AcDbCircle
 10
237.257793530655
 20
872.4481040281023
 30
0.0
 40
4.0
100
AcDbArc
 50
239.9999999999995
 51
269.0000000000015
  0
ARC
  5
29A1
330
2D08
100
AcDbEntity
  8
AM_0
100
AcDbCircle
 10
266.246767530655
 20
857.9399670281024
 30
0.0
 40
10.0
100
AcDbArc
 50
62.99999999999824
 51
89.00000000000151
  0
LINE
  5
29A2
330
2D08
100
AcDbEntity
  8
AM_0
100
AcDbLine
 10
326.2234285306549
 20
871.1479700281023
 30
0.0
 11
334.2234285306549
 21
871.1479700281023
 31
0.0
  0
ARC
  5
29A3
330
2D08
100
AcDbEntity
  8
AM_0
100
AcDbCircle
 10
336.2234285306549
 20
869.1479700281021
 30
0.0
 40
2.0
100
AcDbArc
 50
120.0000000000005
 51
180.0
  0
LINE
  5
29A4
330
2D08
100
AcDbEntity
  8
AM_0
100
AcDbLine
 10
323.2048595306551
 20
981.1036590281025
 30
0.0
 11
270.786672530655
 21
954.3952580281022
 31
0.0
  0
LINE
  5
29A5
330
2D08
100
AcDbEntity
  8
AM_0
100
AcDbLine
 10
266.421291530655
 20
953.3068460281024
 30
0.0
 11
237.1879835306549
 21
952.7965770281022
 31
0.0
  0
ARC
  5
29A6
330
2D08
100
AcDbEntity
  8
AM_0
100
AcDbCircle
 10
237.257793530655
 20
948.7971860281023
 30
0.0
 40
4.0
100
AcDbArc
 50
90.9999999999985
 51
120.0000000000005
  0
ARC
  5
29A7
330
2D08
100
AcDbEntity
  8
AM_0
100
AcDbCircle
 10
266.246767530655
 20
963.3053230281024
 30
0.0
 40
10.0
100
AcDbArc
 50
270.9999999999984
 51
296.9999999999988
  0
ARC
  5
29A8
330
2D08
100
AcDbEntity
  8
AM_0
100
AcDbCircle
 10
322.2968785306551
 20
982.8856720281024
 30
0.0
 40
2.0
100
AcDbArc
 50
296.9999999999988
 51
349.0030569999962
  0
LINE
  5
29A9
330
2D08
100
AcDbEntity
  8
AM_0
100
AcDbLine
 10
326.2234285306549
 20
974.1318700281023
 30
0.0
 11
332.2234285306549
 21
974.1318700281023
 31
0.0
  0
LINE
  5
29AA
330
2D08
100
AcDbEntity
  8
AM_0
100
AcDbLine
 10
326.2234285306549
 20
950.0973210281024
 30
0.0
 11
334.2234285306549
 21
950.0973210281024
 31
0.0
  0
ARC
  5
29AB
330
2D08
100
AcDbEntity
  8
AM_0
100
AcDbCircle
 10
326.2234285306549
 20
972.1318700281024
 30
0.0
 40
2.0
100
AcDbArc
 50
90.0
 51
180.0
  0
LINE
  5
29AC
330
2D08
100
AcDbEntity
  8
AM_0
100
AcDbLine
 10
334.2234285306549
 20
972.1318700281024
 30
0.0
 11
334.2234285306549
 21
952.0973210281024
 31
0.0
  0
ARC
  5
29AD
330
2D08
100
AcDbEntity
  8
AM_0
100
AcDbCircle
 10
336.2234285306549
 20
952.0973210281024
 30
0.0
 40
2.0
100
AcDbArc
 50
180.0
 51
239.9999999999995
  0
ARC
  5
29AE
330
2D08
100
AcDbEntity
  8
AM_0
100
AcDbCircle
 10
332.2234285306549
 20
972.1318700281024
 30
0.0
 40
2.0
100
AcDbArc
 50
0.0
 51
90.0
  0
LINE
  5
29AF
330
2D08
100
AcDbEntity
  8
AM_0
100
AcDbLine
 10
326.2234285306549
 20
984.1226450281023
 30
0.0
 11
336.2234285306549
 21
984.1226450281023
 31
0.0
  0
ARC
  5
29B0
330
2D08
100
AcDbEntity
  8
AM_0
100
AcDbCircle
 10
326.2234285306549
 20
982.1226450281024
 30
0.0
 40
2.0
100
AcDbArc
 50
90.0
 51
169.0030570000025
  0
ARC
  5
29B2
330
2D08
100
AcDbEntity
  8
ﾁｭｳｼﾝｾﾝ1
100
AcDbCircle
 10
1068.861074109745
 20
409.9614600000001
 30
0.0
 40
195.0000049999999
100
AcDbArc
 50
309.0758881300662
 51
320.8961889999998
  0
LINE
  5
29B3
330
2D08
100
AcDbEntity
  8
ﾁｭｳｼﾝｾﾝ1
100
AcDbLine
 10
1194.676870041792
 20
284.1457008482148
 30
0.0
 11
1218.742980601028
 21
260.0795291825626
 31
0.0
  0
ARC
  5
29B4
330
2D08
100
AcDbEntity
  8
ﾁｭｳｼﾝｾﾝ1
100
AcDbCircle
 10
1068.861074109745
 20
409.9614600000001
 30
0.0
 40
195.0000049999999
100
AcDbArc
 50
128.1653199999998
 51
142.1288599999998
  0
LINE
  5
29B5
330
2D08
100
AcDbEntity
  8
ﾁｭｳｼﾝｾﾝ1
100
AcDbLine
 10
943.0580801549616
 20
535.7644573438285
 30
0.0
 11
919.1569212115343
 21
559.665635916946
 31
0.0
  0
LINE
  5
29B6
330
2D08
100
AcDbEntity
  8
AM_0
100
AcDbLine
 10
678.2234285306549
 20
918.6226450281024
 30
0.0
 11
740.2233685306547
 21
918.6226450281024
 31
0.0
  0
LINE
  5
29B7
330
2D08
100
AcDbEntity
  8
AM_0
100
AcDbLine
 10
678.2234285306549
 20
902.6225850281022
 30
0.0
 11
740.2233685306547
 21
902.6225850281022
 31
0.0
  0
LINE
  5
29B8
330
2D08
100
AcDbEntity
  8
AM_0
100
AcDbLine
 10
658.2233685306548
 20
883.1226450281024
 30
0.0
 11
740.2233685306547
 21
883.1226450281024
 31
0.0
  0
LINE
  5
29B9
330
2D08
100
AcDbEntity
  8
AM_0
100
AcDbLine
 10
658.2233685306548
 20
938.1226450281024
 30
0.0
 11
740.2233685306547
 21
938.1226450281024
 31
0.0
  0
LINE
  5
29BA
330
2D08
100
AcDbEntity
  8
ﾁｭｳｼﾝｾﾝ
100
AcDbLine
 10
178.2347341004762
 20
910.6226450281026
 30
0.0
 11
750.8406185306552
 21
910.6226450281024
 31
0.0
  0
POLYLINE
  5
29BB
330
2D08
100
AcDbEntity
  8
AM_0
100
AcDb2dPolyline
 66
     1
 10
0.0
 20
0.0
 30
0.0
  0
VERTEX
  5
29BC
330
29BB
100
AcDbEntity
  8
AM_0
100
AcDbVertex
100
AcDb2dVertex
 10
616.126258530655
 20
997.0108950281023
 30
0.0
 42
0.01720808
  0
VERTEX
  5
29BD
330
29BB
100
AcDbEntity
  8
AM_0
100
AcDbVertex
100
AcDb2dVertex
 10
611.7099885306551
 20
939.6357050281023
 30
0.0
 42
0.0088311605
  0
VERTEX
  5
29BE
330
29BB
100
AcDbEntity
  8
AM_0
100
AcDbVertex
100
AcDb2dVertex
 10
610.9931385306549
 20
910.6226450281024
 30
0.0
 42
0.025919753
  0
VERTEX
  5
29BF
330
29BB
100
AcDbEntity
  8
AM_0
100
AcDbVertex
100
AcDb2dVertex
 10
614.8619685306552
 20
824.6589550281022
 30
0.0
  0
SEQEND
  5
29C0
330
29BB
100
AcDbEntity
  8
AM_0
  0
POLYLINE
  5
29C1
330
2D08
100
AcDbEntity
  8
AM_0
100
AcDb2dPolyline
 66
     1
 10
0.0
 20
0.0
 30
0.0
  0
VERTEX
  5
29C2
330
29C1
100
AcDbEntity
  8
AM_0
100
AcDbVertex
100
AcDb2dVertex
 10
395.2860485306548
 20
835.0600850281022
 30
0.0
 42
-0.10362759
  0
VERTEX
  5
29C3
330
29C1
100
AcDbEntity
  8
AM_0
100
AcDbVertex
100
AcDb2dVertex
 10
355.877688530655
 20
881.2857750281024
 30
0.0
 42
-0.26090923
  0
VERTEX
  5
29C4
330
29C1
100
AcDbEntity
  8
AM_0
100
AcDbVertex
100
AcDb2dVertex
 10
355.877688530655
 20
939.9595250281024
 30
0.0
 42
-0.10362793
  0
VERTEX
  5
29C5
330
29C1
100
AcDbEntity
  8
AM_0
100
AcDbVertex
100
AcDb2dVertex
 10
395.2859885306549
 20
986.1851450281024
 30
0.0
  0
SEQEND
  5
29C6
330
29C1
100
AcDbEntity
  8
AM_0
  0
ARC
  5
29C7
330
2D08
100
AcDbEntity
  8
AM_0
100
AcDbCircle
 10
487.2234285306549
 20
910.6226450281024
 30
0.0
 40
12.5
100
AcDbArc
 50
203.5781799999973
 51
336.4218300000007
  0
LINE
  5
29C8
330
2D08
100
AcDbEntity
  8
AM_0
100
AcDbLine
 10
658.2233685306548
 20
940.6226450281023
 30
0.0
 11
658.2233685306548
 21
880.6226450281023
 31
0.0
  0
LINE
  5
29C9
330
2D08
100
AcDbEntity
  8
AM_0
100
AcDbLine
 10
628.2234285306549
 20
1070.025905028102
 30
0.0
 11
628.2234285306549
 21
751.2193850281022
 31
0.0
  0
LINE
  5
29CA
330
2D08
100
AcDbEntity
  8
AM_0
100
AcDbLine
 10
650.2234285306549
 20
1075.622645028101
 30
0.0
 11
650.2234285306549
 21
745.6225850281022
 31
0.0
  0
LINE
  5
29CB
330
2D08
100
AcDbEntity
  8
AM_0
100
AcDbLine
 10
655.2234285306549
 20
1050.622645028101
 30
0.0
 11
655.2234285306549
 21
770.6226450281024
 31
0.0
  0
LINE
  5
29CC
330
2D08
100
AcDbEntity
  8
AM_0
100
AcDbLine
 10
637.223488530655
 20
1034.971765028102
 30
0.0
 11
637.223488530655
 21
786.2735250281023
 31
0.0
  0
LINE
  5
29CD
330
2D08
100
AcDbEntity
  8
AM_0
100
AcDbLine
 10
393.2234285306549
 20
892.6226450281024
 30
0.0
 11
393.2234285306549
 21
928.6226450281024
 31
0.0
  0
LINE
  5
29CE
330
2D08
100
AcDbEntity
  8
AM_0
100
AcDbLine
 10
361.2234285306549
 20
897.6226450281023
 30
0.0
 11
361.2234285306549
 21
923.6226450281023
 31
0.0
  0
LINE
  5
29CF
330
2D08
100
AcDbEntity
  8
AM_0
100
AcDbLine
 10
348.2234285306549
 20
837.1226450281024
 30
0.0
 11
348.2234285306549
 21
984.1226450281023
 31
0.0
  0
LINE
  5
29D0
330
2D08
100
AcDbEntity
  8
AM_0
100
AcDbLine
 10
336.2234285306549
 20
837.1226450281024
 30
0.0
 11
336.2234285306549
 21
984.1226450281023
 31
0.0
  0
LINE
  5
29D1
330
2D08
100
AcDbEntity
  8
AM_0
100
AcDbLine
 10
411.2234285306548
 20
813.6226450281023
 30
0.0
 11
411.2234285306548
 21
1007.622645028102
 31
0.0
  0
LINE
  5
29D2
330
2D08
100
AcDbEntity
  8
AM_0
100
AcDbLine
 10
426.223488530655
 20
1008.122645028102
 30
0.0
 11
426.223488530655
 21
813.1226450281024
 31
0.0
  0
LINE
  5
29D3
330
2D08
100
AcDbEntity
  8
AM_0
100
AcDbLine
 10
475.223368530655
 20
783.4987450281022
 30
0.0
 11
475.223368530655
 21
900.0870550281021
 31
0.0
  0
LINE
  5
29D4
330
2D08
100
AcDbEntity
  8
AM_0
100
AcDbLine
 10
505.2234285306549
 20
905.6226450281023
 30
0.0
 11
505.2234285306549
 21
777.6226450281024
 31
0.0
  0
LINE
  5
29D5
330
2D08
100
AcDbEntity
  8
AM_0
100
AcDbLine
 10
449.223368530655
 20
804.1669550281024
 30
0.0
 11
449.223368530655
 21
1017.078335028102
 31
0.0
  0
LINE
  5
29D6
330
2D08
100
AcDbEntity
  8
AM_0
100
AcDbLine
 10
505.2234285306549
 20
777.6226450281024
 30
0.0
 11
480.048928530655
 21
778.5017950281024
 31
0.0
  0
ARC
  5
29D7
330
2D08
100
AcDbEntity
  8
AM_0
100
AcDbCircle
 10
413.2234285306549
 20
813.6226450281023
 30
0.0
 40
2.0
100
AcDbArc
 50
179.9999899999988
 51
270.0
  0
LINE
  5
29D8
330
2D08
100
AcDbEntity
  8
AM_0
100
AcDbLine
 10
411.2234285306548
 20
854.3468250281021
 30
0.0
 11
426.2234285306549
 21
854.3468250281021
 31
0.0
  0
LINE
  5
29D9
330
2D08
100
AcDbEntity
  8
AM_0
100
AcDbLine
 10
411.2234285306548
 20
838.1164150281021
 30
0.0
 11
426.2234285306549
 21
838.1164150281021
 31
0.0
  0
LINE
  5
29DA
330
2D08
100
AcDbEntity
  8
AM_0
100
AcDbLine
 10
411.2234285306548
 20
827.9274550281023
 30
0.0
 11
426.2234285306549
 21
827.9274550281023
 31
0.0
  0
LINE
  5
29DB
330
2D08
100
AcDbEntity
  8
AM_0
100
AcDbLine
 10
395.2859885306549
 20
835.0601450281024
 30
0.0
 11
409.7589485306547
 21
820.5871150281023
 31
0.0
  0
ARC
  5
29DC
330
2D08
100
AcDbEntity
  8
AM_0
100
AcDbCircle
 10
406.2234285306549
 20
817.0515950281023
 30
0.0
 40
5.0
100
AcDbArc
 50
0.0
 51
45.0000010000038
  0
LINE
  5
29DD
330
2D08
100
AcDbEntity
  8
AM_0
100
AcDbLine
 10
393.3176685306552
 20
835.1288050281024
 30
0.0
 11
336.2234285306549
 21
837.1225850281021
 31
0.0
  0
LINE
  5
29DE
330
2D08
100
AcDbEntity
  8
AM_0
100
AcDbLine
 10
366.2234285306549
 20
892.6226450281024
 30
0.0
 11
388.2234285306549
 21
892.6226450281024
 31
0.0
  0
LINE
  5
29DF
330
2D08
100
AcDbEntity
  8
AM_0
100
AcDbLine
 10
336.2234285306549
 20
849.0426850281021
 30
0.0
 11
348.2234285306549
 21
849.0426850281021
 31
0.0
  0
LINE
  5
29E0
330
2D08
100
AcDbEntity
  8
AM_0
100
AcDbLine
 10
336.2234285306549
 20
871.1479150281022
 30
0.0
 11
348.2234285306549
 21
871.1479150281022
 31
0.0
  0
ARC
  5
29E1
330
2D08
100
AcDbEntity
  8
AM_0
100
AcDbCircle
 10
366.2234285306549
 20
897.6226450281023
 30
0.0
 40
5.0
100
AcDbArc
 50
180.0000100000009
 51
270.0
  0
ARC
  5
29E2
330
2D08
100
AcDbEntity
  8
AM_0
100
AcDbCircle
 10
393.1431685306549
 20
830.1319150281019
 30
0.0
 40
5.0
100
AcDbArc
 50
44.99999800000161
 51
88.00000000000279
  0
ARC
  5
29E3
330
2D08
100
AcDbEntity
  8
AM_0
100
AcDbCircle
 10
388.2234285306549
 20
887.6226450281023
 30
0.0
 40
5.0
100
AcDbArc
 50
0.0
 51
90.00000299999769
  0
LINE
  5
29E4
330
2D08
100
AcDbEntity
  8
AM_0
100
AcDbLine
 10
470.3978685306549
 20
798.5990850281023
 30
0.0
 11
454.048868530655
 21
799.1700050281023
 31
0.0
  0
LINE
  5
29E5
330
2D08
100
AcDbEntity
  8
AM_0
100
AcDbLine
 10
426.2234285306549
 20
813.1225850281023
 30
0.0
 11
444.3979285306551
 21
812.4879350281021
 31
0.0
  0
LINE
  5
29E6
330
2D08
100
AcDbEntity
  8
AM_0
100
AcDbLine
 10
413.2234285306549
 20
811.6226450281024
 30
0.0
 11
424.223368530655
 21
811.6226450281024
 31
0.0
  0
LINE
  5
29E7
330
2D08
100
AcDbEntity
  8
AM_0
100
AcDbLine
 10
424.2234285306549
 20
811.6226450281024
 30
0.0
 11
426.2234285306549
 21
813.6226450281023
 31
0.0
  0
ARC
  5
29E8
330
2D08
100
AcDbEntity
  8
AM_0
100
AcDbCircle
 10
454.223368530655
 20
804.1669550281024
 30
0.0
 40
5.0
100
AcDbArc
 50
180.0000100000009
 51
268.0000000000026
  0
ARC
  5
29E9
330
2D08
100
AcDbEntity
  8
AM_0
100
AcDbCircle
 10
444.2234285306549
 20
807.4909850281022
 30
0.0
 40
5.0
100
AcDbArc
 50
0.0
 51
88.00000000000279
  0
ARC
  5
29EA
330
2D08
100
AcDbEntity
  8
AM_0
100
AcDbCircle
 10
480.2233685306551
 20
783.4987450281022
 30
0.0
 40
5.0
100
AcDbArc
 50
180.0000100000009
 51
268.0000000000026
  0
ARC
  5
29EB
330
2D08
100
AcDbEntity
  8
AM_0
100
AcDbCircle
 10
470.223368530655
 20
793.6021350281022
 30
0.0
 40
5.0
100
AcDbArc
 50
0.0
 51
88.00000000000279
  0
LINE
  5
29EC
330
2D08
100
AcDbEntity
  8
AM_0
100
AcDbLine
 10
428.223368530655
 20
827.427455028102
 30
0.0
 11
449.223368530655
 21
827.427455028102
 31
0.0
  0
LINE
  5
29ED
330
2D08
100
AcDbEntity
  8
AM_0
100
AcDbLine
 10
428.223368530655
 20
853.8468250281024
 30
0.0
 11
449.223368530655
 21
853.8468250281024
 31
0.0
  0
LINE
  5
29EE
330
2D08
100
AcDbEntity
  8
AM_0
100
AcDbLine
 10
428.223368530655
 20
837.6164150281024
 30
0.0
 11
449.223368530655
 21
837.6164150281024
 31
0.0
  0
LINE
  5
29EF
330
2D08
100
AcDbEntity
  8
AM_0
100
AcDbLine
 10
428.223368530655
 20
853.8468250281024
 30
0.0
 11
428.223368530655
 21
827.427455028102
 31
0.0
  0
ARC
  5
29F0
330
2D08
100
AcDbEntity
  8
AM_0
100
AcDbCircle
 10
633.2234285306549
 20
751.2193850281022
 30
0.0
 40
5.0
100
AcDbArc
 50
179.9999899999988
 51
268.0000099999986
  0
LINE
  5
29F1
330
2D08
100
AcDbEntity
  8
AM_0
100
AcDbLine
 10
633.048988530655
 20
746.2223750281022
 30
0.0
 11
650.223488530655
 21
745.6226450281024
 31
0.0
  0
LINE
  5
29F2
330
2D08
100
AcDbEntity
  8
AM_0
100
AcDbLine
 10
505.2234285306549
 20
777.6225850281022
 30
0.0
 11
621.3801685306552
 21
773.5663050281023
 31
0.0
  0
LINE
  5
29F3
330
2D08
100
AcDbEntity
  8
AM_0
100
AcDbLine
 10
587.5729785306551
 20
813.2585650281022
 30
0.0
 11
625.812228530655
 21
790.1161750281022
 31
0.0
  0
LINE
  5
29F4
330
2D08
100
AcDbEntity
  8
AM_0
100
AcDbLine
 10
590.161838530655
 20
824.7491050281022
 30
0.0
 11
613.9166585306551
 21
824.7491050281022
 31
0.0
  0
LINE
  5
29F5
330
2D08
100
AcDbEntity
  8
AM_0
100
AcDbLine
 10
590.152568530655
 20
822.9721950281023
 30
0.0
 11
625.7216585306552
 21
801.4457650281023
 31
0.0
  0
ARC
  5
29F6
330
2D08
100
AcDbEntity
  8
AM_0
100
AcDbCircle
 10
590.161838530655
 20
819.7491050281023
 30
0.0
 40
5.0
100
AcDbArc
 50
90.00000299999769
 51
180.0000100000009
  0
ARC
  5
29F7
330
2D08
100
AcDbEntity
  8
AM_0
100
AcDbCircle
 10
590.161838530655
 20
817.5362150281022
 30
0.0
 40
5.0
100
AcDbArc
 50
179.9999899999988
 51
238.8176499999969
  0
LINE
  5
29F8
330
2D08
100
AcDbEntity
  8
AM_0
100
AcDbLine
 10
585.161838530655
 20
817.5362150281022
 30
0.0
 11
585.161838530655
 21
819.7491050281023
 31
0.0
  0
ARC
  5
29F9
330
2D08
100
AcDbEntity
  8
AM_0
100
AcDbCircle
 10
613.9166585306551
 20
819.7491050281023
 30
0.0
 40
5.0
100
AcDbArc
 50
53.74445300000321
 51
90.00000299999769
  0
POLYLINE
  5
29FA
330
2D08
100
AcDbEntity
  8
AM_0
100
AcDb2dPolyline
 66
     1
 10
0.0
 20
0.0
 30
0.0
  0
VERTEX
  5
29FB
330
29FA
100
AcDbEntity
  8
AM_0
100
AcDbVertex
100
AcDb2dVertex
 10
618.3069685306548
 20
794.6583450281023
 30
0.0
 42
0.0020909347
  0
VERTEX
  5
29FC
330
29FA
100
AcDbEntity
  8
AM_0
100
AcDbVertex
100
AcDb2dVertex
 10
619.2728185306549
 20
787.6178350281023
 30
0.0
 42
0.0020881749
  0
VERTEX
  5
29FD
330
29FA
100
AcDbEntity
  8
AM_0
100
AcDbVertex
100
AcDb2dVertex
 10
620.2973985306549
 20
780.5862150281024
 30
0.0
 42
0.0020849591
  0
VERTEX
  5
29FE
330
29FA
100
AcDbEntity
  8
AM_0
100
AcDbVertex
100
AcDb2dVertex
 10
621.3801685306552
 20
773.5663650281021
 30
0.0
  0
SEQEND
  5
29FF
330
29FA
100
AcDbEntity
  8
AM_0
  0
ARC
  5
2A00
330
2D08
100
AcDbEntity
  8
AM_0
100
AcDbCircle
 10
623.2234285306549
 20
785.8385250281022
 30
0.0
 40
5.0
100
AcDbArc
 50
0.0
 51
58.81764099999834
  0
LINE
  5
2A01
330
2D08
100
AcDbEntity
  8
AM_0
100
AcDbLine
 10
624.7411885306551
 20
772.1049450281023
 30
0.0
 11
628.223488530655
 21
768.6226450281024
 31
0.0
  0
ARC
  5
2A02
330
2D08
100
AcDbEntity
  8
AM_0
100
AcDbCircle
 10
629.2234285306549
 20
786.2735250281023
 30
0.0
 40
8.0
100
AcDbArc
 50
270.0
 51
0.0
  0
ARC
  5
2A03
330
2D08
100
AcDbEntity
  8
AM_0
100
AcDbCircle
 10
621.2056685306547
 20
768.5694150281021
 30
0.0
 40
5.0
100
AcDbArc
 50
45.0000010000038
 51
88.00000000000279
  0
LINE
  5
2A04
330
2D08
100
AcDbEntity
  8
AM_0
100
AcDbLine
 10
616.873568530655
 20
823.7809650281018
 30
0.0
 11
628.2234285306549
 21
815.4572350281021
 31
0.0
  0
LINE
  5
2A05
330
2D08
100
AcDbEntity
  8
AM_0
100
AcDbLine
 10
650.2234285306549
 20
770.6226450281024
 30
0.0
 11
655.2234285306549
 21
770.6226450281024
 31
0.0
  0
ARC
  5
2A06
330
2D08
100
AcDbEntity
  8
AM_0
100
AcDbCircle
 10
629.2234285306549
 20
844.2859750281023
 30
0.0
 40
8.0
100
AcDbArc
 50
270.0
 51
0.0
  0
LINE
  5
2A07
330
2D08
100
AcDbEntity
  8
AM_0
100
AcDbLine
 10
655.2234285306549
 20
880.6226450281023
 30
0.0
 11
658.2233685306548
 21
880.6226450281023
 31
0.0
  0
ARC
  5
2A08
330
2D08
100
AcDbEntity
  8
AM_0
100
AcDbCircle
 10
507.2234285306548
 20
910.6226450281024
 30
0.0
 40
5.0
100
AcDbArc
 50
270.0
 51
90.00000299999769
  0
LINE
  5
2A09
330
2D08
100
AcDbEntity
  8
AM_0
100
AcDbLine
 10
467.2234285306549
 20
915.6226450281023
 30
0.0
 11
507.2234285306548
 21
915.6226450281023
 31
0.0
  0
LINE
  5
2A0A
330
2D08
100
AcDbEntity
  8
AM_0
100
AcDbLine
 10
467.2234285306549
 20
905.6226450281023
 30
0.0
 11
507.2234285306548
 21
905.6226450281023
 31
0.0
  0
LINE
  5
2A0B
330
2D08
100
AcDbEntity
  8
AM_0
100
AcDbLine
 10
505.2233685306551
 20
1043.622645028101
 30
0.0
 11
480.0488685306548
 21
1042.743495028102
 31
0.0
  0
ARC
  5
2A0C
330
2D08
100
AcDbEntity
  8
AM_0
100
AcDbCircle
 10
414.2233685306551
 20
1007.622645028102
 30
0.0
 40
3.0
100
AcDbArc
 50
90.00000299999769
 51
180.0000100000009
  0
LINE
  5
2A0D
330
2D08
100
AcDbEntity
  8
AM_0
100
AcDbLine
 10
411.2234285306548
 20
994.3177750281021
 30
0.0
 11
426.2234285306549
 21
994.3177750281021
 31
0.0
  0
LINE
  5
2A0E
330
2D08
100
AcDbEntity
  8
AM_0
100
AcDbLine
 10
411.2234285306548
 20
984.1288050281022
 30
0.0
 11
426.2234285306549
 21
984.1288050281022
 31
0.0
  0
LINE
  5
2A0F
330
2D08
100
AcDbEntity
  8
AM_0
100
AcDbLine
 10
411.2234285306548
 20
967.8983950281022
 30
0.0
 11
426.2234285306549
 21
967.8983950281022
 31
0.0
  0
LINE
  5
2A10
330
2D08
100
AcDbEntity
  8
AM_0
100
AcDbLine
 10
366.2234285306549
 20
928.6226450281024
 30
0.0
 11
388.2234285306549
 21
928.6226450281024
 31
0.0
  0
ARC
  5
2A11
330
2D08
100
AcDbEntity
  8
AM_0
100
AcDbCircle
 10
366.2234285306549
 20
923.6226450281023
 30
0.0
 40
5.0
100
AcDbArc
 50
90.00000299999769
 51
180.0000100000009
  0
LINE
  5
2A12
330
2D08
100
AcDbEntity
  8
AM_0
100
AcDbLine
 10
336.2234285306549
 20
972.2026550281023
 30
0.0
 11
348.2234285306549
 21
972.2026550281023
 31
0.0
  0
LINE
  5
2A13
330
2D08
100
AcDbEntity
  8
AM_0
100
AcDbLine
 10
336.2234285306549
 20
950.0973150281025
 30
0.0
 11
348.2234285306549
 21
950.0973150281025
 31
0.0
  0
ARC
  5
2A14
330
2D08
100
AcDbEntity
  8
AM_0
100
AcDbCircle
 10
388.2234285306549
 20
933.6226450281024
 30
0.0
 40
5.0
100
AcDbArc
 50
270.0
 51
0.0
  0
LINE
  5
2A15
330
2D08
100
AcDbEntity
  8
AM_0
100
AcDbLine
 10
393.3176685306552
 20
986.1164150281025
 30
0.0
 11
336.2234285306549
 21
984.1226450281023
 31
0.0
  0
LINE
  5
2A16
330
2D08
100
AcDbEntity
  8
AM_0
100
AcDbLine
 10
395.2859285306549
 20
986.1851450281024
 30
0.0
 11
409.7589485306547
 21
1000.658165028101
 31
0.0
  0
ARC
  5
2A17
330
2D08
100
AcDbEntity
  8
AM_0
100
AcDbCircle
 10
393.1431685306549
 20
991.1133650281024
 30
0.0
 40
5.0
100
AcDbArc
 50
271.9999999999971
 51
315.0
  0
ARC
  5
2A18
330
2D08
100
AcDbEntity
  8
AM_0
100
AcDbCircle
 10
406.2234285306549
 20
1004.193685028102
 30
0.0
 40
5.0
100
AcDbArc
 50
315.0
 51
0.0
  0
LINE
  5
2A19
330
2D08
100
AcDbEntity
  8
AM_0
100
AcDbLine
 10
428.223368530655
 20
993.8177750281022
 30
0.0
 11
428.223368530655
 21
967.3983950281025
 31
0.0
  0
LINE
  5
2A1A
330
2D08
100
AcDbEntity
  8
AM_0
100
AcDbLine
 10
475.223368530655
 20
921.1581650281022
 30
0.0
 11
475.223368530655
 21
1037.746545028102
 31
0.0
  0
LINE
  5
2A1B
330
2D08
100
AcDbEntity
  8
AM_0
100
AcDbLine
 10
428.223368530655
 20
967.3983950281025
 30
0.0
 11
449.223368530655
 21
967.3983950281025
 31
0.0
  0
ARC
  5
2A1C
330
2D08
100
AcDbEntity
  8
AM_0
100
AcDbCircle
 10
487.2234285306549
 20
910.6226450281024
 30
0.0
 40
12.5
100
AcDbArc
 50
23.57817999999753
 51
156.4218200000024
  0
ARC
  5
2A1D
330
2D08
100
AcDbEntity
  8
AM_0
100
AcDbCircle
 10
487.2234285306549
 20
910.6226450281024
 30
0.0
 40
15.0
100
AcDbArc
 50
148.2119800000004
 51
160.528769999999
  0
ARC
  5
2A1E
330
2D08
100
AcDbEntity
  8
AM_0
100
AcDbCircle
 10
467.2234285306549
 20
910.6226450281024
 30
0.0
 40
5.0
100
AcDbArc
 50
90.00000299999769
 51
270.0
  0
ARC
  5
2A1F
330
2D08
100
AcDbEntity
  8
AM_0
100
AcDbCircle
 10
470.223368530655
 20
900.0870550281021
 30
0.0
 40
5.0
100
AcDbArc
 50
0.0
 51
31.78801800000311
  0
ARC
  5
2A20
330
2D08
100
AcDbEntity
  8
AM_0
100
AcDbCircle
 10
487.2234285306549
 20
910.6226450281024
 30
0.0
 40
15.0
100
AcDbArc
 50
199.4712300000005
 51
211.7880199999992
  0
ARC
  5
2A21
330
2D08
100
AcDbEntity
  8
AM_0
100
AcDbCircle
 10
470.223368530655
 20
921.1581650281022
 30
0.0
 40
5.0
100
AcDbArc
 50
328.2119800000008
 51
0.0
  0
LINE
  5
2A22
330
2D08
100
AcDbEntity
  8
AM_0
100
AcDbLine
 10
470.3978685306549
 20
1022.646145028102
 30
0.0
 11
454.048868530655
 21
1022.075215028102
 31
0.0
  0
ARC
  5
2A23
330
2D08
100
AcDbEntity
  8
AM_0
100
AcDbCircle
 10
444.2234285306549
 20
1013.754235028102
 30
0.0
 40
5.0
100
AcDbArc
 50
271.9999999999971
 51
0.0
  0
LINE
  5
2A24
330
2D08
100
AcDbEntity
  8
AM_0
100
AcDbLine
 10
424.2234285306549
 20
1010.622645028101
 30
0.0
 11
426.2234285306549
 21
1008.622645028101
 31
0.0
  0
LINE
  5
2A25
330
2D08
100
AcDbEntity
  8
AM_0
100
AcDbLine
 10
426.223488530655
 20
1008.122645028102
 30
0.0
 11
444.3979885306551
 21
1008.757285028101
 31
0.0
  0
LINE
  5
2A26
330
2D08
100
AcDbEntity
  8
AM_0
100
AcDbLine
 10
428.223368530655
 20
983.6288050281025
 30
0.0
 11
449.223368530655
 21
983.6288050281025
 31
0.0
  0
LINE
  5
2A27
330
2D08
100
AcDbEntity
  8
AM_0
100
AcDbLine
 10
428.223368530655
 20
993.8177750281022
 30
0.0
 11
449.223368530655
 21
993.8177750281022
 31
0.0
  0
LINE
  5
2A28
330
2D08
100
AcDbEntity
  8
AM_0
100
AcDbLine
 10
414.2233685306551
 20
1010.622585028101
 30
0.0
 11
424.223368530655
 21
1010.622585028101
 31
0.0
  0
ARC
  5
2A29
330
2D08
100
AcDbEntity
  8
AM_0
100
AcDbCircle
 10
454.223368530655
 20
1017.078335028102
 30
0.0
 40
5.0
100
AcDbArc
 50
91.99999800000055
 51
180.0000100000009
  0
ARC
  5
2A2A
330
2D08
100
AcDbEntity
  8
AM_0
100
AcDbCircle
 10
470.223368530655
 20
1027.643145028102
 30
0.0
 40
5.0
100
AcDbArc
 50
271.9999999999971
 51
0.0
  0
ARC
  5
2A2B
330
2D08
100
AcDbEntity
  8
AM_0
100
AcDbCircle
 10
480.2233685306551
 20
1037.746545028102
 30
0.0
 40
5.0
100
AcDbArc
 50
91.99999800000055
 51
180.0000100000009
  0
POLYLINE
  5
2A2C
330
2D08
100
AcDbEntity
  8
AM_0
100
AcDb2dPolyline
 66
     1
 10
0.0
 20
0.0
 30
0.0
  0
VERTEX
  5
2A2D
330
2A2C
100
AcDbEntity
  8
AM_0
100
AcDbVertex
100
AcDb2dVertex
 10
623.3485485306548
 20
1047.747645028102
 30
0.0
  0
VERTEX
  5
2A2E
330
2A2C
100
AcDbEntity
  8
AM_0
100
AcDbVertex
100
AcDb2dVertex
 10
620.118288530655
 20
1027.683135028101
 30
0.0
 42
-1.0
  0
SEQEND
  5
2A2F
330
2A2C
100
AcDbEntity
  8
AM_0
  0
LINE
  5
2A30
330
2D08
100
AcDbEntity
  8
AM_0
100
AcDbLine
 10
505.2234285306549
 20
1043.622645028101
 30
0.0
 11
621.3801685306552
 21
1047.678915028102
 31
0.0
  0
LINE
  5
2A31
330
2D08
100
AcDbEntity
  8
AM_0
100
AcDbLine
 10
590.152568530655
 20
998.2730350281023
 30
0.0
 11
625.7216585306552
 21
1019.799465028101
 31
0.0
  0
LINE
  5
2A32
330
2D08
100
AcDbEntity
  8
AM_0
100
AcDbLine
 10
590.161838530655
 20
996.4961750281021
 30
0.0
 11
613.9166585306551
 21
996.4961750281021
 31
0.0
  0
LINE
  5
2A33
330
2D08
100
AcDbEntity
  8
AM_0
100
AcDbLine
 10
587.5729785306551
 20
1007.986655028102
 30
0.0
 11
625.812228530655
 21
1031.129115028102
 31
0.0
  0
LINE
  5
2A34
330
2D08
100
AcDbEntity
  8
AM_0
100
AcDbLine
 10
505.2234285306549
 20
1043.622645028101
 30
0.0
 11
505.2234285306549
 21
915.6226450281023
 31
0.0
  0
ARC
  5
2A35
330
2D08
100
AcDbEntity
  8
AM_0
100
AcDbCircle
 10
590.161838530655
 20
1003.709005028101
 30
0.0
 40
5.0
100
AcDbArc
 50
121.1823599999962
 51
180.0000100000009
  0
ARC
  5
2A36
330
2D08
100
AcDbEntity
  8
AM_0
100
AcDbCircle
 10
590.161838530655
 20
1001.496175028102
 30
0.0
 40
5.0
100
AcDbArc
 50
179.9999899999988
 51
270.0
  0
LINE
  5
2A37
330
2D08
100
AcDbEntity
  8
AM_0
100
AcDbLine
 10
585.161838530655
 20
1003.709005028101
 30
0.0
 11
585.161838530655
 21
1001.496175028102
 31
0.0
  0
ARC
  5
2A38
330
2D08
100
AcDbEntity
  8
AM_0
100
AcDbCircle
 10
678.2234285306549
 20
910.6225850281022
 30
0.0
 40
8.000011399999998
100
AcDbArc
 50
90.00000299999769
 51
270.0
  0
LINE
  5
2A39
330
2D08
100
AcDbEntity
  8
AM_0
100
AcDbLine
 10
678.2233685306549
 20
918.6226450281024
 30
0.0
 11
678.2233685306549
 21
902.6225850281022
 31
0.0
  0
LINE
  5
2A3A
330
2D08
100
AcDbEntity
  8
AM_0
100
AcDbLine
 10
655.2234285306549
 20
940.6226450281023
 30
0.0
 11
658.2233685306548
 21
940.6226450281023
 31
0.0
  0
LINE
  5
2A3B
330
2D08
100
AcDbEntity
  8
AM_0
100
AcDbLine
 10
616.873568530655
 20
997.4642550281025
 30
0.0
 11
628.223488530655
 21
1005.787985028102
 31
0.0
  0
ARC
  5
2A3C
330
2D08
100
AcDbEntity
  8
AM_0
100
AcDbCircle
 10
613.9166585306551
 20
1001.496175028102
 30
0.0
 40
5.0
100
AcDbArc
 50
270.0
 51
306.2555499999989
  0
ARC
  5
2A3D
330
2D08
100
AcDbEntity
  8
AM_0
100
AcDbCircle
 10
629.2234285306549
 20
976.9592550281025
 30
0.0
 40
8.0
100
AcDbArc
 50
0.0
 51
90.00000299999769
  0
ARC
  5
2A3E
330
2D08
100
AcDbEntity
  8
AM_0
100
AcDbCircle
 10
629.2234285306549
 20
1034.971765028102
 30
0.0
 40
8.0
100
AcDbArc
 50
0.0
 51
90.00000299999769
  0
ARC
  5
2A3F
330
2D08
100
AcDbEntity
  8
AM_0
100
AcDbCircle
 10
623.2234285306549
 20
1035.406695028102
 30
0.0
 40
5.0
100
AcDbArc
 50
301.1823599999963
 51
0.0
  0
LINE
  5
2A40
330
2D08
100
AcDbEntity
  8
AM_0
100
AcDbLine
 10
633.048988530655
 20
1075.022915028102
 30
0.0
 11
650.223488530655
 21
1075.622645028101
 31
0.0
  0
ARC
  5
2A41
330
2D08
100
AcDbEntity
  8
AM_0
100
AcDbCircle
 10
621.2056685306547
 20
1052.675865028102
 30
0.0
 40
5.0
100
AcDbArc
 50
271.9999999999971
 51
315.0
  0
LINE
  5
2A42
330
2D08
100
AcDbEntity
  8
AM_0
100
AcDbLine
 10
624.7412485306552
 20
1049.140285028101
 30
0.0
 11
628.223488530655
 21
1052.622585028101
 31
0.0
  0
ARC
  5
2A43
330
2D08
100
AcDbEntity
  8
AM_0
100
AcDbCircle
 10
633.2234285306549
 20
1070.025905028102
 30
0.0
 40
5.0
100
AcDbArc
 50
91.99999800000055
 51
180.0000100000009
  0
LINE
  5
2A44
330
2D08
100
AcDbEntity
  8
AM_0
100
AcDbLine
 10
650.2234285306549
 20
1050.622645028101
 30
0.0
 11
655.2234285306549
 21
1050.622645028101
 31
0.0
  0
LINE
  5
2A45
330
2D08
100
AcDbEntity
  8
AM_0
100
AcDbLine
 10
740.2233685306547
 20
938.1226450281024
 30
0.0
 11
740.2233685306547
 21
883.1226450281024
 31
0.0
  0
TEXT
  5
2C2B
330
2D08
100
AcDbEntity
  8
AM_0
100
AcDbText
 10
888.7763055554518
 20
937.8629951371864
 30
0.0
 40
20.0
  1
VX15-240GF~VX15-300GF
100
AcDbText
  0
LINE
  5
2E2C
330
2D08
100
AcDbEntity
  8
AM_0
100
AcDbLine
 10
187.2234185306549
 20
337.4614600000003
 30
0.0
 11
215.2234185306549
 21
337.4614600000003
 31
0.0
  0
ENDSEC
  0
SECTION
  2
OBJECTS
  0
DICTIONARY
  5
2CA5
330
0
100
AcDbDictionary
281
     1
  3
ACAD_CIP_PREVIOUS_PRODUCT_INFO
350
2DC2
  3
ACAD_COLOR
350
2CFB
  3
ACAD_DETAILVIEWSTYLE
350
2D02
  3
ACAD_FIELDLIST
350
2E0C
  3
ACAD_GROUP
350
2CA6
  3
ACAD_LAYOUT
350
2CFA
  3
ACAD_MATERIAL
350
2CA9
  3
ACAD_MLEADERSTYLE
350
2CFE
  3
ACAD_MLINESTYLE
350
2CF7
  3
ACAD_PLOTSETTINGS
350
2CF9
  3
ACAD_PLOTSTYLENAME
350
2CA7
  3
ACAD_SCALELIST
350
2CDB
  3
ACAD_SECTIONVIEWSTYLE
350
2D00
  3
ACAD_TABLESTYLE
350
2CFC
  3
ACAD_VISUALSTYLE
350
2CC2
  3
ACDB_RECOMPOSE_DATA
350
2EF6
  3
AcDbVariableDictionary
350
2EEA
  3
AcDsDecomposeData
350
2EFC
  3
AcmDictionary
350
2DE8
  3
AMG
350
2DC3
  3
AMGSNAPSETTINGS
350
2E1D
  0
DICTIONARY
  5
2EE4
330
2C9B
100
AcDbDictionary
280
     1
281
     1
  3
ACAD_LAYERSTATES
360
2EE5
  0
DICTIONARY
  5
2ED7
330
2CED
100
AcDbDictionary
280
     1
281
     1
  3
ADSK_XREC_LAYER_RECONCILED
360
2ED8
  0
DICTIONARY
  5
2ED9
330
2D0C
100
AcDbDictionary
280
     1
281
     1
  3
ADSK_XREC_LAYER_RECONCILED
360
2EDA
  0
DICTIONARY
  5
2EDB
330
2D26
100
AcDbDictionary
280
     1
281
     1
  3
ADSK_XREC_LAYER_RECONCILED
360
2EDC
  0
DICTIONARY
  5
2EDD
330
2D28
100
AcDbDictionary
280
     1
281
     1
  3
ADSK_XREC_LAYER_RECONCILED
360
2EDE
  0
DICTIONARY
  5
2EDF
330
2D29
100
AcDbDictionary
280
     1
281
     1
  3
ADSK_XREC_LAYER_RECONCILED
360
2EE0
  0
XRECORD
  5
2DC2
102
{ACAD_REACTORS
330
2CA5
102
}
330
2CA5
100
AcDbXrecord
280
     1
300
AMECH_PP
300
2019
300

  0
DICTIONARY
  5
2CFB
102
{ACAD_REACTORS
330
2CA5
102
}
330
2CA5
100
AcDbDictionary
281
     1
  0
DICTIONARY
  5
2D02
102
{ACAD_REACTORS
330
2CA5
102
}
330
2CA5
100
AcDbDictionary
281
     1
  3
Imperial24
350
2D03
  0
FIELDLIST
  5
2E0C
102
{ACAD_REACTORS
330
2CA5
102
}
330
2CA5
100
AcDbIdSet
 90
        8
330
2E0A
330
2E0B
330
2E0D
330
2E0E
330
2E12
330
2E13
330
2E14
330
2E15
100
AcDbFieldList
  0
DICTIONARY
  5
2CA6
102
{ACAD_REACTORS
330
2CA5
102
}
330
2CA5
100
AcDbDictionary
281
     1
  0
DICTIONARY
  5
2CFA
102
{ACAD_REACTORS
330
2CA5
102
}
330
2CA5
100
AcDbDictionary
281
     1
  3
Model
350
2D0B
  3
レイアウト1
350
2D07
  0
DICTIONARY
  5
2CA9
102
{ACAD_REACTORS
330
2CA5
102
}
330
2CA5
100
AcDbDictionary
281
     1
  3
ByBlock
350
2CB2
  3
ByLayer
350
2CAA
  3
Global
350
2CBA
  0
DICTIONARY
  5
2CFE
102
{ACAD_REACTORS
330
2CA5
102
}
330
2CA5
100
AcDbDictionary
281
     1
  3
Standard
350
2CFF
  0
DICTIONARY
  5
2CF7
102
{ACAD_REACTORS
330
2CA5
102
}
330
2CA5
100
AcDbDictionary
281
     1
  3
Standard
350
2CF8
  0
DICTIONARY
  5
2CF9
102
{ACAD_REACTORS
330
2CA5
102
}
330
2CA5
100
AcDbDictionary
281
     1
  0
ACDBDICTIONARYWDFLT
  5
2CA7
102
{ACAD_REACTORS
330
2CA5
102
}
330
2CA5
100
AcDbDictionary
281
     1
  3
Normal
350
2CA8
100
AcDbDictionaryWithDefault
340
2CA8
  0
DICTIONARY
  5
2CDB
102
{ACAD_REACTORS
330
2CA5
102
}
330
2CA5
100
AcDbDictionary
281
     1
  3
A0
350
2CDC
  3
A1
350
2CDD
  3
A2
350
2CDE
  3
A3
350
2CDF
  3
A4
350
2CE0
  3
A5
350
2CE1
  3
A6
350
2CE2
  3
A7
350
2CE3
  3
A8
350
2CE4
  3
A9
350
2CE5
  3
B0
350
2CE6
  3
B1
350
2CE7
  3
B2
350
2CE8
  3
B3
350
2CE9
  3
B4
350
2CEA
  3
B5
350
2CEB
  3
B6
350
2CEC
  0
DICTIONARY
  5
2D00
102
{ACAD_REACTORS
330
2CA5
102
}
330
2CA5
100
AcDbDictionary
281
     1
  3
Imperial24
350
2D01
  0
DICTIONARY
  5
2CFC
102
{ACAD_REACTORS
330
2CA5
102
}
330
2CA5
100
AcDbDictionary
281
     1
  3
Standard
350
2CFD
  0
DICTIONARY
  5
2CC2
102
{ACAD_REACTORS
330
2CA5
102
}
330
2CA5
100
AcDbDictionary
281
     1
  3
2dWireframe
350
2CC8
  3
Basic
350
2CC7
  3
Brighten
350
2CCE
  3
ColorChange
350
2CD2
  3
Conceptual
350
2CCB
  3
Dim
350
2CCD
  3
EdgeColorOff
350
2CDA
  3
Facepattern
350
2CD1
  3
Flat
350
2CC3
  3
FlatWithEdges
350
2CC4
  3
Gouraud
350
2CC5
  3
GouraudWithEdges
350
2CC6
  3
Hidden
350
2CCA
  3
JitterOff
350
2CD8
  3
Linepattern
350
2CD0
  3
OverhangOff
350
2CD9
  3
Realistic
350
2CCC
  3
Shaded
350
2CD7
  3
Shaded with edges
350
2CD6
  3
Shades of Gray
350
2CD3
  3
Sketchy
350
2CD4
  3
Thicken
350
2CCF
  3
Wireframe
350
2CC9
  3
X-Ray
350
2CD5
  0
XRECORD
  5
2EF6
102
{ACAD_REACTORS
330
2CA5
102
}
330
2CA5
100
AcDbXrecord
280
     1
 90
        1
330
2CFD
  0
DICTIONARY
  5
2EEA
102
{ACAD_REACTORS
330
2CA5
102
}
330
2CA5
100
AcDbDictionary
281
     1
  3
CANNOSCALE
350
2EF0
  3
CMLEADERSTYLE
350
2EEC
  3
CTABLESTYLE
350
2EEB
  3
CVIEWDETAILSTYLE
350
2EED
  3
CVIEWSECTIONSTYLE
350
2EEE
  3
LAYEREVAL
350
2EF2
  3
LAYERNOTIFY
350
2EF3
  3
LIGHTINGUNITS
350
2EF1
  3
MSLTSCALE
350
2EEF
  0
DICTIONARY
  5
2EFC
102
{ACAD_REACTORS
330
2CA5
102
}
330
2CA5
100
AcDbDictionary
281
     1
  3
AcDsRecords
350
2EFE
  3
AcDsSchemas
350
2EFD
1001
ACAD
1070
     2
  0
DICTIONARY
  5
2DE8
102
{ACAD_REACTORS
330
2CA5
102
}
330
2CA5
100
AcDbDictionary
281
     1
  3
AcmStdDictionary
350
2DF1
  0
DICTIONARY
  5
2DC3
102
{ACAD_REACTORS
330
2CA5
102
}
330
2CA5
100
AcDbDictionary
281
     1
  0
DICTIONARY
  5
2E1D
102
{ACAD_REACTORS
330
2CA5
102
}
330
2CA5
100
AcDbDictionary
281
     1
  0
DICTIONARY
  5
2EE5
102
{ACAD_REACTORS
330
2EE4
102
}
330
2EE4
100
AcDbDictionary
281
     1
  0
XRECORD
  5
2ED8
102
{ACAD_REACTORS
330
2ED7
102
}
330
2ED7
100
AcDbXrecord
280
     1
290
     1
  0
XRECORD
  5
2EDA
102
{ACAD_REACTORS
330
2ED9
102
}
330
2ED9
100
AcDbXrecord
280
     1
290
     1
  0
XRECORD
  5
2EDC
102
{ACAD_REACTORS
330
2EDB
102
}
330
2EDB
100
AcDbXrecord
280
     1
290
     1
  0
XRECORD
  5
2EDE
102
{ACAD_REACTORS
330
2EDD
102
}
330
2EDD
100
AcDbXrecord
280
     1
290
     1
  0
XRECORD
  5
2EE0
102
{ACAD_REACTORS
330
2EDF
102
}
330
2EDF
100
AcDbXrecord
280
     1
290
     1
  0
ACDBDETAILVIEWSTYLE
  5
2D03
102
{ACAD_XDICTIONARY
360
2F31
102
}
102
{ACAD_REACTORS
330
2D02
330
2E06
102
}
330
2D02
100
AcDbModelDocViewStyle
 70
     0
  3
Imperial24
290
     0
100
AcDbDetailViewStyle
 70
     0
 71
     0
 90
        3
 71
     1
340
2CEE
 62
   256
 40
0.24
340
0
 62
   256
 40
0.24
300

 40
0.36
280
     3
 71
     2
340
2CF5
 90
       25
 62
   256
 71
     3
340
2CEE
 62
   256
 40
0.24
 90
        1
 40
0.75
 90
        1
300
%<\AcVar ViewType \f "%tc1">% %<\AcVar ViewDetailId>%\PSCALE %<\AcVar ViewScale \f "%sn">%
 71
     4
340
2CF5
 90
       25
 62
   256
340
2CF5
 90
       25
 62
   256
280
     0
  0
LAYOUT
  5
2D0B
102
{ACAD_REACTORS
330
2CFA
102
}
330
2CFA
100
AcDbPlotSettings
  1

  2
JUST PDF 3
  4

  6

 40
0.0
 41
0.0
 42
0.0
 43
0.0
 44
0.0
 45
0.0
 46
0.0
 47
0.0
 48
0.0
 49
0.0
140
0.0
141
0.0
142
1.0
143
1.0
 70
  1712
 72
     0
 73
     0
 74
     0
  7

 75
     0
147
1.0
 76
     0
 77
     2
 78
   300
148
0.0
149
0.0
100
AcDbLayout
  1
Model
 70
     1
 71
     0
 10
0.0
 20
0.0
 11
12.0
 21
9.0
 12
0.0
 22
0.0
 32
0.0
 14
0.0
 24
0.0
 34
0.0
 15
0.0
 25
0.0
 35
0.0
146
0.0
 13
0.0
 23
0.0
 33
0.0
 16
1.0
 26
0.0
 36
0.0
 17
0.0
 27
1.0
 37
0.0
 76
     0
330
2D08
331
2D0D
  0
LAYOUT
  5
2D07
102
{ACAD_REACTORS
330
2CFA
102
}
330
2CFA
100
AcDbPlotSettings
  1

  2
JUST PDF 3
  4

  6

 40
0.0
 41
0.0
 42
0.0
 43
0.0
 44
0.0
 45
0.0
 46
0.0
 47
0.0
 48
0.0
 49
0.0
140
0.0
141
0.0
142
1.0
143
1.0
 70
   688
 72
     0
 73
     0
 74
     5
  7

 75
    16
147
1.0
 76
     0
 77
     2
 78
   300
148
0.0
149
0.0
100
AcDbLayout
  1
レイアウト1
 70
     1
 71
     1
 10
0.0
 20
0.0
 11
420.0
 21
297.0
 12
0.0
 22
0.0
 32
0.0
 14
1.000000000000000E+20
 24
1.000000000000000E+20
 34
1.000000000000000E+20
 15
-1.000000000000000E+20
 25
-1.000000000000000E+20
 35
-1.000000000000000E+20
146
0.0
 13
0.0
 23
0.0
 33
0.0
 16
1.0
 26
0.0
 36
0.0
 17
0.0
 27
1.0
 37
0.0
 76
     0
330
2D04
  0
MATERIAL
  5
2CB2
102
{ACAD_XDICTIONARY
360
2CB3
102
}
102
{ACAD_REACTORS
330
2CA9
102
}
330
2CA9
100
AcDbMaterial
  1
ByBlock
 72
     0
 43
0.0208333333333333
 43
0.0
 43
0.0
 43
0.0
 43
0.0
 43
0.0208333333333333
 43
0.0
 43
0.0
 43
0.0
 43
0.0
 43
1.0
 43
0.0
 43
0.0
 43
0.0
 43
0.0
 43
1.0
 77
     0
 47
0.0208333333333333
 47
0.0
 47
0.0
 47
0.0
 47
0.0
 47
0.0208333333333333
 47
0.0
 47
0.0
 47
0.0
 47
0.0
 47
1.0
 47
0.0
 47
0.0
 47
0.0
 47
0.0
 47
1.0
171
     0
 49
0.0208333333333333
 49
0.0
 49
0.0
 49
0.0
 49
0.0
 49
0.0208333333333333
 49
0.0
 49
0.0
 49
0.0
 49
0.0
 49
1.0
 49
0.0
 49
0.0
 49
0.0
 49
0.0
 49
1.0
175
     0
142
0.0208333333333333
142
0.0
142
0.0
142
0.0
142
0.0
142
0.0208333333333333
142
0.0
142
0.0
142
0.0
142
0.0
142
1.0
142
0.0
142
0.0
142
0.0
142
0.0
142
1.0
179
     0
144
0.0208333333333333
144
0.0
144
0.0
144
0.0
144
0.0
144
0.0208333333333333
144
0.0
144
0.0
144
0.0
144
0.0
144
1.0
144
0.0
144
0.0
144
0.0
144
0.0
144
1.0
147
0.0208333333333333
147
0.0
147
0.0
147
0.0
147
0.0
147
0.0208333333333333
147
0.0
147
0.0
147
0.0
147
0.0
147
1.0
147
0.0
147
0.0
147
0.0
147
0.0
147
1.0
  0
MATERIAL
  5
2CAA
102
{ACAD_XDICTIONARY
360
2CAB
102
}
102
{ACAD_REACTORS
330
2CA9
102
}
330
2CA9
100
AcDbMaterial
  1
ByLayer
 72
     0
 43
0.0208333333333333
 43
0.0
 43
0.0
 43
0.0
 43
0.0
 43
0.0208333333333333
 43
0.0
 43
0.0
 43
0.0
 43
0.0
 43
1.0
 43
0.0
 43
0.0
 43
0.0
 43
0.0
 43
1.0
 77
     0
 47
0.0208333333333333
 47
0.0
 47
0.0
 47
0.0
 47
0.0
 47
0.0208333333333333
 47
0.0
 47
0.0
 47
0.0
 47
0.0
 47
1.0
 47
0.0
 47
0.0
 47
0.0
 47
0.0
 47
1.0
171
     0
 49
0.0208333333333333
 49
0.0
 49
0.0
 49
0.0
 49
0.0
 49
0.0208333333333333
 49
0.0
 49
0.0
 49
0.0
 49
0.0
 49
1.0
 49
0.0
 49
0.0
 49
0.0
 49
0.0
 49
1.0
175
     0
142
0.0208333333333333
142
0.0
142
0.0
142
0.0
142
0.0
142
0.0208333333333333
142
0.0
142
0.0
142
0.0
142
0.0
142
1.0
142
0.0
142
0.0
142
0.0
142
0.0
142
1.0
179
     0
144
0.0208333333333333
144
0.0
144
0.0
144
0.0
144
0.0
144
0.0208333333333333
144
0.0
144
0.0
144
0.0
144
0.0
144
1.0
144
0.0
144
0.0
144
0.0
144
0.0
144
1.0
147
0.0208333333333333
147
0.0
147
0.0
147
0.0
147
0.0
147
0.0208333333333333
147
0.0
147
0.0
147
0.0
147
0.0
147
1.0
147
0.0
147
0.0
147
0.0
147
0.0
147
1.0
  0
MATERIAL
  5
2CBA
102
{ACAD_XDICTIONARY
360
2CBB
102
}
102
{ACAD_REACTORS
330
2CA9
102
}
330
2CA9
100
AcDbMaterial
  1
Global
 72
     0
 43
0.0208333333333333
 43
0.0
 43
0.0
 43
0.0
 43
0.0
 43
0.0208333333333333
 43
0.0
 43
0.0
 43
0.0
 43
0.0
 43
1.0
 43
0.0
 43
0.0
 43
0.0
 43
0.0
 43
1.0
 77
     0
 47
0.0208333333333333
 47
0.0
 47
0.0
 47
0.0
 47
0.0
 47
0.0208333333333333
 47
0.0
 47
0.0
 47
0.0
 47
0.0
 47
1.0
 47
0.0
 47
0.0
 47
0.0
 47
0.0
 47
1.0
171
     0
 49
0.0208333333333333
 49
0.0
 49
0.0
 49
0.0
 49
0.0
 49
0.0208333333333333
 49
0.0
 49
0.0
 49
0.0
 49
0.0
 49
1.0
 49
0.0
 49
0.0
 49
0.0
 49
0.0
 49
1.0
175
     0
142
0.0208333333333333
142
0.0
142
0.0
142
0.0
142
0.0
142
0.0208333333333333
142
0.0
142
0.0
142
0.0
142
0.0
142
1.0
142
0.0
142
0.0
142
0.0
142
0.0
142
1.0
179
     0
144
0.0208333333333333
144
0.0
144
0.0
144
0.0
144
0.0
144
0.0208333333333333
144
0.0
144
0.0
144
0.0
144
0.0
144
1.0
144
0.0
144
0.0
144
0.0
144
0.0
144
1.0
147
0.0208333333333333
147
0.0
147
0.0
147
0.0
147
0.0
147
0.0208333333333333
147
0.0
147
0.0
147
0.0
147
0.0
147
1.0
147
0.0
147
0.0
147
0.0
147
0.0
147
1.0
  0
MLEADERSTYLE
  5
2CFF
102
{ACAD_REACTORS
330
2CFE
102
}
330
2CFE
100
AcDbMLeaderStyle
179
     2
170
     2
171
     1
172
     0
 90
        2
 40
0.0
 41
0.0
173
     1
 91
-1056964608
340
2CF3
 92
       -2
290
     1
 42
0.09
291
     1
 43
0.36
  3
Standard
 44
0.18
300

342
2CEE
174
     1
178
     6
175
     1
176
     0
 93
-1056964608
 45
0.18
292
     0
297
     0
 46
0.18
 94
-1056964608
 47
1.0
 49
1.0
140
1.0
293
     1
141
0.0
294
     1
177
     0
142
1.0
295
     0
296
     0
143
0.125
271
     0
272
     9
273
     9
  0
MLINESTYLE
  5
2CF8
102
{ACAD_REACTORS
330
2CF7
102
}
330
2CF7
100
AcDbMlineStyle
  2
STANDARD
 70
     0
  3

 62
   256
 51
90.0
 52
90.0
 71
     2
 49
0.5
 62
   256
  6
BYLAYER
 49
-0.5
 62
   256
  6
BYLAYER
  0
ACDBPLACEHOLDER
  5
2CA8
102
{ACAD_REACTORS
330
2CA7
102
}
330
2CA7
  0
SCALE
  5
2CDC
102
{ACAD_REACTORS
330
2CDB
102
}
330
2CDB
100
AcDbScale
 70
     0
300
1:1
140
1.0
141
1.0
290
     1
  0
SCALE
  5
2CDD
102
{ACAD_REACTORS
330
2CDB
102
}
330
2CDB
100
AcDbScale
 70
     0
300
1/128" = 1'-0"
140
0.0078125
141
12.0
290
     0
  0
SCALE
  5
2CDE
102
{ACAD_REACTORS
330
2CDB
102
}
330
2CDB
100
AcDbScale
 70
     0
300
1/64" = 1'-0"
140
0.015625
141
12.0
290
     0
  0
SCALE
  5
2CDF
102
{ACAD_REACTORS
330
2CDB
102
}
330
2CDB
100
AcDbScale
 70
     0
300
1/32" = 1'-0"
140
0.03125
141
12.0
290
     0
  0
SCALE
  5
2CE0
102
{ACAD_REACTORS
330
2CDB
102
}
330
2CDB
100
AcDbScale
 70
     0
300
1/16" = 1'-0"
140
0.0625
141
12.0
290
     0
  0
SCALE
  5
2CE1
102
{ACAD_REACTORS
330
2CDB
102
}
330
2CDB
100
AcDbScale
 70
     0
300
3/32" = 1'-0"
140
0.09375
141
12.0
290
     0
  0
SCALE
  5
2CE2
102
{ACAD_REACTORS
330
2CDB
102
}
330
2CDB
100
AcDbScale
 70
     0
300
1/8" = 1'-0"
140
0.125
141
12.0
290
     0
  0
SCALE
  5
2CE3
102
{ACAD_REACTORS
330
2CDB
102
}
330
2CDB
100
AcDbScale
 70
     0
300
3/16" = 1'-0"
140
0.1875
141
12.0
290
     0
  0
SCALE
  5
2CE4
102
{ACAD_REACTORS
330
2CDB
102
}
330
2CDB
100
AcDbScale
 70
     0
300
1/4" = 1'-0"
140
0.25
141
12.0
290
     0
  0
SCALE
  5
2CE5
102
{ACAD_REACTORS
330
2CDB
102
}
330
2CDB
100
AcDbScale
 70
     0
300
3/8" = 1'-0"
140
0.375
141
12.0
290
     0
  0
SCALE
  5
2CE6
102
{ACAD_REACTORS
330
2CDB
102
}
330
2CDB
100
AcDbScale
 70
     0
300
1/2" = 1'-0"
140
0.5
141
12.0
290
     0
  0
SCALE
  5
2CE7
102
{ACAD_REACTORS
330
2CDB
102
}
330
2CDB
100
AcDbScale
 70
     0
300
3/4" = 1'-0"
140
0.75
141
12.0
290
     0
  0
SCALE
  5
2CE8
102
{ACAD_REACTORS
330
2CDB
102
}
330
2CDB
100
AcDbScale
 70
     0
300
1" = 1'-0"
140
1.0
141
12.0
290
     0
  0
SCALE
  5
2CE9
102
{ACAD_REACTORS
330
2CDB
102
}
330
2CDB
100
AcDbScale
 70
     0
300
1-1/2" = 1'-0"
140
1.5
141
12.0
290
     0
  0
SCALE
  5
2CEA
102
{ACAD_REACTORS
330
2CDB
102
}
330
2CDB
100
AcDbScale
 70
     0
300
3" = 1'-0"
140
3.0
141
12.0
290
     0
  0
SCALE
  5
2CEB
102
{ACAD_REACTORS
330
2CDB
102
}
330
2CDB
100
AcDbScale
 70
     0
300
6" = 1'-0"
140
6.0
141
12.0
290
     0
  0
SCALE
  5
2CEC
102
{ACAD_REACTORS
330
2CDB
102
}
330
2CDB
100
AcDbScale
 70
     0
300
1'-0" = 1'-0"
140
12.0
141
12.0
290
     0
  0
ACDBSECTIONVIEWSTYLE
  5
2D01
102
{ACAD_XDICTIONARY
360
2F2F
102
}
102
{ACAD_REACTORS
330
2D00
330
2E05
102
}
330
2D00
100
AcDbModelDocViewStyle
 70
     0
  3
Imperial24
290
     0
100
AcDbSectionViewStyle
 70
     0
 71
     0
 90
       78
 71
     1
340
2CEE
 62
   256
 40
0.24
340
0
340
0
 62
   256
 40
0.24
300
I, O, Q, S, X, Z
 40
0.48
 90
        3
 40
0.18
 90
        1
 71
     2
340
2CF5
 90
       25
 62
   256
340
2CF5
 90
       50
 62
   256
 40
0.24
 40
0.0
 40
0.24
 71
     3
340
2CEE
 62
   256
 40
0.24
 90
        1
 40
0.75
 90
        1
300
%<\AcVar ViewType \f "%tc1">% %<\AcVar ViewSectionStartId>%-%<\AcVar ViewSectionEndId>%\PSCALE %<\AcVar ViewScale \f "%sn">%
 71
     4
 62
   256
 62
   257
300
ANSI31
 40
1.0
 90
        0
290
     0
290
     0
 90
        6
 40
0.0
 40
1.570796326794896
 40
0.2617993877991494
 40
1.308996938995747
 40
-0.2617993877991494
 40
1.832595714594046
  0
TABLESTYLE
  5
2CFD
102
{ACAD_XDICTIONARY
360
2EF4
102
}
102
{ACAD_REACTORS
330
2CFC
102
}
330
2CFC
100
AcDbTableStyle
280
     0
  3
Standard
 70
     0
 71
     0
 40
0.06
 41
0.06
280
     0
281
     0
  7
STANDARD
140
0.18
170
     2
 62
     0
 63
     7
283
     0
 90
      512
 91
        0
  1

274
    -2
284
     1
 64
     0
275
    -2
285
     1
 65
     0
276
    -2
286
     1
 66
     0
277
    -2
287
     1
 67
     0
278
    -2
288
     1
 68
     0
279
    -2
289
     1
 69
     0
  7
STANDARD
140
0.25
170
     5
 62
     0
 63
     7
283
     0
 90
      512
 91
        0
  1

274
    -2
284
     1
 64
     0
275
    -2
285
     1
 65
     0
276
    -2
286
     1
 66
     0
277
    -2
287
     1
 67
     0
278
    -2
288
     1
 68
     0
279
    -2
289
     1
 69
     0
  7
STANDARD
140
0.18
170
     5
 62
     0
 63
     7
283
     0
 90
      512
 91
        0
  1

274
    -2
284
     1
 64
     0
275
    -2
285
     1
 65
     0
276
    -2
286
     1
 66
     0
277
    -2
287
     1
 67
     0
278
    -2
288
     1
 68
     0
279
    -2
289
     1
 69
     0
  0
VISUALSTYLE
  5
2CC8
102
{ACAD_XDICTIONARY
360
2F09
102
}
102
{ACAD_REACTORS
330
2CC2
102
}
330
2CC2
100
AcDbVisualStyle
  2
2dWireframe
 70
     4
177
     2
291
     0
 71
     0
176
     1
 72
     2
176
     1
 73
     0
176
     1
 90
        0
176
     1
 40
0.6
176
     1
 41
30.0
176
     1
 63
     7
421
 16777215
176
     1
 74
     1
176
     1
 91
        4
176
     1
 64
     7
176
     1
 65
   257
176
     1
 75
     1
176
     1
175
     1
176
     1
 42
1.0
176
     1
 92
        0
176
     1
 66
   257
176
     1
 43
1.0
176
     1
 76
     1
176
     1
 77
     6
176
     1
 78
     2
176
     1
 67
     7
176
     1
 79
     5
176
     1
170
     0
176
     1
171
     0
176
     1
290
     0
176
     1
 93
        1
176
     1
 44
0.0
176
     1
173
     0
176
     1
1001
ACAD
1000
AcDbSavedByObjectVersion
1070
     0
  0
VISUALSTYLE
  5
2CC7
102
{ACAD_XDICTIONARY
360
2F07
102
}
102
{ACAD_REACTORS
330
2CC2
102
}
330
2CC2
100
AcDbVisualStyle
  2
Basic
 70
     7
177
     2
291
     1
 71
     1
176
     1
 72
     0
176
     1
 73
     1
176
     1
 90
        0
176
     1
 40
0.6
176
     1
 41
30.0
176
     1
 63
     7
421
 16777215
176
     1
 74
     0
176
     1
 91
        4
176
     1
 64
     7
176
     1
 65
   257
176
     1
 75
     1
176
     1
175
     1
176
     1
 42
1.0
176
     1
 92
        8
176
     1
 66
     7
176
     1
 43
1.0
176
     1
 76
     1
176
     1
 77
     6
176
     1
 78
     2
176
     1
 67
     7
176
     1
 79
     5
176
     1
170
     0
176
     1
171
     0
176
     1
290
     0
176
     1
 93
        1
176
     1
 44
0.0
176
     1
173
     0
176
     1
1001
ACAD
1000
AcDbSavedByObjectVersion
1070
     0
  0
VISUALSTYLE
  5
2CCE
102
{ACAD_XDICTIONARY
360
2F15
102
}
102
{ACAD_REACTORS
330
2CC2
102
}
330
2CC2
100
AcDbVisualStyle
  2
Brighten
 70
    12
177
     2
291
     1
 71
     2
176
     1
 72
     2
176
     1
 73
     0
176
     1
 90
        0
176
     1
 40
0.6
176
     1
 41
30.0
176
     1
 63
     7
421
 16777215
176
     1
 74
     1
176
     1
 91
        4
176
     1
 64
     7
176
     1
 65
   257
176
     1
 75
     1
176
     1
175
     1
176
     1
 42
1.0
176
     1
 92
        8
176
     1
 66
     7
176
     1
 43
1.0
176
     1
 76
     1
176
     1
 77
     6
176
     1
 78
     2
176
     1
 67
     7
176
     1
 79
     5
176
     1
170
     0
176
     1
171
     0
176
     1
290
     0
176
     1
 93
        1
176
     1
 44
50.0
176
     1
173
     0
176
     1
1001
ACAD
1000
AcDbSavedByObjectVersion
1070
     0
  0
VISUALSTYLE
  5
2CD2
102
{ACAD_XDICTIONARY
360
2F1D
102
}
102
{ACAD_REACTORS
330
2CC2
102
}
330
2CC2
100
AcDbVisualStyle
  2
ColorChange
 70
    16
177
     2
291
     1
 71
     2
176
     1
 72
     2
176
     1
 73
     3
176
     1
 90
        0
176
     1
 40
0.6
176
     1
 41
30.0
176
     1
 63
     8
421
  8421504
176
     1
 74
     1
176
     1
 91
        4
176
     1
 64
     7
176
     1
 65
   257
176
     1
 75
     1
176
     1
175
     1
176
     1
 42
1.0
176
     1
 92
        8
176
     1
 66
     8
424
  8421504
176
     1
 43
1.0
176
     1
 76
     1
176
     1
 77
     6
176
     1
 78
     2
176
     1
 67
     7
176
     1
 79
     5
176
     1
170
     0
176
     1
171
     0
176
     1
290
     0
176
     1
 93
        1
176
     1
 44
0.0
176
     1
173
     0
176
     1
1001
ACAD
1000
AcDbSavedByObjectVersion
1070
     0
  0
VISUALSTYLE
  5
2CCB
102
{ACAD_XDICTIONARY
360
2F0F
102
}
102
{ACAD_REACTORS
330
2CC2
102
}
330
2CC2
100
AcDbVisualStyle
  2
Conceptual
 70
     9
177
     2
291
     0
 71
     3
176
     1
 72
     2
176
     1
 73
     0
176
     1
 90
        0
176
     1
 40
0.6
176
     1
 41
30.0
176
     1
 63
     7
421
 16777215
176
     1
 74
     2
176
     1
 91
        2
176
     1
 64
     7
176
     1
 65
   257
176
     1
 75
     1
176
     1
175
     1
176
     1
 42
179.0
176
     1
 92
        8
176
     1
 66
     7
176
     1
 43
1.0
176
     1
 76
     1
176
     1
 77
     6
176
     1
 78
     2
176
     1
 67
     7
176
     1
 79
     3
176
     1
170
     0
176
     1
171
     0
176
     1
290
     0
176
     1
 93
        1
176
     1
 44
0.0
176
     1
173
     0
176
     1
1001
ACAD
1000
AcDbSavedByObjectVersion
1070
     0
  0
VISUALSTYLE
  5
2CCD
102
{ACAD_XDICTIONARY
360
2F13
102
}
102
{ACAD_REACTORS
330
2CC2
102
}
330
2CC2
100
AcDbVisualStyle
  2
Dim
 70
    11
177
     2
291
     1
 71
     2
176
     1
 72
     2
176
     1
 73
     0
176
     1
 90
        0
176
     1
 40
0.6
176
     1
 41
30.0
176
     1
 63
     7
421
 16777215
176
     1
 74
     1
176
     1
 91
        4
176
     1
 64
     7
176
     1
 65
   257
176
     1
 75
     1
176
     1
175
     1
176
     1
 42
1.0
176
     1
 92
        8
176
     1
 66
     7
176
     1
 43
1.0
176
     1
 76
     1
176
     1
 77
     6
176
     1
 78
     2
176
     1
 67
     7
176
     1
 79
     5
176
     1
170
     0
176
     1
171
     0
176
     1
290
     0
176
     1
 93
        1
176
     1
 44
-50.0
176
     1
173
     0
176
     1
1001
ACAD
1000
AcDbSavedByObjectVersion
1070
     0
  0
VISUALSTYLE
  5
2CDA
102
{ACAD_XDICTIONARY
360
2F2D
102
}
102
{ACAD_REACTORS
330
2CC2
102
}
330
2CC2
100
AcDbVisualStyle
  2
EdgeColorOff
 70
    22
177
     2
291
     1
 71
     2
176
     0
 72
     2
176
     0
 73
     0
176
     0
 90
        0
176
     0
 40
0.6
176
     0
 41
30.0
176
     0
 63
     7
421
 16777215
176
     0
 74
     1
176
     0
 91
        4
176
     0
 64
     7
176
     0
 65
   257
176
     0
 75
     1
176
     0
175
     1
176
     0
 42
1.0
176
     0
 92
        8
176
     2
 66
     7
176
     0
 43
1.0
176
     0
 76
     1
176
     0
 77
     6
176
     0
 78
     2
176
     0
 67
     7
176
     0
 79
     5
176
     0
170
     0
176
     0
171
     0
176
     0
290
     0
176
     0
 93
        1
176
     0
 44
0.0
176
     0
173
     0
176
     0
1001
ACAD
1000
AcDbSavedByObjectVersion
1070
     0
  0
VISUALSTYLE
  5
2CD1
102
{ACAD_XDICTIONARY
360
2F1B
102
}
102
{ACAD_REACTORS
330
2CC2
102
}
330
2CC2
100
AcDbVisualStyle
  2
Facepattern
 70
    15
177
     2
291
     1
 71
     2
176
     1
 72
     2
176
     1
 73
     0
176
     1
 90
        0
176
     1
 40
0.6
176
     1
 41
30.0
176
     1
 63
     7
421
 16777215
176
     1
 74
     1
176
     1
 91
        4
176
     1
 64
     7
176
     1
 65
   257
176
     1
 75
     1
176
     1
175
     1
176
     1
 42
1.0
176
     1
 92
        8
176
     1
 66
     7
176
     1
 43
1.0
176
     1
 76
     1
176
     1
 77
     6
176
     1
 78
     2
176
     1
 67
     7
176
     1
 79
     5
176
     1
170
     0
176
     1
171
     0
176
     1
290
     0
176
     1
 93
        1
176
     1
 44
0.0
176
     1
173
     0
176
     1
1001
ACAD
1000
AcDbSavedByObjectVersion
1070
     0
  0
VISUALSTYLE
  5
2CC3
102
{ACAD_XDICTIONARY
360
2EFF
102
}
102
{ACAD_REACTORS
330
2CC2
102
}
330
2CC2
100
AcDbVisualStyle
  2
Flat
 70
     0
177
     2
291
     1
 71
     2
176
     1
 72
     1
176
     1
 73
     1
176
     1
 90
        2
176
     1
 40
0.6
176
     1
 41
30.0
176
     1
 63
     7
421
 16777215
176
     1
 74
     0
176
     1
 91
        0
176
     1
 64
     7
176
     1
 65
   257
176
     1
 75
     1
176
     1
175
     1
176
     1
 42
1.0
176
     1
 92
        8
176
     1
 66
     7
176
     1
 43
1.0
176
     1
 76
     1
176
     1
 77
     6
176
     1
 78
     2
176
     1
 67
     7
176
     1
 79
     5
176
     1
170
     0
176
     1
171
     0
176
     1
290
     0
176
     1
 93
       13
176
     1
 44
0.0
176
     1
173
     0
176
     1
1001
ACAD
1000
AcDbSavedByObjectVersion
1070
     0
  0
VISUALSTYLE
  5
2CC4
102
{ACAD_XDICTIONARY
360
2F01
102
}
102
{ACAD_REACTORS
330
2CC2
102
}
330
2CC2
100
AcDbVisualStyle
  2
FlatWithEdges
 70
     1
177
     2
291
     1
 71
     2
176
     1
 72
     1
176
     1
 73
     1
176
     1
 90
        2
176
     1
 40
0.6
176
     1
 41
30.0
176
     1
 63
     7
421
 16777215
176
     1
 74
     1
176
     1
 91
        0
176
     1
 64
     7
176
     1
 65
   257
176
     1
 75
     1
176
     1
175
     1
176
     1
 42
1.0
176
     1
 92
        0
176
     1
 66
   257
176
     1
 43
1.0
176
     1
 76
     1
176
     1
 77
     6
176
     1
 78
     2
176
     1
 67
     7
176
     1
 79
     5
176
     1
170
     0
176
     1
171
     0
176
     1
290
     0
176
     1
 93
       13
176
     1
 44
0.0
176
     1
173
     0
176
     1
1001
ACAD
1000
AcDbSavedByObjectVersion
1070
     0
  0
VISUALSTYLE
  5
2CC5
102
{ACAD_XDICTIONARY
360
2F03
102
}
102
{ACAD_REACTORS
330
2CC2
102
}
330
2CC2
100
AcDbVisualStyle
  2
Gouraud
 70
     2
177
     2
291
     1
 71
     2
176
     1
 72
     2
176
     1
 73
     1
176
     1
 90
        2
176
     1
 40
0.6
176
     1
 41
30.0
176
     1
 63
     7
421
 16777215
176
     1
 74
     0
176
     1
 91
        0
176
     1
 64
     7
176
     1
 65
   257
176
     1
 75
     1
176
     1
175
     1
176
     1
 42
1.0
176
     1
 92
        0
176
     1
 66
     7
176
     1
 43
1.0
176
     1
 76
     1
176
     1
 77
     6
176
     1
 78
     2
176
     1
 67
     7
176
     1
 79
     5
176
     1
170
     0
176
     1
171
     0
176
     1
290
     0
176
     1
 93
       13
176
     1
 44
0.0
176
     1
173
     0
176
     1
1001
ACAD
1000
AcDbSavedByObjectVersion
1070
     0
  0
VISUALSTYLE
  5
2CC6
102
{ACAD_XDICTIONARY
360
2F05
102
}
102
{ACAD_REACTORS
330
2CC2
102
}
330
2CC2
100
AcDbVisualStyle
  2
GouraudWithEdges
 70
     3
177
     2
291
     1
 71
     2
176
     1
 72
     2
176
     1
 73
     1
176
     1
 90
        2
176
     1
 40
0.6
176
     1
 41
30.0
176
     1
 63
     7
421
 16777215
176
     1
 74
     1
176
     1
 91
        0
176
     1
 64
     7
176
     1
 65
   257
176
     1
 75
     1
176
     1
175
     1
176
     1
 42
1.0
176
     1
 92
        0
176
     1
 66
   257
176
     1
 43
1.0
176
     1
 76
     1
176
     1
 77
     6
176
     1
 78
     2
176
     1
 67
     7
176
     1
 79
     5
176
     1
170
     0
176
     1
171
     0
176
     1
290
     0
176
     1
 93
       13
176
     1
 44
0.0
176
     1
173
     0
176
     1
1001
ACAD
1000
AcDbSavedByObjectVersion
1070
     0
  0
VISUALSTYLE
  5
2CCA
102
{ACAD_XDICTIONARY
360
2F0D
102
}
102
{ACAD_REACTORS
330
2CC2
102
}
330
2CC2
100
AcDbVisualStyle
  2
Hidden
 70
     6
177
     2
291
     0
 71
     1
176
     1
 72
     2
176
     1
 73
     2
176
     1
 90
        0
176
     1
 40
0.6
176
     1
 41
30.0
176
     1
 63
     7
421
 16777215
176
     1
 74
     2
176
     1
 91
        2
176
     1
 64
     7
176
     1
 65
   257
176
     1
 75
     2
176
     1
175
     1
176
     1
 42
40.0
176
     1
 92
        0
176
     1
 66
   257
176
     1
 43
1.0
176
     1
 76
     1
176
     1
 77
     6
176
     1
 78
     2
176
     1
 67
     7
176
     1
 79
     3
176
     1
170
     0
176
     1
171
     0
176
     1
290
     0
176
     1
 93
        1
176
     1
 44
0.0
176
     1
173
     0
176
     1
1001
ACAD
1000
AcDbSavedByObjectVersion
1070
     0
  0
VISUALSTYLE
  5
2CD8
102
{ACAD_XDICTIONARY
360
2F29
102
}
102
{ACAD_REACTORS
330
2CC2
102
}
330
2CC2
100
AcDbVisualStyle
  2
JitterOff
 70
    20
177
     2
291
     1
 71
     2
176
     0
 72
     2
176
     0
 73
     0
176
     0
 90
        0
176
     0
 40
0.6
176
     0
 41
30.0
176
     0
 63
     7
421
 16777215
176
     0
 74
     1
176
     0
 91
        4
176
     0
 64
     7
176
     0
 65
   257
176
     0
 75
     1
176
     0
175
     1
176
     0
 42
1.0
176
     0
 92
       10
176
     2
 66
     7
176
     0
 43
1.0
176
     0
 76
     1
176
     0
 77
     6
176
     0
 78
     2
176
     0
 67
     7
176
     0
 79
     5
176
     0
170
     0
176
     0
171
     0
176
     0
290
     0
176
     0
 93
        1
176
     0
 44
0.0
176
     0
173
     0
176
     0
1001
ACAD
1000
AcDbSavedByObjectVersion
1070
     0
  0
VISUALSTYLE
  5
2CD0
102
{ACAD_XDICTIONARY
360
2F19
102
}
102
{ACAD_REACTORS
330
2CC2
102
}
330
2CC2
100
AcDbVisualStyle
  2
Linepattern
 70
    14
177
     2
291
     1
 71
     2
176
     1
 72
     2
176
     1
 73
     0
176
     1
 90
        0
176
     1
 40
0.6
176
     1
 41
30.0
176
     1
 63
     7
421
 16777215
176
     1
 74
     1
176
     1
 91
        4
176
     1
 64
     7
176
     1
 65
   257
176
     1
 75
     7
176
     1
175
     7
176
     1
 42
1.0
176
     1
 92
        8
176
     1
 66
     7
176
     1
 43
1.0
176
     1
 76
     1
176
     1
 77
     6
176
     1
 78
     2
176
     1
 67
     7
176
     1
 79
     5
176
     1
170
     0
176
     1
171
     0
176
     1
290
     0
176
     1
 93
        1
176
     1
 44
0.0
176
     1
173
     0
176
     1
1001
ACAD
1000
AcDbSavedByObjectVersion
1070
     0
  0
VISUALSTYLE
  5
2CD9
102
{ACAD_XDICTIONARY
360
2F2B
102
}
102
{ACAD_REACTORS
330
2CC2
102
}
330
2CC2
100
AcDbVisualStyle
  2
OverhangOff
 70
    21
177
     2
291
     1
 71
     2
176
     0
 72
     2
176
     0
 73
     0
176
     0
 90
        0
176
     0
 40
0.6
176
     0
 41
30.0
176
     0
 63
     7
421
 16777215
176
     0
 74
     1
176
     0
 91
        4
176
     0
 64
     7
176
     0
 65
   257
176
     0
 75
     1
176
     0
175
     1
176
     0
 42
1.0
176
     0
 92
        9
176
     2
 66
     7
176
     0
 43
1.0
176
     0
 76
     1
176
     0
 77
     6
176
     0
 78
     2
176
     0
 67
     7
176
     0
 79
     5
176
     0
170
     0
176
     0
171
     0
176
     0
290
     0
176
     0
 93
        1
176
     0
 44
0.0
176
     0
173
     0
176
     0
1001
ACAD
1000
AcDbSavedByObjectVersion
1070
     0
  0
VISUALSTYLE
  5
2CCC
102
{ACAD_XDICTIONARY
360
2F11
102
}
102
{ACAD_REACTORS
330
2CC2
102
}
330
2CC2
100
AcDbVisualStyle
  2
Realistic
 70
     8
177
     2
291
     0
 71
     2
176
     1
 72
     3
176
     1
 73
     0
176
     1
 90
        2
176
     1
 40
0.6
176
     1
 41
30.0
176
     1
 63
     7
421
 16777215
176
     1
 74
     0
176
     1
 91
        0
176
     1
 64
     7
176
     1
 65
   257
176
     1
 75
     1
176
     1
175
     1
176
     1
 42
1.0
176
     1
 92
        8
176
     1
 66
   257
176
     1
 43
1.0
176
     1
 76
     1
176
     1
 77
     6
176
     1
 78
     2
176
     1
 67
     7
176
     1
 79
     3
176
     1
170
     0
176
     1
171
     0
176
     1
290
     0
176
     1
 93
       13
176
     1
 44
0.0
176
     1
173
     0
176
     1
1001
ACAD
1000
AcDbSavedByObjectVersion
1070
     0
  0
VISUALSTYLE
  5
2CD7
102
{ACAD_XDICTIONARY
360
2F27
102
}
102
{ACAD_REACTORS
330
2CC2
102
}
330
2CC2
100
AcDbVisualStyle
  2
Shaded
 70
    27
177
     2
291
     0
 71
     2
176
     1
 72
     2
176
     1
 73
     1
176
     1
 90
        2
176
     1
 40
0.6
176
     1
 41
30.0
176
     1
 63
     7
421
 16777215
176
     1
 74
     0
176
     1
 91
        4
176
     1
 64
     7
176
     1
 65
   257
176
     1
 75
     1
176
     1
175
     1
176
     1
 42
1.0
176
     1
 92
        8
176
     1
 66
   257
176
     1
 43
1.0
176
     1
 76
     1
176
     1
 77
     6
176
     1
 78
     2
176
     1
 67
     8
425
  7895160
176
     1
 79
     3
176
     1
170
     0
176
     1
171
     0
176
     1
290
     0
176
     1
 93
        5
176
     1
 44
0.0
176
     1
173
     0
176
     1
1001
ACAD
1000
AcDbSavedByObjectVersion
1070
     0
  0
VISUALSTYLE
  5
2CD6
102
{ACAD_XDICTIONARY
360
2F25
102
}
102
{ACAD_REACTORS
330
2CC2
102
}
330
2CC2
100
AcDbVisualStyle
  2
Shaded with edges
 70
    26
177
     2
291
     0
 71
     2
176
     1
 72
     2
176
     1
 73
     1
176
     1
 90
        2
176
     1
 40
0.6
176
     1
 41
30.0
176
     1
 63
     7
421
 16777215
176
     1
 74
     1
176
     1
 91
        2
176
     1
 64
     7
176
     1
 65
   257
176
     1
 75
     2
176
     1
175
     1
176
     1
 42
1.0
176
     1
 92
        8
176
     1
 66
   257
176
     1
 43
1.0
176
     1
 76
     1
176
     1
 77
     6
176
     1
 78
     2
176
     1
 67
     7
176
     1
 79
     3
176
     1
170
     0
176
     1
171
     0
176
     1
290
     0
176
     1
 93
        5
176
     1
 44
0.0
176
     1
173
     0
176
     1
1001
ACAD
1000
AcDbSavedByObjectVersion
1070
     0
  0
VISUALSTYLE
  5
2CD3
102
{ACAD_XDICTIONARY
360
2F1F
102
}
102
{ACAD_REACTORS
330
2CC2
102
}
330
2CC2
100
AcDbVisualStyle
  2
Shades of Gray
 70
    23
177
     2
291
     0
 71
     2
176
     1
 72
     2
176
     1
 73
     3
176
     1
 90
        0
176
     1
 40
0.6
176
     1
 41
30.0
176
     1
 63
     7
421
 16777215
176
     1
 74
     2
176
     1
 91
        2
176
     1
 64
     7
176
     1
 65
     7
176
     1
 75
     1
176
     1
175
     1
176
     1
 42
40.0
176
     1
 92
        8
176
     1
 66
     7
176
     1
 43
1.0
176
     1
 76
     1
176
     1
 77
     6
176
     1
 78
     2
176
     1
 67
     7
176
     1
 79
     3
176
     1
170
     0
176
     1
171
     0
176
     1
290
     0
176
     1
 93
        1
176
     1
 44
0.0
176
     1
173
     0
176
     1
1001
ACAD
1000
AcDbSavedByObjectVersion
1070
     0
  0
VISUALSTYLE
  5
2CD4
102
{ACAD_XDICTIONARY
360
2F21
102
}
102
{ACAD_REACTORS
330
2CC2
102
}
330
2CC2
100
AcDbVisualStyle
  2
Sketchy
 70
    24
177
     2
291
     0
 71
     1
176
     1
 72
     2
176
     1
 73
     2
176
     1
 90
        0
176
     1
 40
0.6
176
     1
 41
30.0
176
     1
 63
     7
421
 16777215
176
     1
 74
     2
176
     1
 91
        2
176
     1
 64
     7
176
     1
 65
     7
176
     1
 75
     1
176
     1
175
     1
176
     1
 42
40.0
176
     1
 92
       11
176
     1
 66
     7
176
     1
 43
1.0
176
     1
 76
     1
176
     1
 77
     6
176
     1
 78
     2
176
     1
 67
     7
176
     1
 79
     6
176
     1
170
     0
176
     1
171
     0
176
     1
290
     0
176
     1
 93
        1
176
     1
 44
0.0
176
     1
173
     0
176
     1
1001
ACAD
1000
AcDbSavedByObjectVersion
1070
     0
  0
VISUALSTYLE
  5
2CCF
102
{ACAD_XDICTIONARY
360
2F17
102
}
102
{ACAD_REACTORS
330
2CC2
102
}
330
2CC2
100
AcDbVisualStyle
  2
Thicken
 70
    13
177
     2
291
     1
 71
     2
176
     1
 72
     2
176
     1
 73
     0
176
     1
 90
        0
176
     1
 40
0.6
176
     1
 41
30.0
176
     1
 63
     7
421
 16777215
176
     1
 74
     1
176
     1
 91
        4
176
     1
 64
     7
176
     1
 65
   257
176
     1
 75
     1
176
     1
175
     1
176
     1
 42
1.0
176
     1
 92
       12
176
     1
 66
     7
176
     1
 43
1.0
176
     1
 76
     1
176
     1
 77
     6
176
     1
 78
     2
176
     1
 67
     7
176
     1
 79
     5
176
     1
170
     0
176
     1
171
     0
176
     1
290
     0
176
     1
 93
        1
176
     1
 44
0.0
176
     1
173
     0
176
     1
1001
ACAD
1000
AcDbSavedByObjectVersion
1070
     0
  0
VISUALSTYLE
  5
2CC9
102
{ACAD_XDICTIONARY
360
2F0B
102
}
102
{ACAD_REACTORS
330
2CC2
102
}
330
2CC2
100
AcDbVisualStyle
  2
Wireframe
 70
     5
177
     2
291
     0
 71
     0
176
     1
 72
     2
176
     1
 73
     0
176
     1
 90
        0
176
     1
 40
0.6
176
     1
 41
30.0
176
     1
 63
     7
421
 16777215
176
     1
 74
     1
176
     1
 91
        4
176
     1
 64
     7
176
     1
 65
   257
176
     1
 75
     1
176
     1
175
     1
176
     1
 42
1.0
176
     1
 92
        0
176
     1
 66
   257
176
     1
 43
1.0
176
     1
 76
     1
176
     1
 77
     6
176
     1
 78
     2
176
     1
 67
     7
176
     1
 79
     3
176
     1
170
     0
176
     1
171
     0
176
     1
290
     0
176
     1
 93
        1
176
     1
 44
0.0
176
     1
173
     0
176
     1
1001
ACAD
1000
AcDbSavedByObjectVersion
1070
     0
  0
VISUALSTYLE
  5
2CD5
102
{ACAD_XDICTIONARY
360
2F23
102
}
102
{ACAD_REACTORS
330
2CC2
102
}
330
2CC2
100
AcDbVisualStyle
  2
X-Ray
 70
    25
177
     2
291
     0
 71
     2
176
     1
 72
     2
176
     1
 73
     1
176
     1
 90
        1
176
     1
 40
0.5
176
     1
 41
30.0
176
     1
 63
     7
421
 16777215
176
     1
 74
     1
176
     1
 91
        0
176
     1
 64
     7
176
     1
 65
   257
176
     1
 75
     1
176
     1
175
     1
176
     1
 42
1.0
176
     1
 92
        8
176
     1
 66
     7
176
     1
 43
1.0
176
     1
 76
     1
176
     1
 77
     6
176
     1
 78
     2
176
     1
 67
     7
176
     1
 79
     3
176
     1
170
     0
176
     1
171
     0
176
     1
290
     0
176
     1
 93
       13
176
     1
 44
0.0
176
     1
173
     0
176
     1
1001
ACAD
1000
AcDbSavedByObjectVersion
1070
     0
  0
DICTIONARYVAR
  5
2EF0
102
{ACAD_REACTORS
330
2EEA
102
}
330
2EEA
100
DictionaryVariables
280
     0
  1
1:1
  0
DICTIONARYVAR
  5
2EEC
102
{ACAD_REACTORS
330
2EEA
102
}
330
2EEA
100
DictionaryVariables
280
     0
  1
STANDARD
  0
DICTIONARYVAR
  5
2EEB
102
{ACAD_REACTORS
330
2EEA
102
}
330
2EEA
100
DictionaryVariables
280
     0
  1
STANDARD
  0
DICTIONARYVAR
  5
2EED
102
{ACAD_REACTORS
330
2EEA
102
}
330
2EEA
100
DictionaryVariables
280
     0
  1
Imperial24
  0
DICTIONARYVAR
  5
2EEE
102
{ACAD_REACTORS
330
2EEA
102
}
330
2EEA
100
DictionaryVariables
280
     0
  1
Imperial24
  0
DICTIONARYVAR
  5
2EF2
102
{ACAD_REACTORS
330
2EEA
102
}
330
2EEA
100
DictionaryVariables
280
     0
  1
1
  0
DICTIONARYVAR
  5
2EF3
102
{ACAD_REACTORS
330
2EEA
102
}
330
2EEA
100
DictionaryVariables
280
     0
  1
15
  0
DICTIONARYVAR
  5
2EF1
102
{ACAD_REACTORS
330
2EEA
102
}
330
2EEA
100
DictionaryVariables
280
     0
  1
0
  0
DICTIONARYVAR
  5
2EEF
102
{ACAD_REACTORS
330
2EEA
102
}
330
2EEA
100
DictionaryVariables
280
     0
  1
0
  0
DICTIONARY
  5
2EFE
102
{ACAD_REACTORS
330
2EFC
102
}
330
2EFC
100
AcDbDictionary
281
     1
  0
DICTIONARY
  5
2EFD
102
{ACAD_REACTORS
330
2EFC
102
}
330
2EFC
100
AcDbDictionary
281
     1
  3
1762581901808
350
2EF7
  3
1762581901824
350
2EF8
  3
1762581901840
350
2EF9
  3
1762581901856
350
2EFA
  3
1762581901872
350
2EFB
  0
DICTIONARY
  5
2DF1
102
{ACAD_REACTORS
330
2DE8
102
}
330
2DE8
100
AcDbDictionary
281
     1
  0
DICTIONARY
  5
2F31
330
2D03
100
AcDbDictionary
280
     1
281
     1
  3
ACAD_XREC_ROUNDTRIP
360
2F32
  0
DICTIONARY
  5
2CB3
330
2CB2
100
AcDbDictionary
280
     1
281
     1
  3
BUMPTILE
360
2CB5
  3
DIFFUSETILE
360
2CB4
  3
OPACITYTILE
360
2CB8
  3
REFLECTIONTILE
360
2CB7
  3
REFRACTIONTILE
360
2CB9
  3
SPECULARTILE
360
2CB6
  0
DICTIONARY
  5
2CAB
330
2CAA
100
AcDbDictionary
280
     1
281
     1
  3
BUMPTILE
360
2CAD
  3
DIFFUSETILE
360
2CAC
  3
OPACITYTILE
360
2CB0
  3
REFLECTIONTILE
360
2CAF
  3
REFRACTIONTILE
360
2CB1
  3
SPECULARTILE
360
2CAE
  0
DICTIONARY
  5
2CBB
330
2CBA
100
AcDbDictionary
280
     1
281
     1
  3
BUMPTILE
360
2CBD
  3
DIFFUSETILE
360
2CBC
  3
OPACITYTILE
360
2CC0
  3
REFLECTIONTILE
360
2CBF
  3
REFRACTIONTILE
360
2CC1
  3
SPECULARTILE
360
2CBE
  0
DICTIONARY
  5
2F2F
330
2D01
100
AcDbDictionary
280
     1
281
     1
  3
ACAD_XREC_ROUNDTRIP
360
2F30
  0
DICTIONARY
  5
2EF4
330
2CFD
100
AcDbDictionary
280
     1
281
     1
  3
ACAD_ROUNDTRIP_2008_TABLESTYLE_CELLSTYLEMAP
360
2EF5
  0
DICTIONARY
  5
2F09
330
2CC8
100
AcDbDictionary
280
     1
281
     1
  3
ACAD_XREC_ROUNDTRIP
360
2F0A
  0
DICTIONARY
  5
2F07
330
2CC7
100
AcDbDictionary
280
     1
281
     1
  3
ACAD_XREC_ROUNDTRIP
360
2F08
  0
DICTIONARY
  5
2F15
330
2CCE
100
AcDbDictionary
280
     1
281
     1
  3
ACAD_XREC_ROUNDTRIP
360
2F16
  0
DICTIONARY
  5
2F1D
330
2CD2
100
AcDbDictionary
280
     1
281
     1
  3
ACAD_XREC_ROUNDTRIP
360
2F1E
  0
DICTIONARY
  5
2F0F
330
2CCB
100
AcDbDictionary
280
     1
281
     1
  3
ACAD_XREC_ROUNDTRIP
360
2F10
  0
DICTIONARY
  5
2F13
330
2CCD
100
AcDbDictionary
280
     1
281
     1
  3
ACAD_XREC_ROUNDTRIP
360
2F14
  0
DICTIONARY
  5
2F2D
330
2CDA
100
AcDbDictionary
280
     1
281
     1
  3
ACAD_XREC_ROUNDTRIP
360
2F2E
  0
DICTIONARY
  5
2F1B
330
2CD1
100
AcDbDictionary
280
     1
281
     1
  3
ACAD_XREC_ROUNDTRIP
360
2F1C
  0
DICTIONARY
  5
2EFF
330
2CC3
100
AcDbDictionary
280
     1
281
     1
  3
ACAD_XREC_ROUNDTRIP
360
2F00
  0
DICTIONARY
  5
2F01
330
2CC4
100
AcDbDictionary
280
     1
281
     1
  3
ACAD_XREC_ROUNDTRIP
360
2F02
  0
DICTIONARY
  5
2F03
330
2CC5
100
AcDbDictionary
280
     1
281
     1
  3
ACAD_XREC_ROUNDTRIP
360
2F04
  0
DICTIONARY
  5
2F05
330
2CC6
100
AcDbDictionary
280
     1
281
     1
  3
ACAD_XREC_ROUNDTRIP
360
2F06
  0
DICTIONARY
  5
2F0D
330
2CCA
100
AcDbDictionary
280
     1
281
     1
  3
ACAD_XREC_ROUNDTRIP
360
2F0E
  0
DICTIONARY
  5
2F29
330
2CD8
100
AcDbDictionary
280
     1
281
     1
  3
ACAD_XREC_ROUNDTRIP
360
2F2A
  0
DICTIONARY
  5
2F19
330
2CD0
100
AcDbDictionary
280
     1
281
     1
  3
ACAD_XREC_ROUNDTRIP
360
2F1A
  0
DICTIONARY
  5
2F2B
330
2CD9
100
AcDbDictionary
280
     1
281
     1
  3
ACAD_XREC_ROUNDTRIP
360
2F2C
  0
DICTIONARY
  5
2F11
330
2CCC
100
AcDbDictionary
280
     1
281
     1
  3
ACAD_XREC_ROUNDTRIP
360
2F12
  0
DICTIONARY
  5
2F27
330
2CD7
100
AcDbDictionary
280
     1
281
     1
  3
ACAD_XREC_ROUNDTRIP
360
2F28
  0
DICTIONARY
  5
2F25
330
2CD6
100
AcDbDictionary
280
     1
281
     1
  3
ACAD_XREC_ROUNDTRIP
360
2F26
  0
DICTIONARY
  5
2F1F
330
2CD3
100
AcDbDictionary
280
     1
281
     1
  3
ACAD_XREC_ROUNDTRIP
360
2F20
  0
DICTIONARY
  5
2F21
330
2CD4
100
AcDbDictionary
280
     1
281
     1
  3
ACAD_XREC_ROUNDTRIP
360
2F22
  0
DICTIONARY
  5
2F17
330
2CCF
100
AcDbDictionary
280
     1
281
     1
  3
ACAD_XREC_ROUNDTRIP
360
2F18
  0
DICTIONARY
  5
2F0B
330
2CC9
100
AcDbDictionary
280
     1
281
     1
  3
ACAD_XREC_ROUNDTRIP
360
2F0C
  0
DICTIONARY
  5
2F23
330
2CD5
100
AcDbDictionary
280
     1
281
     1
  3
ACAD_XREC_ROUNDTRIP
360
2F24
  0
XRECORD
  5
2EF7
102
{ACAD_REACTORS
330
2EFD
102
}
330
2EFD
100
AcDbXrecord
280
     1
  1
AcDb_Thumbnail_Schema
102
{ATTRRECORD
341
2EF8
  2
AcDbDs::TreatedAsObjectData
280
     1
291
     1
102
ATTRRECORD}
102
{ATTRRECORD
341
2EF9
  2
AcDbDs::Legacy
280
     1
291
     1
102
ATTRRECORD}
  2
AcDbDs::ID
280
    10
 91
        8
102
{ATTRRECORD
341
2EFA
  2
AcDs:Indexable
280
     1
291
     1
102
ATTRRECORD}
102
{ATTRRECORD
341
2EFB
  2
AcDbDs::HandleAttribute
280
     7
282
     1
102
ATTRRECORD}
  2
Thumbnail_Data
280
    15
 91
        0
  0
XRECORD
  5
2EF8
102
{ACAD_REACTORS
330
2EFD
102
}
330
2EFD
100
AcDbXrecord
280
     1
  1
AcDbDs::TreatedAsObjectDataSchema
  2
AcDbDs::TreatedAsObjectData
280
     1
 91
        0
  0
XRECORD
  5
2EF9
102
{ACAD_REACTORS
330
2EFD
102
}
330
2EFD
100
AcDbXrecord
280
     1
  1
AcDbDs::LegacySchema
  2
AcDbDs::Legacy
280
     1
 91
        0
  0
XRECORD
  5
2EFA
102
{ACAD_REACTORS
330
2EFD
102
}
330
2EFD
100
AcDbXrecord
280
     1
  1
AcDbDs::IndexedPropertySchema
  2
AcDs:Indexable
280
     1
 91
        0
  0
XRECORD
  5
2EFB
102
{ACAD_REACTORS
330
2EFD
102
}
330
2EFD
100
AcDbXrecord
280
     1
  1
AcDbDs::HandleAttributeSchema
  2
AcDbDs::HandleAttribute
280
     7
 91
        1
284
     1
  0
XRECORD
  5
2F32
102
{ACAD_REACTORS
330
2F31
102
}
330
2F31
100
AcDbXrecord
280
     1
102
DISPLAYNAME
  1
Imperial24
102
FLAGS
 90
        0
  0
XRECORD
  5
2CB5
102
{ACAD_REACTORS
330
2CB3
102
}
330
2CB3
100
AcDbXrecord
280
     1
270
     1
271
     1
  0
XRECORD
  5
2CB4
102
{ACAD_REACTORS
330
2CB3
102
}
330
2CB3
100
AcDbXrecord
280
     1
270
     1
271
     1
  0
XRECORD
  5
2CB8
102
{ACAD_REACTORS
330
2CB3
102
}
330
2CB3
100
AcDbXrecord
280
     1
270
     1
271
     1
  0
XRECORD
  5
2CB7
102
{ACAD_REACTORS
330
2CB3
102
}
330
2CB3
100
AcDbXrecord
280
     1
270
     1
271
     1
  0
XRECORD
  5
2CB9
102
{ACAD_REACTORS
330
2CB3
102
}
330
2CB3
100
AcDbXrecord
280
     1
270
     1
271
     1
  0
XRECORD
  5
2CB6
102
{ACAD_REACTORS
330
2CB3
102
}
330
2CB3
100
AcDbXrecord
280
     1
270
     1
271
     1
  0
XRECORD
  5
2CAD
102
{ACAD_REACTORS
330
2CAB
102
}
330
2CAB
100
AcDbXrecord
280
     1
270
     1
271
     1
  0
XRECORD
  5
2CAC
102
{ACAD_REACTORS
330
2CAB
102
}
330
2CAB
100
AcDbXrecord
280
     1
270
     1
271
     1
  0
XRECORD
  5
2CB0
102
{ACAD_REACTORS
330
2CAB
102
}
330
2CAB
100
AcDbXrecord
280
     1
270
     1
271
     1
  0
XRECORD
  5
2CAF
102
{ACAD_REACTORS
330
2CAB
102
}
330
2CAB
100
AcDbXrecord
280
     1
270
     1
271
     1
  0
XRECORD
  5
2CB1
102
{ACAD_REACTORS
330
2CAB
102
}
330
2CAB
100
AcDbXrecord
280
     1
270
     1
271
     1
  0
XRECORD
  5
2CAE
102
{ACAD_REACTORS
330
2CAB
102
}
330
2CAB
100
AcDbXrecord
280
     1
270
     1
271
     1
  0
XRECORD
  5
2CBD
102
{ACAD_REACTORS
330
2CBB
102
}
330
2CBB
100
AcDbXrecord
280
     1
270
     1
271
     1
  0
XRECORD
  5
2CBC
102
{ACAD_REACTORS
330
2CBB
102
}
330
2CBB
100
AcDbXrecord
280
     1
270
     1
271
     1
  0
XRECORD
  5
2CC0
102
{ACAD_REACTORS
330
2CBB
102
}
330
2CBB
100
AcDbXrecord
280
     1
270
     1
271
     1
  0
XRECORD
  5
2CBF
102
{ACAD_REACTORS
330
2CBB
102
}
330
2CBB
100
AcDbXrecord
280
     1
270
     1
271
     1
  0
XRECORD
  5
2CC1
102
{ACAD_REACTORS
330
2CBB
102
}
330
2CBB
100
AcDbXrecord
280
     1
270
     1
271
     1
  0
XRECORD
  5
2CBE
102
{ACAD_REACTORS
330
2CBB
102
}
330
2CBB
100
AcDbXrecord
280
     1
270
     1
271
     1
  0
XRECORD
  5
2F30
102
{ACAD_REACTORS
330
2F2F
102
}
330
2F2F
100
AcDbXrecord
280
     1
102
DISPLAYNAME
  1
Imperial24
102
FLAGS
 90
        0
  0
CELLSTYLEMAP
  5
2EF5
102
{ACAD_REACTORS
330
2EF4
102
}
330
2EF4
100
AcDbCellStyleMap
 90
        3
300
CELLSTYLE
  1
TABLEFORMAT_BEGIN
 90
        5
170
     1
 91
        0
 92
    32768
 62
   257
 93
        1
300
CONTENTFORMAT
  1
CONTENTFORMAT_BEGIN
 90
        0
 91
        0
 92
      512
 93
        0
300

 40
0.0
140
1.0
 94
        5
 62
     0
340
2CEE
144
0.25
309
CONTENTFORMAT_END
171
     0
 94
        0
309
TABLEFORMAT_END
  1
CELLSTYLE_BEGIN
 90
        1
 91
        1
300
_TITLE
309
CELLSTYLE_END
300
CELLSTYLE
  1
TABLEFORMAT_BEGIN
 90
        5
170
     1
 91
        0
 92
        0
 62
   257
 93
        1
300
CONTENTFORMAT
  1
CONTENTFORMAT_BEGIN
 90
        0
 91
        0
 92
      512
 93
        0
300

 40
0.0
140
1.0
 94
        5
 62
     0
340
2CEE
144
0.18
309
CONTENTFORMAT_END
171
     0
 94
        0
309
TABLEFORMAT_END
  1
CELLSTYLE_BEGIN
 90
        2
 91
        1
300
_HEADER
309
CELLSTYLE_END
300
CELLSTYLE
  1
TABLEFORMAT_BEGIN
 90
        5
170
     1
 91
        0
 92
        0
 62
   257
 93
        1
300
CONTENTFORMAT
  1
CONTENTFORMAT_BEGIN
 90
        0
 91
        0
 92
      512
 93
        0
300

 40
0.0
140
1.0
 94
        2
 62
     0
340
2CEE
144
0.18
309
CONTENTFORMAT_END
171
     0
 94
        0
309
TABLEFORMAT_END
  1
CELLSTYLE_BEGIN
 90
        3
 91
        2
300
_DATA
309
CELLSTYLE_END
  0
XRECORD
  5
2F0A
102
{ACAD_REACTORS
330
2F09
102
}
330
2F09
100
AcDbXrecord
280
     1
102
RTVSPost2010Prop28
280
     1
102
RTVSPost2010PropOp28
 70
     1
102
RTVSPost2010Prop29
280
     1
102
RTVSPost2010PropOp29
 70
     1
102
RTVSPost2010Prop30
280
     0
102
RTVSPost2010PropOp30
 70
     1
102
RTVSPost2010Prop31
280
     0
102
RTVSPost2010PropOp31
 70
     1
102
RTVSPost2010Prop32
280
     0
102
RTVSPost2010PropOp32
 70
     1
102
RTVSPost2010Prop33
280
     0
102
RTVSPost2010PropOp33
 70
     1
102
RTVSPost2010Prop34
280
     0
102
RTVSPost2010PropOp34
 70
     1
102
RTVSPost2010Prop35
280
     0
102
RTVSPost2010PropOp35
 70
     1
102
RTVSPost2010Prop36
280
     0
102
RTVSPost2010PropOp36
 70
     1
102
RTVSPost2010Prop37
 90
       50
102
RTVSPost2010PropOp37
 70
     1
102
RTVSPost2010Prop38
140
0.0
102
RTVSPost2010PropOp38
 70
     1
102
RTVSPost2010Prop39
140
1.0
102
RTVSPost2010PropOp39
 70
     1
102
RTVSPost2010Prop40
 90
        0
102
RTVSPost2010PropOp40
 70
     1
102
RTVSPost2010Prop41ColorIndex
 90
       18
102
RTVSPost2010Prop41ColorRGB
 90
        0
102
RTVSPost2010PropOp41
 70
     1
102
RTVSPost2010Prop42
 90
       50
102
RTVSPost2010PropOp42
 70
     1
102
RTVSPost2010Prop43
 90
        3
102
RTVSPost2010PropOp43
 70
     1
102
RTVSPost2010Prop44ColorIndex
 90
        5
102
RTVSPost2010Prop44ColorRGB
 90
      255
102
RTVSPost2010PropOp44
 70
     1
102
RTVSPost2010Prop45
280
     0
102
RTVSPost2010PropOp45
 70
     1
102
RTVSPost2010Prop46
 90
       50
102
RTVSPost2010PropOp46
 70
     1
102
RTVSPost2010Prop47
 90
       50
102
RTVSPost2010PropOp47
 70
     1
102
RTVSPost2010Prop48
 90
       50
102
RTVSPost2010PropOp48
 70
     1
102
RTVSPost2010Prop49
280
     0
102
RTVSPost2010PropOp49
 70
     1
102
RTVSPost2010Prop50
 90
       50
102
RTVSPost2010PropOp50
 70
     1
102
RTVSPost2010Prop51ColorIndex
 90
      256
102
RTVSPost2010Prop51ColorRGB
 90
-16777216
102
RTVSPost2010PropOp51
 70
     0
102
RTVSPost2010Prop52
140
1.0
102
RTVSPost2010PropOp52
 70
     0
102
RTVSPost2010Prop53
 90
        2
102
RTVSPost2010PropOp53
 70
     1
102
RTVSPost2010Prop54
  1
strokes_ogs.tif
102
RTVSPost2010PropOp54
 70
     1
102
RTVSPost2010Prop55
280
     0
102
RTVSPost2010PropOp55
 70
     1
102
RTVSPost2010Prop56
140
1.0
102
RTVSPost2010PropOp56
 70
     1
102
RTVSPost2010Prop57
140
1.0
102
RTVSPost2010PropOp57
 70
     1
  0
XRECORD
  5
2F08
102
{ACAD_REACTORS
330
2F07
102
}
330
2F07
100
AcDbXrecord
280
     1
102
RTVSPost2010Prop28
280
     0
102
RTVSPost2010PropOp28
 70
     1
102
RTVSPost2010Prop29
280
     1
102
RTVSPost2010PropOp29
 70
     1
102
RTVSPost2010Prop30
280
     1
102
RTVSPost2010PropOp30
 70
     1
102
RTVSPost2010Prop31
280
     0
102
RTVSPost2010PropOp31
 70
     1
102
RTVSPost2010Prop32
280
     0
102
RTVSPost2010PropOp32
 70
     1
102
RTVSPost2010Prop33
280
     0
102
RTVSPost2010PropOp33
 70
     1
102
RTVSPost2010Prop34
280
     0
102
RTVSPost2010PropOp34
 70
     1
102
RTVSPost2010Prop35
280
     0
102
RTVSPost2010PropOp35
 70
     1
102
RTVSPost2010Prop36
280
     0
102
RTVSPost2010PropOp36
 70
     1
102
RTVSPost2010Prop37
 90
       50
102
RTVSPost2010PropOp37
 70
     1
102
RTVSPost2010Prop38
140
0.0
102
RTVSPost2010PropOp38
 70
     1
102
RTVSPost2010Prop39
140
1.0
102
RTVSPost2010PropOp39
 70
     1
102
RTVSPost2010Prop40
 90
        0
102
RTVSPost2010PropOp40
 70
     1
102
RTVSPost2010Prop41ColorIndex
 90
       18
102
RTVSPost2010Prop41ColorRGB
 90
        0
102
RTVSPost2010PropOp41
 70
     1
102
RTVSPost2010Prop42
 90
       50
102
RTVSPost2010PropOp42
 70
     1
102
RTVSPost2010Prop43
 90
        3
102
RTVSPost2010PropOp43
 70
     1
102
RTVSPost2010Prop44ColorIndex
 90
        5
102
RTVSPost2010Prop44ColorRGB
 90
      255
102
RTVSPost2010PropOp44
 70
     1
102
RTVSPost2010Prop45
280
     0
102
RTVSPost2010PropOp45
 70
     1
102
RTVSPost2010Prop46
 90
       50
102
RTVSPost2010PropOp46
 70
     1
102
RTVSPost2010Prop47
 90
       50
102
RTVSPost2010PropOp47
 70
     1
102
RTVSPost2010Prop48
 90
       50
102
RTVSPost2010PropOp48
 70
     1
102
RTVSPost2010Prop49
280
     0
102
RTVSPost2010PropOp49
 70
     1
102
RTVSPost2010Prop50
 90
       50
102
RTVSPost2010PropOp50
 70
     1
102
RTVSPost2010Prop51ColorIndex
 90
      256
102
RTVSPost2010Prop51ColorRGB
 90
-16777216
102
RTVSPost2010PropOp51
 70
     0
102
RTVSPost2010Prop52
140
1.0
102
RTVSPost2010PropOp52
 70
     0
102
RTVSPost2010Prop53
 90
        2
102
RTVSPost2010PropOp53
 70
     1
102
RTVSPost2010Prop54
  1
strokes_ogs.tif
102
RTVSPost2010PropOp54
 70
     1
102
RTVSPost2010Prop55
280
     0
102
RTVSPost2010PropOp55
 70
     1
102
RTVSPost2010Prop56
140
1.0
102
RTVSPost2010PropOp56
 70
     1
102
RTVSPost2010Prop57
140
1.0
102
RTVSPost2010PropOp57
 70
     1
  0
XRECORD
  5
2F16
102
{ACAD_REACTORS
330
2F15
102
}
330
2F15
100
AcDbXrecord
280
     1
102
RTVSPost2010Prop28
280
     0
102
RTVSPost2010PropOp28
 70
     1
102
RTVSPost2010Prop29
280
     1
102
RTVSPost2010PropOp29
 70
     1
102
RTVSPost2010Prop30
280
     1
102
RTVSPost2010PropOp30
 70
     1
102
RTVSPost2010Prop31
280
     0
102
RTVSPost2010PropOp31
 70
     1
102
RTVSPost2010Prop32
280
     0
102
RTVSPost2010PropOp32
 70
     1
102
RTVSPost2010Prop33
280
     0
102
RTVSPost2010PropOp33
 70
     1
102
RTVSPost2010Prop34
280
     0
102
RTVSPost2010PropOp34
 70
     1
102
RTVSPost2010Prop35
280
     0
102
RTVSPost2010PropOp35
 70
     1
102
RTVSPost2010Prop36
280
     0
102
RTVSPost2010PropOp36
 70
     1
102
RTVSPost2010Prop37
 90
       50
102
RTVSPost2010PropOp37
 70
     1
102
RTVSPost2010Prop38
140
0.0
102
RTVSPost2010PropOp38
 70
     1
102
RTVSPost2010Prop39
140
1.0
102
RTVSPost2010PropOp39
 70
     1
102
RTVSPost2010Prop40
 90
        0
102
RTVSPost2010PropOp40
 70
     1
102
RTVSPost2010Prop41ColorIndex
 90
       18
102
RTVSPost2010Prop41ColorRGB
 90
        0
102
RTVSPost2010PropOp41
 70
     1
102
RTVSPost2010Prop42
 90
       50
102
RTVSPost2010PropOp42
 70
     1
102
RTVSPost2010Prop43
 90
        3
102
RTVSPost2010PropOp43
 70
     1
102
RTVSPost2010Prop44ColorIndex
 90
        5
102
RTVSPost2010Prop44ColorRGB
 90
      255
102
RTVSPost2010PropOp44
 70
     1
102
RTVSPost2010Prop45
280
     0
102
RTVSPost2010PropOp45
 70
     1
102
RTVSPost2010Prop46
 90
       50
102
RTVSPost2010PropOp46
 70
     1
102
RTVSPost2010Prop47
 90
       50
102
RTVSPost2010PropOp47
 70
     1
102
RTVSPost2010Prop48
 90
       50
102
RTVSPost2010PropOp48
 70
     1
102
RTVSPost2010Prop49
280
     0
102
RTVSPost2010PropOp49
 70
     1
102
RTVSPost2010Prop50
 90
       50
102
RTVSPost2010PropOp50
 70
     1
102
RTVSPost2010Prop51ColorIndex
 90
      256
102
RTVSPost2010Prop51ColorRGB
 90
-16777216
102
RTVSPost2010PropOp51
 70
     0
102
RTVSPost2010Prop52
140
1.0
102
RTVSPost2010PropOp52
 70
     0
102
RTVSPost2010Prop53
 90
        2
102
RTVSPost2010PropOp53
 70
     1
102
RTVSPost2010Prop54
  1
strokes_ogs.tif
102
RTVSPost2010PropOp54
 70
     1
102
RTVSPost2010Prop55
280
     0
102
RTVSPost2010PropOp55
 70
     1
102
RTVSPost2010Prop56
140
1.0
102
RTVSPost2010PropOp56
 70
     1
102
RTVSPost2010Prop57
140
1.0
102
RTVSPost2010PropOp57
 70
     1
  0
XRECORD
  5
2F1E
102
{ACAD_REACTORS
330
2F1D
102
}
330
2F1D
100
AcDbXrecord
280
     1
102
RTVSPost2010Prop28
280
     0
102
RTVSPost2010PropOp28
 70
     1
102
RTVSPost2010Prop29
280
     1
102
RTVSPost2010PropOp29
 70
     1
102
RTVSPost2010Prop30
280
     1
102
RTVSPost2010PropOp30
 70
     1
102
RTVSPost2010Prop31
280
     0
102
RTVSPost2010PropOp31
 70
     1
102
RTVSPost2010Prop32
280
     0
102
RTVSPost2010PropOp32
 70
     1
102
RTVSPost2010Prop33
280
     0
102
RTVSPost2010PropOp33
 70
     1
102
RTVSPost2010Prop34
280
     0
102
RTVSPost2010PropOp34
 70
     1
102
RTVSPost2010Prop35
280
     0
102
RTVSPost2010PropOp35
 70
     1
102
RTVSPost2010Prop36
280
     0
102
RTVSPost2010PropOp36
 70
     1
102
RTVSPost2010Prop37
 90
       50
102
RTVSPost2010PropOp37
 70
     1
102
RTVSPost2010Prop38
140
0.0
102
RTVSPost2010PropOp38
 70
     1
102
RTVSPost2010Prop39
140
1.0
102
RTVSPost2010PropOp39
 70
     1
102
RTVSPost2010Prop40
 90
        0
102
RTVSPost2010PropOp40
 70
     1
102
RTVSPost2010Prop41ColorIndex
 90
       18
102
RTVSPost2010Prop41ColorRGB
 90
        0
102
RTVSPost2010PropOp41
 70
     1
102
RTVSPost2010Prop42
 90
       50
102
RTVSPost2010PropOp42
 70
     1
102
RTVSPost2010Prop43
 90
        3
102
RTVSPost2010PropOp43
 70
     1
102
RTVSPost2010Prop44ColorIndex
 90
        5
102
RTVSPost2010Prop44ColorRGB
 90
      255
102
RTVSPost2010PropOp44
 70
     1
102
RTVSPost2010Prop45
280
     0
102
RTVSPost2010PropOp45
 70
     1
102
RTVSPost2010Prop46
 90
       50
102
RTVSPost2010PropOp46
 70
     1
102
RTVSPost2010Prop47
 90
       50
102
RTVSPost2010PropOp47
 70
     1
102
RTVSPost2010Prop48
 90
       50
102
RTVSPost2010PropOp48
 70
     1
102
RTVSPost2010Prop49
280
     0
102
RTVSPost2010PropOp49
 70
     1
102
RTVSPost2010Prop50
 90
       50
102
RTVSPost2010PropOp50
 70
     1
102
RTVSPost2010Prop51ColorIndex
 90
      256
102
RTVSPost2010Prop51ColorRGB
 90
-16777216
102
RTVSPost2010PropOp51
 70
     0
102
RTVSPost2010Prop52
140
1.0
102
RTVSPost2010PropOp52
 70
     0
102
RTVSPost2010Prop53
 90
        2
102
RTVSPost2010PropOp53
 70
     1
102
RTVSPost2010Prop54
  1
strokes_ogs.tif
102
RTVSPost2010PropOp54
 70
     1
102
RTVSPost2010Prop55
280
     0
102
RTVSPost2010PropOp55
 70
     1
102
RTVSPost2010Prop56
140
1.0
102
RTVSPost2010PropOp56
 70
     1
102
RTVSPost2010Prop57
140
1.0
102
RTVSPost2010PropOp57
 70
     1
  0
XRECORD
  5
2F10
102
{ACAD_REACTORS
330
2F0F
102
}
330
2F0F
100
AcDbXrecord
280
     1
102
RTVSPost2010Prop28
280
     0
102
RTVSPost2010PropOp28
 70
     1
102
RTVSPost2010Prop29
280
     1
102
RTVSPost2010PropOp29
 70
     1
102
RTVSPost2010Prop30
280
     1
102
RTVSPost2010PropOp30
 70
     1
102
RTVSPost2010Prop31
280
     0
102
RTVSPost2010PropOp31
 70
     1
102
RTVSPost2010Prop32
280
     0
102
RTVSPost2010PropOp32
 70
     1
102
RTVSPost2010Prop33
280
     0
102
RTVSPost2010PropOp33
 70
     1
102
RTVSPost2010Prop34
280
     0
102
RTVSPost2010PropOp34
 70
     1
102
RTVSPost2010Prop35
280
     0
102
RTVSPost2010PropOp35
 70
     1
102
RTVSPost2010Prop36
280
     0
102
RTVSPost2010PropOp36
 70
     1
102
RTVSPost2010Prop37
 90
       50
102
RTVSPost2010PropOp37
 70
     1
102
RTVSPost2010Prop38
140
0.0
102
RTVSPost2010PropOp38
 70
     1
102
RTVSPost2010Prop39
140
1.0
102
RTVSPost2010PropOp39
 70
     1
102
RTVSPost2010Prop40
 90
        0
102
RTVSPost2010PropOp40
 70
     1
102
RTVSPost2010Prop41ColorIndex
 90
       18
102
RTVSPost2010Prop41ColorRGB
 90
        0
102
RTVSPost2010PropOp41
 70
     1
102
RTVSPost2010Prop42
 90
       50
102
RTVSPost2010PropOp42
 70
     1
102
RTVSPost2010Prop43
 90
        3
102
RTVSPost2010PropOp43
 70
     1
102
RTVSPost2010Prop44ColorIndex
 90
        5
102
RTVSPost2010Prop44ColorRGB
 90
      255
102
RTVSPost2010PropOp44
 70
     1
102
RTVSPost2010Prop45
280
     0
102
RTVSPost2010PropOp45
 70
     1
102
RTVSPost2010Prop46
 90
       50
102
RTVSPost2010PropOp46
 70
     1
102
RTVSPost2010Prop47
 90
       50
102
RTVSPost2010PropOp47
 70
     1
102
RTVSPost2010Prop48
 90
       50
102
RTVSPost2010PropOp48
 70
     1
102
RTVSPost2010Prop49
280
     0
102
RTVSPost2010PropOp49
 70
     1
102
RTVSPost2010Prop50
 90
       50
102
RTVSPost2010PropOp50
 70
     1
102
RTVSPost2010Prop51ColorIndex
 90
      256
102
RTVSPost2010Prop51ColorRGB
 90
-16777216
102
RTVSPost2010PropOp51
 70
     0
102
RTVSPost2010Prop52
140
1.0
102
RTVSPost2010PropOp52
 70
     0
102
RTVSPost2010Prop53
 90
        2
102
RTVSPost2010PropOp53
 70
     1
102
RTVSPost2010Prop54
  1
strokes_ogs.tif
102
RTVSPost2010PropOp54
 70
     1
102
RTVSPost2010Prop55
280
     0
102
RTVSPost2010PropOp55
 70
     1
102
RTVSPost2010Prop56
140
1.0
102
RTVSPost2010PropOp56
 70
     1
102
RTVSPost2010Prop57
140
1.0
102
RTVSPost2010PropOp57
 70
     1
  0
XRECORD
  5
2F14
102
{ACAD_REACTORS
330
2F13
102
}
330
2F13
100
AcDbXrecord
280
     1
102
RTVSPost2010Prop28
280
     0
102
RTVSPost2010PropOp28
 70
     1
102
RTVSPost2010Prop29
280
     1
102
RTVSPost2010PropOp29
 70
     1
102
RTVSPost2010Prop30
280
     1
102
RTVSPost2010PropOp30
 70
     1
102
RTVSPost2010Prop31
280
     0
102
RTVSPost2010PropOp31
 70
     1
102
RTVSPost2010Prop32
280
     0
102
RTVSPost2010PropOp32
 70
     1
102
RTVSPost2010Prop33
280
     0
102
RTVSPost2010PropOp33
 70
     1
102
RTVSPost2010Prop34
280
     0
102
RTVSPost2010PropOp34
 70
     1
102
RTVSPost2010Prop35
280
     0
102
RTVSPost2010PropOp35
 70
     1
102
RTVSPost2010Prop36
280
     0
102
RTVSPost2010PropOp36
 70
     1
102
RTVSPost2010Prop37
 90
       50
102
RTVSPost2010PropOp37
 70
     1
102
RTVSPost2010Prop38
140
0.0
102
RTVSPost2010PropOp38
 70
     1
102
RTVSPost2010Prop39
140
1.0
102
RTVSPost2010PropOp39
 70
     1
102
RTVSPost2010Prop40
 90
        0
102
RTVSPost2010PropOp40
 70
     1
102
RTVSPost2010Prop41ColorIndex
 90
       18
102
RTVSPost2010Prop41ColorRGB
 90
        0
102
RTVSPost2010PropOp41
 70
     1
102
RTVSPost2010Prop42
 90
       50
102
RTVSPost2010PropOp42
 70
     1
102
RTVSPost2010Prop43
 90
        3
102
RTVSPost2010PropOp43
 70
     1
102
RTVSPost2010Prop44ColorIndex
 90
        5
102
RTVSPost2010Prop44ColorRGB
 90
      255
102
RTVSPost2010PropOp44
 70
     1
102
RTVSPost2010Prop45
280
     0
102
RTVSPost2010PropOp45
 70
     1
102
RTVSPost2010Prop46
 90
       50
102
RTVSPost2010PropOp46
 70
     1
102
RTVSPost2010Prop47
 90
       50
102
RTVSPost2010PropOp47
 70
     1
102
RTVSPost2010Prop48
 90
       50
102
RTVSPost2010PropOp48
 70
     1
102
RTVSPost2010Prop49
280
     0
102
RTVSPost2010PropOp49
 70
     1
102
RTVSPost2010Prop50
 90
       50
102
RTVSPost2010PropOp50
 70
     1
102
RTVSPost2010Prop51ColorIndex
 90
      256
102
RTVSPost2010Prop51ColorRGB
 90
-16777216
102
RTVSPost2010PropOp51
 70
     0
102
RTVSPost2010Prop52
140
1.0
102
RTVSPost2010PropOp52
 70
     0
102
RTVSPost2010Prop53
 90
        2
102
RTVSPost2010PropOp53
 70
     1
102
RTVSPost2010Prop54
  1
strokes_ogs.tif
102
RTVSPost2010PropOp54
 70
     1
102
RTVSPost2010Prop55
280
     0
102
RTVSPost2010PropOp55
 70
     1
102
RTVSPost2010Prop56
140
1.0
102
RTVSPost2010PropOp56
 70
     1
102
RTVSPost2010Prop57
140
1.0
102
RTVSPost2010PropOp57
 70
     1
  0
XRECORD
  5
2F2E
102
{ACAD_REACTORS
330
2F2D
102
}
330
2F2D
100
AcDbXrecord
280
     1
102
RTVSPost2010Prop28
280
     0
102
RTVSPost2010PropOp28
 70
     1
102
RTVSPost2010Prop29
280
     1
102
RTVSPost2010PropOp29
 70
     1
102
RTVSPost2010Prop30
280
     1
102
RTVSPost2010PropOp30
 70
     1
102
RTVSPost2010Prop31
280
     0
102
RTVSPost2010PropOp31
 70
     1
102
RTVSPost2010Prop32
280
     0
102
RTVSPost2010PropOp32
 70
     1
102
RTVSPost2010Prop33
280
     0
102
RTVSPost2010PropOp33
 70
     1
102
RTVSPost2010Prop34
280
     0
102
RTVSPost2010PropOp34
 70
     1
102
RTVSPost2010Prop35
280
     0
102
RTVSPost2010PropOp35
 70
     1
102
RTVSPost2010Prop36
280
     0
102
RTVSPost2010PropOp36
 70
     1
102
RTVSPost2010Prop37
 90
       50
102
RTVSPost2010PropOp37
 70
     0
102
RTVSPost2010Prop38
140
0.0
102
RTVSPost2010PropOp38
 70
     0
102
RTVSPost2010Prop39
140
1.0
102
RTVSPost2010PropOp39
 70
     0
102
RTVSPost2010Prop40
 90
        0
102
RTVSPost2010PropOp40
 70
     0
102
RTVSPost2010Prop41ColorIndex
 90
       18
102
RTVSPost2010Prop41ColorRGB
 90
        0
102
RTVSPost2010PropOp41
 70
     0
102
RTVSPost2010Prop42
 90
       50
102
RTVSPost2010PropOp42
 70
     0
102
RTVSPost2010Prop43
 90
        3
102
RTVSPost2010PropOp43
 70
     0
102
RTVSPost2010Prop44ColorIndex
 90
        5
102
RTVSPost2010Prop44ColorRGB
 90
      255
102
RTVSPost2010PropOp44
 70
     0
102
RTVSPost2010Prop45
280
     0
102
RTVSPost2010PropOp45
 70
     1
102
RTVSPost2010Prop46
 90
       50
102
RTVSPost2010PropOp46
 70
     0
102
RTVSPost2010Prop47
 90
       50
102
RTVSPost2010PropOp47
 70
     0
102
RTVSPost2010Prop48
 90
       50
102
RTVSPost2010PropOp48
 70
     0
102
RTVSPost2010Prop49
280
     0
102
RTVSPost2010PropOp49
 70
     1
102
RTVSPost2010Prop50
 90
       50
102
RTVSPost2010PropOp50
 70
     0
102
RTVSPost2010Prop51ColorIndex
 90
      256
102
RTVSPost2010Prop51ColorRGB
 90
-16777216
102
RTVSPost2010PropOp51
 70
     0
102
RTVSPost2010Prop52
140
1.0
102
RTVSPost2010PropOp52
 70
     0
102
RTVSPost2010Prop53
 90
        2
102
RTVSPost2010PropOp53
 70
     0
102
RTVSPost2010Prop54
  1
strokes_ogs.tif
102
RTVSPost2010PropOp54
 70
     0
102
RTVSPost2010Prop55
280
     0
102
RTVSPost2010PropOp55
 70
     1
102
RTVSPost2010Prop56
140
1.0
102
RTVSPost2010PropOp56
 70
     0
102
RTVSPost2010Prop57
140
1.0
102
RTVSPost2010PropOp57
 70
     0
  0
XRECORD
  5
2F1C
102
{ACAD_REACTORS
330
2F1B
102
}
330
2F1B
100
AcDbXrecord
280
     1
102
RTVSPost2010Prop28
280
     0
102
RTVSPost2010PropOp28
 70
     1
102
RTVSPost2010Prop29
280
     1
102
RTVSPost2010PropOp29
 70
     1
102
RTVSPost2010Prop30
280
     1
102
RTVSPost2010PropOp30
 70
     1
102
RTVSPost2010Prop31
280
     0
102
RTVSPost2010PropOp31
 70
     1
102
RTVSPost2010Prop32
280
     0
102
RTVSPost2010PropOp32
 70
     1
102
RTVSPost2010Prop33
280
     0
102
RTVSPost2010PropOp33
 70
     1
102
RTVSPost2010Prop34
280
     0
102
RTVSPost2010PropOp34
 70
     1
102
RTVSPost2010Prop35
280
     0
102
RTVSPost2010PropOp35
 70
     1
102
RTVSPost2010Prop36
280
     0
102
RTVSPost2010PropOp36
 70
     1
102
RTVSPost2010Prop37
 90
       50
102
RTVSPost2010PropOp37
 70
     1
102
RTVSPost2010Prop38
140
0.0
102
RTVSPost2010PropOp38
 70
     1
102
RTVSPost2010Prop39
140
1.0
102
RTVSPost2010PropOp39
 70
     1
102
RTVSPost2010Prop40
 90
        0
102
RTVSPost2010PropOp40
 70
     1
102
RTVSPost2010Prop41ColorIndex
 90
       18
102
RTVSPost2010Prop41ColorRGB
 90
        0
102
RTVSPost2010PropOp41
 70
     1
102
RTVSPost2010Prop42
 90
       50
102
RTVSPost2010PropOp42
 70
     1
102
RTVSPost2010Prop43
 90
        3
102
RTVSPost2010PropOp43
 70
     1
102
RTVSPost2010Prop44ColorIndex
 90
        5
102
RTVSPost2010Prop44ColorRGB
 90
      255
102
RTVSPost2010PropOp44
 70
     1
102
RTVSPost2010Prop45
280
     0
102
RTVSPost2010PropOp45
 70
     1
102
RTVSPost2010Prop46
 90
       50
102
RTVSPost2010PropOp46
 70
     1
102
RTVSPost2010Prop47
 90
       50
102
RTVSPost2010PropOp47
 70
     1
102
RTVSPost2010Prop48
 90
       50
102
RTVSPost2010PropOp48
 70
     1
102
RTVSPost2010Prop49
280
     0
102
RTVSPost2010PropOp49
 70
     1
102
RTVSPost2010Prop50
 90
       50
102
RTVSPost2010PropOp50
 70
     1
102
RTVSPost2010Prop51ColorIndex
 90
      256
102
RTVSPost2010Prop51ColorRGB
 90
-16777216
102
RTVSPost2010PropOp51
 70
     0
102
RTVSPost2010Prop52
140
1.0
102
RTVSPost2010PropOp52
 70
     0
102
RTVSPost2010Prop53
 90
        2
102
RTVSPost2010PropOp53
 70
     1
102
RTVSPost2010Prop54
  1
strokes_ogs.tif
102
RTVSPost2010PropOp54
 70
     1
102
RTVSPost2010Prop55
280
     0
102
RTVSPost2010PropOp55
 70
     1
102
RTVSPost2010Prop56
140
1.0
102
RTVSPost2010PropOp56
 70
     1
102
RTVSPost2010Prop57
140
1.0
102
RTVSPost2010PropOp57
 70
     1
  0
XRECORD
  5
2F00
102
{ACAD_REACTORS
330
2EFF
102
}
330
2EFF
100
AcDbXrecord
280
     1
102
RTVSPost2010Prop28
280
     0
102
RTVSPost2010PropOp28
 70
     1
102
RTVSPost2010Prop29
280
     1
102
RTVSPost2010PropOp29
 70
     1
102
RTVSPost2010Prop30
280
     1
102
RTVSPost2010PropOp30
 70
     1
102
RTVSPost2010Prop31
280
     0
102
RTVSPost2010PropOp31
 70
     1
102
RTVSPost2010Prop32
280
     0
102
RTVSPost2010PropOp32
 70
     1
102
RTVSPost2010Prop33
280
     0
102
RTVSPost2010PropOp33
 70
     1
102
RTVSPost2010Prop34
280
     0
102
RTVSPost2010PropOp34
 70
     1
102
RTVSPost2010Prop35
280
     0
102
RTVSPost2010PropOp35
 70
     1
102
RTVSPost2010Prop36
280
     0
102
RTVSPost2010PropOp36
 70
     1
102
RTVSPost2010Prop37
 90
       50
102
RTVSPost2010PropOp37
 70
     1
102
RTVSPost2010Prop38
140
0.0
102
RTVSPost2010PropOp38
 70
     1
102
RTVSPost2010Prop39
140
1.0
102
RTVSPost2010PropOp39
 70
     1
102
RTVSPost2010Prop40
 90
        0
102
RTVSPost2010PropOp40
 70
     1
102
RTVSPost2010Prop41ColorIndex
 90
       18
102
RTVSPost2010Prop41ColorRGB
 90
        0
102
RTVSPost2010PropOp41
 70
     1
102
RTVSPost2010Prop42
 90
       50
102
RTVSPost2010PropOp42
 70
     1
102
RTVSPost2010Prop43
 90
        3
102
RTVSPost2010PropOp43
 70
     1
102
RTVSPost2010Prop44ColorIndex
 90
        5
102
RTVSPost2010Prop44ColorRGB
 90
      255
102
RTVSPost2010PropOp44
 70
     1
102
RTVSPost2010Prop45
280
     0
102
RTVSPost2010PropOp45
 70
     1
102
RTVSPost2010Prop46
 90
       50
102
RTVSPost2010PropOp46
 70
     1
102
RTVSPost2010Prop47
 90
       50
102
RTVSPost2010PropOp47
 70
     1
102
RTVSPost2010Prop48
 90
       50
102
RTVSPost2010PropOp48
 70
     1
102
RTVSPost2010Prop49
280
     0
102
RTVSPost2010PropOp49
 70
     1
102
RTVSPost2010Prop50
 90
       50
102
RTVSPost2010PropOp50
 70
     1
102
RTVSPost2010Prop51ColorIndex
 90
      256
102
RTVSPost2010Prop51ColorRGB
 90
-16777216
102
RTVSPost2010PropOp51
 70
     0
102
RTVSPost2010Prop52
140
1.0
102
RTVSPost2010PropOp52
 70
     0
102
RTVSPost2010Prop53
 90
        2
102
RTVSPost2010PropOp53
 70
     1
102
RTVSPost2010Prop54
  1
strokes_ogs.tif
102
RTVSPost2010PropOp54
 70
     1
102
RTVSPost2010Prop55
280
     0
102
RTVSPost2010PropOp55
 70
     1
102
RTVSPost2010Prop56
140
1.0
102
RTVSPost2010PropOp56
 70
     1
102
RTVSPost2010Prop57
140
1.0
102
RTVSPost2010PropOp57
 70
     1
  0
XRECORD
  5
2F02
102
{ACAD_REACTORS
330
2F01
102
}
330
2F01
100
AcDbXrecord
280
     1
102
RTVSPost2010Prop28
280
     0
102
RTVSPost2010PropOp28
 70
     1
102
RTVSPost2010Prop29
280
     1
102
RTVSPost2010PropOp29
 70
     1
102
RTVSPost2010Prop30
280
     1
102
RTVSPost2010PropOp30
 70
     1
102
RTVSPost2010Prop31
280
     0
102
RTVSPost2010PropOp31
 70
     1
102
RTVSPost2010Prop32
280
     0
102
RTVSPost2010PropOp32
 70
     1
102
RTVSPost2010Prop33
280
     0
102
RTVSPost2010PropOp33
 70
     1
102
RTVSPost2010Prop34
280
     0
102
RTVSPost2010PropOp34
 70
     1
102
RTVSPost2010Prop35
280
     0
102
RTVSPost2010PropOp35
 70
     1
102
RTVSPost2010Prop36
280
     0
102
RTVSPost2010PropOp36
 70
     1
102
RTVSPost2010Prop37
 90
       50
102
RTVSPost2010PropOp37
 70
     1
102
RTVSPost2010Prop38
140
0.0
102
RTVSPost2010PropOp38
 70
     1
102
RTVSPost2010Prop39
140
1.0
102
RTVSPost2010PropOp39
 70
     1
102
RTVSPost2010Prop40
 90
        0
102
RTVSPost2010PropOp40
 70
     1
102
RTVSPost2010Prop41ColorIndex
 90
       18
102
RTVSPost2010Prop41ColorRGB
 90
        0
102
RTVSPost2010PropOp41
 70
     1
102
RTVSPost2010Prop42
 90
       50
102
RTVSPost2010PropOp42
 70
     1
102
RTVSPost2010Prop43
 90
        3
102
RTVSPost2010PropOp43
 70
     1
102
RTVSPost2010Prop44ColorIndex
 90
        5
102
RTVSPost2010Prop44ColorRGB
 90
      255
102
RTVSPost2010PropOp44
 70
     1
102
RTVSPost2010Prop45
280
     0
102
RTVSPost2010PropOp45
 70
     1
102
RTVSPost2010Prop46
 90
       50
102
RTVSPost2010PropOp46
 70
     1
102
RTVSPost2010Prop47
 90
       50
102
RTVSPost2010PropOp47
 70
     1
102
RTVSPost2010Prop48
 90
       50
102
RTVSPost2010PropOp48
 70
     1
102
RTVSPost2010Prop49
280
     0
102
RTVSPost2010PropOp49
 70
     1
102
RTVSPost2010Prop50
 90
       50
102
RTVSPost2010PropOp50
 70
     1
102
RTVSPost2010Prop51ColorIndex
 90
      256
102
RTVSPost2010Prop51ColorRGB
 90
-16777216
102
RTVSPost2010PropOp51
 70
     0
102
RTVSPost2010Prop52
140
1.0
102
RTVSPost2010PropOp52
 70
     0
102
RTVSPost2010Prop53
 90
        2
102
RTVSPost2010PropOp53
 70
     1
102
RTVSPost2010Prop54
  1
strokes_ogs.tif
102
RTVSPost2010PropOp54
 70
     1
102
RTVSPost2010Prop55
280
     0
102
RTVSPost2010PropOp55
 70
     1
102
RTVSPost2010Prop56
140
1.0
102
RTVSPost2010PropOp56
 70
     1
102
RTVSPost2010Prop57
140
1.0
102
RTVSPost2010PropOp57
 70
     1
  0
XRECORD
  5
2F04
102
{ACAD_REACTORS
330
2F03
102
}
330
2F03
100
AcDbXrecord
280
     1
102
RTVSPost2010Prop28
280
     0
102
RTVSPost2010PropOp28
 70
     1
102
RTVSPost2010Prop29
280
     1
102
RTVSPost2010PropOp29
 70
     1
102
RTVSPost2010Prop30
280
     1
102
RTVSPost2010PropOp30
 70
     1
102
RTVSPost2010Prop31
280
     0
102
RTVSPost2010PropOp31
 70
     1
102
RTVSPost2010Prop32
280
     0
102
RTVSPost2010PropOp32
 70
     1
102
RTVSPost2010Prop33
280
     0
102
RTVSPost2010PropOp33
 70
     1
102
RTVSPost2010Prop34
280
     0
102
RTVSPost2010PropOp34
 70
     1
102
RTVSPost2010Prop35
280
     0
102
RTVSPost2010PropOp35
 70
     1
102
RTVSPost2010Prop36
280
     0
102
RTVSPost2010PropOp36
 70
     1
102
RTVSPost2010Prop37
 90
       50
102
RTVSPost2010PropOp37
 70
     1
102
RTVSPost2010Prop38
140
0.0
102
RTVSPost2010PropOp38
 70
     1
102
RTVSPost2010Prop39
140
1.0
102
RTVSPost2010PropOp39
 70
     1
102
RTVSPost2010Prop40
 90
        0
102
RTVSPost2010PropOp40
 70
     1
102
RTVSPost2010Prop41ColorIndex
 90
       18
102
RTVSPost2010Prop41ColorRGB
 90
        0
102
RTVSPost2010PropOp41
 70
     1
102
RTVSPost2010Prop42
 90
       50
102
RTVSPost2010PropOp42
 70
     1
102
RTVSPost2010Prop43
 90
        3
102
RTVSPost2010PropOp43
 70
     1
102
RTVSPost2010Prop44ColorIndex
 90
        5
102
RTVSPost2010Prop44ColorRGB
 90
      255
102
RTVSPost2010PropOp44
 70
     1
102
RTVSPost2010Prop45
280
     0
102
RTVSPost2010PropOp45
 70
     1
102
RTVSPost2010Prop46
 90
       50
102
RTVSPost2010PropOp46
 70
     1
102
RTVSPost2010Prop47
 90
       50
102
RTVSPost2010PropOp47
 70
     1
102
RTVSPost2010Prop48
 90
       50
102
RTVSPost2010PropOp48
 70
     1
102
RTVSPost2010Prop49
280
     0
102
RTVSPost2010PropOp49
 70
     1
102
RTVSPost2010Prop50
 90
       50
102
RTVSPost2010PropOp50
 70
     1
102
RTVSPost2010Prop51ColorIndex
 90
      256
102
RTVSPost2010Prop51ColorRGB
 90
-16777216
102
RTVSPost2010PropOp51
 70
     0
102
RTVSPost2010Prop52
140
1.0
102
RTVSPost2010PropOp52
 70
     0
102
RTVSPost2010Prop53
 90
        2
102
RTVSPost2010PropOp53
 70
     1
102
RTVSPost2010Prop54
  1
strokes_ogs.tif
102
RTVSPost2010PropOp54
 70
     1
102
RTVSPost2010Prop55
280
     0
102
RTVSPost2010PropOp55
 70
     1
102
RTVSPost2010Prop56
140
1.0
102
RTVSPost2010PropOp56
 70
     1
102
RTVSPost2010Prop57
140
1.0
102
RTVSPost2010PropOp57
 70
     1
  0
XRECORD
  5
2F06
102
{ACAD_REACTORS
330
2F05
102
}
330
2F05
100
AcDbXrecord
280
     1
102
RTVSPost2010Prop28
280
     0
102
RTVSPost2010PropOp28
 70
     1
102
RTVSPost2010Prop29
280
     1
102
RTVSPost2010PropOp29
 70
     1
102
RTVSPost2010Prop30
280
     1
102
RTVSPost2010PropOp30
 70
     1
102
RTVSPost2010Prop31
280
     0
102
RTVSPost2010PropOp31
 70
     1
102
RTVSPost2010Prop32
280
     0
102
RTVSPost2010PropOp32
 70
     1
102
RTVSPost2010Prop33
280
     0
102
RTVSPost2010PropOp33
 70
     1
102
RTVSPost2010Prop34
280
     0
102
RTVSPost2010PropOp34
 70
     1
102
RTVSPost2010Prop35
280
     0
102
RTVSPost2010PropOp35
 70
     1
102
RTVSPost2010Prop36
280
     0
102
RTVSPost2010PropOp36
 70
     1
102
RTVSPost2010Prop37
 90
       50
102
RTVSPost2010PropOp37
 70
     1
102
RTVSPost2010Prop38
140
0.0
102
RTVSPost2010PropOp38
 70
     1
102
RTVSPost2010Prop39
140
1.0
102
RTVSPost2010PropOp39
 70
     1
102
RTVSPost2010Prop40
 90
        0
102
RTVSPost2010PropOp40
 70
     1
102
RTVSPost2010Prop41ColorIndex
 90
       18
102
RTVSPost2010Prop41ColorRGB
 90
        0
102
RTVSPost2010PropOp41
 70
     1
102
RTVSPost2010Prop42
 90
       50
102
RTVSPost2010PropOp42
 70
     1
102
RTVSPost2010Prop43
 90
        3
102
RTVSPost2010PropOp43
 70
     1
102
RTVSPost2010Prop44ColorIndex
 90
        5
102
RTVSPost2010Prop44ColorRGB
 90
      255
102
RTVSPost2010PropOp44
 70
     1
102
RTVSPost2010Prop45
280
     0
102
RTVSPost2010PropOp45
 70
     1
102
RTVSPost2010Prop46
 90
       50
102
RTVSPost2010PropOp46
 70
     1
102
RTVSPost2010Prop47
 90
       50
102
RTVSPost2010PropOp47
 70
     1
102
RTVSPost2010Prop48
 90
       50
102
RTVSPost2010PropOp48
 70
     1
102
RTVSPost2010Prop49
280
     0
102
RTVSPost2010PropOp49
 70
     1
102
RTVSPost2010Prop50
 90
       50
102
RTVSPost2010PropOp50
 70
     1
102
RTVSPost2010Prop51ColorIndex
 90
      256
102
RTVSPost2010Prop51ColorRGB
 90
-16777216
102
RTVSPost2010PropOp51
 70
     0
102
RTVSPost2010Prop52
140
1.0
102
RTVSPost2010PropOp52
 70
     0
102
RTVSPost2010Prop53
 90
        2
102
RTVSPost2010PropOp53
 70
     1
102
RTVSPost2010Prop54
  1
strokes_ogs.tif
102
RTVSPost2010PropOp54
 70
     1
102
RTVSPost2010Prop55
280
     0
102
RTVSPost2010PropOp55
 70
     1
102
RTVSPost2010Prop56
140
1.0
102
RTVSPost2010PropOp56
 70
     1
102
RTVSPost2010Prop57
140
1.0
102
RTVSPost2010PropOp57
 70
     1
  0
XRECORD
  5
2F0E
102
{ACAD_REACTORS
330
2F0D
102
}
330
2F0D
100
AcDbXrecord
280
     1
102
RTVSPost2010Prop28
280
     0
102
RTVSPost2010PropOp28
 70
     1
102
RTVSPost2010Prop29
280
     1
102
RTVSPost2010PropOp29
 70
     1
102
RTVSPost2010Prop30
280
     1
102
RTVSPost2010PropOp30
 70
     1
102
RTVSPost2010Prop31
280
     0
102
RTVSPost2010PropOp31
 70
     1
102
RTVSPost2010Prop32
280
     0
102
RTVSPost2010PropOp32
 70
     1
102
RTVSPost2010Prop33
280
     0
102
RTVSPost2010PropOp33
 70
     1
102
RTVSPost2010Prop34
280
     0
102
RTVSPost2010PropOp34
 70
     1
102
RTVSPost2010Prop35
280
     0
102
RTVSPost2010PropOp35
 70
     1
102
RTVSPost2010Prop36
280
     0
102
RTVSPost2010PropOp36
 70
     1
102
RTVSPost2010Prop37
 90
       50
102
RTVSPost2010PropOp37
 70
     1
102
RTVSPost2010Prop38
140
0.0
102
RTVSPost2010PropOp38
 70
     1
102
RTVSPost2010Prop39
140
1.0
102
RTVSPost2010PropOp39
 70
     1
102
RTVSPost2010Prop40
 90
        0
102
RTVSPost2010PropOp40
 70
     1
102
RTVSPost2010Prop41ColorIndex
 90
       18
102
RTVSPost2010Prop41ColorRGB
 90
        0
102
RTVSPost2010PropOp41
 70
     1
102
RTVSPost2010Prop42
 90
       50
102
RTVSPost2010PropOp42
 70
     1
102
RTVSPost2010Prop43
 90
        3
102
RTVSPost2010PropOp43
 70
     1
102
RTVSPost2010Prop44ColorIndex
 90
        5
102
RTVSPost2010Prop44ColorRGB
 90
      255
102
RTVSPost2010PropOp44
 70
     1
102
RTVSPost2010Prop45
280
     0
102
RTVSPost2010PropOp45
 70
     1
102
RTVSPost2010Prop46
 90
       50
102
RTVSPost2010PropOp46
 70
     1
102
RTVSPost2010Prop47
 90
       50
102
RTVSPost2010PropOp47
 70
     1
102
RTVSPost2010Prop48
 90
       50
102
RTVSPost2010PropOp48
 70
     1
102
RTVSPost2010Prop49
280
     0
102
RTVSPost2010PropOp49
 70
     1
102
RTVSPost2010Prop50
 90
       50
102
RTVSPost2010PropOp50
 70
     1
102
RTVSPost2010Prop51ColorIndex
 90
      256
102
RTVSPost2010Prop51ColorRGB
 90
-16777216
102
RTVSPost2010PropOp51
 70
     0
102
RTVSPost2010Prop52
140
1.0
102
RTVSPost2010PropOp52
 70
     0
102
RTVSPost2010Prop53
 90
        2
102
RTVSPost2010PropOp53
 70
     1
102
RTVSPost2010Prop54
  1
strokes_ogs.tif
102
RTVSPost2010PropOp54
 70
     1
102
RTVSPost2010Prop55
280
     0
102
RTVSPost2010PropOp55
 70
     1
102
RTVSPost2010Prop56
140
1.0
102
RTVSPost2010PropOp56
 70
     1
102
RTVSPost2010Prop57
140
1.0
102
RTVSPost2010PropOp57
 70
     1
  0
XRECORD
  5
2F2A
102
{ACAD_REACTORS
330
2F29
102
}
330
2F29
100
AcDbXrecord
280
     1
102
RTVSPost2010Prop28
280
     0
102
RTVSPost2010PropOp28
 70
     1
102
RTVSPost2010Prop29
280
     1
102
RTVSPost2010PropOp29
 70
     1
102
RTVSPost2010Prop30
280
     1
102
RTVSPost2010PropOp30
 70
     1
102
RTVSPost2010Prop31
280
     0
102
RTVSPost2010PropOp31
 70
     1
102
RTVSPost2010Prop32
280
     0
102
RTVSPost2010PropOp32
 70
     1
102
RTVSPost2010Prop33
280
     0
102
RTVSPost2010PropOp33
 70
     1
102
RTVSPost2010Prop34
280
     0
102
RTVSPost2010PropOp34
 70
     1
102
RTVSPost2010Prop35
280
     0
102
RTVSPost2010PropOp35
 70
     1
102
RTVSPost2010Prop36
280
     0
102
RTVSPost2010PropOp36
 70
     1
102
RTVSPost2010Prop37
 90
       50
102
RTVSPost2010PropOp37
 70
     0
102
RTVSPost2010Prop38
140
0.0
102
RTVSPost2010PropOp38
 70
     0
102
RTVSPost2010Prop39
140
1.0
102
RTVSPost2010PropOp39
 70
     0
102
RTVSPost2010Prop40
 90
        0
102
RTVSPost2010PropOp40
 70
     0
102
RTVSPost2010Prop41ColorIndex
 90
       18
102
RTVSPost2010Prop41ColorRGB
 90
        0
102
RTVSPost2010PropOp41
 70
     0
102
RTVSPost2010Prop42
 90
       50
102
RTVSPost2010PropOp42
 70
     0
102
RTVSPost2010Prop43
 90
        3
102
RTVSPost2010PropOp43
 70
     0
102
RTVSPost2010Prop44ColorIndex
 90
        5
102
RTVSPost2010Prop44ColorRGB
 90
      255
102
RTVSPost2010PropOp44
 70
     0
102
RTVSPost2010Prop45
280
     0
102
RTVSPost2010PropOp45
 70
     1
102
RTVSPost2010Prop46
 90
       50
102
RTVSPost2010PropOp46
 70
     0
102
RTVSPost2010Prop47
 90
       50
102
RTVSPost2010PropOp47
 70
     0
102
RTVSPost2010Prop48
 90
       50
102
RTVSPost2010PropOp48
 70
     0
102
RTVSPost2010Prop49
280
     0
102
RTVSPost2010PropOp49
 70
     1
102
RTVSPost2010Prop50
 90
       50
102
RTVSPost2010PropOp50
 70
     0
102
RTVSPost2010Prop51ColorIndex
 90
      256
102
RTVSPost2010Prop51ColorRGB
 90
-16777216
102
RTVSPost2010PropOp51
 70
     0
102
RTVSPost2010Prop52
140
1.0
102
RTVSPost2010PropOp52
 70
     0
102
RTVSPost2010Prop53
 90
        2
102
RTVSPost2010PropOp53
 70
     0
102
RTVSPost2010Prop54
  1
strokes_ogs.tif
102
RTVSPost2010PropOp54
 70
     0
102
RTVSPost2010Prop55
280
     0
102
RTVSPost2010PropOp55
 70
     1
102
RTVSPost2010Prop56
140
1.0
102
RTVSPost2010PropOp56
 70
     0
102
RTVSPost2010Prop57
140
1.0
102
RTVSPost2010PropOp57
 70
     0
  0
XRECORD
  5
2F1A
102
{ACAD_REACTORS
330
2F19
102
}
330
2F19
100
AcDbXrecord
280
     1
102
RTVSPost2010Prop28
280
     0
102
RTVSPost2010PropOp28
 70
     1
102
RTVSPost2010Prop29
280
     1
102
RTVSPost2010PropOp29
 70
     1
102
RTVSPost2010Prop30
280
     1
102
RTVSPost2010PropOp30
 70
     1
102
RTVSPost2010Prop31
280
     0
102
RTVSPost2010PropOp31
 70
     1
102
RTVSPost2010Prop32
280
     0
102
RTVSPost2010PropOp32
 70
     1
102
RTVSPost2010Prop33
280
     0
102
RTVSPost2010PropOp33
 70
     1
102
RTVSPost2010Prop34
280
     0
102
RTVSPost2010PropOp34
 70
     1
102
RTVSPost2010Prop35
280
     0
102
RTVSPost2010PropOp35
 70
     1
102
RTVSPost2010Prop36
280
     0
102
RTVSPost2010PropOp36
 70
     1
102
RTVSPost2010Prop37
 90
       50
102
RTVSPost2010PropOp37
 70
     1
102
RTVSPost2010Prop38
140
0.0
102
RTVSPost2010PropOp38
 70
     1
102
RTVSPost2010Prop39
140
1.0
102
RTVSPost2010PropOp39
 70
     1
102
RTVSPost2010Prop40
 90
        0
102
RTVSPost2010PropOp40
 70
     1
102
RTVSPost2010Prop41ColorIndex
 90
       18
102
RTVSPost2010Prop41ColorRGB
 90
        0
102
RTVSPost2010PropOp41
 70
     1
102
RTVSPost2010Prop42
 90
       50
102
RTVSPost2010PropOp42
 70
     1
102
RTVSPost2010Prop43
 90
        3
102
RTVSPost2010PropOp43
 70
     1
102
RTVSPost2010Prop44ColorIndex
 90
        5
102
RTVSPost2010Prop44ColorRGB
 90
      255
102
RTVSPost2010PropOp44
 70
     1
102
RTVSPost2010Prop45
280
     0
102
RTVSPost2010PropOp45
 70
     1
102
RTVSPost2010Prop46
 90
       50
102
RTVSPost2010PropOp46
 70
     1
102
RTVSPost2010Prop47
 90
       50
102
RTVSPost2010PropOp47
 70
     1
102
RTVSPost2010Prop48
 90
       50
102
RTVSPost2010PropOp48
 70
     1
102
RTVSPost2010Prop49
280
     0
102
RTVSPost2010PropOp49
 70
     1
102
RTVSPost2010Prop50
 90
       50
102
RTVSPost2010PropOp50
 70
     1
102
RTVSPost2010Prop51ColorIndex
 90
      256
102
RTVSPost2010Prop51ColorRGB
 90
-16777216
102
RTVSPost2010PropOp51
 70
     0
102
RTVSPost2010Prop52
140
1.0
102
RTVSPost2010PropOp52
 70
     0
102
RTVSPost2010Prop53
 90
        2
102
RTVSPost2010PropOp53
 70
     1
102
RTVSPost2010Prop54
  1
strokes_ogs.tif
102
RTVSPost2010PropOp54
 70
     1
102
RTVSPost2010Prop55
280
     0
102
RTVSPost2010PropOp55
 70
     1
102
RTVSPost2010Prop56
140
1.0
102
RTVSPost2010PropOp56
 70
     1
102
RTVSPost2010Prop57
140
1.0
102
RTVSPost2010PropOp57
 70
     1
  0
XRECORD
  5
2F2C
102
{ACAD_REACTORS
330
2F2B
102
}
330
2F2B
100
AcDbXrecord
280
     1
102
RTVSPost2010Prop28
280
     0
102
RTVSPost2010PropOp28
 70
     1
102
RTVSPost2010Prop29
280
     1
102
RTVSPost2010PropOp29
 70
     1
102
RTVSPost2010Prop30
280
     1
102
RTVSPost2010PropOp30
 70
     1
102
RTVSPost2010Prop31
280
     0
102
RTVSPost2010PropOp31
 70
     1
102
RTVSPost2010Prop32
280
     0
102
RTVSPost2010PropOp32
 70
     1
102
RTVSPost2010Prop33
280
     0
102
RTVSPost2010PropOp33
 70
     1
102
RTVSPost2010Prop34
280
     0
102
RTVSPost2010PropOp34
 70
     1
102
RTVSPost2010Prop35
280
     0
102
RTVSPost2010PropOp35
 70
     1
102
RTVSPost2010Prop36
280
     0
102
RTVSPost2010PropOp36
 70
     1
102
RTVSPost2010Prop37
 90
       50
102
RTVSPost2010PropOp37
 70
     0
102
RTVSPost2010Prop38
140
0.0
102
RTVSPost2010PropOp38
 70
     0
102
RTVSPost2010Prop39
140
1.0
102
RTVSPost2010PropOp39
 70
     0
102
RTVSPost2010Prop40
 90
        0
102
RTVSPost2010PropOp40
 70
     0
102
RTVSPost2010Prop41ColorIndex
 90
       18
102
RTVSPost2010Prop41ColorRGB
 90
        0
102
RTVSPost2010PropOp41
 70
     0
102
RTVSPost2010Prop42
 90
       50
102
RTVSPost2010PropOp42
 70
     0
102
RTVSPost2010Prop43
 90
        3
102
RTVSPost2010PropOp43
 70
     0
102
RTVSPost2010Prop44ColorIndex
 90
        5
102
RTVSPost2010Prop44ColorRGB
 90
      255
102
RTVSPost2010PropOp44
 70
     0
102
RTVSPost2010Prop45
280
     0
102
RTVSPost2010PropOp45
 70
     1
102
RTVSPost2010Prop46
 90
       50
102
RTVSPost2010PropOp46
 70
     0
102
RTVSPost2010Prop47
 90
       50
102
RTVSPost2010PropOp47
 70
     0
102
RTVSPost2010Prop48
 90
       50
102
RTVSPost2010PropOp48
 70
     0
102
RTVSPost2010Prop49
280
     0
102
RTVSPost2010PropOp49
 70
     1
102
RTVSPost2010Prop50
 90
       50
102
RTVSPost2010PropOp50
 70
     0
102
RTVSPost2010Prop51ColorIndex
 90
      256
102
RTVSPost2010Prop51ColorRGB
 90
-16777216
102
RTVSPost2010PropOp51
 70
     0
102
RTVSPost2010Prop52
140
1.0
102
RTVSPost2010PropOp52
 70
     0
102
RTVSPost2010Prop53
 90
        2
102
RTVSPost2010PropOp53
 70
     0
102
RTVSPost2010Prop54
  1
strokes_ogs.tif
102
RTVSPost2010PropOp54
 70
     0
102
RTVSPost2010Prop55
280
     0
102
RTVSPost2010PropOp55
 70
     1
102
RTVSPost2010Prop56
140
1.0
102
RTVSPost2010PropOp56
 70
     0
102
RTVSPost2010Prop57
140
1.0
102
RTVSPost2010PropOp57
 70
     0
  0
XRECORD
  5
2F12
102
{ACAD_REACTORS
330
2F11
102
}
330
2F11
100
AcDbXrecord
280
     1
102
RTVSPost2010Prop28
280
     0
102
RTVSPost2010PropOp28
 70
     1
102
RTVSPost2010Prop29
280
     1
102
RTVSPost2010PropOp29
 70
     1
102
RTVSPost2010Prop30
280
     1
102
RTVSPost2010PropOp30
 70
     1
102
RTVSPost2010Prop31
280
     0
102
RTVSPost2010PropOp31
 70
     1
102
RTVSPost2010Prop32
280
     0
102
RTVSPost2010PropOp32
 70
     1
102
RTVSPost2010Prop33
280
     0
102
RTVSPost2010PropOp33
 70
     1
102
RTVSPost2010Prop34
280
     0
102
RTVSPost2010PropOp34
 70
     1
102
RTVSPost2010Prop35
280
     0
102
RTVSPost2010PropOp35
 70
     1
102
RTVSPost2010Prop36
280
     0
102
RTVSPost2010PropOp36
 70
     1
102
RTVSPost2010Prop37
 90
       50
102
RTVSPost2010PropOp37
 70
     1
102
RTVSPost2010Prop38
140
0.0
102
RTVSPost2010PropOp38
 70
     1
102
RTVSPost2010Prop39
140
1.0
102
RTVSPost2010PropOp39
 70
     1
102
RTVSPost2010Prop40
 90
        0
102
RTVSPost2010PropOp40
 70
     1
102
RTVSPost2010Prop41ColorIndex
 90
       18
102
RTVSPost2010Prop41ColorRGB
 90
        0
102
RTVSPost2010PropOp41
 70
     1
102
RTVSPost2010Prop42
 90
       50
102
RTVSPost2010PropOp42
 70
     1
102
RTVSPost2010Prop43
 90
        3
102
RTVSPost2010PropOp43
 70
     1
102
RTVSPost2010Prop44ColorIndex
 90
        5
102
RTVSPost2010Prop44ColorRGB
 90
      255
102
RTVSPost2010PropOp44
 70
     1
102
RTVSPost2010Prop45
280
     0
102
RTVSPost2010PropOp45
 70
     1
102
RTVSPost2010Prop46
 90
       50
102
RTVSPost2010PropOp46
 70
     1
102
RTVSPost2010Prop47
 90
       50
102
RTVSPost2010PropOp47
 70
     1
102
RTVSPost2010Prop48
 90
       50
102
RTVSPost2010PropOp48
 70
     1
102
RTVSPost2010Prop49
280
     0
102
RTVSPost2010PropOp49
 70
     1
102
RTVSPost2010Prop50
 90
       50
102
RTVSPost2010PropOp50
 70
     1
102
RTVSPost2010Prop51ColorIndex
 90
      256
102
RTVSPost2010Prop51ColorRGB
 90
-16777216
102
RTVSPost2010PropOp51
 70
     0
102
RTVSPost2010Prop52
140
1.0
102
RTVSPost2010PropOp52
 70
     0
102
RTVSPost2010Prop53
 90
        2
102
RTVSPost2010PropOp53
 70
     1
102
RTVSPost2010Prop54
  1
strokes_ogs.tif
102
RTVSPost2010PropOp54
 70
     1
102
RTVSPost2010Prop55
280
     0
102
RTVSPost2010PropOp55
 70
     1
102
RTVSPost2010Prop56
140
1.0
102
RTVSPost2010PropOp56
 70
     1
102
RTVSPost2010Prop57
140
1.0
102
RTVSPost2010PropOp57
 70
     1
  0
XRECORD
  5
2F28
102
{ACAD_REACTORS
330
2F27
102
}
330
2F27
100
AcDbXrecord
280
     1
102
RTVSPost2010Prop28
280
     0
102
RTVSPost2010PropOp28
 70
     1
102
RTVSPost2010Prop29
280
     1
102
RTVSPost2010PropOp29
 70
     1
102
RTVSPost2010Prop30
280
     1
102
RTVSPost2010PropOp30
 70
     1
102
RTVSPost2010Prop31
280
     0
102
RTVSPost2010PropOp31
 70
     1
102
RTVSPost2010Prop32
280
     0
102
RTVSPost2010PropOp32
 70
     1
102
RTVSPost2010Prop33
280
     0
102
RTVSPost2010PropOp33
 70
     1
102
RTVSPost2010Prop34
280
     0
102
RTVSPost2010PropOp34
 70
     1
102
RTVSPost2010Prop35
280
     0
102
RTVSPost2010PropOp35
 70
     1
102
RTVSPost2010Prop36
280
     0
102
RTVSPost2010PropOp36
 70
     1
102
RTVSPost2010Prop37
 90
       50
102
RTVSPost2010PropOp37
 70
     1
102
RTVSPost2010Prop38
140
0.0
102
RTVSPost2010PropOp38
 70
     1
102
RTVSPost2010Prop39
140
1.0
102
RTVSPost2010PropOp39
 70
     1
102
RTVSPost2010Prop40
 90
        0
102
RTVSPost2010PropOp40
 70
     1
102
RTVSPost2010Prop41ColorIndex
 90
       18
102
RTVSPost2010Prop41ColorRGB
 90
        0
102
RTVSPost2010PropOp41
 70
     1
102
RTVSPost2010Prop42
 90
       50
102
RTVSPost2010PropOp42
 70
     1
102
RTVSPost2010Prop43
 90
        3
102
RTVSPost2010PropOp43
 70
     1
102
RTVSPost2010Prop44ColorIndex
 90
        5
102
RTVSPost2010Prop44ColorRGB
 90
      255
102
RTVSPost2010PropOp44
 70
     1
102
RTVSPost2010Prop45
280
     0
102
RTVSPost2010PropOp45
 70
     1
102
RTVSPost2010Prop46
 90
       50
102
RTVSPost2010PropOp46
 70
     1
102
RTVSPost2010Prop47
 90
       50
102
RTVSPost2010PropOp47
 70
     1
102
RTVSPost2010Prop48
 90
       50
102
RTVSPost2010PropOp48
 70
     1
102
RTVSPost2010Prop49
280
     0
102
RTVSPost2010PropOp49
 70
     1
102
RTVSPost2010Prop50
 90
       50
102
RTVSPost2010PropOp50
 70
     1
102
RTVSPost2010Prop51ColorIndex
 90
      256
102
RTVSPost2010Prop51ColorRGB
 90
-16777216
102
RTVSPost2010PropOp51
 70
     0
102
RTVSPost2010Prop52
140
1.0
102
RTVSPost2010PropOp52
 70
     0
102
RTVSPost2010Prop53
 90
        2
102
RTVSPost2010PropOp53
 70
     1
102
RTVSPost2010Prop54
  1
strokes_ogs.tif
102
RTVSPost2010PropOp54
 70
     1
102
RTVSPost2010Prop55
280
     0
102
RTVSPost2010PropOp55
 70
     1
102
RTVSPost2010Prop56
140
1.0
102
RTVSPost2010PropOp56
 70
     1
102
RTVSPost2010Prop57
140
1.0
102
RTVSPost2010PropOp57
 70
     1
  0
XRECORD
  5
2F26
102
{ACAD_REACTORS
330
2F25
102
}
330
2F25
100
AcDbXrecord
280
     1
102
RTVSPost2010Prop28
280
     0
102
RTVSPost2010PropOp28
 70
     1
102
RTVSPost2010Prop29
280
     1
102
RTVSPost2010PropOp29
 70
     1
102
RTVSPost2010Prop30
280
     1
102
RTVSPost2010PropOp30
 70
     1
102
RTVSPost2010Prop31
280
     0
102
RTVSPost2010PropOp31
 70
     1
102
RTVSPost2010Prop32
280
     0
102
RTVSPost2010PropOp32
 70
     1
102
RTVSPost2010Prop33
280
     0
102
RTVSPost2010PropOp33
 70
     1
102
RTVSPost2010Prop34
280
     0
102
RTVSPost2010PropOp34
 70
     1
102
RTVSPost2010Prop35
280
     0
102
RTVSPost2010PropOp35
 70
     1
102
RTVSPost2010Prop36
280
     0
102
RTVSPost2010PropOp36
 70
     1
102
RTVSPost2010Prop37
 90
       50
102
RTVSPost2010PropOp37
 70
     1
102
RTVSPost2010Prop38
140
0.0
102
RTVSPost2010PropOp38
 70
     1
102
RTVSPost2010Prop39
140
1.0
102
RTVSPost2010PropOp39
 70
     1
102
RTVSPost2010Prop40
 90
        0
102
RTVSPost2010PropOp40
 70
     1
102
RTVSPost2010Prop41ColorIndex
 90
       18
102
RTVSPost2010Prop41ColorRGB
 90
        0
102
RTVSPost2010PropOp41
 70
     1
102
RTVSPost2010Prop42
 90
       50
102
RTVSPost2010PropOp42
 70
     1
102
RTVSPost2010Prop43
 90
        3
102
RTVSPost2010PropOp43
 70
     1
102
RTVSPost2010Prop44ColorIndex
 90
        5
102
RTVSPost2010Prop44ColorRGB
 90
      255
102
RTVSPost2010PropOp44
 70
     1
102
RTVSPost2010Prop45
280
     0
102
RTVSPost2010PropOp45
 70
     1
102
RTVSPost2010Prop46
 90
       50
102
RTVSPost2010PropOp46
 70
     1
102
RTVSPost2010Prop47
 90
       50
102
RTVSPost2010PropOp47
 70
     1
102
RTVSPost2010Prop48
 90
       50
102
RTVSPost2010PropOp48
 70
     1
102
RTVSPost2010Prop49
280
     0
102
RTVSPost2010PropOp49
 70
     1
102
RTVSPost2010Prop50
 90
       50
102
RTVSPost2010PropOp50
 70
     1
102
RTVSPost2010Prop51ColorIndex
 90
      256
102
RTVSPost2010Prop51ColorRGB
 90
-16777216
102
RTVSPost2010PropOp51
 70
     0
102
RTVSPost2010Prop52
140
1.0
102
RTVSPost2010PropOp52
 70
     0
102
RTVSPost2010Prop53
 90
        2
102
RTVSPost2010PropOp53
 70
     1
102
RTVSPost2010Prop54
  1
strokes_ogs.tif
102
RTVSPost2010PropOp54
 70
     1
102
RTVSPost2010Prop55
280
     0
102
RTVSPost2010PropOp55
 70
     1
102
RTVSPost2010Prop56
140
1.0
102
RTVSPost2010PropOp56
 70
     1
102
RTVSPost2010Prop57
140
1.0
102
RTVSPost2010PropOp57
 70
     1
  0
XRECORD
  5
2F20
102
{ACAD_REACTORS
330
2F1F
102
}
330
2F1F
100
AcDbXrecord
280
     1
102
RTVSPost2010Prop28
280
     0
102
RTVSPost2010PropOp28
 70
     1
102
RTVSPost2010Prop29
280
     1
102
RTVSPost2010PropOp29
 70
     1
102
RTVSPost2010Prop30
280
     1
102
RTVSPost2010PropOp30
 70
     1
102
RTVSPost2010Prop31
280
     0
102
RTVSPost2010PropOp31
 70
     1
102
RTVSPost2010Prop32
280
     0
102
RTVSPost2010PropOp32
 70
     1
102
RTVSPost2010Prop33
280
     0
102
RTVSPost2010PropOp33
 70
     1
102
RTVSPost2010Prop34
280
     0
102
RTVSPost2010PropOp34
 70
     1
102
RTVSPost2010Prop35
280
     0
102
RTVSPost2010PropOp35
 70
     1
102
RTVSPost2010Prop36
280
     0
102
RTVSPost2010PropOp36
 70
     1
102
RTVSPost2010Prop37
 90
       50
102
RTVSPost2010PropOp37
 70
     1
102
RTVSPost2010Prop38
140
0.0
102
RTVSPost2010PropOp38
 70
     1
102
RTVSPost2010Prop39
140
1.0
102
RTVSPost2010PropOp39
 70
     1
102
RTVSPost2010Prop40
 90
        0
102
RTVSPost2010PropOp40
 70
     1
102
RTVSPost2010Prop41ColorIndex
 90
       18
102
RTVSPost2010Prop41ColorRGB
 90
        0
102
RTVSPost2010PropOp41
 70
     1
102
RTVSPost2010Prop42
 90
       50
102
RTVSPost2010PropOp42
 70
     1
102
RTVSPost2010Prop43
 90
        3
102
RTVSPost2010PropOp43
 70
     1
102
RTVSPost2010Prop44ColorIndex
 90
        5
102
RTVSPost2010Prop44ColorRGB
 90
      255
102
RTVSPost2010PropOp44
 70
     1
102
RTVSPost2010Prop45
280
     0
102
RTVSPost2010PropOp45
 70
     1
102
RTVSPost2010Prop46
 90
       50
102
RTVSPost2010PropOp46
 70
     1
102
RTVSPost2010Prop47
 90
       50
102
RTVSPost2010PropOp47
 70
     1
102
RTVSPost2010Prop48
 90
       50
102
RTVSPost2010PropOp48
 70
     1
102
RTVSPost2010Prop49
280
     0
102
RTVSPost2010PropOp49
 70
     1
102
RTVSPost2010Prop50
 90
       50
102
RTVSPost2010PropOp50
 70
     1
102
RTVSPost2010Prop51ColorIndex
 90
      256
102
RTVSPost2010Prop51ColorRGB
 90
-16777216
102
RTVSPost2010PropOp51
 70
     0
102
RTVSPost2010Prop52
140
1.0
102
RTVSPost2010PropOp52
 70
     0
102
RTVSPost2010Prop53
 90
        2
102
RTVSPost2010PropOp53
 70
     1
102
RTVSPost2010Prop54
  1
strokes_ogs.tif
102
RTVSPost2010PropOp54
 70
     1
102
RTVSPost2010Prop55
280
     0
102
RTVSPost2010PropOp55
 70
     1
102
RTVSPost2010Prop56
140
1.0
102
RTVSPost2010PropOp56
 70
     1
102
RTVSPost2010Prop57
140
1.0
102
RTVSPost2010PropOp57
 70
     1
  0
XRECORD
  5
2F22
102
{ACAD_REACTORS
330
2F21
102
}
330
2F21
100
AcDbXrecord
280
     1
102
RTVSPost2010Prop28
280
     0
102
RTVSPost2010PropOp28
 70
     1
102
RTVSPost2010Prop29
280
     1
102
RTVSPost2010PropOp29
 70
     1
102
RTVSPost2010Prop30
280
     1
102
RTVSPost2010PropOp30
 70
     1
102
RTVSPost2010Prop31
280
     0
102
RTVSPost2010PropOp31
 70
     1
102
RTVSPost2010Prop32
280
     0
102
RTVSPost2010PropOp32
 70
     1
102
RTVSPost2010Prop33
280
     0
102
RTVSPost2010PropOp33
 70
     1
102
RTVSPost2010Prop34
280
     0
102
RTVSPost2010PropOp34
 70
     1
102
RTVSPost2010Prop35
280
     0
102
RTVSPost2010PropOp35
 70
     1
102
RTVSPost2010Prop36
280
     0
102
RTVSPost2010PropOp36
 70
     1
102
RTVSPost2010Prop37
 90
       50
102
RTVSPost2010PropOp37
 70
     1
102
RTVSPost2010Prop38
140
0.0
102
RTVSPost2010PropOp38
 70
     1
102
RTVSPost2010Prop39
140
1.0
102
RTVSPost2010PropOp39
 70
     1
102
RTVSPost2010Prop40
 90
        0
102
RTVSPost2010PropOp40
 70
     1
102
RTVSPost2010Prop41ColorIndex
 90
       18
102
RTVSPost2010Prop41ColorRGB
 90
        0
102
RTVSPost2010PropOp41
 70
     1
102
RTVSPost2010Prop42
 90
       50
102
RTVSPost2010PropOp42
 70
     1
102
RTVSPost2010Prop43
 90
        3
102
RTVSPost2010PropOp43
 70
     1
102
RTVSPost2010Prop44ColorIndex
 90
        5
102
RTVSPost2010Prop44ColorRGB
 90
      255
102
RTVSPost2010PropOp44
 70
     1
102
RTVSPost2010Prop45
280
     0
102
RTVSPost2010PropOp45
 70
     1
102
RTVSPost2010Prop46
 90
       50
102
RTVSPost2010PropOp46
 70
     1
102
RTVSPost2010Prop47
 90
       50
102
RTVSPost2010PropOp47
 70
     1
102
RTVSPost2010Prop48
 90
       50
102
RTVSPost2010PropOp48
 70
     1
102
RTVSPost2010Prop49
280
     0
102
RTVSPost2010PropOp49
 70
     1
102
RTVSPost2010Prop50
 90
       50
102
RTVSPost2010PropOp50
 70
     1
102
RTVSPost2010Prop51ColorIndex
 90
      256
102
RTVSPost2010Prop51ColorRGB
 90
-16777216
102
RTVSPost2010PropOp51
 70
     0
102
RTVSPost2010Prop52
140
1.0
102
RTVSPost2010PropOp52
 70
     0
102
RTVSPost2010Prop53
 90
        2
102
RTVSPost2010PropOp53
 70
     1
102
RTVSPost2010Prop54
  1
strokes_ogs.tif
102
RTVSPost2010PropOp54
 70
     1
102
RTVSPost2010Prop55
280
     0
102
RTVSPost2010PropOp55
 70
     1
102
RTVSPost2010Prop56
140
1.0
102
RTVSPost2010PropOp56
 70
     1
102
RTVSPost2010Prop57
140
1.0
102
RTVSPost2010PropOp57
 70
     1
  0
XRECORD
  5
2F18
102
{ACAD_REACTORS
330
2F17
102
}
330
2F17
100
AcDbXrecord
280
     1
102
RTVSPost2010Prop28
280
     0
102
RTVSPost2010PropOp28
 70
     1
102
RTVSPost2010Prop29
280
     1
102
RTVSPost2010PropOp29
 70
     1
102
RTVSPost2010Prop30
280
     1
102
RTVSPost2010PropOp30
 70
     1
102
RTVSPost2010Prop31
280
     0
102
RTVSPost2010PropOp31
 70
     1
102
RTVSPost2010Prop32
280
     0
102
RTVSPost2010PropOp32
 70
     1
102
RTVSPost2010Prop33
280
     0
102
RTVSPost2010PropOp33
 70
     1
102
RTVSPost2010Prop34
280
     0
102
RTVSPost2010PropOp34
 70
     1
102
RTVSPost2010Prop35
280
     0
102
RTVSPost2010PropOp35
 70
     1
102
RTVSPost2010Prop36
280
     0
102
RTVSPost2010PropOp36
 70
     1
102
RTVSPost2010Prop37
 90
       50
102
RTVSPost2010PropOp37
 70
     1
102
RTVSPost2010Prop38
140
0.0
102
RTVSPost2010PropOp38
 70
     1
102
RTVSPost2010Prop39
140
1.0
102
RTVSPost2010PropOp39
 70
     1
102
RTVSPost2010Prop40
 90
        0
102
RTVSPost2010PropOp40
 70
     1
102
RTVSPost2010Prop41ColorIndex
 90
       18
102
RTVSPost2010Prop41ColorRGB
 90
        0
102
RTVSPost2010PropOp41
 70
     1
102
RTVSPost2010Prop42
 90
       50
102
RTVSPost2010PropOp42
 70
     1
102
RTVSPost2010Prop43
 90
        3
102
RTVSPost2010PropOp43
 70
     1
102
RTVSPost2010Prop44ColorIndex
 90
        5
102
RTVSPost2010Prop44ColorRGB
 90
      255
102
RTVSPost2010PropOp44
 70
     1
102
RTVSPost2010Prop45
280
     0
102
RTVSPost2010PropOp45
 70
     1
102
RTVSPost2010Prop46
 90
       50
102
RTVSPost2010PropOp46
 70
     1
102
RTVSPost2010Prop47
 90
       50
102
RTVSPost2010PropOp47
 70
     1
102
RTVSPost2010Prop48
 90
       50
102
RTVSPost2010PropOp48
 70
     1
102
RTVSPost2010Prop49
280
     0
102
RTVSPost2010PropOp49
 70
     1
102
RTVSPost2010Prop50
 90
       50
102
RTVSPost2010PropOp50
 70
     1
102
RTVSPost2010Prop51ColorIndex
 90
      256
102
RTVSPost2010Prop51ColorRGB
 90
-16777216
102
RTVSPost2010PropOp51
 70
     0
102
RTVSPost2010Prop52
140
1.0
102
RTVSPost2010PropOp52
 70
     0
102
RTVSPost2010Prop53
 90
        2
102
RTVSPost2010PropOp53
 70
     1
102
RTVSPost2010Prop54
  1
strokes_ogs.tif
102
RTVSPost2010PropOp54
 70
     1
102
RTVSPost2010Prop55
280
     0
102
RTVSPost2010PropOp55
 70
     1
102
RTVSPost2010Prop56
140
1.0
102
RTVSPost2010PropOp56
 70
     1
102
RTVSPost2010Prop57
140
1.0
102
RTVSPost2010PropOp57
 70
     1
  0
XRECORD
  5
2F0C
102
{ACAD_REACTORS
330
2F0B
102
}
330
2F0B
100
AcDbXrecord
280
     1
102
RTVSPost2010Prop28
280
     0
102
RTVSPost2010PropOp28
 70
     1
102
RTVSPost2010Prop29
280
     1
102
RTVSPost2010PropOp29
 70
     1
102
RTVSPost2010Prop30
280
     1
102
RTVSPost2010PropOp30
 70
     1
102
RTVSPost2010Prop31
280
     0
102
RTVSPost2010PropOp31
 70
     1
102
RTVSPost2010Prop32
280
     0
102
RTVSPost2010PropOp32
 70
     1
102
RTVSPost2010Prop33
280
     0
102
RTVSPost2010PropOp33
 70
     1
102
RTVSPost2010Prop34
280
     0
102
RTVSPost2010PropOp34
 70
     1
102
RTVSPost2010Prop35
280
     0
102
RTVSPost2010PropOp35
 70
     1
102
RTVSPost2010Prop36
280
     0
102
RTVSPost2010PropOp36
 70
     1
102
RTVSPost2010Prop37
 90
       50
102
RTVSPost2010PropOp37
 70
     1
102
RTVSPost2010Prop38
140
0.0
102
RTVSPost2010PropOp38
 70
     1
102
RTVSPost2010Prop39
140
1.0
102
RTVSPost2010PropOp39
 70
     1
102
RTVSPost2010Prop40
 90
        0
102
RTVSPost2010PropOp40
 70
     1
102
RTVSPost2010Prop41ColorIndex
 90
       18
102
RTVSPost2010Prop41ColorRGB
 90
        0
102
RTVSPost2010PropOp41
 70
     1
102
RTVSPost2010Prop42
 90
       50
102
RTVSPost2010PropOp42
 70
     1
102
RTVSPost2010Prop43
 90
        3
102
RTVSPost2010PropOp43
 70
     1
102
RTVSPost2010Prop44ColorIndex
 90
        5
102
RTVSPost2010Prop44ColorRGB
 90
      255
102
RTVSPost2010PropOp44
 70
     1
102
RTVSPost2010Prop45
280
     0
102
RTVSPost2010PropOp45
 70
     1
102
RTVSPost2010Prop46
 90
       50
102
RTVSPost2010PropOp46
 70
     1
102
RTVSPost2010Prop47
 90
       50
102
RTVSPost2010PropOp47
 70
     1
102
RTVSPost2010Prop48
 90
       50
102
RTVSPost2010PropOp48
 70
     1
102
RTVSPost2010Prop49
280
     0
102
RTVSPost2010PropOp49
 70
     1
102
RTVSPost2010Prop50
 90
       50
102
RTVSPost2010PropOp50
 70
     1
102
RTVSPost2010Prop51ColorIndex
 90
      256
102
RTVSPost2010Prop51ColorRGB
 90
-16777216
102
RTVSPost2010PropOp51
 70
     0
102
RTVSPost2010Prop52
140
1.0
102
RTVSPost2010PropOp52
 70
     0
102
RTVSPost2010Prop53
 90
        2
102
RTVSPost2010PropOp53
 70
     1
102
RTVSPost2010Prop54
  1
strokes_ogs.tif
102
RTVSPost2010PropOp54
 70
     1
102
RTVSPost2010Prop55
280
     0
102
RTVSPost2010PropOp55
 70
     1
102
RTVSPost2010Prop56
140
1.0
102
RTVSPost2010PropOp56
 70
     1
102
RTVSPost2010Prop57
140
1.0
102
RTVSPost2010PropOp57
 70
     1
  0
XRECORD
  5
2F24
102
{ACAD_REACTORS
330
2F23
102
}
330
2F23
100
AcDbXrecord
280
     1
102
RTVSPost2010Prop28
280
     0
102
RTVSPost2010PropOp28
 70
     1
102
RTVSPost2010Prop29
280
     1
102
RTVSPost2010PropOp29
 70
     1
102
RTVSPost2010Prop30
280
     1
102
RTVSPost2010PropOp30
 70
     1
102
RTVSPost2010Prop31
280
     0
102
RTVSPost2010PropOp31
 70
     1
102
RTVSPost2010Prop32
280
     0
102
RTVSPost2010PropOp32
 70
     1
102
RTVSPost2010Prop33
280
     0
102
RTVSPost2010PropOp33
 70
     1
102
RTVSPost2010Prop34
280
     0
102
RTVSPost2010PropOp34
 70
     1
102
RTVSPost2010Prop35
280
     0
102
RTVSPost2010PropOp35
 70
     1
102
RTVSPost2010Prop36
280
     0
102
RTVSPost2010PropOp36
 70
     1
102
RTVSPost2010Prop37
 90
       50
102
RTVSPost2010PropOp37
 70
     1
102
RTVSPost2010Prop38
140
0.0
102
RTVSPost2010PropOp38
 70
     1
102
RTVSPost2010Prop39
140
1.0
102
RTVSPost2010PropOp39
 70
     1
102
RTVSPost2010Prop40
 90
        0
102
RTVSPost2010PropOp40
 70
     1
102
RTVSPost2010Prop41ColorIndex
 90
       18
102
RTVSPost2010Prop41ColorRGB
 90
        0
102
RTVSPost2010PropOp41
 70
     1
102
RTVSPost2010Prop42
 90
       50
102
RTVSPost2010PropOp42
 70
     1
102
RTVSPost2010Prop43
 90
        3
102
RTVSPost2010PropOp43
 70
     1
102
RTVSPost2010Prop44ColorIndex
 90
        5
102
RTVSPost2010Prop44ColorRGB
 90
      255
102
RTVSPost2010PropOp44
 70
     1
102
RTVSPost2010Prop45
280
     0
102
RTVSPost2010PropOp45
 70
     1
102
RTVSPost2010Prop46
 90
       50
102
RTVSPost2010PropOp46
 70
     1
102
RTVSPost2010Prop47
 90
       50
102
RTVSPost2010PropOp47
 70
     1
102
RTVSPost2010Prop48
 90
       50
102
RTVSPost2010PropOp48
 70
     1
102
RTVSPost2010Prop49
280
     0
102
RTVSPost2010PropOp49
 70
     1
102
RTVSPost2010Prop50
 90
       50
102
RTVSPost2010PropOp50
 70
     1
102
RTVSPost2010Prop51ColorIndex
 90
      256
102
RTVSPost2010Prop51ColorRGB
 90
-16777216
102
RTVSPost2010PropOp51
 70
     0
102
RTVSPost2010Prop52
140
1.0
102
RTVSPost2010PropOp52
 70
     0
102
RTVSPost2010Prop53
 90
        2
102
RTVSPost2010PropOp53
 70
     1
102
RTVSPost2010Prop54
  1
strokes_ogs.tif
102
RTVSPost2010PropOp54
 70
     1
102
RTVSPost2010Prop55
280
     0
102
RTVSPost2010PropOp55
 70
     1
102
RTVSPost2010Prop56
140
1.0
102
RTVSPost2010PropOp56
 70
     1
102
RTVSPost2010Prop57
140
1.0
102
RTVSPost2010PropOp57
 70
     1
  0
ENDSEC
  0
EOF
