  0
SECTION
  2
HEADER
  9
$ACADVER
  1
AC1009
  9
$INSBASE
 10
0.0
 20
0.0
 30
0.0
  9
$EXTMIN
 10
164.91936080381171
 20
193.1976342145326
 30
-0.0000000000112498
  9
$EXTMAX
 10
947.7328137334348
 20
768.78204542885305
 30
0.0000000000002956
  9
$LIMMIN
 10
0.0
 20
0.0
  9
$LIMMAX
 10
1422.5
 20
925.0
  9
$ORTHOMODE
 70
     0
  9
$REGENMODE
 70
     1
  9
$FILLMODE
 70
     1
  9
$QTEXTMODE
 70
     0
  9
$MIRRTEXT
 70
     1
  9
$DRAGMODE
 70
     2
  9
$LTSCALE
 40
5.0
  9
$OSMODE
 70
   551
  9
$ATTMODE
 70
     1
  9
$TEXTSIZE
 40
2.5
  9
$TRACEWID
 40
1.0
  9
$TEXTSTYLE
  7
STANDARD
  9
$CLAYER
  8
AM_0
  9
$CELTYPE
  6
BYLAYER
  9
$CECOLOR
 62
   256
  9
$DIMSCALE
 40
1.0
  9
$DIMASZ
 40
2.5
  9
$DIMEXO
 40
1.0
  9
$DIMDLI
 40
8.0
  9
$DIMRND
 40
0.0
  9
$DIMDLE
 40
0.0
  9
$DIMEXE
 40
0.6
  9
$DIMTP
 40
0.1
  9
$DIMTM
 40
0.1
  9
$DIMTXT
 40
2.5
  9
$DIMCEN
 40
0.0
  9
$DIMTSZ
 40
0.0
  9
$DIMTOL
 70
     0
  9
$DIMLIM
 70
     0
  9
$DIMTIH
 70
     0
  9
$DIMTOH
 70
     0
  9
$DIMSE1
 70
     0
  9
$DIMSE2
 70
     0
  9
$DIMTAD
 70
     1
  9
$DIMZIN
 70
     8
  9
$DIMBLK
  1

  9
$DIMASO
 70
     1
  9
$DIMSHO
 70
     1
  9
$DIMPOST
  1

  9
$DIMAPOST
  1
"
  9
$DIMALT
 70
     0
  9
$DIMALTD
 70
     2
  9
$DIMALTF
 40
0.0393701
  9
$DIMLFAC
 40
1.0
  9
$DIMTOFL
 70
     1
  9
$DIMTVP
 40
0.0
  9
$DIMTIX
 70
     0
  9
$DIMSOXD
 70
     0
  9
$DIMSAH
 70
     0
  9
$DIMBLK1
  1

  9
$DIMBLK2
  1

  9
$DIMSTYLE
  2
AM_ISO
  9
$DIMCLRD
 70
   256
  9
$DIMCLRE
 70
   256
  9
$DIMCLRT
 70
     4
  9
$DIMTFAC
 40
0.71
  9
$DIMGAP
 40
0.8
  9
$LUNITS
 70
     2
  9
$LUPREC
 70
     2
  9
$SKETCHINC
 40
1.0
  9
$FILLETRAD
 40
25.0
  9
$AUNITS
 70
     0
  9
$AUPREC
 70
     0
  9
$MENU
  1
.
  9
$ELEVATION
 40
0.0
  9
$PELEVATION
 40
0.0
  9
$THICKNESS
 40
0.0
  9
$LIMCHECK
 70
     0
  9
$BLIPMODE
 70
     0
  9
$CHAMFERA
 40
10.0
  9
$CHAMFERB
 40
5.0
  9
$SKPOLY
 70
     0
  9
$TDCREATE
 40
2452066.6139178239
  9
$TDUPDATE
 40
2458541.4474607641
  9
$TDINDWG
 40
0.0592348148
  9
$TDUSRTIMER
 40
0.0592346296
  9
$USRTIMER
 70
     1
  9
$ANGBASE
 50
0.0
  9
$ANGDIR
 70
     0
  9
$PDMODE
 70
     0
  9
$PDSIZE
 40
0.0
  9
$PLINEWID
 40
0.0
  9
$COORDS
 70
     1
  9
$SPLFRAME
 70
     0
  9
$SPLINETYPE
 70
     6
  9
$SPLINESEGS
 70
     8
  9
$ATTDIA
 70
     1
  9
$ATTREQ
 70
     1
  9
$HANDLING
 70
     1
  9
$HANDSEED
  5
2AE5
  9
$SURFTAB1
 70
     6
  9
$SURFTAB2
 70
     6
  9
$SURFTYPE
 70
     6
  9
$SURFU
 70
     6
  9
$SURFV
 70
     6
  9
$UCSNAME
  2

  9
$UCSORG
 10
0.0
 20
0.0
 30
0.0
  9
$UCSXDIR
 10
1.0
 20
0.0
 30
0.0
  9
$UCSYDIR
 10
0.0
 20
1.0
 30
0.0
  9
$PUCSNAME
  2

  9
$PUCSORG
 10
0.0
 20
0.0
 30
0.0
  9
$PUCSXDIR
 10
1.0
 20
0.0
 30
0.0
  9
$PUCSYDIR
 10
0.0
 20
1.0
 30
0.0
  9
$USERI1
 70
     0
  9
$USERI2
 70
     0
  9
$USERI3
 70
     0
  9
$USERI4
 70
     0
  9
$USERI5
 70
     0
  9
$USERR1
 40
0.0
  9
$USERR2
 40
0.0
  9
$USERR3
 40
0.0
  9
$USERR4
 40
0.0
  9
$USERR5
 40
0.0
  9
$WORLDVIEW
 70
     1
  9
$SHADEDGE
 70
     3
  9
$SHADEDIF
 70
    70
  9
$TILEMODE
 70
     1
  9
$MAXACTVP
 70
    64
  9
$PLIMCHECK
 70
     0
  9
$PEXTMIN
 10
1.0000000000000000E+020
 20
1.0000000000000000E+020
 30
1.0000000000000000E+020
  9
$PEXTMAX
 10
-1.0000000000000000E+020
 20
-1.0000000000000000E+020
 30
-1.0000000000000000E+020
  9
$PLIMMIN
 10
0.0
 20
0.0
  9
$PLIMMAX
 10
420.0
 20
297.0
  9
$UNITMODE
 70
     0
  9
$VISRETAIN
 70
     1
  9
$PLINEGEN
 70
     0
  9
$PSLTSCALE
 70
     1
  0
ENDSEC
  0
SECTION
  2
TABLES
  0
TABLE
  2
VPORT
 70
     1
  0
VPORT
  2
*ACTIVE
 70
     0
 10
0.0
 20
0.0
 11
1.0
 21
1.0
 12
556.32608726862338
 22
480.98983982169278
 13
0.0
 23
0.0
 14
12.5
 24
12.5
 15
50.0
 25
50.0
 16
0.0
 26
0.0
 36
1.0
 17
0.0
 27
0.0
 37
0.0
 40
579.53579161167272
 41
1.7571592210767459
 42
50.0
 43
0.0
 44
0.0
 50
0.0
 51
0.0
 71
     0
 72
   100
 73
     1
 74
     3
 75
     0
 76
     0
 77
     0
 78
     0
  0
ENDTAB
  0
TABLE
  2
LTYPE
 70
    26
  0
LTYPE
  2
CONTINUOUS
 70
     0
  3
Solid line
 72
    65
 73
     0
 40
0.0
  0
LTYPE
  2
AM_ISO02W050
 70
     0
  3
__ __ __ __ __ __ __ __ __ __ __ __ __ __ __
 72
    65
 73
     2
 40
7.5
 49
6.0
 49
-1.5
  0
LTYPE
  2
AM_ISO08W050
 70
     0
  3
____ . ____ . ____ . ____ . ____ . ____ . ____
 72
    65
 73
     4
 40
18.0
 49
12.0
 49
-1.5
 49
3.0
 49
-1.5
  0
LTYPE
  2
AM_ISO09W050
 70
     0
  3
_____ . . _____ . . _____ . . ____ .. ____
 72
    65
 73
     6
 40
22.5
 49
12.0
 49
-1.5
 49
3.0
 49
-1.5
 49
3.0
 49
-1.5
  0
LTYPE
  2
AMCONSTR
 70
     0
  3
_______________________
 72
    65
 73
     2
 40
9999.0
 49
9999.0
 49
0.0
  0
LTYPE
  2
AM_ISO08W050X2
 70
     0
  3
__ . __ . __ . __ . __ . __
 72
    65
 73
     4
 40
9.0
 49
6.0
 49
-0.75
 49
1.5
 49
-0.75
  0
LTYPE
  2
AM_ISO02W050X2
 70
     0
  3
 _ _ _ _ _ _ _ _ _ _ _ _
 72
    65
 73
     2
 40
3.75
 49
3.0
 49
-0.75
  0
LTYPE
  2
AMZIGZAG
 70
     0
  3
/\/-/\/-/\/-/\/-/\/-/\/
 72
    65
 73
     2
 40
11.000099999999991
 49
0.0001
 49
-11.0
  0
LTYPE
  2
ACISOWELD
 70
     0
  3
_ _ _ _ _
 72
    65
 73
     2
 40
2.0
 49
2.0
 49
-1.0
  0
LTYPE
  2
ACISOTGB
 70
     0
  3
__ . . __ . .
 72
    65
 73
     6
 40
9.0
 49
4.0
 49
-1.0
 49
1.0
 49
-1.0
 49
1.0
 49
-1.0
  0
LTYPE
  2
ACISOTGL
 70
     0
  3
_ _ _ _ _
 72
    65
 73
     2
 40
3.0
 49
2.0
 49
-1.0
  0
LTYPE
  2
CENTER
 70
     0
  3
__ . __
 72
    65
 73
     4
 40
7.0
 49
4.0
 49
-1.0
 49
1.0
 49
-1.0
  0
LTYPE
  2
PHANTOM2
 70
     0
  3
Phantom (.5x) ___ _ _ ___ _ _ ___ _ _ ___ _ _
 72
    65
 73
     6
 40
31.75
 49
15.875
 49
-3.174999999999998
 49
3.174999999999998
 49
-3.174999999999998
 49
3.174999999999998
 49
-3.174999999999998
  0
LTYPE
  2
ACANSTGBM
 70
     0
  3
__ . . __ . .
 72
    65
 73
     6
 40
9.0
 49
4.0
 49
-1.0
 49
1.0
 49
-1.0
 49
1.0
 49
-1.0
  0
LTYPE
  2
ACANSTGLM
 70
     0
  3
_ _ _ _ _
 72
    65
 73
     2
 40
3.0
 49
2.0
 49
-1.0
  0
LTYPE
  2
GEN7
 70
     0
  3
____ . ____ . ____ . ____ . ____ . ____ . ____
 72
    65
 73
     4
 40
14.25
 49
9.75
 49
-1.5
 49
1.5
 49
-1.5
  0
LTYPE
  2
GEN7A
 70
     0
  3
__ . __ . __
 72
    65
 73
     4
 40
7.375
 49
4.75
 49
-0.875
 49
0.875
 49
-0.875
  0
LTYPE
  2
ACJISTGB
 70
     0
  3
__ . . __ . .
 72
    65
 73
     6
 40
9.0
 49
4.0
 49
-1.0
 49
1.0
 49
-1.0
 49
1.0
 49
-1.0
  0
LTYPE
  2
ACJISTGL
 70
     0
  3
_ _ _ _ _
 72
    65
 73
     2
 40
3.0
 49
2.0
 49
-1.0
  0
LTYPE
  2
HIDDEN
 70
     0
  3
Hidden __ __ __ __ __ __ __ __ __ __ __ __ __ _
 72
    65
 73
     2
 40
0.375
 49
0.25
 49
-0.125
  0
LTYPE
  2
CENTER2
 70
     0
  3
Center (.5x) ___ _ ___ _ ___ _ ___ _ ___ _ ___
 72
    65
 73
     4
 40
1.125
 49
0.75
 49
-0.125
 49
0.125
 49
-0.125
  0
LTYPE
  2
HIDDEN2
 70
     0
  3
Hidden (.5x) _ _ _ _ _ _ _ _ _ _ _ _ _ _ _ _ _
 72
    65
 73
     2
 40
0.1875
 49
0.125
 49
-0.0625
  0
LTYPE
  2
AMZIGZAG2
 70
     0
  3
/\/-/\/-/\/-/\/-/\/-/\/
 72
    65
 73
     2
 40
0.4401
 49
0.0001
 49
-0.4400000000000002
  0
LTYPE
  2
ACANSTGB
 70
     0
  3
__ . . __ . .
 72
    65
 73
     6
 40
0.35433070866
 49
0.15748031496
 49
-0.03937007874
 49
0.03937007874
 49
-0.03937007874
 49
0.03937007874
 49
-0.03937007874
  0
LTYPE
  2
ACANSTGL
 70
     0
  3
_ _ _ _ _
 72
    65
 73
     2
 40
0.11811023622
 49
0.07874015748
 49
-0.03937007874
  0
ENDTAB
  0
TABLE
  2
LAYER
 70
     6
  0
LAYER
  2
0
 70
     0
 62
     7
  6
CONTINUOUS
  0
LAYER
  2
AM_0
 70
     0
 62
     7
  6
CONTINUOUS
  0
LAYER
  2
AM_5
 70
     0
 62
     2
  6
CONTINUOUS
  0
LAYER
  2
DEFPOINTS
 70
     0
 62
     7
  6
CONTINUOUS
  0
LAYER
  2
ﾁｭｳｼﾝｾﾝ
 70
     0
 62
     1
  6
GEN7
  0
LAYER
  2
ﾁｭｳｼﾝｾﾝ1
 70
     0
 62
     1
  6
GEN7A
  0
ENDTAB
  0
TABLE
  2
STYLE
 70
     9
  0
STYLE
  2
STANDARD
 70
     0
 40
0.0
 41
0.8299999999999999
 50
0.0
 71
     0
 42
2.5
  3
txt.shx
  4
bigfont.shx
  0
STYLE
  2
ANNOTATIVE
 70
     0
 40
0.0
 41
1.0
 50
0.0
 71
     0
 42
0.2
  3
txt
  4

  0
STYLE
  2

 70
     1
 40
0.0
 41
1.0
 50
0.0
 71
     0
 42
2.5
  3
ltypeshp.shx
  4

  0
STYLE
  2
ACISOTS
 70
     0
 40
1.0
 41
1.0
 50
0.0
 71
     0
 42
2.5
  3
isocp.shx
  4
extfont.shx
  0
STYLE
  2
ACISOGDT
 70
     0
 40
0.0
 41
1.0
 50
0.0
 71
     0
 42
2.5
  3
amgdt.shx
  4

  0
STYLE
  2
ACANSTS
 70
     0
 40
1.0
 41
1.0
 50
0.0
 71
     0
 42
2.5
  3
romans.shx
  4
bigfont.shx
  0
STYLE
  2
ACANSGDT
 70
     0
 40
0.0
 41
1.0
 50
0.0
 71
     0
 42
2.5
  3
amgdt.shx
  4

  0
STYLE
  2
ACJISTS
 70
     0
 40
1.0
 41
1.0
 50
0.0
 71
     0
 42
2.5
  3
isocp.shx
  4
bigfont.shx
  0
STYLE
  2
ACJISGDT
 70
     0
 40
0.0
 41
1.0
 50
0.0
 71
     0
 42
2.5
  3
amgdt.shx
  4

  0
ENDTAB
  0
TABLE
  2
VIEW
 70
     6
  0
VIEW
  2
AM_VIEW1
 70
     0
 40
462.5
 10
416.07965009208078
 20
693.75
 41
832.15930018416213
 11
0.0
 21
0.0
 31
1.0
 12
0.0
 22
0.0
 32
0.0
 42
50.0
 43
0.0
 44
0.0
 50
0.0
 71
     0
  0
VIEW
  2
AM_VIEW2
 70
     0
 40
462.5
 10
1006.420349907918
 20
693.75
 41
832.15930018416213
 11
0.0
 21
0.0
 31
1.0
 12
0.0
 22
0.0
 32
0.0
 42
50.0
 43
0.0
 44
0.0
 50
0.0
 71
     0
  0
VIEW
  2
AM_VIEW3
 70
     0
 40
462.5
 10
416.07965009208078
 20
231.25
 41
832.15930018416213
 11
0.0
 21
0.0
 31
1.0
 12
0.0
 22
0.0
 32
0.0
 42
50.0
 43
0.0
 44
0.0
 50
0.0
 71
     0
  0
VIEW
  2
AM_VIEW4
 70
     0
 40
462.5
 10
1006.420349907918
 20
231.25
 41
832.15930018416213
 11
0.0
 21
0.0
 31
1.0
 12
0.0
 22
0.0
 32
0.0
 42
50.0
 43
0.0
 44
0.0
 50
0.0
 71
     0
  0
VIEW
  2
AM_VIEW5
 70
     0
 40
462.5
 10
711.24999999999966
 20
462.5
 41
832.15930018416179
 11
0.0
 21
0.0
 31
1.0
 12
0.0
 22
0.0
 32
0.0
 42
50.0
 43
0.0
 44
0.0
 50
0.0
 71
     0
  0
VIEW
  2
AM_VIEW6
 70
     0
 40
924.99075000000005
 10
711.24999999999966
 20
462.5
 41
1664.3019571823199
 11
0.0
 21
0.0
 31
1.0
 12
0.0
 22
0.0
 32
0.0
 42
50.0
 43
0.0
 44
0.0
 50
0.0
 71
     0
  0
ENDTAB
  0
TABLE
  2
UCS
 70
     0
  0
ENDTAB
  0
TABLE
  2
APPID
 70
    95
  0
APPID
  2
ACAD
 70
     0
  0
APPID
  2
ACADANNOTATIVE
 70
     0
  0
APPID
  2
MCAD_NO_VIS
 70
     0
  0
APPID
  2
ACAD_TEMP_GRAPHIC
 70
     0
  0
APPID
  2
ACATTRIBSERVICES
 70
     0
  0
APPID
  2
GENIUS_GENREC_14
 70
     0
  0
APPID
  2
GENIUS_GENOBJ-N-REC_13
 70
     0
  0
APPID
  2
GENIUS_GENODEF_13
 70
     0
  0
APPID
  2
GENIUS_GENOLIS_13
 70
     0
  0
APPID
  2
GENIUS_GENOBJ-N-TIT_13
 70
     0
  0
APPID
  2
GENIUS_GENOENT_13
 70
     0
  0
APPID
  2
GENIUS_GENTITLE_13
 70
     0
  0
APPID
  2
GENIUS_GENOREF_13
 70
     0
  0
APPID
  2
GENIUS_GENSCREG_15
 70
     0
  0
APPID
  2
GENIUS_GENOBJ-N-SDF_13
 70
     0
  0
APPID
  2
GENIUS_GENFIL_13
 70
     0
  0
APPID
  2
GENIUS_GENOBJ-N-CHA_13
 70
     0
  0
APPID
  2
GENIUS_GENDTOL_13
 70
     0
  0
APPID
  2
GENIUS_GENOBJ-N-FIL_13
 70
     0
  0
APPID
  2
AD_DRAW
 70
     0
  0
APPID
  2
DESIGNERASSEMBLIES
 70
     0
  0
APPID
  2
ASURF_PCURVE_APPNAME
 70
     0
  0
APPID
  2
GENIUS_GE3SECT_13
 70
     0
  0
APPID
  2
GENIUS_GENCFG_13
 70
     0
  0
APPID
  2
GENIUS_GE3CFG0_13
 70
     0
  0
APPID
  2
GENIUS_GENCFG0_13
 70
     0
  0
APPID
  2
GENIUS_GENCFG1_13
 70
     0
  0
APPID
  2
GENIUS_GENCFG2_13
 70
     0
  0
APPID
  2
GENIUS_GENCFG3_13
 70
     0
  0
APPID
  2
GENIUS_GENCFG4_13
 70
     0
  0
APPID
  2
GENIUS_GEVCFG0_13
 70
     0
  0
APPID
  2
GENIUS_GENHINW_13
 70
     0
  0
APPID
  2
GENIUS_FIRSTVISTXT_14
 70
     0
  0
APPID
  2
GENIUS_GENOBJ-N-LEADER_13
 70
     0
  0
APPID
  2
GEV_VCCNULL_SWITCH_OFF
 70
     0
  0
APPID
  2
GENIUS_GEFCFG0_13
 70
     0
  0
APPID
  2
GENIUS_GENZVEED_13
 70
     0
  0
APPID
  2
GENIUS_GENSCREG_13
 70
     0
  0
APPID
  2
GENIUS_DUMCFG0_13
 70
     0
  0
APPID
  2
GEVID936201362
 70
     0
  0
APPID
  2
GEVDC
 70
     0
  0
APPID
  2
GEVCON
 70
     0
  0
APPID
  2
VCC
 70
     0
  0
APPID
  2
GEVPT
 70
     0
  0
APPID
  2
GEVIT
 70
     0
  0
APPID
  2
GENBH
 70
     0
  0
APPID
  2
GEVMK
 70
     0
  0
APPID
  2
GENIUS_GENBH_13
 70
     0
  0
APPID
  2
GENIUS_GENOBJ-NBEHI-BHF_13
 70
     0
  0
APPID
  2
GENIUS_GENOBJ-NBEHI-BHB_13
 70
     0
  0
APPID
  2
GENIUS_GENOBJ-F-DESC_13
 70
     0
  0
APPID
  2
GENIUS_GEFDESC_14
 70
     0
  0
APPID
  2
GENIUS_GENOBJ-F-PART_13
 70
     0
  0
APPID
  2
GENIUS_GEFSTDP_13
 70
     0
  0
APPID
  2
GENIUS_GEFPARTINS_13
 70
     0
  0
APPID
  2
GENIUS_GENTRA_14
 70
     0
  0
APPID
  2
GENIUS_GENINF13_13
 70
     0
  0
APPID
  2
GENIUS_GENOBJ-N-INFOPT_13
 70
     0
  0
APPID
  2
GENIUS_GENOBJ-N-RSSYM_13
 70
     0
  0
APPID
  2
GENIUS_GENSYMENT_13
 70
     0
  0
APPID
  2
GENIUS_GENSCSYM_13
 70
     0
  0
APPID
  2
GENIUS_GEFINFNAM_13
 70
     0
  0
APPID
  2
GENIUS_GENOBJ-N-CEN_13
 70
     0
  0
APPID
  2
GENIUS_GENOBJ-N-CRS_13
 70
     0
  0
APPID
  2
GENIUS_GENOBJ-N-CRC_13
 70
     0
  0
APPID
  2
GENIUS_GENCRC_14
 70
     0
  0
APPID
  2
GEVID942827039
 70
     0
  0
APPID
  2
GEVID942827040
 70
     0
  0
APPID
  2
GEVID942827041
 70
     0
  0
APPID
  2
GENIUS_GENOBJ-F-SCPASSM_13
 70
     0
  0
APPID
  2
GENIUS_GENDIMSH_14
 70
     0
  0
APPID
  2
GEVID942827042
 70
     0
  0
APPID
  2
GEVID946020473
 70
     0
  0
APPID
  2
GEVID946020474
 70
     0
  0
APPID
  2
GEVID946020475
 70
     0
  0
APPID
  2
GENIUS_GENOBJ-N-HTC_13
 70
     0
  0
APPID
  2
GENIUS_GENHATCH_13
 70
     0
  0
APPID
  2
GEVID948854295
 70
     0
  0
APPID
  2
GEVID939402019
 70
     0
  0
APPID
  2
GEVID952919491
 70
     0
  0
APPID
  2
GEVID952919492
 70
     0
  0
APPID
  2
GENIUS_GEFWELD_13
 70
     0
  0
APPID
  2
GENIUS_GENOBJ-F-WELS_13
 70
     0
  0
APPID
  2
GEVID952919493
 70
     0
  0
APPID
  2
GENIUS_GENOBJ-N-RSBK_13
 70
     0
  0
APPID
  2
GENIUS_GENOBJ-N-LIB_13
 70
     0
  0
APPID
  2
GENIUS_GENSCALE_13
 70
     0
  0
APPID
  2
GEVID986376691
 70
     0
  0
APPID
  2
DCO15
 70
     0
  0
APPID
  2
ACAD_DSTYLE_DIMBREAK
 70
     0
  0
APPID
  2
ACAD_DSTYLE_DIMJAG
 70
     0
  0
APPID
  2
ACAD_NAV_VCDISPLAY
 70
     0
  0
APPID
  2
ACADANNOPO
 70
     0
  0
APPID
  2
ACAD_EXEMPT_FROM_CAD_STANDARDS
 70
     0
  0
APPID
  2
ACAD_MLEADERVER
 70
     0
  0
ENDTAB
  0
TABLE
  2
DIMSTYLE
 70
    22
  0
DIMSTYLE
  2
STANDARD
 70
     0
  3

  4

  5

  6

  7

 40
1.0
 41
0.18
 42
0.0625
 43
0.38
 44
0.18
 45
0.0
 46
0.0
 47
0.0
 48
0.0
140
0.18
141
0.09
142
0.0
143
25.399999999999999
144
1.0
145
0.0
146
1.0
147
0.09
 71
     0
 72
     0
 73
     1
 74
     1
 75
     0
 76
     0
 77
     0
 78
     0
170
     0
171
     2
172
     0
173
     0
174
     0
175
     0
176
     0
177
     0
178
     0
  0
DIMSTYLE
  2
ANNOTATIVE
 70
     0
  3

  4

  5

  6

  7

 40
1.0
 41
0.18
 42
0.0625
 43
0.38
 44
0.18
 45
0.0
 46
0.0
 47
0.0
 48
0.0
140
0.18
141
0.09
142
0.0
143
25.399999999999999
144
1.0
145
0.0
146
1.0
147
0.09
 71
     0
 72
     0
 73
     1
 74
     1
 75
     0
 76
     0
 77
     0
 78
     0
170
     0
171
     2
172
     0
173
     0
174
     0
175
     0
176
     0
177
     0
178
     0
  0
DIMSTYLE
  2
AM_ISO
 70
     0
  3

  4
"
  5

  6

  7

 40
1.0
 41
2.5
 42
1.0
 43
8.0
 44
0.6
 45
0.0
 46
0.0
 47
0.1
 48
0.1
140
2.5
141
0.0
142
0.0
143
0.0393701
144
1.0
145
0.0
146
0.71
147
0.8
 71
     0
 72
     0
 73
     0
 74
     0
 75
     0
 76
     0
 77
     1
 78
     8
170
     0
171
     2
172
     1
173
     0
174
     0
175
     0
176
   256
177
   256
178
     4
  0
DIMSTYLE
  2
AM_ISO$3
 70
     0
  3

  4
"
  5

  6

  7

 40
1.0
 41
2.5
 42
1.0
 43
8.0
 44
0.6
 45
0.0
 46
0.0
 47
0.1
 48
0.1
140
2.5
141
0.0
142
0.0
143
0.0393701
144
1.0
145
0.0
146
0.71
147
0.8
 71
     0
 72
     0
 73
     0
 74
     1
 75
     0
 76
     0
 77
     1
 78
     8
170
     0
171
     2
172
     0
173
     0
174
     0
175
     0
176
   256
177
   256
178
     4
  0
DIMSTYLE
  2
AM_ISO$4
 70
     0
  3

  4
"
  5

  6

  7

 40
1.0
 41
2.5
 42
1.0
 43
8.0
 44
0.6
 45
0.0
 46
0.0
 47
0.1
 48
0.1
140
2.5
141
0.0
142
0.0
143
0.0393701
144
1.0
145
0.0
146
0.71
147
0.8
 71
     0
 72
     0
 73
     0
 74
     1
 75
     0
 76
     0
 77
     1
 78
     8
170
     0
171
     2
172
     0
173
     0
174
     0
175
     0
176
   256
177
   256
178
     4
  0
DIMSTYLE
  2
AM_ISO$6
 70
     0
  3

  4
"
  5

  6

  7

 40
1.0
 41
2.5
 42
1.0
 43
8.0
 44
0.6
 45
0.0
 46
0.0
 47
0.1
 48
0.1
140
2.5
141
0.0
142
0.0
143
0.0393701
144
1.0
145
0.0
146
0.71
147
0.8
 71
     0
 72
     0
 73
     0
 74
     0
 75
     0
 76
     0
 77
     0
 78
     8
170
     0
171
     2
172
     1
173
     0
174
     0
175
     0
176
   256
177
   256
178
     4
  0
DIMSTYLE
  2
AM_ISO$7
 70
     0
  3

  4
"
  5

  6

  7

 40
1.0
 41
2.5
 42
1.0
 43
8.0
 44
0.6
 45
0.0
 46
0.0
 47
0.1
 48
0.1
140
2.5
141
0.0
142
0.0
143
0.0393701
144
1.0
145
0.0
146
0.71
147
0.8
 71
     0
 72
     0
 73
     0
 74
     0
 75
     0
 76
     0
 77
     1
 78
     8
170
     0
171
     2
172
     1
173
     0
174
     0
175
     0
176
   256
177
   256
178
     4
  0
DIMSTYLE
  2
AM_ISO$SF
 70
     0
  3

  4
"
  5

  6

  7

 40
1.0
 41
2.5
 42
1.0
 43
10.0
 44
1.0
 45
0.0
 46
0.0
 47
0.1
 48
0.1
140
3.5
141
0.0
142
0.0
143
0.0393701
144
1.0
145
0.0
146
0.71
147
1.5
 71
     0
 72
     0
 73
     0
 74
     0
 75
     1
 76
     1
 77
     1
 78
     8
170
     0
171
     2
172
     1
173
     0
174
     0
175
     0
176
   256
177
   256
178
     2
  0
DIMSTYLE
  2
AM_ISO$SH
 70
     0
  3

  4
"
  5

  6

  7

 40
1.0
 41
2.5
 42
1.0
 43
10.0
 44
1.0
 45
0.0
 46
0.0
 47
0.1
 48
0.1
140
3.5
141
0.0
142
0.0
143
0.0393701
144
2.0
145
0.0
146
0.71
147
1.5
 71
     0
 72
     0
 73
     0
 74
     0
 75
     1
 76
     1
 77
     1
 78
     8
170
     0
171
     2
172
     1
173
     1
174
     0
175
     0
176
   256
177
   256
178
     2
  0
DIMSTYLE
  2
AM_JIS
 70
     0
  3

  4
"
  5

  6

  7

 40
1.0
 41
2.5
 42
1.0
 43
7.0
 44
1.0
 45
0.0
 46
0.0
 47
0.1
 48
0.1000000001
140
2.5
141
0.0
142
0.0
143
0.0393701
144
1.0
145
0.0
146
0.71
147
1.0
 71
     0
 72
     0
 73
     0
 74
     0
 75
     0
 76
     0
 77
     3
 78
     8
170
     0
171
     2
172
     1
173
     0
174
     0
175
     0
176
   256
177
   256
178
     4
  0
DIMSTYLE
  2
AM_JIS$3
 70
     0
  3

  4
"
  5

  6

  7

 40
1.0
 41
2.5
 42
1.0
 43
7.0
 44
1.0
 45
0.0
 46
0.0
 47
0.1
 48
0.1000000001
140
2.5
141
0.0
142
0.0
143
0.0393701
144
1.0
145
0.0
146
0.71
147
1.0
 71
     0
 72
     0
 73
     0
 74
     1
 75
     0
 76
     0
 77
     3
 78
     8
170
     0
171
     2
172
     0
173
     0
174
     0
175
     0
176
   256
177
   256
178
     4
  0
DIMSTYLE
  2
AM_JIS$4
 70
     0
  3

  4
"
  5

  6

  7

 40
1.0
 41
2.5
 42
1.0
 43
7.0
 44
1.0
 45
0.0
 46
0.0
 47
0.1
 48
0.1000000001
140
2.5
141
0.0
142
0.0
143
0.0393701
144
1.0
145
0.0
146
0.71
147
1.0
 71
     0
 72
     0
 73
     0
 74
     0
 75
     0
 76
     0
 77
     3
 78
     8
170
     0
171
     2
172
     0
173
     0
174
     0
175
     0
176
   256
177
   256
178
     4
  0
DIMSTYLE
  2
AM_JIS$6
 70
     0
  3

  4
"
  5

  6

  7

 40
1.0
 41
2.5
 42
1.0
 43
7.0
 44
1.0
 45
0.0
 46
0.0
 47
0.1
 48
0.1000000001
140
2.5
141
0.0
142
0.0
143
0.0393701
144
1.0
145
0.0
146
0.71
147
1.0
 71
     0
 72
     0
 73
     0
 74
     0
 75
     0
 76
     0
 77
     0
 78
     8
170
     0
171
     2
172
     1
173
     0
174
     0
175
     0
176
   256
177
   256
178
     4
  0
DIMSTYLE
  2
AM_JIS$7
 70
     0
  3

  4
"
  5

  6

  7

 40
1.0
 41
2.5
 42
1.0
 43
7.0
 44
1.0
 45
0.0
 46
0.0
 47
0.1
 48
0.1000000001
140
2.5
141
0.0
142
0.0
143
0.0393701
144
1.0
145
0.0
146
0.71
147
1.0
 71
     0
 72
     0
 73
     0
 74
     0
 75
     0
 76
     0
 77
     3
 78
     8
170
     0
171
     2
172
     1
173
     0
174
     0
175
     0
176
   256
177
   256
178
     4
  0
DIMSTYLE
  2
AM_JIS$SF
 70
     0
  3

  4
"
  5

  6

  7

 40
1.0
 41
2.5
 42
1.0
 43
10.0
 44
1.0
 45
0.0
 46
0.0
 47
0.1
 48
0.1
140
3.5
141
0.0
142
0.0
143
0.0393701
144
1.0
145
0.0
146
0.71
147
1.5
 71
     0
 72
     0
 73
     0
 74
     0
 75
     1
 76
     1
 77
     3
 78
     8
170
     0
171
     2
172
     1
173
     0
174
     0
175
     0
176
   256
177
   256
178
     4
  0
DIMSTYLE
  2
AM_JIS$SH
 70
     0
  3

  4
"
  5

  6

  7

 40
1.0
 41
2.5
 42
1.0
 43
10.0
 44
1.0
 45
0.0
 46
0.0
 47
0.1
 48
0.1
140
3.5
141
0.0
142
0.0
143
0.0393701
144
1.0
145
0.0
146
0.71
147
1.5
 71
     0
 72
     0
 73
     0
 74
     0
 75
     1
 76
     0
 77
     3
 78
     8
170
     0
171
     2
172
     1
173
     1
174
     0
175
     0
176
   256
177
   256
178
     4
  0
DIMSTYLE
  2
AM_ANSI
 70
     0
  3

  4
mm
  5

  6

  7

 40
1.0
 41
0.1
 42
0.05
 43
0.5
 44
0.1
 45
0.0
 46
0.0
 47
0.1
 48
0.1
140
0.12
141
0.0
142
0.0
143
25.399999999999999
144
1.0
145
0.0
146
0.71
147
0.06
 71
     0
 72
     0
 73
     1
 74
     1
 75
     0
 76
     0
 77
     0
 78
     7
170
     0
171
     2
172
     0
173
     0
174
     0
175
     0
176
   256
177
   256
178
     2
  0
DIMSTYLE
  2
AM_ANSI$3
 70
     0
  3

  4
mm
  5

  6

  7

 40
1.0
 41
0.1
 42
0.05
 43
0.5
 44
0.1
 45
0.0
 46
0.0
 47
0.1
 48
0.1
140
0.12
141
0.0
142
0.0
143
25.399999999999999
144
1.0
145
0.0
146
0.71
147
0.06
 71
     0
 72
     0
 73
     1
 74
     1
 75
     0
 76
     0
 77
     0
 78
     7
170
     0
171
     2
172
     0
173
     0
174
     0
175
     0
176
   256
177
   256
178
     2
  0
DIMSTYLE
  2
AM_ANSI$4
 70
     0
  3

  4
mm
  5

  6

  7

 40
1.0
 41
0.1
 42
0.05
 43
0.5
 44
0.1
 45
0.0
 46
0.0
 47
0.1
 48
0.1
140
0.12
141
0.0
142
0.0
143
25.399999999999999
144
1.0
145
0.0
146
0.71
147
0.06
 71
     0
 72
     0
 73
     1
 74
     1
 75
     0
 76
     0
 77
     0
 78
     7
170
     0
171
     2
172
     0
173
     0
174
     0
175
     0
176
   256
177
   256
178
     2
  0
DIMSTYLE
  2
AM_ANSI$7
 70
     0
  3

  4
mm
  5

  6

  7

 40
1.0
 41
0.1
 42
0.05
 43
0.5
 44
0.1
 45
0.0
 46
0.0
 47
0.1
 48
0.1
140
0.24
141
0.0
142
0.0
143
25.399999999999999
144
1.0
145
0.0
146
0.71
147
0.06
 71
     0
 72
     0
 73
     1
 74
     1
 75
     0
 76
     0
 77
     0
 78
     7
170
     0
171
     2
172
     0
173
     0
174
     0
175
     0
176
   256
177
   256
178
     2
  0
DIMSTYLE
  2
AM_ANSI$SF
 70
     0
  3

  4
mm
  5

  6

  7

 40
1.0
 41
0.1
 42
0.05
 43
0.5
 44
0.1
 45
0.0
 46
0.0
 47
0.1
 48
0.1
140
0.12
141
0.0
142
0.0
143
25.399999999999999
144
1.0
145
0.0
146
0.71
147
0.06
 71
     0
 72
     0
 73
     1
 74
     1
 75
     1
 76
     1
 77
     0
 78
     7
170
     0
171
     2
172
     0
173
     0
174
     0
175
     0
176
   256
177
   256
178
     2
  0
DIMSTYLE
  2
AM_ANSI$SH
 70
     0
  3

  4
mm
  5

  6

  7

 40
1.0
 41
0.1
 42
0.05
 43
0.5
 44
0.1
 45
0.0
 46
0.0
 47
0.1
 48
0.1
140
0.12
141
0.0
142
0.0
143
25.399999999999999
144
1.0
145
0.0
146
0.71
147
0.06
 71
     0
 72
     0
 73
     1
 74
     1
 75
     1
 76
     1
 77
     0
 78
     7
170
     0
171
     2
172
     0
173
     1
174
     0
175
     0
176
   256
177
   256
178
     2
  0
ENDTAB
  0
ENDSEC
  0
SECTION
  2
BLOCKS
  0
BLOCK
  8
0
  2
$MODEL_SPACE
 70
     0
 10
0.0
 20
0.0
 30
0.0
  3
$MODEL_SPACE
  1

  0
ENDBLK
  5
2955
  8
0
  0
BLOCK
 67
     1
  8
0
  2
$PAPER_SPACE
 70
     0
 10
0.0
 20
0.0
 30
0.0
  3
$PAPER_SPACE
  1

  0
ENDBLK
  5
2951
 67
     1
  8
0
  0
BLOCK
  8
0
  2
GENAXEH
 70
     0
 10
0.0
 20
0.0
 30
0.0
  3
GENAXEH
  1

  0
LINE
  5
2726
  8
0
 10
-1.0
 20
0.0
 30
0.0
 11
1.0
 21
0.0
 31
0.0
  0
ENDBLK
  5
2727
  8
0
  0
BLOCK
  8
0
  2
_OPEN30
 70
     0
 10
0.0
 20
0.0
 30
0.0
  3
_OPEN30
  1

  0
LINE
  5
272A
  8
0
 62
     0
 10
-1.0
 20
0.26794919
 30
0.0
 11
0.0
 21
0.0
 31
0.0
  0
LINE
  5
272B
  8
0
 62
     0
 10
0.0
 20
0.0
 30
0.0
 11
-1.0
 21
-0.26794919
 31
0.0
  0
LINE
  5
272C
  8
0
 62
     0
 10
0.0
 20
0.0
 30
0.0
 11
-1.0
 21
0.0
 31
0.0
  0
ENDBLK
  5
272D
  8
0
  0
BLOCK
  8
0
  2
_NONE
 70
     0
 10
0.0
 20
0.0
 30
0.0
  3
_NONE
  1

  0
ENDBLK
  5
2730
  8
0
  0
BLOCK
  8
0
  2
*U5
 70
     1
 10
0.0
 20
0.0
 30
0.0
  3
*U5
  1

  0
TEXT
  5
2733
  8
AM_0
 62
     4
 10
799.37791233287032
 20
503.14053253288012
 30
0.0
 40
12.5
  1
o
 41
0.8299999999999999
  0
TEXT
  5
2734
  8
AM_0
 62
     4
 10
811.72910280906081
 20
503.14053253288012
 30
0.0
 40
12.5
  1
 235
 41
0.8299999999999999
  0
ENDBLK
  5
2735
  8
0
  0
BLOCK
  8
0
  2
*U6
 70
     1
 10
0.0
 20
0.0
 30
0.0
  3
*U6
  1

  0
TEXT
  5
2738
  8
AM_0
 62
     4
 10
604.19547179994152
 20
300.9279016407711
 30
0.0
 40
12.5
  1
\U+2205
 50
90.0
 41
0.8299999999999999
  0
TEXT
  5
2739
  8
AM_0
 62
     4
 10
604.19547179994152
 20
311.30290164077121
 30
0.0
 40
12.5
  1
210
 50
90.0
 41
0.8299999999999999
  0
TEXT
  5
273A
  8
AM_0
 62
     4
 10
604.19547179994152
 20
337.24040164077121
 30
0.0
 40
10.0
  1
h7
 50
90.0
 41
0.8299999999999999
  0
ENDBLK
  5
273B
  8
0
  0
BLOCK
  8
0
  2
_ACMFILLEDHALF
 70
     0
 10
0.0
 20
0.0
 30
0.0
  3
_ACMFILLEDHALF
  1

  0
TRACE
  5
2A4F
  8
AM_0
 62
     0
 10
-0.8
 20
0.0
 30
0.0
 11
-1.0
 21
0.166666666
 31
0.0
 12
0.0
 22
0.0
 32
0.0
 13
0.0
 23
0.0
 33
0.0
  0
LINE
  5
2A50
  8
AM_0
 62
     0
 10
-1.0
 20
0.0
 30
0.0
 11
-0.8
 21
0.0
 31
0.0
  0
ENDBLK
  5
2A4E
  8
0
  0
ENDSEC
  0
SECTION
  2
ENTITIES
  0
LINE
  5
273C
  8
ﾁｭｳｼﾝｾﾝ
 10
650.07628364448465
 20
326.00081830743773
 30
0.0
 11
894.55367864448453
 21
326.00081830743773
 31
0.0
  0
ARC
  5
273D
  8
AM_0
 10
678.63139664448431
 20
231.88825330743759
 30
0.0
 40
20.000000700000001
 50
183.00001
 51
267.0
  0
ARC
  5
273E
  8
AM_0
 10
678.63139664448431
 20
420.11337130743749
 30
0.0
 40
20.000000700000001
 50
92.999999000000017
 51
176.99999
  0
LINE
  5
273F
  8
AM_0
 10
316.1340335733783
 20
374.05744330743772
 30
0.0
 11
259.91540057337841
 21
341.59960030743781
 31
0.0
  0
LINE
  5
2740
  8
ﾁｭｳｼﾝｾﾝ
 10
164.94391202549099
 20
298.00081930743772
 30
0.0
 11
359.3437295868145
 21
298.00081930743772
 31
0.0
  0
LINE
  5
2741
  8
AM_0
 10
316.1340335733783
 20
221.94419530743781
 30
0.0
 11
259.91540057337841
 21
254.40203830743789
 31
0.0
  0
LINE
  5
2742
  8
AM_0
 10
215.13403357337839
 20
273.00081930743772
 30
0.0
 11
215.13403357337839
 21
323.00081930743772
 31
0.0
  0
LINE
  5
2743
  8
AM_0
 10
217.13403357337839
 20
262.15552030743788
 30
0.0
 11
217.13403357337839
 21
333.84611830743768
 31
0.0
  0
LINE
  5
2744
  8
AM_0
 10
258.1236455733785
 20
338.00081930743772
 30
0.0
 11
258.1236455733785
 21
258.00081930743772
 31
0.0
  0
LINE
  5
2745
  8
AM_0
 10
225.7942875733782
 20
337.00081930743772
 30
0.0
 11
225.7942875733782
 21
259.00081930743772
 31
0.0
  0
LINE
  5
2746
  8
AM_0
 10
176.13403357337839
 20
310.00081930743772
 30
0.0
 11
212.13403357337839
 21
310.00081930743772
 31
0.0
  0
LINE
  5
2747
  8
AM_0
 10
176.13403357337839
 20
286.00081930743778
 30
0.0
 11
212.13403357337839
 21
286.00081930743778
 31
0.0
  0
LINE
  5
2748
  8
AM_0
 10
176.13403357337839
 20
313.00081930743772
 30
0.0
 11
204.13403357337839
 21
313.00081930743772
 31
0.0
  0
LINE
  5
2749
  8
AM_0
 10
176.13403357337839
 20
310.00081930743772
 30
0.0
 11
176.13403357337839
 21
286.00081930743778
 31
0.0
  0
LINE
  5
274A
  8
AM_0
 10
176.13403357337839
 20
310.00081930743772
 30
0.0
 11
176.13403357337839
 21
313.00081930743772
 31
0.0
  0
LINE
  5
274B
  8
AM_0
 10
204.13403357337839
 20
310.00081930743772
 30
0.0
 11
204.13403357337839
 21
313.00081930743772
 31
0.0
  0
LINE
  5
274C
  8
AM_0
 10
227.86291357337851
 20
255.9647113074378
 30
0.0
 11
256.0550195733785
 21
255.4726163074377
 31
0.0
  0
ARC
  5
274D
  8
AM_0
 10
228.0025325733784
 20
263.96349330743772
 30
0.0
 40
8.0
 50
239.99999999999949
 51
268.99999999999812
  0
LINE
  5
274E
  8
AM_0
 10
218.13403357337839
 20
260.42346930743781
 30
0.0
 11
224.0025325733784
 21
257.03528930743772
 31
0.0
  0
ARC
  5
274F
  8
AM_0
 10
219.13403357337839
 20
262.15552030743788
 30
0.0
 40
2.0
 50
180.0
 51
239.99999999999949
  0
LINE
  5
2750
  8
AM_0
 10
215.13403357337839
 20
273.00081930743772
 30
0.0
 11
217.13403357337839
 21
271.00081930743772
 31
0.0
  0
ARC
  5
2751
  8
AM_0
 10
255.91540057337841
 20
247.47383430743781
 30
0.0
 40
8.0
 50
59.999999999999439
 51
88.999999999998224
  0
LINE
  5
2752
  8
AM_0
 10
212.13403357337839
 20
310.50081930743772
 30
0.0
 11
212.13403357337839
 21
285.50081930743772
 31
0.0
  0
LINE
  5
2753
  8
AM_0
 10
212.13403357337839
 20
285.50081930743772
 30
0.0
 11
215.13403357337839
 21
285.50081930743772
 31
0.0
  0
LINE
  5
2754
  8
AM_0
 10
212.13403357337839
 20
310.50081930743772
 30
0.0
 11
215.13403357337839
 21
310.50081930743772
 31
0.0
  0
LINE
  5
2755
  8
AM_0
 10
227.86291357337851
 20
340.03692730743768
 30
0.0
 11
256.0550195733785
 21
340.5290223074378
 31
0.0
  0
LINE
  5
2756
  8
AM_0
 10
218.13403357337839
 20
335.5781693074378
 30
0.0
 11
224.0025325733784
 21
338.96634930743772
 31
0.0
  0
ARC
  5
2757
  8
AM_0
 10
219.13403357337839
 20
333.84611830743768
 30
0.0
 40
2.0
 50
120.0000000000005
 51
180.0
  0
LINE
  5
2758
  8
AM_0
 10
215.13403357337839
 20
323.00081930743772
 30
0.0
 11
217.13403357337839
 21
325.00081930743772
 31
0.0
  0
ARC
  5
2759
  8
AM_0
 10
228.0025325733784
 20
332.03814530743767
 30
0.0
 40
8.0
 50
91.000000000001705
 51
120.0000000000005
  0
ARC
  5
275A
  8
AM_0
 10
255.91540057337841
 20
348.52780430743769
 30
0.0
 40
8.0
 50
271.00000000000171
 51
300.00000000000051
  0
LINE
  5
275B
  8
ﾁｭｳｼﾝｾﾝ
 10
327.71863816152609
 20
326.00081830743773
 30
0.0
 11
541.41322357337822
 21
326.00081830743773
 31
0.0
  0
LINE
  5
275C
  8
AM_0
 10
538.63402357337816
 20
310.00081930743772
 30
0.0
 11
480.63403357337847
 21
310.00081930743772
 31
0.0
  0
LINE
  5
275D
  8
AM_0
 10
538.63402357337816
 20
342.00083530743768
 30
0.0
 11
480.63403357337847
 21
342.00083530743768
 31
0.0
  0
ARC
  5
275E
  8
AM_0
 10
484.88755357337823
 20
328.30556830743762
 30
0.0
 40
40.000001999999981
 50
174.07597999999999
 51
234.45533999999989
  0
LINE
  5
275F
  8
AM_0
 10
476.63401357337813
 20
208.50081430743771
 30
0.0
 11
476.63401357337813
 21
326.00081830743773
 31
0.0
  0
LINE
  5
2760
  8
AM_0
 10
468.63403357337847
 20
234.6328363074376
 30
0.0
 11
468.63403357337847
 21
326.00081830743773
 31
0.0
  0
LINE
  5
2761
  8
AM_0
 10
363.6340335733783
 20
198.50082130743769
 30
0.0
 11
363.6340335733783
 21
326.00081830743773
 31
0.0
  0
LINE
  5
2762
  8
AM_0
 10
333.6340335733783
 20
383.00081930743772
 30
0.0
 11
333.6340335733783
 21
213.00081930743769
 31
0.0
  0
LINE
  5
2763
  8
AM_0
 10
318.6340335733783
 20
214.00081930743761
 30
0.0
 11
318.6340335733783
 21
395.00081930743761
 31
0.0
  0
LINE
  5
2764
  8
AM_0
 10
353.63401357337801
 20
200.78140030743759
 30
0.0
 11
353.63401357337801
 21
395.2202713074376
 31
0.0
  0
LINE
  5
2765
  8
AM_0
 10
461.63401357337779
 20
297.23655130743771
 30
0.0
 11
461.63401357337779
 21
384.91158130743759
 31
0.0
  0
LINE
  5
2766
  8
AM_0
 10
480.63403357337847
 20
221.00081530743759
 30
0.0
 11
480.63403357337847
 21
431.00082130743772
 31
0.0
  0
LINE
  5
2767
  8
AM_0
 10
363.6340335733783
 20
198.5008153074377
 30
0.0
 11
448.8709335733783
 21
196.26881230743771
 31
0.0
  0
LINE
  5
2768
  8
AM_0
 10
353.63401357337801
 20
217.5830293074377
 30
0.0
 11
459.89755357337799
 21
217.5830293074377
 31
0.0
  0
LINE
  5
2769
  8
AM_0
 10
353.63401357337801
 20
237.62056630743771
 30
0.0
 11
459.89755357337799
 21
237.62056630743771
 31
0.0
  0
LINE
  5
276A
  8
AM_0
 10
332.6340335733783
 20
272.25391330743781
 30
0.0
 11
332.6340335733783
 21
238.08191930743769
 31
0.0
  0
LINE
  5
276B
  8
AM_0
 10
335.63401357337801
 20
266.89037530743758
 30
0.0
 11
335.63401357337801
 21
242.14788130743781
 31
0.0
  0
LINE
  5
276C
  8
AM_0
 10
330.6340335733783
 20
236.08191930743769
 30
0.0
 11
320.6340335733783
 21
236.08191930743769
 31
0.0
  0
LINE
  5
276D
  8
AM_0
 10
332.6340335733783
 20
212.00081930743761
 30
0.0
 11
320.6340335733783
 21
212.00081930743761
 31
0.0
  0
ARC
  5
276E
  8
AM_0
 10
320.6340335733783
 20
214.00081930743761
 30
0.0
 40
2.0
 50
180.0
 51
270.0
  0
ARC
  5
276F
  8
AM_0
 10
313.6340335733783
 20
217.61406830743789
 30
0.0
 40
5.0
 50
0.0
 51
59.999999999999439
  0
ARC
  5
2770
  8
AM_0
 10
320.6340335733783
 20
238.08191930743769
 30
0.0
 40
2.0
 50
180.0
 51
270.0
  0
ARC
  5
2771
  8
AM_0
 10
348.6340335733783
 20
208.97395930743761
 30
0.0
 40
5.0000001000000003
 50
0.0
 51
88.0
  0
LINE
  5
2772
  8
AM_0
 10
355.56427357337822
 20
198.78260530743771
 30
0.0
 11
363.6340335733783
 21
198.50080630743761
 31
0.0
  0
ARC
  5
2773
  8
AM_0
 10
355.63408357337801
 20
200.78140030743759
 30
0.0
 40
2.00000007
 50
179.99998999999991
 51
268.00000999999992
  0
LINE
  5
2774
  8
AM_0
 10
351.6340335733783
 20
232.7294833074377
 30
0.0
 11
343.63408357337801
 21
232.7294833074377
 31
0.0
  0
LINE
  5
2775
  8
AM_0
 10
351.6340335733783
 20
219.7294843074377
 30
0.0
 11
343.63408357337801
 21
219.7294843074377
 31
0.0
  0
LINE
  5
2776
  8
AM_0
 10
335.63401357337801
 20
242.14788130743781
 30
0.0
 11
353.63401357337801
 21
242.14788130743781
 31
0.0
  0
LINE
  5
2777
  8
AM_0
 10
343.63408357337801
 20
232.7294833074377
 30
0.0
 11
343.63408357337801
 21
219.7294843074377
 31
0.0
  0
LINE
  5
2778
  8
AM_0
 10
333.6340335733783
 20
214.50081430743771
 30
0.0
 11
348.80851357337798
 21
213.97090930743761
 31
0.0
  0
LINE
  5
2779
  8
AM_0
 10
332.6340335733783
 20
212.00081930743761
 30
0.0
 11
333.6340335733783
 21
213.00081930743769
 31
0.0
  0
ARC
  5
277A
  8
AM_0
 10
330.6340335733783
 20
238.08191930743769
 30
0.0
 40
2.0
 50
270.0
 51
0.0
  0
LINE
  5
277B
  8
AM_0
 10
351.6340335733783
 20
233.72947030743759
 30
0.0
 11
351.6340335733783
 21
218.72946730743769
 31
0.0
  0
LINE
  5
277C
  8
AM_0
 10
353.63401357337801
 20
218.72946730743769
 30
0.0
 11
351.6340335733783
 21
218.72946730743769
 31
0.0
  0
LINE
  5
277D
  8
AM_0
 10
353.63401357337801
 20
233.72947030743759
 30
0.0
 11
351.6340335733783
 21
233.72947030743759
 31
0.0
  0
LINE
  5
277E
  8
AM_0
 10
320.6340335733783
 20
262.0626813074378
 30
0.0
 11
330.6340335733783
 21
262.0626813074378
 31
0.0
  0
LINE
  5
277F
  8
AM_0
 10
319.6340335733783
 20
272.25391330743781
 30
0.0
 11
331.6340335733783
 21
272.25391330743781
 31
0.0
  0
ARC
  5
2780
  8
AM_0
 10
320.6340335733783
 20
264.0626813074378
 30
0.0
 40
2.0
 50
180.0
 51
270.0
  0
LINE
  5
2781
  8
AM_0
 10
335.63401357337801
 20
266.89037530743758
 30
0.0
 11
353.63401357337801
 21
266.89037530743758
 31
0.0
  0
LINE
  5
2782
  8
AM_0
 10
335.63401357337801
 20
255.13826830743761
 30
0.0
 11
353.63401357337801
 21
255.13826830743761
 31
0.0
  0
ARC
  5
2783
  8
AM_0
 10
330.6340335733783
 20
264.0626813074378
 30
0.0
 40
2.0
 50
270.0
 51
0.0
  0
LINE
  5
2784
  8
AM_0
 10
461.63401357337779
 20
211.08359530743761
 30
0.0
 11
461.63401357337779
 21
261.31156330743772
 31
0.0
  0
ARC
  5
2785
  8
AM_0
 10
464.63401357337813
 20
211.08359530743761
 30
0.0
 40
3.0
 50
179.99998999999991
 51
271.99998999999991
  0
LINE
  5
2786
  8
AM_0
 10
448.8709335733783
 20
196.2688063074375
 30
0.0
 11
469.63402357337822
 21
208.2563833074376
 31
0.0
  0
LINE
  5
2787
  8
AM_0
 10
464.73871357337839
 20
208.0854253074377
 30
0.0
 11
476.63398357337792
 21
208.50081430743771
 31
0.0
  0
LINE
  5
2788
  8
AM_0
 10
476.63401357337813
 20
221.00081530743759
 30
0.0
 11
480.63403357337847
 21
221.00081530743759
 31
0.0
  0
LINE
  5
2789
  8
AM_0
 10
463.91857357337801
 20
231.57109930743769
 30
0.0
 11
465.73870357337819
 21
231.63466630743761
 31
0.0
  0
ARC
  5
278A
  8
AM_0
 10
465.63403357337842
 20
234.6328363074376
 30
0.0
 40
3.0
 50
272.0
 51
0.0
  0
ARC
  5
278B
  8
AM_0
 10
464.63401357337813
 20
261.31156330743772
 30
0.0
 40
3.0
 50
90.000003000000007
 51
180.00001
  0
LINE
  5
278C
  8
AM_0
 10
464.63401357337813
 20
264.31156330743772
 30
0.0
 11
468.63403357337847
 21
264.31156330743772
 31
0.0
  0
ARC
  5
278D
  8
AM_0
 10
464.63401357337813
 20
297.23655130743771
 30
0.0
 40
3.0
 50
179.99998999999991
 51
270.0
  0
LINE
  5
278E
  8
AM_0
 10
464.63401357337813
 20
294.23655130743771
 30
0.0
 11
468.63403357337847
 21
294.23655130743771
 31
0.0
  0
LINE
  5
278F
  8
AM_0
 10
353.63401357337801
 20
377.20524130743757
 30
0.0
 11
448.6275435733782
 21
377.20524130743757
 31
0.0
  0
LINE
  5
2790
  8
AM_0
 10
363.6340335733783
 20
397.50084130743761
 30
0.0
 11
422.73988357337839
 21
399.04857130743761
 31
0.0
  0
LINE
  5
2791
  8
AM_0
 10
342.6340335733783
 20
382.78080130743763
 30
0.0
 11
342.6340335733783
 21
395.00079130743768
 31
0.0
  0
LINE
  5
2792
  8
AM_0
 10
332.6340335733783
 20
381.93637630743768
 30
0.0
 11
332.6340335733783
 21
395.00081930743761
 31
0.0
  0
LINE
  5
2793
  8
AM_0
 10
335.63401357337801
 20
381.57066130743772
 30
0.0
 11
335.63401357337801
 21
397.0008013074376
 31
0.0
  0
LINE
  5
2794
  8
AM_0
 10
363.6340335733783
 20
397.50084130743761
 30
0.0
 11
363.6340335733783
 21
326.00081830743773
 31
0.0
  0
LINE
  5
2795
  8
AM_0
 10
331.6340335733783
 20
381.93637630743768
 30
0.0
 11
319.6340335733783
 21
381.93637630743768
 31
0.0
  0
ARC
  5
2796
  8
AM_0
 10
313.6340335733783
 20
378.38757030743761
 30
0.0
 40
5.0
 50
300.00000000000051
 51
0.0
  0
LINE
  5
2797
  8
AM_0
 10
351.6340335733783
 20
376.27213630743768
 30
0.0
 11
343.63408357337801
 21
376.27213630743768
 31
0.0
  0
ARC
  5
2798
  8
AM_0
 10
348.6340335733783
 20
387.0276613074376
 30
0.0
 40
5.0000001000000003
 50
272.0
 51
0.0
  0
LINE
  5
2799
  8
AM_0
 10
351.6340335733783
 20
363.2721673074376
 30
0.0
 11
343.63408357337801
 21
363.2721673074376
 31
0.0
  0
LINE
  5
279A
  8
AM_0
 10
343.63408357337801
 20
363.2721673074376
 30
0.0
 11
343.63408357337801
 21
376.27213630743768
 31
0.0
  0
LINE
  5
279B
  8
AM_0
 10
335.63401357337801
 20
381.57069130743758
 30
0.0
 11
348.8084535733783
 21
382.03074130743761
 31
0.0
  0
LINE
  5
279C
  8
AM_0
 10
332.6340335733783
 20
384.00081930743761
 30
0.0
 11
333.6340335733783
 21
383.00081930743761
 31
0.0
  0
LINE
  5
279D
  8
AM_0
 10
333.633973573378
 20
381.5008213074376
 30
0.0
 11
335.63401357337801
 21
381.57069130743758
 31
0.0
  0
ARC
  5
279E
  8
AM_0
 10
341.63401357337801
 20
382.78080130743763
 30
0.0
 40
1.0000000199999981
 50
272.0
 51
0.0
  0
LINE
  5
279F
  8
AM_0
 10
351.6340335733783
 20
362.2721683074376
 30
0.0
 11
351.6340335733783
 21
377.2721683074376
 31
0.0
  0
LINE
  5
27A0
  8
AM_0
 10
353.63401357337801
 20
362.2721683074376
 30
0.0
 11
351.6340335733783
 21
362.2721683074376
 31
0.0
  0
LINE
  5
27A1
  8
AM_0
 10
353.63401357337801
 20
377.2721683074376
 30
0.0
 11
351.6340335733783
 21
377.2721683074376
 31
0.0
  0
LINE
  5
27A2
  8
AM_0
 10
320.6340335733783
 20
397.00081930743761
 30
0.0
 11
330.6340335733783
 21
397.00081930743761
 31
0.0
  0
ARC
  5
27A3
  8
AM_0
 10
320.6340335733783
 20
395.00081930743761
 30
0.0
 40
2.0
 50
90.0
 51
180.0
  0
ARC
  5
27A4
  8
AM_0
 10
351.6340335733783
 20
412.00080130743748
 30
0.0
 40
16.299997799999989
 50
304.10957000000002
 51
235.89042000000001
  0
LINE
  5
27A5
  8
AM_0
 10
345.50779357337791
 20
400.1611813074378
 30
0.0
 11
351.6340335733783
 21
402.00081130743769
 31
0.0
  0
LINE
  5
27A6
  8
AM_0
 10
342.6340335733783
 20
395.00079130743768
 30
0.0
 11
353.63401357337801
 21
395.00079130743768
 31
0.0
  0
CIRCLE
  5
27A7
  8
AM_0
 10
351.6340335733783
 20
412.00080130743748
 30
0.0
 40
9.9999992999999971
  0
LINE
  5
27A8
  8
AM_0
 10
335.63401357337801
 20
397.0008013074376
 30
0.0
 11
343.64044357337832
 21
397.0008013074376
 31
0.0
  0
ARC
  5
27A9
  8
AM_0
 10
330.6340335733783
 20
395.00081930743761
 30
0.0
 40
2.0
 50
0.0
 51
90.0
  0
LINE
  5
27AA
  8
AM_0
 10
343.63402357337822
 20
395.00082130743772
 30
0.0
 11
344.82946357337818
 21
399.46227130743762
 31
0.0
  0
ARC
  5
27AB
  8
AM_0
 10
340.80301357337828
 20
396.02646130743761
 30
0.0
 40
3.0
 50
345.0
 51
55.861736999999991
  0
ARC
  5
27AC
  8
AM_0
 10
345.79540357337822
 20
399.2034313074376
 30
0.0
 40
1.0000000199999981
 50
106.7144199999999
 51
164.99999
  0
LINE
  5
27AD
  8
AM_0
 10
355.56418357337822
 20
397.21905130743761
 30
0.0
 11
363.633973573378
 21
397.50084130743761
 31
0.0
  0
LINE
  5
27AE
  8
AM_0
 10
359.0074335733778
 20
397.33923130743761
 30
0.0
 11
358.39801357337808
 21
399.61383130743758
 31
0.0
  0
ARC
  5
27AF
  8
AM_0
 10
355.63408357337801
 20
395.2202713074376
 30
0.0
 40
2.00000007
 50
91.999997999999948
 51
109.0653999999999
  0
ARC
  5
27B0
  8
AM_0
 10
362.46502357337829
 20
396.02646130743761
 30
0.0
 40
3.0
 50
124.13826
 51
153.47471999999991
  0
ARC
  5
27B1
  8
AM_0
 10
357.43204357337783
 20
399.35499130743767
 30
0.0
 40
1.0000000199999981
 50
15.0
 51
74.498793000000006
  0
ARC
  5
27B2
  8
AM_0
 10
355.63408357337801
 20
395.2202713074376
 30
0.0
 40
2.00000007
 50
109.0653999999999
 51
180.00001
  0
LINE
  5
27B3
  8
AM_0
 10
351.6340335733783
 20
402.00084130743772
 30
0.0
 11
357.69934357337843
 21
400.31865130743768
 31
0.0
  0
ARC
  5
27B4
  8
AM_0
 10
428.63401357337779
 20
377.20524130743757
 30
0.0
 40
21.000000600000011
 50
354.07597999999979
 51
80.875524999999996
  0
LINE
  5
27B5
  8
AM_0
 10
461.63401357337779
 20
384.91158130743759
 30
0.0
 11
461.63401357337779
 21
440.07993130743768
 31
0.0
  0
LINE
  5
27B6
  8
AM_0
 10
468.63403357337847
 20
326.00081830743773
 30
0.0
 11
468.63403357337847
 21
416.60055130743763
 31
0.0
  0
LINE
  5
27B7
  8
AM_0
 10
476.63401357337813
 20
326.00081830743773
 30
0.0
 11
476.63401357337813
 21
443.5008013074376
 31
0.0
  0
LINE
  5
27B8
  8
AM_0
 10
449.52187357337817
 20
375.03785230743767
 30
0.0
 11
445.10116357337841
 21
332.43395530743783
 31
0.0
  0
ARC
  5
27B9
  8
AM_0
 10
464.63401357337813
 20
384.91158130743759
 30
0.0
 40
3.0
 50
179.99998999999991
 51
270.0
  0
LINE
  5
27BA
  8
AM_0
 10
464.63401357337813
 20
381.91158130743759
 30
0.0
 11
468.63403357337847
 21
381.91158130743759
 31
0.0
  0
LINE
  5
27BB
  8
AM_0
 10
426.14452357337808
 20
400.51131130743772
 30
0.0
 11
461.63404357337822
 21
436.00080130743748
 31
0.0
  0
LINE
  5
27BC
  8
AM_0
 10
424.73398357337811
 20
399.10077130743758
 30
0.0
 11
431.964193573378
 21
397.93953130743768
 31
0.0
  0
ARC
  5
27BD
  8
AM_0
 10
422.60899357337797
 20
404.04687130743758
 30
0.0
 40
5.0000001000000003
 50
271.49999999999972
 51
315.0
  0
LINE
  5
27BE
  8
AM_0
 10
465.34945357337801
 20
419.59245130743761
 30
0.0
 11
465.5293335733781
 21
419.59872130743798
 31
0.0
  0
ARC
  5
27BF
  8
AM_0
 10
465.63403357337842
 20
416.60055130743763
 30
0.0
 40
3.0
 50
0.0
 51
91.999997999999948
  0
ARC
  5
27C0
  8
AM_0
 10
464.63401357337813
 20
440.07993130743768
 30
0.0
 40
3.0
 50
91.999997999999948
 51
180.00001
  0
LINE
  5
27C1
  8
AM_0
 10
464.5293135733782
 20
443.07807130743748
 30
0.0
 11
476.63398357337792
 21
443.50077130743767
 31
0.0
  0
LINE
  5
27C2
  8
AM_0
 10
476.63401357337813
 20
431.00082130743772
 30
0.0
 11
480.63403357337847
 21
431.00082130743772
 31
0.0
  0
LINE
  5
27C3
  8
AM_0
 10
655.24394564448448
 20
326.00081830743773
 30
0.0
 11
655.24394564448448
 21
296.00081830743773
 31
0.0
  0
LINE
  5
27C4
  8
AM_0
 10
538.63402357337816
 20
310.00081930743772
 30
0.0
 11
538.63402357337816
 21
345.00083530743751
 31
0.0
  0
LINE
  5
27C5
  8
AM_0
 10
655.24394564448448
 20
296.00081830743773
 30
0.0
 11
658.65877064448443
 21
230.8415443074378
 31
0.0
  0
LINE
  5
27C6
  8
AM_0
 10
538.63402357337816
 20
345.00083530743751
 30
0.0
 11
493.63405357337791
 21
345.00083530743751
 31
0.0
  0
LINE
  5
27C7
  8
AM_0
 10
493.63405357337791
 20
342.00083530743768
 30
0.0
 11
493.63405357337791
 21
345.00083530743751
 31
0.0
  0
LINE
  5
27C8
  8
AM_0
 10
655.24394564448448
 20
356.00080330743759
 30
0.0
 11
658.65880364448435
 21
421.16007130743759
 31
0.0
  0
LINE
  5
27C9
  8
AM_0
 10
655.24394564448448
 20
326.00081830743773
 30
0.0
 11
655.24394564448448
 21
356.00080330743759
 31
0.0
  0
ARC
  5
27CA
  8
AM_0
 10
866.85650264448429
 20
420.11337130743749
 30
0.0
 40
20.000000700000001
 50
3.0000000999999981
 51
86.999998999999988
  0
ARC
  5
27CB
  8
AM_0
 10
866.85650264448429
 20
231.88825330743759
 30
0.0
 40
20.000000700000001
 50
273.0
 51
357.0
  0
ARC
  5
27CC
  8
AM_0
 10
772.74393464448394
 20
298.00081930743772
 30
0.0
 40
93.500003999999976
 50
356.99212
 51
17.853213
  0
LINE
  5
27CD
  8
AM_0
 10
820.74393464448394
 20
326.00081830743773
 30
0.0
 11
820.74393464448394
 21
288.00083230743769
 31
0.0
  0
ARC
  5
27CE
  8
AM_0
 10
772.74393464448394
 20
298.00081930743772
 30
0.0
 40
93.500003999999976
 50
162.14678999999981
 51
183.00788
  0
LINE
  5
27CF
  8
AM_0
 10
724.74393164448395
 20
326.00081830743773
 30
0.0
 11
724.74393164448395
 21
288.00083230743769
 31
0.0
  0
ARC
  5
27D0
  8
AM_0
 10
772.74393464448394
 20
326.00081830743773
 30
0.0
 40
16.000000499999999
 50
108.20996
 51
71.790052000000003
  0
ARC
  5
27D1
  8
AM_0
 10
772.74393464448394
 20
326.00081830743773
 30
0.0
 40
16.000000499999999
 50
108.20996
 51
71.790052000000003
  0
CIRCLE
  5
27D2
  8
AM_0
 10
772.74393464448394
 20
326.00081830743773
 30
0.0
 40
29.000001000000001
  0
LINE
  5
27D3
  8
ﾁｭｳｼﾝｾﾝ
 10
772.74393464448394
 20
193.23008530743769
 30
0.0
 11
772.74393464448394
 21
447.24759629772831
 31
0.0
  0
CIRCLE
  5
27D4
  8
AM_0
 10
772.74393464448394
 20
326.00081830743773
 30
0.0
 40
105.00000299999979
  0
CIRCLE
  5
27D5
  8
AM_0
 10
772.74393464448394
 20
326.00081830743773
 30
0.0
 40
99.000003000000021
  0
LINE
  5
27D6
  8
AM_0
 10
772.74393464448394
 20
208.50081430743771
 30
0.0
 11
742.7439346444844
 21
208.50081430743771
 31
0.0
  0
LINE
  5
27D7
  8
ﾁｭｳｼﾝｾﾝ
 10
714.45097253684798
 20
298.00081930743772
 30
0.0
 11
831.03689393739012
 21
298.00081930743772
 31
0.0
  0
ARC
  5
27D8
  8
AM_0
 10
772.74393464448394
 20
298.00081930743772
 30
0.0
 40
99.500004000000004
 50
242.88566
 51
297.11435
  0
LINE
  5
27D9
  8
AM_0
 10
742.7439346444844
 20
208.50081430743771
 30
0.0
 11
677.58467564448438
 21
211.91567230743769
 31
0.0
  0
ARC
  5
27DA
  8
ﾁｭｳｼﾝｾﾝ1
 10
772.74393464448394
 20
326.00081830743773
 30
0.0
 40
135.00000299999991
 50
218.36838999999981
 51
232.25635
  0
CIRCLE
  5
27DB
  8
AM_0
 10
677.28453464448444
 20
230.54140330743769
 30
0.0
 40
7.5000002999999982
  0
LINE
  5
27DC
  8
ﾁｭｳｼﾝｾﾝ1
 10
688.29196048902145
 20
241.6057991540203
 30
0.0
 11
667.15482605921079
 21
220.41170972216409
 31
0.0
  0
LINE
  5
27DD
  8
AM_0
 10
719.74394864448459
 20
283.00081630743767
 30
0.0
 11
686.76720164448443
 21
283.00081630743767
 31
0.0
  0
ARC
  5
27DE
  8
AM_0
 10
686.76720164448443
 20
288.00083230743769
 30
0.0
 40
5.0000001000000003
 50
203.8444699999998
 51
270.0
  0
ARC
  5
27DF
  8
AM_0
 10
719.74394864448459
 20
288.00083230743769
 30
0.0
 40
5.0000001000000003
 50
270.0
 51
0.0
  0
LINE
  5
27E0
  8
AM_0
 10
802.74393464448406
 20
208.50081430743771
 30
0.0
 11
867.90322364448446
 21
211.9156573074377
 31
0.0
  0
LINE
  5
27E1
  8
AM_0
 10
772.74393464448394
 20
208.50081430743771
 30
0.0
 11
802.74393464448406
 21
208.50081430743771
 31
0.0
  0
CIRCLE
  5
27E2
  8
AM_0
 10
868.20336464448394
 20
230.54140330743769
 30
0.0
 40
7.5000002999999982
  0
LINE
  5
27E3
  8
AM_0
 10
825.74394464448415
 20
283.00081630743767
 30
0.0
 11
858.7206916444843
 21
283.00081630743767
 31
0.0
  0
ARC
  5
27E4
  8
AM_0
 10
825.74394464448415
 20
288.00083230743769
 30
0.0
 40
5.0000001000000003
 50
179.99998999999991
 51
270.0
  0
ARC
  5
27E5
  8
AM_0
 10
858.7206916444843
 20
288.00083230743769
 30
0.0
 40
5.0000001000000003
 50
270.0
 51
336.15553
  0
LINE
  5
27E6
  8
AM_0
 10
772.74393464448394
 20
443.5008013074376
 30
0.0
 11
742.7439346444844
 21
443.5008013074376
 31
0.0
  0
LINE
  5
27E7
  8
AM_0
 10
767.7439336444844
 20
345.00083530743751
 30
0.0
 11
777.74393564448394
 21
345.00083530743751
 31
0.0
  0
LINE
  5
27E8
  8
AM_0
 10
767.7439336444844
 20
337.0008043074377
 30
0.0
 11
777.74393564448394
 21
337.0008043074377
 31
0.0
  0
ARC
  5
27E9
  8
AM_0
 10
772.74393464448394
 20
326.00081830743773
 30
0.0
 40
48.0
 50
54.77685000000001
 51
125.22314
  0
CIRCLE
  5
27EA
  8
AM_5
 10
772.74393464448394
 20
326.00081830743773
 30
0.0
 40
4.000000199999997
  0
CIRCLE
  5
27EB
  8
AM_0
 10
772.74393464448394
 20
326.00081830743773
 30
0.0
 40
2.75000007
  0
ARC
  5
27EC
  8
AM_0
 10
700.21730564448455
 20
385.79955130743753
 30
0.0
 40
5.0000001000000003
 50
45.00000099999999
 51
140.49418
  0
LINE
  5
27ED
  8
AM_0
 10
738.63999164448455
 20
365.76163930743769
 30
0.0
 11
709.40968964448439
 21
394.99191130743759
 31
0.0
  0
LINE
  5
27EE
  8
AM_0
 10
732.98314664448435
 20
360.1047793074377
 30
0.0
 11
703.75284464448441
 21
389.3350513074376
 31
0.0
  0
ARC
  5
27EF
  8
AM_0
 10
772.74393464448394
 20
298.00081930743772
 30
0.0
 40
99.500004000000004
 50
125.86368999999991
 51
150.26975999999991
  0
ARC
  5
27F0
  8
AM_0
 10
772.74393464448394
 20
326.00081830743773
 30
0.0
 40
89.000003999999961
 50
166.12423000000001
 51
179.57176999999999
  0
ARC
  5
27F1
  8
AM_0
 10
729.44762264448445
 20
356.56922530743782
 30
0.0
 40
5.0000001000000003
 50
324.77685000000002
 51
45.00000099999999
  0
ARC
  5
27F2
  8
AM_0
 10
772.74393464448394
 20
326.00081830743773
 30
0.0
 40
48.0
 50
144.77683999999991
 51
180.00001
  0
LINE
  5
27F3
  8
AM_0
 10
767.7439336444844
 20
337.0008043074377
 30
0.0
 11
767.7439336444844
 21
345.00083530743751
 31
0.0
  0
ARC
  5
27F4
  8
AM_0
 10
742.17552764448453
 20
369.29716030743759
 30
0.0
 40
5.0000001000000003
 50
225.0
 51
305.22314999999992
  0
LINE
  5
27F5
  8
AM_0
 10
742.7439346444844
 20
443.5008013074376
 30
0.0
 11
677.58467564448438
 21
440.0859613074378
 31
0.0
  0
CIRCLE
  5
27F6
  8
AM_0
 10
677.28453464448444
 20
421.4602513074376
 30
0.0
 40
7.5000002999999982
  0
ARC
  5
27F7
  8
AM_0
 10
712.94521064448406
 20
398.52744130743758
 30
0.0
 40
5.0000001000000003
 50
129.5058199999998
 51
225.0
  0
ARC
  5
27F8
  8
AM_0
 10
766.7439346444844
 20
406.51554130743767
 30
0.0
 40
3.0
 50
0.0
 51
90.000003000000007
  0
ARC
  5
27F9
  8
AM_0
 10
772.74393464448394
 20
298.00081930743772
 30
0.0
 40
99.500004000000004
 50
93.355817999999985
 51
121.1615
  0
ARC
  5
27FA
  8
AM_0
 10
766.7439346444844
 20
400.32504130743757
 30
0.0
 40
3.0
 50
273.35581999999999
 51
0.0
  0
LINE
  5
27FB
  8
AM_0
 10
769.7439346444844
 20
406.51554130743767
 30
0.0
 11
769.7439346444844
 21
400.32504130743757
 31
0.0
  0
LINE
  5
27FC
  8
AM_0
 10
806.84787764448447
 20
365.76163930743769
 30
0.0
 11
836.0781886444845
 21
394.99191130743759
 31
0.0
  0
ARC
  5
27FD
  8
AM_0
 10
845.27058464448385
 20
385.79955130743753
 30
0.0
 40
5.0000001000000003
 50
39.505817999999998
 51
135.0
  0
ARC
  5
27FE
  8
AM_0
 10
772.74393464448394
 20
298.00081930743772
 30
0.0
 40
99.500004000000004
 50
58.838493999999997
 51
86.644180000000006
  0
LINE
  5
27FF
  8
AM_0
 10
812.50474664448382
 20
360.10474630743761
 30
0.0
 11
841.73505464448453
 21
389.3350513074376
 31
0.0
  0
ARC
  5
2800
  8
AM_0
 10
816.0402676444844
 20
356.56922530743782
 30
0.0
 40
5.0000001000000003
 50
135.0
 51
215.22315
  0
ARC
  5
2801
  8
AM_0
 10
772.74393464448394
 20
326.00081830743773
 30
0.0
 40
48.0
 50
0.0
 51
35.223151999999992
  0
LINE
  5
2802
  8
AM_0
 10
777.74393564448394
 20
337.0008043074377
 30
0.0
 11
777.74393564448394
 21
345.00083530743751
 31
0.0
  0
ARC
  5
2803
  8
AM_0
 10
803.31234164448415
 20
369.29716030743759
 30
0.0
 40
5.0000001000000003
 50
234.77686
 51
315.0
  0
ARC
  5
2804
  8
AM_0
 10
772.74393464448394
 20
298.00081930743772
 30
0.0
 40
99.500004000000004
 50
29.730242999999991
 51
54.136312000000011
  0
ARC
  5
2805
  8
AM_0
 10
772.74393464448394
 20
326.00081830743773
 30
0.0
 40
89.000003999999961
 50
0.42822786
 51
13.875764
  0
LINE
  5
2806
  8
AM_0
 10
802.74394964448447
 20
443.5008013074376
 30
0.0
 11
867.90321464448414
 21
440.0859613074378
 31
0.0
  0
ARC
  5
2807
  8
AM_0
 10
778.7439346444844
 20
406.51554130743767
 30
0.0
 40
3.0
 50
90.000003000000007
 51
180.00001
  0
ARC
  5
2808
  8
AM_0
 10
778.7439346444844
 20
400.32504130743757
 30
0.0
 40
3.0
 50
179.99998999999991
 51
266.64418999999992
  0
LINE
  5
2809
  8
AM_0
 10
775.7439346444844
 20
406.51554130743767
 30
0.0
 11
775.7439346444844
 21
400.32504130743757
 31
0.0
  0
LINE
  5
280A
  8
AM_0
 10
772.74393464448394
 20
443.5008013074376
 30
0.0
 11
802.74393464448406
 21
443.5008013074376
 31
0.0
  0
ARC
  5
280B
  8
ﾁｭｳｼﾝｾﾝ1
 10
772.74393464448394
 20
326.00081830743773
 30
0.0
 40
135.00000299999991
 50
38.36839299999999
 51
52.256346000000022
  0
LINE
  5
280C
  8
ﾁｭｳｼﾝｾﾝ1
 10
857.46561346693534
 20
410.72247715700672
 30
0.0
 11
878.55324700861934
 21
431.8101198842046
 31
0.0
  0
CIRCLE
  5
280D
  8
AM_0
 10
868.20336464448394
 20
421.4602513074376
 30
0.0
 40
7.5000002999999982
  0
ARC
  5
280E
  8
AM_0
 10
832.54265864448439
 20
398.52744130743758
 30
0.0
 40
5.0000001000000003
 50
315.0
 51
50.494182000000002
  0
LINE
  5
280F
  8
AM_0
 10
890.24394164448449
 20
326.00081830743773
 30
0.0
 11
890.24394164448449
 21
296.00081830743773
 31
0.0
  0
LINE
  5
2810
  8
AM_0
 10
890.24394164448449
 20
296.00081830743773
 30
0.0
 11
886.82908664448439
 21
230.8415443074378
 31
0.0
  0
LINE
  5
2811
  8
AM_0
 10
890.24394464448415
 20
356.00080330743759
 30
0.0
 11
886.82908964448416
 21
421.16007130743759
 31
0.0
  0
LINE
  5
2812
  8
AM_0
 10
890.24394164448449
 20
326.00081830743773
 30
0.0
 11
890.24394164448449
 21
356.00080330743759
 31
0.0
  0
ARC
  5
2813
  8
ﾁｭｳｼﾝｾﾝ1
 10
772.74393464448394
 20
326.00081830743773
 30
0.0
 40
135.00000299999991
 50
127.74365399999991
 51
141.6316069999998
  0
LINE
  5
2814
  8
ﾁｭｳｼﾝｾﾝ1
 10
688.02225582203323
 20
410.72247715700672
 30
0.0
 11
666.93462228034923
 21
431.8101198842046
 31
0.0
  0
ARC
  5
2815
  8
ﾁｭｳｼﾝｾﾝ1
 10
772.74393464448394
 20
326.00081830743773
 30
0.0
 40
135.00000299999991
 50
307.74364999999972
 51
321.63161000000002
  0
LINE
  5
2816
  8
ﾁｭｳｼﾝｾﾝ1
 10
857.19590879994723
 20
241.6057991540203
 30
0.0
 11
878.333043229758
 21
220.41170972216409
 31
0.0
  0
LINE
  5
2817
  8
AM_0
 10
493.63399357337818
 20
646.22793345860248
 30
0.0
 11
538.63402357337816
 21
646.22793345860248
 31
0.0
  0
LINE
  5
2818
  8
AM_0
 10
493.63399357337818
 20
656.22793345860225
 30
0.0
 11
538.63402357337816
 21
656.22793345860225
 31
0.0
  0
LINE
  5
2819
  8
AM_0
 10
538.63402357337816
 20
635.22793345860237
 30
0.0
 11
480.63399357337818
 21
635.22793345860237
 31
0.0
  0
LINE
  5
281A
  8
AM_0
 10
538.63402357337816
 20
667.22793345860248
 30
0.0
 11
480.63399357337818
 21
667.22793345860248
 31
0.0
  0
LINE
  5
281B
  8
ﾁｭｳｼﾝｾﾝ
 10
164.94391202549099
 20
651.22793345860248
 30
0.0
 11
550.01348357337815
 21
651.22793345860248
 31
0.0
  0
POLYLINE
  5
281C
  8
AM_0
 66
     1
 10
0.0
 20
0.0
 30
0.0
  0
VERTEX
  5
281D
  8
AM_0
 10
454.30010357337829
 20
753.89406345860243
 30
0.0
 42
0.07982674
  0
VERTEX
  5
281E
  8
AM_0
 10
428.45827357337822
 20
686.98761345860225
 30
0.0
 42
0.10414855
  0
VERTEX
  5
281F
  8
AM_0
 10
428.4583435733781
 20
615.46788345860227
 30
0.0
 42
0.07982627
  0
VERTEX
  5
2820
  8
AM_0
 10
454.30010357337829
 20
548.56179345860255
 30
0.0
  0
SEQEND
  5
2821
  8
AM_0
  0
ARC
  5
2822
  8
AM_0
 10
493.63399357337818
 20
651.22793345860248
 30
0.0
 40
5.0
 50
90.00000299999769
 51
270.0
  0
ARC
  5
2823
  8
AM_0
 10
351.63396357337831
 20
639.22793345860237
 30
0.0
 40
8.0
 50
23.18801899999854
 51
156.8119800000035
  0
ARC
  5
2824
  8
AM_0
 10
351.63396357337831
 20
639.22793345860237
 30
0.0
 40
9.0
 50
94.780191999998834
 51
159.51269999999971
  0
LINE
  5
2825
  8
AM_0
 10
493.63399357337818
 20
656.22793345860225
 30
0.0
 11
493.63399357337818
 21
646.22793345860248
 31
0.0
  0
LINE
  5
2826
  8
AM_0
 10
461.63399357337818
 20
537.1488034586024
 30
0.0
 11
461.63399357337818
 21
765.3070334586024
 31
0.0
  0
LINE
  5
2827
  8
AM_0
 10
468.63399357337818
 20
560.62820345860246
 30
0.0
 11
468.63399357337818
 21
741.8276634586025
 31
0.0
  0
LINE
  5
2828
  8
AM_0
 10
476.63399357337818
 20
533.72793345860248
 30
0.0
 11
476.63399357337818
 21
768.72793345860225
 31
0.0
  0
LINE
  5
2829
  8
AM_0
 10
480.63399357337818
 20
546.22790345860233
 30
0.0
 11
480.63399357337818
 21
756.22793345860225
 31
0.0
  0
LINE
  5
282A
  8
AM_0
 10
363.63396357337831
 20
642.37795345860241
 30
0.0
 11
363.63396357337831
 21
750.72793345860248
 31
0.0
  0
LINE
  5
282B
  8
AM_0
 10
335.63396357337831
 20
643.72591345860246
 30
0.0
 11
335.63396357337831
 21
662.19369345860252
 31
0.0
  0
LINE
  5
282C
  8
AM_0
 10
333.63396357337831
 20
565.47791845860252
 30
0.0
 11
333.63396357337831
 21
735.4779184586024
 31
0.0
  0
LINE
  5
282D
  8
AM_0
 10
338.4839435733781
 20
642.37795345860241
 30
0.0
 11
364.78393357337808
 21
642.37795345860241
 31
0.0
  0
LINE
  5
282E
  8
AM_0
 10
338.4839435733781
 20
636.07790345860235
 30
0.0
 11
364.78393357337808
 21
636.07790345860235
 31
0.0
  0
LINE
  5
282F
  8
ﾁｭｳｼﾝｾﾝ
 10
334.25426357337813
 20
639.22793345860237
 30
0.0
 11
369.55254357337822
 21
639.22793345860237
 31
0.0
  0
LINE
  5
2830
  8
AM_0
 10
356.52929357337808
 20
551.97604345860225
 30
0.0
 11
363.63390357337829
 21
551.72793345860237
 31
0.0
  0
LINE
  5
2831
  8
AM_0
 10
353.63396357337831
 20
554.97420345860235
 30
0.0
 11
353.63396357337831
 21
627.26968345860246
 31
0.0
  0
LINE
  5
2832
  8
AM_0
 10
333.63396357337831
 20
567.72793345860248
 30
0.0
 11
348.80846357337822
 21
567.19802345860228
 31
0.0
  0
ARC
  5
2833
  8
AM_0
 10
356.63396357337831
 20
554.97420345860235
 30
0.0
 40
3.0
 50
180.00001000000091
 51
267.99999999999631
  0
ARC
  5
2834
  8
AM_0
 10
348.63396357337831
 20
562.20107345860242
 30
0.0
 40
5.0
 50
0.0
 51
87.999999999996248
  0
ARC
  5
2835
  8
AM_0
 10
351.63396357337831
 20
639.22793345860237
 30
0.0
 40
9.0
 50
200.4873
 51
265.21980000000372
  0
ARC
  5
2836
  8
AM_0
 10
342.18328357337828
 20
642.49660345860252
 30
0.0
 40
1.0
 50
353.18505000000079
 51
87.999999999996248
  0
ARC
  5
2837
  8
AM_0
 10
338.4839435733781
 20
639.22793345860237
 30
0.0
 40
3.1499977000000001
 50
90.00000299999769
 51
270.0
  0
LINE
  5
2838
  8
AM_0
 10
335.63396357337831
 20
643.72591345860246
 30
0.0
 11
342.21819357337819
 21
643.49599345860236
 31
0.0
  0
ARC
  5
2839
  8
AM_0
 10
351.63396357337831
 20
639.22793345860237
 30
0.0
 40
8.0
 50
203.18801999999641
 51
336.81196999999531
  0
ARC
  5
283A
  8
AM_0
 10
350.63396357337831
 20
627.26968345860246
 30
0.0
 40
3.0
 50
0.0
 51
85.219805999998442
  0
LINE
  5
283B
  8
AM_0
 10
455.69280357337828
 20
547.16912345860248
 30
0.0
 11
461.6340235733781
 21
541.22790345860233
 31
0.0
  0
ARC
  5
283C
  8
AM_0
 10
464.63399357337818
 20
537.1488034586024
 30
0.0
 40
3.0
 50
179.9999899999988
 51
268.00000999999861
  0
LINE
  5
283D
  8
AM_0
 10
464.52932357337829
 20
534.15063345860233
 30
0.0
 11
476.63399357337818
 21
533.72793345860248
 31
0.0
  0
LINE
  5
283E
  8
AM_0
 10
363.63402357337822
 20
551.72793345860237
 30
0.0
 11
452.33178357337829
 21
548.63055345860232
 31
0.0
  0
LINE
  5
283F
  8
AM_0
 10
363.63396357337831
 20
551.72793345860237
 30
0.0
 11
363.63396357337831
 21
636.07790345860235
 31
0.0
  0
ARC
  5
2840
  8
AM_0
 10
364.78393357337808
 20
639.22793345860237
 30
0.0
 40
3.1499977000000001
 50
270.0
 51
90.00000299999769
  0
ARC
  5
2841
  8
AM_0
 10
464.63399357337818
 20
592.31719345860245
 30
0.0
 40
3.0
 50
90.00000299999769
 51
180.00001000000091
  0
ARC
  5
2842
  8
AM_0
 10
452.15725357337823
 20
543.63357345860265
 30
0.0
 40
5.0
 50
45.000001000003799
 51
87.999999999996248
  0
LINE
  5
2843
  8
AM_0
 10
476.63399357337818
 20
546.22790345860233
 30
0.0
 11
480.63399357337818
 21
546.22790345860233
 31
0.0
  0
ARC
  5
2844
  8
AM_0
 10
465.63399357337818
 20
560.62820345860246
 30
0.0
 40
3.0
 50
267.99999999999631
 51
0.0
  0
LINE
  5
2845
  8
AM_0
 10
465.34945357337818
 20
557.63631345860233
 30
0.0
 11
465.52932357337829
 21
557.63003345860216
 31
0.0
  0
LINE
  5
2846
  8
AM_0
 10
464.63399357337818
 20
595.31719345860245
 30
0.0
 11
468.63399357337818
 21
595.31719345860245
 31
0.0
  0
LINE
  5
2847
  8
AM_0
 10
356.52929357337808
 20
750.47982345860248
 30
0.0
 11
363.63396357337831
 21
750.72793345860248
 31
0.0
  0
ARC
  5
2848
  8
AM_0
 10
356.63396357337831
 20
747.48165345860241
 30
0.0
 40
3.0
 50
91.999998000000545
 51
180.00001000000091
  0
LINE
  5
2849
  8
AM_0
 10
353.63396357337831
 20
651.18618345860227
 30
0.0
 11
353.63396357337831
 21
747.48165345860241
 31
0.0
  0
LINE
  5
284A
  8
AM_0
 10
335.63402357337827
 20
662.19369345860252
 30
0.0
 11
350.7387035733783
 21
662.72115345860232
 31
0.0
  0
LINE
  5
284B
  8
AM_0
 10
335.63396357337831
 20
658.72994345860252
 30
0.0
 11
350.7387035733783
 21
659.2574134586024
 31
0.0
  0
ARC
  5
284C
  8
AM_0
 10
350.63396357337831
 20
662.25558345860225
 30
0.0
 40
3.0
 50
272.00000000000369
 51
0.0
  0
ARC
  5
284D
  8
AM_0
 10
350.63396357337831
 20
651.18618345860227
 30
0.0
 40
3.0
 50
274.78019999999628
 51
0.0
  0
ARC
  5
284E
  8
AM_0
 10
350.63396357337831
 20
665.71932345860228
 30
0.0
 40
3.0
 50
272.00000000000369
 51
0.0
  0
LINE
  5
284F
  8
AM_0
 10
333.63396357337831
 20
734.72793345860248
 30
0.0
 11
348.80846357337822
 21
735.25783345860225
 31
0.0
  0
ARC
  5
2850
  8
AM_0
 10
348.63396357337831
 20
740.25478345860245
 30
0.0
 40
5.0
 50
272.00000000000369
 51
0.0
  0
ARC
  5
2851
  8
AM_0
 10
464.63399357337818
 20
710.13869345860235
 30
0.0
 40
3.0
 50
179.9999899999988
 51
270.0
  0
LINE
  5
2852
  8
AM_0
 10
464.63399357337818
 20
707.13869345860235
 30
0.0
 11
468.63399357337818
 21
707.13869345860235
 31
0.0
  0
ARC
  5
2853
  8
AM_0
 10
465.63399357337818
 20
741.8276634586025
 30
0.0
 40
3.0
 50
0.0
 51
91.999998000000545
  0
LINE
  5
2854
  8
AM_0
 10
465.349483573378
 20
744.81954345860242
 30
0.0
 11
465.5292935733782
 21
744.82583345860235
 31
0.0
  0
LINE
  5
2855
  8
AM_0
 10
363.63402357337822
 20
750.72793345860248
 30
0.0
 11
452.33178357337829
 21
753.82528345860248
 31
0.0
  0
ARC
  5
2856
  8
AM_0
 10
464.63399357337818
 20
765.3070334586024
 30
0.0
 40
3.0
 50
91.999998000000545
 51
180.00001000000091
  0
ARC
  5
2857
  8
AM_0
 10
452.15725357337823
 20
758.82229345860242
 30
0.0
 40
5.0
 50
272.00000000000369
 51
315.0
  0
LINE
  5
2858
  8
AM_0
 10
455.69280357337828
 20
755.2867734586024
 30
0.0
 11
461.63399357337818
 21
761.22793345860225
 31
0.0
  0
LINE
  5
2859
  8
AM_0
 10
476.63399357337818
 20
756.22793345860225
 30
0.0
 11
480.63399357337818
 21
756.22793345860225
 31
0.0
  0
LINE
  5
285A
  8
AM_0
 10
464.52932357337829
 20
768.30520345860225
 30
0.0
 11
476.63402357337827
 21
768.72793345860225
 31
0.0
  0
LINE
  5
285B
  8
AM_0
 10
538.63402357337816
 20
635.22793345860237
 30
0.0
 11
538.63402357337816
 21
667.22793345860248
 31
0.0
  0
LINE
  5
285C
  8
AM_0
 10
318.63396357337831
 20
560.23123710764924
 30
0.0
 11
318.63396357337831
 21
740.72459980955534
 31
0.0
  0
ARC
  5
285D
  8
AM_0
 10
320.63396357337831
 20
560.23123710764924
 30
0.0
 40
2.0
 50
180.0
 51
270.0
1001
GENIUS_GENOBJ-N-FIL_13
1002
{
1000
OWNER
1000
GEN
1002
}
1001
GENIUS_GENODEF_13
1002
{
1000
HIER
1070
     0
1002
}
1002
{
1000
MANEDIT
1070
     0
1002
}
1002
{
1000
NOSEL
1070
     0
1002
}
1002
{
1000
BEHIND
1070
     0
1002
}
1002
{
1000
OTHER
1070
     0
1002
}
1002
{
1000
REACTOR
1002
}
  0
LINE
  5
285E
  8
AM_0
 10
320.63396357337831
 20
558.23123710764924
 30
0.0
 11
330.63396357337831
 21
558.23123710764924
 31
0.0
  0
LINE
  5
285F
  8
AM_0
 10
332.63396357337831
 20
564.47791845860252
 30
0.0
 11
320.63396357337831
 21
564.47791845860252
 31
0.0
  0
ARC
  5
2860
  8
AM_0
 10
320.63396357337831
 20
566.4779184586024
 30
0.0
 40
2.0
 50
180.0
 51
270.0
  0
ARC
  5
2861
  8
AM_0
 10
313.63396357337831
 20
570.09116745860229
 30
0.0
 40
5.0
 50
0.0
 51
59.999999999999119
  0
LINE
  5
2862
  8
AM_0
 10
316.13396357337831
 20
574.42129445860246
 30
0.0
 11
259.9153305733783
 21
606.8791374586026
 31
0.0
  0
LINE
  5
2863
  8
AM_0
 10
316.13396357337831
 20
726.53454245860235
 30
0.0
 11
259.9153305733783
 21
694.07669945860243
 31
0.0
  0
ARC
  5
2864
  8
AM_0
 10
204.13396357337831
 20
650.47791845860229
 30
0.0
 40
4.0
 50
270.0
 51
90.0
  0
LINE
  5
2865
  8
AM_0
 10
212.13396357337831
 20
662.97791845860252
 30
0.0
 11
212.13396357337831
 21
637.97791845860252
 31
0.0
  0
LINE
  5
2866
  8
AM_0
 10
217.13396357337831
 20
614.63261945860245
 30
0.0
 11
217.13396357337831
 21
686.32321745860224
 31
0.0
  0
LINE
  5
2867
  8
AM_0
 10
215.13396357337831
 20
625.47791845860252
 30
0.0
 11
215.13396357337831
 21
675.47791845860252
 31
0.0
  0
LINE
  5
2868
  8
AM_0
 10
204.13396357337831
 20
646.47791845860229
 30
0.0
 11
204.13396357337831
 21
654.47791845860229
 31
0.0
  0
LINE
  5
2869
  8
AM_0
 10
176.13396357337831
 20
662.47791845860229
 30
0.0
 11
176.13396357337831
 21
638.47791845860252
 31
0.0
  0
LINE
  5
286A
  8
AM_0
 10
258.12357557337828
 20
690.4779184586024
 30
0.0
 11
258.12357557337828
 21
610.47791845860252
 31
0.0
  0
LINE
  5
286B
  8
AM_0
 10
225.79421757337809
 20
689.4779184586024
 30
0.0
 11
225.79421757337809
 21
611.47791845860252
 31
0.0
  0
LINE
  5
286C
  8
AM_0
 10
176.13396357337831
 20
638.47791845860252
 30
0.0
 11
212.13396357337831
 21
638.47791845860252
 31
0.0
  0
LINE
  5
286D
  8
AM_0
 10
176.13396357337831
 20
646.47791845860229
 30
0.0
 11
204.13396357337831
 21
646.47791845860229
 31
0.0
  0
LINE
  5
286E
  8
AM_0
 10
227.8628435733784
 20
608.4418104586025
 30
0.0
 11
256.05494957337839
 21
607.94971545860255
 31
0.0
  0
LINE
  5
286F
  8
AM_0
 10
218.13396357337831
 20
612.90056845860249
 30
0.0
 11
224.0024625733781
 21
609.51238845860246
 31
0.0
  0
ARC
  5
2870
  8
AM_0
 10
219.13396357337831
 20
614.63261945860245
 30
0.0
 40
2.0
 50
180.0
 51
239.99999999999909
  0
ARC
  5
2871
  8
AM_0
 10
228.0024625733781
 20
616.4405924586024
 30
0.0
 40
8.0
 50
239.99999999999909
 51
268.99999999999812
  0
ARC
  5
2872
  8
AM_0
 10
255.91533057337821
 20
599.95093345860255
 30
0.0
 40
8.0
 50
59.999999999999119
 51
88.999999999998224
  0
LINE
  5
2873
  8
AM_0
 10
215.13396357337831
 20
625.47791845860252
 30
0.0
 11
217.13396357337831
 21
623.47791845860252
 31
0.0
  0
LINE
  5
2874
  8
AM_0
 10
212.13396357337831
 20
637.97791845860252
 30
0.0
 11
215.13396357337831
 21
637.97791845860252
 31
0.0
  0
LINE
  5
2875
  8
AM_0
 10
176.13396357337831
 20
662.47791845860229
 30
0.0
 11
212.13396357337831
 21
662.47791845860229
 31
0.0
  0
LINE
  5
2876
  8
AM_0
 10
176.13396357337831
 20
654.47791845860229
 30
0.0
 11
204.13396357337831
 21
654.47791845860229
 31
0.0
  0
LINE
  5
2877
  8
AM_0
 10
218.13396357337831
 20
688.05526845860243
 30
0.0
 11
224.0024625733781
 21
691.44344845860235
 31
0.0
  0
LINE
  5
2878
  8
AM_0
 10
212.13396357337831
 20
662.97791845860252
 30
0.0
 11
215.13396357337831
 21
662.97791845860252
 31
0.0
  0
LINE
  5
2879
  8
AM_0
 10
215.13396357337831
 20
675.47791845860252
 30
0.0
 11
217.13396357337831
 21
677.47791845860252
 31
0.0
  0
ARC
  5
287A
  8
AM_0
 10
219.13396357337831
 20
686.32321745860224
 30
0.0
 40
2.0
 50
120.0000000000008
 51
180.0
  0
LINE
  5
287B
  8
AM_0
 10
227.8628435733784
 20
692.51402645860242
 30
0.0
 11
256.05494957337839
 21
693.00612145860237
 31
0.0
  0
ARC
  5
287C
  8
AM_0
 10
228.0024625733781
 20
684.51524445860252
 30
0.0
 40
8.0
 50
91.000000000001776
 51
120.0000000000008
  0
ARC
  5
287D
  8
AM_0
 10
255.91533057337821
 20
701.00490345860248
 30
0.0
 40
8.0
 50
271.00000000000171
 51
300.00000000000068
  0
LINE
  5
287E
  8
AM_0
 10
318.63396357337831
 20
631.74766873763485
 30
0.0
 11
332.63396357337831
 21
631.74766873763485
 31
0.0
  0
LINE
  5
287F
  8
AM_0
 10
318.63396357337831
 20
635.47791845860252
 30
0.0
 11
332.63396357337831
 21
635.47791845860252
 31
0.0
  0
LINE
  5
2880
  8
AM_0
 10
318.63396357337831
 20
669.20816817956995
 30
0.0
 11
332.63396357337831
 21
669.20816817956995
 31
0.0
  0
LINE
  5
2881
  8
AM_0
 10
318.63396357337831
 20
665.4779184586024
 30
0.0
 11
332.63396357337831
 21
665.4779184586024
 31
0.0
  0
LINE
  5
2882
  8
AM_0
 10
332.63396357337831
 20
669.20816817956995
 30
0.0
 11
332.63396357337831
 21
631.74766873763485
 31
0.0
  0
ARC
  5
2883
  8
AM_0
 10
313.63396357337831
 20
730.86466945860229
 30
0.0
 40
5.0
 50
300.00000000000068
 51
0.0
  0
ARC
  5
2884
  8
AM_0
 10
320.63396357337831
 20
740.72459980955534
 30
0.0
 40
2.0
 50
90.0
 51
180.0
1001
GENIUS_GENOBJ-N-FIL_13
1002
{
1000
OWNER
1000
GEN
1002
}
1001
GENIUS_GENODEF_13
1002
{
1000
HIER
1070
     0
1002
}
1002
{
1000
MANEDIT
1070
     0
1002
}
1002
{
1000
NOSEL
1070
     0
1002
}
1002
{
1000
BEHIND
1070
     0
1002
}
1002
{
1000
OTHER
1070
     0
1002
}
1002
{
1000
REACTOR
1002
}
  0
LINE
  5
2885
  8
AM_0
 10
332.63396357337831
 20
736.4779184586024
 30
0.0
 11
320.63396357337831
 21
736.4779184586024
 31
0.0
  0
LINE
  5
2886
  8
AM_0
 10
320.63396357337831
 20
742.7245998095558
 30
0.0
 11
330.63396357337831
 21
742.7245998095558
 31
0.0
  0
ARC
  5
2887
  8
AM_0
 10
320.63396357337831
 20
734.47791845860229
 30
0.0
 40
2.0
 50
90.0
 51
180.0
  0
LINE
  5
2888
  8
AM_0
 10
332.63396357337831
 20
736.4779184586024
 30
0.0
 11
333.63396357337831
 21
735.4779184586024
 31
0.0
  0
LINE
  5
2889
  8
AM_0
 10
332.63396357337831
 20
736.4779184586024
 30
0.0
 11
332.63396357337831
 21
740.72459980955534
 31
0.0
  0
ARC
  5
288A
  8
AM_0
 10
330.63396357337831
 20
740.72459980955534
 30
0.0
 40
2.0
 50
0.0
 51
90.0
1001
GENIUS_GENODEF_13
1002
{
1000
HIER
1070
     0
1002
}
1002
{
1000
MANEDIT
1070
     0
1002
}
1002
{
1000
NOSEL
1070
     0
1002
}
1002
{
1000
BEHIND
1070
     0
1002
}
1002
{
1000
OTHER
1070
     0
1002
}
1002
{
1000
REACTOR
1002
}
1001
GENIUS_GENOBJ-N-FIL_13
1002
{
1000
OWNER
1000
GEN
1002
}
  0
ARC
  5
288B
  8
AM_0
 10
330.63396357337831
 20
560.23123710764924
 30
0.0
 40
2.0
 50
270.0
 51
0.0
1001
GENIUS_GENODEF_13
1002
{
1000
HIER
1070
     0
1002
}
1002
{
1000
MANEDIT
1070
     0
1002
}
1002
{
1000
NOSEL
1070
     0
1002
}
1002
{
1000
BEHIND
1070
     0
1002
}
1002
{
1000
OTHER
1070
     0
1002
}
1002
{
1000
REACTOR
1002
}
1001
GENIUS_GENOBJ-N-FIL_13
1002
{
1000
OWNER
1000
GEN
1002
}
  0
LINE
  5
288C
  8
AM_0
 10
332.63396357337831
 20
564.4779184586024
 30
0.0
 11
332.63396357337831
 21
560.23123710764924
 31
0.0
  0
LINE
  5
288D
  8
AM_0
 10
332.63396357337831
 20
564.47791845860252
 30
0.0
 11
333.63396357337831
 21
565.47791845860252
 31
0.0
  0
TEXT
  5
2A76
  8
AM_0
 10
637.62968304250387
 20
683.18111794058598
 30
0.0
 40
15.0
  1
VX22-003GF~VX22-020GF
  0
ENDSEC
  0
EOF
