  0
SECTION
  2
HEADER
  9
$ACADVER
  1
AC1009
  9
$INSBASE
 10
0.0
 20
0.0
 30
0.0
  9
$EXTMIN
 10
244.90459801850881
 20
238.9016113683553
 30
-0.0000000000112498
  9
$EXTMAX
 10
1191.4870101841941
 20
976.17777572492037
 30
0.0000000000002956
  9
$LIMMIN
 10
0.0
 20
0.0
  9
$LIMMAX
 10
1422.5
 20
925.0
  9
$ORTHOMODE
 70
     0
  9
$REGENMODE
 70
     1
  9
$FILLMODE
 70
     1
  9
$QTEXTMODE
 70
     0
  9
$MIRRTEXT
 70
     1
  9
$DRAGMODE
 70
     2
  9
$LTSCALE
 40
5.0
  9
$OSMODE
 70
   551
  9
$ATTMODE
 70
     1
  9
$TEXTSIZE
 40
2.5
  9
$TRACEWID
 40
1.0
  9
$TEXTSTYLE
  7
STANDARD
  9
$CLAYER
  8
AM_0
  9
$CELTYPE
  6
BYLAYER
  9
$CECOLOR
 62
   256
  9
$DIMSCALE
 40
1.0
  9
$DIMASZ
 40
2.5
  9
$DIMEXO
 40
1.0
  9
$DIMDLI
 40
8.0
  9
$DIMRND
 40
0.0
  9
$DIMDLE
 40
0.0
  9
$DIMEXE
 40
0.6
  9
$DIMTP
 40
0.1
  9
$DIMTM
 40
0.1
  9
$DIMTXT
 40
2.5
  9
$DIMCEN
 40
0.0
  9
$DIMTSZ
 40
0.0
  9
$DIMTOL
 70
     0
  9
$DIMLIM
 70
     0
  9
$DIMTIH
 70
     0
  9
$DIMTOH
 70
     0
  9
$DIMSE1
 70
     0
  9
$DIMSE2
 70
     0
  9
$DIMTAD
 70
     1
  9
$DIMZIN
 70
     8
  9
$DIMBLK
  1

  9
$DIMASO
 70
     1
  9
$DIMSHO
 70
     1
  9
$DIMPOST
  1

  9
$DIMAPOST
  1
"
  9
$DIMALT
 70
     0
  9
$DIMALTD
 70
     2
  9
$DIMALTF
 40
0.0393701
  9
$DIMLFAC
 40
1.0
  9
$DIMTOFL
 70
     1
  9
$DIMTVP
 40
0.0
  9
$DIMTIX
 70
     0
  9
$DIMSOXD
 70
     0
  9
$DIMSAH
 70
     0
  9
$DIMBLK1
  1

  9
$DIMBLK2
  1

  9
$DIMSTYLE
  2
AM_ISO
  9
$DIMCLRD
 70
   256
  9
$DIMCLRE
 70
   256
  9
$DIMCLRT
 70
     4
  9
$DIMTFAC
 40
0.71
  9
$DIMGAP
 40
0.8
  9
$LUNITS
 70
     2
  9
$LUPREC
 70
     2
  9
$SKETCHINC
 40
1.0
  9
$FILLETRAD
 40
25.0
  9
$AUNITS
 70
     0
  9
$AUPREC
 70
     0
  9
$MENU
  1
.
  9
$ELEVATION
 40
0.0
  9
$PELEVATION
 40
0.0
  9
$THICKNESS
 40
0.0
  9
$LIMCHECK
 70
     0
  9
$BLIPMODE
 70
     0
  9
$CHAMFERA
 40
10.0
  9
$CHAMFERB
 40
5.0
  9
$SKPOLY
 70
     0
  9
$TDCREATE
 40
2452066.6258053011
  9
$TDUPDATE
 40
2458541.4480314581
  9
$TDINDWG
 40
0.0743409606
  9
$TDUSRTIMER
 40
0.0743407639
  9
$USRTIMER
 70
     1
  9
$ANGBASE
 50
0.0
  9
$ANGDIR
 70
     0
  9
$PDMODE
 70
     0
  9
$PDSIZE
 40
0.0
  9
$PLINEWID
 40
0.0
  9
$COORDS
 70
     1
  9
$SPLFRAME
 70
     0
  9
$SPLINETYPE
 70
     6
  9
$SPLINESEGS
 70
     8
  9
$ATTDIA
 70
     1
  9
$ATTREQ
 70
     1
  9
$HANDLING
 70
     1
  9
$HANDSEED
  5
2B02
  9
$SURFTAB1
 70
     6
  9
$SURFTAB2
 70
     6
  9
$SURFTYPE
 70
     6
  9
$SURFU
 70
     6
  9
$SURFV
 70
     6
  9
$UCSNAME
  2

  9
$UCSORG
 10
0.0
 20
0.0
 30
0.0
  9
$UCSXDIR
 10
1.0
 20
0.0
 30
0.0
  9
$UCSYDIR
 10
0.0
 20
1.0
 30
0.0
  9
$PUCSNAME
  2

  9
$PUCSORG
 10
0.0
 20
0.0
 30
0.0
  9
$PUCSXDIR
 10
1.0
 20
0.0
 30
0.0
  9
$PUCSYDIR
 10
0.0
 20
1.0
 30
0.0
  9
$USERI1
 70
     0
  9
$USERI2
 70
     0
  9
$USERI3
 70
     0
  9
$USERI4
 70
     0
  9
$USERI5
 70
     0
  9
$USERR1
 40
0.0
  9
$USERR2
 40
0.0
  9
$USERR3
 40
0.0
  9
$USERR4
 40
0.0
  9
$USERR5
 40
0.0
  9
$WORLDVIEW
 70
     1
  9
$SHADEDGE
 70
     3
  9
$SHADEDIF
 70
    70
  9
$TILEMODE
 70
     1
  9
$MAXACTVP
 70
    64
  9
$PLIMCHECK
 70
     0
  9
$PEXTMIN
 10
1.0000000000000000E+020
 20
1.0000000000000000E+020
 30
1.0000000000000000E+020
  9
$PEXTMAX
 10
-1.0000000000000000E+020
 20
-1.0000000000000000E+020
 30
-1.0000000000000000E+020
  9
$PLIMMIN
 10
0.0
 20
0.0
  9
$PLIMMAX
 10
420.0
 20
297.0
  9
$UNITMODE
 70
     0
  9
$VISRETAIN
 70
     1
  9
$PLINEGEN
 70
     0
  9
$PSLTSCALE
 70
     1
  0
ENDSEC
  0
SECTION
  2
TABLES
  0
TABLE
  2
VPORT
 70
     1
  0
VPORT
  2
*ACTIVE
 70
     0
 10
0.0
 20
0.0
 11
1.0
 21
1.0
 12
718.19580410135165
 22
607.53969354663775
 13
0.0
 23
0.0
 14
12.5
 24
12.5
 15
50.0
 25
50.0
 16
0.0
 26
0.0
 36
1.0
 17
0.0
 27
0.0
 37
0.0
 40
742.33755678921875
 41
1.757159221076747
 42
50.0
 43
0.0
 44
0.0
 50
0.0
 51
0.0
 71
     0
 72
   100
 73
     1
 74
     3
 75
     0
 76
     0
 77
     0
 78
     0
  0
ENDTAB
  0
TABLE
  2
LTYPE
 70
    26
  0
LTYPE
  2
CONTINUOUS
 70
     0
  3
Solid line
 72
    65
 73
     0
 40
0.0
  0
LTYPE
  2
AM_ISO02W050
 70
     0
  3
__ __ __ __ __ __ __ __ __ __ __ __ __ __ __
 72
    65
 73
     2
 40
7.5
 49
6.0
 49
-1.5
  0
LTYPE
  2
AM_ISO08W050
 70
     0
  3
____ . ____ . ____ . ____ . ____ . ____ . ____
 72
    65
 73
     4
 40
18.0
 49
12.0
 49
-1.5
 49
3.0
 49
-1.5
  0
LTYPE
  2
AM_ISO09W050
 70
     0
  3
_____ . . _____ . . _____ . . ____ .. ____
 72
    65
 73
     6
 40
22.5
 49
12.0
 49
-1.5
 49
3.0
 49
-1.5
 49
3.0
 49
-1.5
  0
LTYPE
  2
AMCONSTR
 70
     0
  3
_______________________
 72
    65
 73
     2
 40
9999.0
 49
9999.0
 49
0.0
  0
LTYPE
  2
AM_ISO08W050X2
 70
     0
  3
__ . __ . __ . __ . __ . __
 72
    65
 73
     4
 40
9.0
 49
6.0
 49
-0.75
 49
1.5
 49
-0.75
  0
LTYPE
  2
AM_ISO02W050X2
 70
     0
  3
 _ _ _ _ _ _ _ _ _ _ _ _
 72
    65
 73
     2
 40
3.75
 49
3.0
 49
-0.75
  0
LTYPE
  2
AMZIGZAG
 70
     0
  3
/\/-/\/-/\/-/\/-/\/-/\/
 72
    65
 73
     2
 40
11.000099999999991
 49
0.0001
 49
-11.0
  0
LTYPE
  2
ACISOWELD
 70
     0
  3
_ _ _ _ _
 72
    65
 73
     2
 40
2.0
 49
2.0
 49
-1.0
  0
LTYPE
  2
ACISOTGB
 70
     0
  3
__ . . __ . .
 72
    65
 73
     6
 40
9.0
 49
4.0
 49
-1.0
 49
1.0
 49
-1.0
 49
1.0
 49
-1.0
  0
LTYPE
  2
ACISOTGL
 70
     0
  3
_ _ _ _ _
 72
    65
 73
     2
 40
3.0
 49
2.0
 49
-1.0
  0
LTYPE
  2
CENTER
 70
     0
  3
__ . __
 72
    65
 73
     4
 40
7.0
 49
4.0
 49
-1.0
 49
1.0
 49
-1.0
  0
LTYPE
  2
PHANTOM2
 70
     0
  3
Phantom (.5x) ___ _ _ ___ _ _ ___ _ _ ___ _ _
 72
    65
 73
     6
 40
31.75
 49
15.875
 49
-3.174999999999998
 49
3.174999999999998
 49
-3.174999999999998
 49
3.174999999999998
 49
-3.174999999999998
  0
LTYPE
  2
ACANSTGBM
 70
     0
  3
__ . . __ . .
 72
    65
 73
     6
 40
9.0
 49
4.0
 49
-1.0
 49
1.0
 49
-1.0
 49
1.0
 49
-1.0
  0
LTYPE
  2
ACANSTGLM
 70
     0
  3
_ _ _ _ _
 72
    65
 73
     2
 40
3.0
 49
2.0
 49
-1.0
  0
LTYPE
  2
GEN7
 70
     0
  3
____ . ____ . ____ . ____ . ____ . ____ . ____
 72
    65
 73
     4
 40
14.25
 49
9.75
 49
-1.5
 49
1.5
 49
-1.5
  0
LTYPE
  2
GEN7A
 70
     0
  3
__ . __ . __
 72
    65
 73
     4
 40
7.375
 49
4.75
 49
-0.875
 49
0.875
 49
-0.875
  0
LTYPE
  2
ACJISTGB
 70
     0
  3
__ . . __ . .
 72
    65
 73
     6
 40
9.0
 49
4.0
 49
-1.0
 49
1.0
 49
-1.0
 49
1.0
 49
-1.0
  0
LTYPE
  2
ACJISTGL
 70
     0
  3
_ _ _ _ _
 72
    65
 73
     2
 40
3.0
 49
2.0
 49
-1.0
  0
LTYPE
  2
HIDDEN
 70
     0
  3
Hidden __ __ __ __ __ __ __ __ __ __ __ __ __ _
 72
    65
 73
     2
 40
0.375
 49
0.25
 49
-0.125
  0
LTYPE
  2
CENTER2
 70
     0
  3
Center (.5x) ___ _ ___ _ ___ _ ___ _ ___ _ ___
 72
    65
 73
     4
 40
1.125
 49
0.75
 49
-0.125
 49
0.125
 49
-0.125
  0
LTYPE
  2
HIDDEN2
 70
     0
  3
Hidden (.5x) _ _ _ _ _ _ _ _ _ _ _ _ _ _ _ _ _
 72
    65
 73
     2
 40
0.1875
 49
0.125
 49
-0.0625
  0
LTYPE
  2
AMZIGZAG2
 70
     0
  3
/\/-/\/-/\/-/\/-/\/-/\/
 72
    65
 73
     2
 40
0.4401
 49
0.0001
 49
-0.4400000000000002
  0
LTYPE
  2
ACANSTGB
 70
     0
  3
__ . . __ . .
 72
    65
 73
     6
 40
0.35433070866
 49
0.15748031496
 49
-0.03937007874
 49
0.03937007874
 49
-0.03937007874
 49
0.03937007874
 49
-0.03937007874
  0
LTYPE
  2
ACANSTGL
 70
     0
  3
_ _ _ _ _
 72
    65
 73
     2
 40
0.11811023622
 49
0.07874015748
 49
-0.03937007874
  0
ENDTAB
  0
TABLE
  2
LAYER
 70
     6
  0
LAYER
  2
0
 70
     0
 62
     7
  6
CONTINUOUS
  0
LAYER
  2
AM_0
 70
     0
 62
     7
  6
CONTINUOUS
  0
LAYER
  2
AM_5
 70
     0
 62
     2
  6
CONTINUOUS
  0
LAYER
  2
DEFPOINTS
 70
     0
 62
     7
  6
CONTINUOUS
  0
LAYER
  2
ﾁｭｳｼﾝｾﾝ
 70
     0
 62
     1
  6
GEN7
  0
LAYER
  2
ﾁｭｳｼﾝｾﾝ1
 70
     0
 62
     1
  6
GEN7A
  0
ENDTAB
  0
TABLE
  2
STYLE
 70
     9
  0
STYLE
  2
STANDARD
 70
     0
 40
0.0
 41
0.8299999999999999
 50
0.0
 71
     0
 42
2.5
  3
txt.shx
  4
bigfont.shx
  0
STYLE
  2
ANNOTATIVE
 70
     0
 40
0.0
 41
1.0
 50
0.0
 71
     0
 42
0.2
  3
txt
  4

  0
STYLE
  2

 70
     1
 40
0.0
 41
1.0
 50
0.0
 71
     0
 42
2.5
  3
ltypeshp.shx
  4

  0
STYLE
  2
ACISOTS
 70
     0
 40
1.0
 41
1.0
 50
0.0
 71
     0
 42
2.5
  3
isocp.shx
  4
extfont.shx
  0
STYLE
  2
ACISOGDT
 70
     0
 40
0.0
 41
1.0
 50
0.0
 71
     0
 42
2.5
  3
amgdt.shx
  4

  0
STYLE
  2
ACANSTS
 70
     0
 40
1.0
 41
1.0
 50
0.0
 71
     0
 42
2.5
  3
romans.shx
  4
bigfont.shx
  0
STYLE
  2
ACANSGDT
 70
     0
 40
0.0
 41
1.0
 50
0.0
 71
     0
 42
2.5
  3
amgdt.shx
  4

  0
STYLE
  2
ACJISTS
 70
     0
 40
1.0
 41
1.0
 50
0.0
 71
     0
 42
2.5
  3
isocp.shx
  4
bigfont.shx
  0
STYLE
  2
ACJISGDT
 70
     0
 40
0.0
 41
1.0
 50
0.0
 71
     0
 42
2.5
  3
amgdt.shx
  4

  0
ENDTAB
  0
TABLE
  2
VIEW
 70
     6
  0
VIEW
  2
AM_VIEW1
 70
     0
 40
462.5
 10
416.07965009208078
 20
693.75
 41
832.15930018416213
 11
0.0
 21
0.0
 31
1.0
 12
0.0
 22
0.0
 32
0.0
 42
50.0
 43
0.0
 44
0.0
 50
0.0
 71
     0
  0
VIEW
  2
AM_VIEW2
 70
     0
 40
462.5
 10
1006.420349907918
 20
693.75
 41
832.15930018416213
 11
0.0
 21
0.0
 31
1.0
 12
0.0
 22
0.0
 32
0.0
 42
50.0
 43
0.0
 44
0.0
 50
0.0
 71
     0
  0
VIEW
  2
AM_VIEW3
 70
     0
 40
462.5
 10
416.07965009208078
 20
231.25
 41
832.15930018416213
 11
0.0
 21
0.0
 31
1.0
 12
0.0
 22
0.0
 32
0.0
 42
50.0
 43
0.0
 44
0.0
 50
0.0
 71
     0
  0
VIEW
  2
AM_VIEW4
 70
     0
 40
462.5
 10
1006.420349907918
 20
231.25
 41
832.15930018416213
 11
0.0
 21
0.0
 31
1.0
 12
0.0
 22
0.0
 32
0.0
 42
50.0
 43
0.0
 44
0.0
 50
0.0
 71
     0
  0
VIEW
  2
AM_VIEW5
 70
     0
 40
462.5
 10
711.24999999999966
 20
462.5
 41
832.15930018416179
 11
0.0
 21
0.0
 31
1.0
 12
0.0
 22
0.0
 32
0.0
 42
50.0
 43
0.0
 44
0.0
 50
0.0
 71
     0
  0
VIEW
  2
AM_VIEW6
 70
     0
 40
924.99075000000005
 10
711.24999999999966
 20
462.5
 41
1664.3019571823199
 11
0.0
 21
0.0
 31
1.0
 12
0.0
 22
0.0
 32
0.0
 42
50.0
 43
0.0
 44
0.0
 50
0.0
 71
     0
  0
ENDTAB
  0
TABLE
  2
UCS
 70
     0
  0
ENDTAB
  0
TABLE
  2
APPID
 70
    95
  0
APPID
  2
ACAD
 70
     0
  0
APPID
  2
ACADANNOTATIVE
 70
     0
  0
APPID
  2
MCAD_NO_VIS
 70
     0
  0
APPID
  2
ACAD_TEMP_GRAPHIC
 70
     0
  0
APPID
  2
ACATTRIBSERVICES
 70
     0
  0
APPID
  2
GENIUS_GENREC_14
 70
     0
  0
APPID
  2
GENIUS_GENOBJ-N-REC_13
 70
     0
  0
APPID
  2
GENIUS_GENODEF_13
 70
     0
  0
APPID
  2
GENIUS_GENOLIS_13
 70
     0
  0
APPID
  2
GENIUS_GENOBJ-N-TIT_13
 70
     0
  0
APPID
  2
GENIUS_GENOENT_13
 70
     0
  0
APPID
  2
GENIUS_GENTITLE_13
 70
     0
  0
APPID
  2
GENIUS_GENOREF_13
 70
     0
  0
APPID
  2
GENIUS_GENSCREG_15
 70
     0
  0
APPID
  2
GENIUS_GENOBJ-N-SDF_13
 70
     0
  0
APPID
  2
GENIUS_GENFIL_13
 70
     0
  0
APPID
  2
GENIUS_GENOBJ-N-CHA_13
 70
     0
  0
APPID
  2
GENIUS_GENDTOL_13
 70
     0
  0
APPID
  2
GENIUS_GENOBJ-N-FIL_13
 70
     0
  0
APPID
  2
AD_DRAW
 70
     0
  0
APPID
  2
DESIGNERASSEMBLIES
 70
     0
  0
APPID
  2
ASURF_PCURVE_APPNAME
 70
     0
  0
APPID
  2
GENIUS_GE3SECT_13
 70
     0
  0
APPID
  2
GENIUS_GENCFG_13
 70
     0
  0
APPID
  2
GENIUS_GE3CFG0_13
 70
     0
  0
APPID
  2
GENIUS_GENCFG0_13
 70
     0
  0
APPID
  2
GENIUS_GENCFG1_13
 70
     0
  0
APPID
  2
GENIUS_GENCFG2_13
 70
     0
  0
APPID
  2
GENIUS_GENCFG3_13
 70
     0
  0
APPID
  2
GENIUS_GENCFG4_13
 70
     0
  0
APPID
  2
GENIUS_GEVCFG0_13
 70
     0
  0
APPID
  2
GENIUS_GENHINW_13
 70
     0
  0
APPID
  2
GENIUS_FIRSTVISTXT_14
 70
     0
  0
APPID
  2
GENIUS_GENOBJ-N-LEADER_13
 70
     0
  0
APPID
  2
GEV_VCCNULL_SWITCH_OFF
 70
     0
  0
APPID
  2
GENIUS_GEFCFG0_13
 70
     0
  0
APPID
  2
GENIUS_GENZVEED_13
 70
     0
  0
APPID
  2
GENIUS_GENSCREG_13
 70
     0
  0
APPID
  2
GENIUS_DUMCFG0_13
 70
     0
  0
APPID
  2
GEVID936201362
 70
     0
  0
APPID
  2
GEVDC
 70
     0
  0
APPID
  2
GEVCON
 70
     0
  0
APPID
  2
VCC
 70
     0
  0
APPID
  2
GEVPT
 70
     0
  0
APPID
  2
GEVIT
 70
     0
  0
APPID
  2
GENBH
 70
     0
  0
APPID
  2
GEVMK
 70
     0
  0
APPID
  2
GENIUS_GENBH_13
 70
     0
  0
APPID
  2
GENIUS_GENOBJ-NBEHI-BHF_13
 70
     0
  0
APPID
  2
GENIUS_GENOBJ-NBEHI-BHB_13
 70
     0
  0
APPID
  2
GENIUS_GENOBJ-F-DESC_13
 70
     0
  0
APPID
  2
GENIUS_GEFDESC_14
 70
     0
  0
APPID
  2
GENIUS_GENOBJ-F-PART_13
 70
     0
  0
APPID
  2
GENIUS_GEFSTDP_13
 70
     0
  0
APPID
  2
GENIUS_GEFPARTINS_13
 70
     0
  0
APPID
  2
GENIUS_GENTRA_14
 70
     0
  0
APPID
  2
GENIUS_GENINF13_13
 70
     0
  0
APPID
  2
GENIUS_GENOBJ-N-INFOPT_13
 70
     0
  0
APPID
  2
GENIUS_GENOBJ-N-RSSYM_13
 70
     0
  0
APPID
  2
GENIUS_GENSYMENT_13
 70
     0
  0
APPID
  2
GENIUS_GENSCSYM_13
 70
     0
  0
APPID
  2
GENIUS_GEFINFNAM_13
 70
     0
  0
APPID
  2
GENIUS_GENOBJ-N-CEN_13
 70
     0
  0
APPID
  2
GENIUS_GENOBJ-N-CRS_13
 70
     0
  0
APPID
  2
GENIUS_GENOBJ-N-CRC_13
 70
     0
  0
APPID
  2
GENIUS_GENCRC_14
 70
     0
  0
APPID
  2
GEVID942827039
 70
     0
  0
APPID
  2
GEVID942827040
 70
     0
  0
APPID
  2
GEVID942827041
 70
     0
  0
APPID
  2
GENIUS_GENOBJ-F-SCPASSM_13
 70
     0
  0
APPID
  2
GENIUS_GENDIMSH_14
 70
     0
  0
APPID
  2
GEVID942827042
 70
     0
  0
APPID
  2
GEVID946020473
 70
     0
  0
APPID
  2
GEVID946020474
 70
     0
  0
APPID
  2
GEVID946020475
 70
     0
  0
APPID
  2
GENIUS_GENOBJ-N-HTC_13
 70
     0
  0
APPID
  2
GENIUS_GENHATCH_13
 70
     0
  0
APPID
  2
GEVID948854295
 70
     0
  0
APPID
  2
GEVID939402019
 70
     0
  0
APPID
  2
GEVID952919491
 70
     0
  0
APPID
  2
GEVID952919492
 70
     0
  0
APPID
  2
GENIUS_GEFWELD_13
 70
     0
  0
APPID
  2
GENIUS_GENOBJ-F-WELS_13
 70
     0
  0
APPID
  2
GEVID952919493
 70
     0
  0
APPID
  2
GENIUS_GENOBJ-N-RSBK_13
 70
     0
  0
APPID
  2
GENIUS_GENOBJ-N-LIB_13
 70
     0
  0
APPID
  2
GENIUS_GENSCALE_13
 70
     0
  0
APPID
  2
GEVID986376691
 70
     0
  0
APPID
  2
DCO15
 70
     0
  0
APPID
  2
ACAD_DSTYLE_DIMBREAK
 70
     0
  0
APPID
  2
ACAD_DSTYLE_DIMJAG
 70
     0
  0
APPID
  2
ACAD_NAV_VCDISPLAY
 70
     0
  0
APPID
  2
ACADANNOPO
 70
     0
  0
APPID
  2
ACAD_EXEMPT_FROM_CAD_STANDARDS
 70
     0
  0
APPID
  2
ACAD_MLEADERVER
 70
     0
  0
ENDTAB
  0
TABLE
  2
DIMSTYLE
 70
    22
  0
DIMSTYLE
  2
STANDARD
 70
     0
  3

  4

  5

  6

  7

 40
1.0
 41
0.18
 42
0.0625
 43
0.38
 44
0.18
 45
0.0
 46
0.0
 47
0.0
 48
0.0
140
0.18
141
0.09
142
0.0
143
25.399999999999999
144
1.0
145
0.0
146
1.0
147
0.09
 71
     0
 72
     0
 73
     1
 74
     1
 75
     0
 76
     0
 77
     0
 78
     0
170
     0
171
     2
172
     0
173
     0
174
     0
175
     0
176
     0
177
     0
178
     0
  0
DIMSTYLE
  2
ANNOTATIVE
 70
     0
  3

  4

  5

  6

  7

 40
1.0
 41
0.18
 42
0.0625
 43
0.38
 44
0.18
 45
0.0
 46
0.0
 47
0.0
 48
0.0
140
0.18
141
0.09
142
0.0
143
25.399999999999999
144
1.0
145
0.0
146
1.0
147
0.09
 71
     0
 72
     0
 73
     1
 74
     1
 75
     0
 76
     0
 77
     0
 78
     0
170
     0
171
     2
172
     0
173
     0
174
     0
175
     0
176
     0
177
     0
178
     0
  0
DIMSTYLE
  2
AM_ISO
 70
     0
  3

  4
"
  5

  6

  7

 40
1.0
 41
2.5
 42
1.0
 43
8.0
 44
0.6
 45
0.0
 46
0.0
 47
0.1
 48
0.1
140
2.5
141
0.0
142
0.0
143
0.0393701
144
1.0
145
0.0
146
0.71
147
0.8
 71
     0
 72
     0
 73
     0
 74
     0
 75
     0
 76
     0
 77
     1
 78
     8
170
     0
171
     2
172
     1
173
     0
174
     0
175
     0
176
   256
177
   256
178
     4
  0
DIMSTYLE
  2
AM_ISO$3
 70
     0
  3

  4
"
  5

  6

  7

 40
1.0
 41
2.5
 42
1.0
 43
8.0
 44
0.6
 45
0.0
 46
0.0
 47
0.1
 48
0.1
140
2.5
141
0.0
142
0.0
143
0.0393701
144
1.0
145
0.0
146
0.71
147
0.8
 71
     0
 72
     0
 73
     0
 74
     1
 75
     0
 76
     0
 77
     1
 78
     8
170
     0
171
     2
172
     0
173
     0
174
     0
175
     0
176
   256
177
   256
178
     4
  0
DIMSTYLE
  2
AM_ISO$4
 70
     0
  3

  4
"
  5

  6

  7

 40
1.0
 41
2.5
 42
1.0
 43
8.0
 44
0.6
 45
0.0
 46
0.0
 47
0.1
 48
0.1
140
2.5
141
0.0
142
0.0
143
0.0393701
144
1.0
145
0.0
146
0.71
147
0.8
 71
     0
 72
     0
 73
     0
 74
     1
 75
     0
 76
     0
 77
     1
 78
     8
170
     0
171
     2
172
     0
173
     0
174
     0
175
     0
176
   256
177
   256
178
     4
  0
DIMSTYLE
  2
AM_ISO$6
 70
     0
  3

  4
"
  5

  6

  7

 40
1.0
 41
2.5
 42
1.0
 43
8.0
 44
0.6
 45
0.0
 46
0.0
 47
0.1
 48
0.1
140
2.5
141
0.0
142
0.0
143
0.0393701
144
1.0
145
0.0
146
0.71
147
0.8
 71
     0
 72
     0
 73
     0
 74
     0
 75
     0
 76
     0
 77
     0
 78
     8
170
     0
171
     2
172
     1
173
     0
174
     0
175
     0
176
   256
177
   256
178
     4
  0
DIMSTYLE
  2
AM_ISO$7
 70
     0
  3

  4
"
  5

  6

  7

 40
1.0
 41
2.5
 42
1.0
 43
8.0
 44
0.6
 45
0.0
 46
0.0
 47
0.1
 48
0.1
140
2.5
141
0.0
142
0.0
143
0.0393701
144
1.0
145
0.0
146
0.71
147
0.8
 71
     0
 72
     0
 73
     0
 74
     0
 75
     0
 76
     0
 77
     1
 78
     8
170
     0
171
     2
172
     1
173
     0
174
     0
175
     0
176
   256
177
   256
178
     4
  0
DIMSTYLE
  2
AM_ISO$SF
 70
     0
  3

  4
"
  5

  6

  7

 40
1.0
 41
2.5
 42
1.0
 43
10.0
 44
1.0
 45
0.0
 46
0.0
 47
0.1
 48
0.1
140
3.5
141
0.0
142
0.0
143
0.0393701
144
1.0
145
0.0
146
0.71
147
1.5
 71
     0
 72
     0
 73
     0
 74
     0
 75
     1
 76
     1
 77
     1
 78
     8
170
     0
171
     2
172
     1
173
     0
174
     0
175
     0
176
   256
177
   256
178
     2
  0
DIMSTYLE
  2
AM_ISO$SH
 70
     0
  3

  4
"
  5

  6

  7

 40
1.0
 41
2.5
 42
1.0
 43
10.0
 44
1.0
 45
0.0
 46
0.0
 47
0.1
 48
0.1
140
3.5
141
0.0
142
0.0
143
0.0393701
144
2.0
145
0.0
146
0.71
147
1.5
 71
     0
 72
     0
 73
     0
 74
     0
 75
     1
 76
     1
 77
     1
 78
     8
170
     0
171
     2
172
     1
173
     1
174
     0
175
     0
176
   256
177
   256
178
     2
  0
DIMSTYLE
  2
AM_JIS
 70
     0
  3

  4
"
  5

  6

  7

 40
1.0
 41
2.5
 42
1.0
 43
7.0
 44
1.0
 45
0.0
 46
0.0
 47
0.1
 48
0.1000000001
140
2.5
141
0.0
142
0.0
143
0.0393701
144
1.0
145
0.0
146
0.71
147
1.0
 71
     0
 72
     0
 73
     0
 74
     0
 75
     0
 76
     0
 77
     3
 78
     8
170
     0
171
     2
172
     1
173
     0
174
     0
175
     0
176
   256
177
   256
178
     4
  0
DIMSTYLE
  2
AM_JIS$3
 70
     0
  3

  4
"
  5

  6

  7

 40
1.0
 41
2.5
 42
1.0
 43
7.0
 44
1.0
 45
0.0
 46
0.0
 47
0.1
 48
0.1000000001
140
2.5
141
0.0
142
0.0
143
0.0393701
144
1.0
145
0.0
146
0.71
147
1.0
 71
     0
 72
     0
 73
     0
 74
     1
 75
     0
 76
     0
 77
     3
 78
     8
170
     0
171
     2
172
     0
173
     0
174
     0
175
     0
176
   256
177
   256
178
     4
  0
DIMSTYLE
  2
AM_JIS$4
 70
     0
  3

  4
"
  5

  6

  7

 40
1.0
 41
2.5
 42
1.0
 43
7.0
 44
1.0
 45
0.0
 46
0.0
 47
0.1
 48
0.1000000001
140
2.5
141
0.0
142
0.0
143
0.0393701
144
1.0
145
0.0
146
0.71
147
1.0
 71
     0
 72
     0
 73
     0
 74
     0
 75
     0
 76
     0
 77
     3
 78
     8
170
     0
171
     2
172
     0
173
     0
174
     0
175
     0
176
   256
177
   256
178
     4
  0
DIMSTYLE
  2
AM_JIS$6
 70
     0
  3

  4
"
  5

  6

  7

 40
1.0
 41
2.5
 42
1.0
 43
7.0
 44
1.0
 45
0.0
 46
0.0
 47
0.1
 48
0.1000000001
140
2.5
141
0.0
142
0.0
143
0.0393701
144
1.0
145
0.0
146
0.71
147
1.0
 71
     0
 72
     0
 73
     0
 74
     0
 75
     0
 76
     0
 77
     0
 78
     8
170
     0
171
     2
172
     1
173
     0
174
     0
175
     0
176
   256
177
   256
178
     4
  0
DIMSTYLE
  2
AM_JIS$7
 70
     0
  3

  4
"
  5

  6

  7

 40
1.0
 41
2.5
 42
1.0
 43
7.0
 44
1.0
 45
0.0
 46
0.0
 47
0.1
 48
0.1000000001
140
2.5
141
0.0
142
0.0
143
0.0393701
144
1.0
145
0.0
146
0.71
147
1.0
 71
     0
 72
     0
 73
     0
 74
     0
 75
     0
 76
     0
 77
     3
 78
     8
170
     0
171
     2
172
     1
173
     0
174
     0
175
     0
176
   256
177
   256
178
     4
  0
DIMSTYLE
  2
AM_JIS$SF
 70
     0
  3

  4
"
  5

  6

  7

 40
1.0
 41
2.5
 42
1.0
 43
10.0
 44
1.0
 45
0.0
 46
0.0
 47
0.1
 48
0.1
140
3.5
141
0.0
142
0.0
143
0.0393701
144
1.0
145
0.0
146
0.71
147
1.5
 71
     0
 72
     0
 73
     0
 74
     0
 75
     1
 76
     1
 77
     3
 78
     8
170
     0
171
     2
172
     1
173
     0
174
     0
175
     0
176
   256
177
   256
178
     4
  0
DIMSTYLE
  2
AM_JIS$SH
 70
     0
  3

  4
"
  5

  6

  7

 40
1.0
 41
2.5
 42
1.0
 43
10.0
 44
1.0
 45
0.0
 46
0.0
 47
0.1
 48
0.1
140
3.5
141
0.0
142
0.0
143
0.0393701
144
1.0
145
0.0
146
0.71
147
1.5
 71
     0
 72
     0
 73
     0
 74
     0
 75
     1
 76
     0
 77
     3
 78
     8
170
     0
171
     2
172
     1
173
     1
174
     0
175
     0
176
   256
177
   256
178
     4
  0
DIMSTYLE
  2
AM_ANSI
 70
     0
  3

  4
mm
  5

  6

  7

 40
1.0
 41
0.1
 42
0.05
 43
0.5
 44
0.1
 45
0.0
 46
0.0
 47
0.1
 48
0.1
140
0.12
141
0.0
142
0.0
143
25.399999999999999
144
1.0
145
0.0
146
0.71
147
0.06
 71
     0
 72
     0
 73
     1
 74
     1
 75
     0
 76
     0
 77
     0
 78
     7
170
     0
171
     2
172
     0
173
     0
174
     0
175
     0
176
   256
177
   256
178
     2
  0
DIMSTYLE
  2
AM_ANSI$3
 70
     0
  3

  4
mm
  5

  6

  7

 40
1.0
 41
0.1
 42
0.05
 43
0.5
 44
0.1
 45
0.0
 46
0.0
 47
0.1
 48
0.1
140
0.12
141
0.0
142
0.0
143
25.399999999999999
144
1.0
145
0.0
146
0.71
147
0.06
 71
     0
 72
     0
 73
     1
 74
     1
 75
     0
 76
     0
 77
     0
 78
     7
170
     0
171
     2
172
     0
173
     0
174
     0
175
     0
176
   256
177
   256
178
     2
  0
DIMSTYLE
  2
AM_ANSI$4
 70
     0
  3

  4
mm
  5

  6

  7

 40
1.0
 41
0.1
 42
0.05
 43
0.5
 44
0.1
 45
0.0
 46
0.0
 47
0.1
 48
0.1
140
0.12
141
0.0
142
0.0
143
25.399999999999999
144
1.0
145
0.0
146
0.71
147
0.06
 71
     0
 72
     0
 73
     1
 74
     1
 75
     0
 76
     0
 77
     0
 78
     7
170
     0
171
     2
172
     0
173
     0
174
     0
175
     0
176
   256
177
   256
178
     2
  0
DIMSTYLE
  2
AM_ANSI$7
 70
     0
  3

  4
mm
  5

  6

  7

 40
1.0
 41
0.1
 42
0.05
 43
0.5
 44
0.1
 45
0.0
 46
0.0
 47
0.1
 48
0.1
140
0.24
141
0.0
142
0.0
143
25.399999999999999
144
1.0
145
0.0
146
0.71
147
0.06
 71
     0
 72
     0
 73
     1
 74
     1
 75
     0
 76
     0
 77
     0
 78
     7
170
     0
171
     2
172
     0
173
     0
174
     0
175
     0
176
   256
177
   256
178
     2
  0
DIMSTYLE
  2
AM_ANSI$SF
 70
     0
  3

  4
mm
  5

  6

  7

 40
1.0
 41
0.1
 42
0.05
 43
0.5
 44
0.1
 45
0.0
 46
0.0
 47
0.1
 48
0.1
140
0.12
141
0.0
142
0.0
143
25.399999999999999
144
1.0
145
0.0
146
0.71
147
0.06
 71
     0
 72
     0
 73
     1
 74
     1
 75
     1
 76
     1
 77
     0
 78
     7
170
     0
171
     2
172
     0
173
     0
174
     0
175
     0
176
   256
177
   256
178
     2
  0
DIMSTYLE
  2
AM_ANSI$SH
 70
     0
  3

  4
mm
  5

  6

  7

 40
1.0
 41
0.1
 42
0.05
 43
0.5
 44
0.1
 45
0.0
 46
0.0
 47
0.1
 48
0.1
140
0.12
141
0.0
142
0.0
143
25.399999999999999
144
1.0
145
0.0
146
0.71
147
0.06
 71
     0
 72
     0
 73
     1
 74
     1
 75
     1
 76
     1
 77
     0
 78
     7
170
     0
171
     2
172
     0
173
     1
174
     0
175
     0
176
   256
177
   256
178
     2
  0
ENDTAB
  0
ENDSEC
  0
SECTION
  2
BLOCKS
  0
BLOCK
  8
0
  2
$MODEL_SPACE
 70
     0
 10
0.0
 20
0.0
 30
0.0
  3
$MODEL_SPACE
  1

  0
ENDBLK
  5
2976
  8
0
  0
BLOCK
 67
     1
  8
0
  2
$PAPER_SPACE
 70
     0
 10
0.0
 20
0.0
 30
0.0
  3
$PAPER_SPACE
  1

  0
ENDBLK
  5
2972
 67
     1
  8
0
  0
BLOCK
  8
0
  2
GENAXEH
 70
     0
 10
0.0
 20
0.0
 30
0.0
  3
GENAXEH
  1

  0
LINE
  5
2739
  8
0
 10
-1.0
 20
0.0
 30
0.0
 11
1.0
 21
0.0
 31
0.0
  0
ENDBLK
  5
273A
  8
0
  0
BLOCK
  8
0
  2
_OPEN30
 70
     0
 10
0.0
 20
0.0
 30
0.0
  3
_OPEN30
  1

  0
LINE
  5
273D
  8
0
 62
     0
 10
-1.0
 20
0.26794919
 30
0.0
 11
0.0
 21
0.0
 31
0.0
  0
LINE
  5
273E
  8
0
 62
     0
 10
0.0
 20
0.0
 30
0.0
 11
-1.0
 21
-0.26794919
 31
0.0
  0
LINE
  5
273F
  8
0
 62
     0
 10
0.0
 20
0.0
 30
0.0
 11
-1.0
 21
0.0
 31
0.0
  0
ENDBLK
  5
2740
  8
0
  0
BLOCK
  8
0
  2
_NONE
 70
     0
 10
0.0
 20
0.0
 30
0.0
  3
_NONE
  1

  0
ENDBLK
  5
2743
  8
0
  0
BLOCK
  8
0
  2
_ACMFILLEDHALF
 70
     0
 10
0.0
 20
0.0
 30
0.0
  3
_ACMFILLEDHALF
  1

  0
TRACE
  5
2A6C
  8
AM_0
 62
     0
 10
-0.8
 20
0.0
 30
0.0
 11
-1.0
 21
0.166666666
 31
0.0
 12
0.0
 22
0.0
 32
0.0
 13
0.0
 23
0.0
 33
0.0
  0
LINE
  5
2A6D
  8
AM_0
 62
     0
 10
-1.0
 20
0.0
 30
0.0
 11
-0.8
 21
0.0
 31
0.0
  0
ENDBLK
  5
2A6B
  8
0
  0
ENDSEC
  0
SECTION
  2
ENTITIES
  0
ARC
  5
2744
  8
AM_0
 10
430.85027158017112
 20
463.8667650000001
 30
0.0
 40
3.0000000500000001
 50
272.0
 51
0.0
  0
LINE
  5
2745
  8
AM_0
 10
566.85027158017135
 20
414.91095500000017
 30
0.0
 11
566.85027158017135
 21
534.91094999999984
 31
0.0
  0
LINE
  5
2746
  8
AM_0
 10
552.85022158017091
 20
414.91095500000017
 30
0.0
 11
552.85022158017091
 21
525.86824999999988
 31
0.0
  0
LINE
  5
2747
  8
AM_0
 10
543.71572158017125
 20
433.2639200000001
 30
0.0
 11
527.46277158017097
 21
482.3999399999999
 31
0.0
  0
LINE
  5
2748
  8
AM_0
 10
562.85022158017091
 20
272.410955
 30
0.0
 11
562.85022158017091
 21
557.41095000000018
 31
0.0
  0
LINE
  5
2749
  8
AM_0
 10
544.85027158017147
 20
436.3978350000001
 30
0.0
 11
544.85027158017147
 21
553.88530000000014
 31
0.0
  0
LINE
  5
274A
  8
AM_0
 10
446.85027158017118
 20
246.91096999999999
 30
0.0
 11
446.85027158017118
 21
506.91100000000017
 31
0.0
  0
LINE
  5
274B
  8
AM_0
 10
433.85022158017131
 20
249.29633000000001
 30
0.0
 11
433.85022158017131
 21
504.5256500000001
 31
0.0
  0
LINE
  5
274C
  8
AM_0
 10
419.85027158017112
 20
460.48081000000002
 30
0.0
 11
419.85027158017112
 21
504.91095000000013
 31
0.0
  0
LINE
  5
274D
  8
AM_0
 10
402.85022158017108
 20
292.9109850000001
 30
0.0
 11
402.85022158017108
 21
473.9109850000001
 31
0.0
  0
LINE
  5
274E
  8
AM_0
 10
416.85022158017108
 20
460.84654199999989
 30
0.0
 11
416.85022158017108
 21
473.9109850000001
 31
0.0
  0
LINE
  5
274F
  8
AM_0
 10
416.85022158017108
 20
462.9109850000001
 30
0.0
 11
417.85022158017108
 21
461.9109850000001
 31
0.0
  0
LINE
  5
2750
  8
AM_0
 10
260.35022158017102
 20
391.91098500000021
 30
0.0
 11
288.35022158017102
 21
391.91098500000021
 31
0.0
  0
LINE
  5
2751
  8
AM_0
 10
260.35022158017102
 20
364.91098500000021
 30
0.0
 11
296.35022158017102
 21
364.91098500000021
 31
0.0
  0
LINE
  5
2752
  8
AM_0
 10
260.35022158017102
 20
388.9109850000001
 30
0.0
 11
296.35022158017102
 21
388.9109850000001
 31
0.0
  0
LINE
  5
2753
  8
ﾁｭｳｼﾝｾﾝ
 10
244.98928197312279
 20
376.91098500000021
 30
0.0
 11
440.883678524446
 21
376.91098500000021
 31
0.0
  0
LINE
  5
2754
  8
AM_0
 10
260.35022158017102
 20
388.9109850000001
 30
0.0
 11
260.35022158017102
 21
391.91098500000021
 31
0.0
  0
LINE
  5
2755
  8
AM_0
 10
260.35022158017102
 20
388.9109850000001
 30
0.0
 11
260.35022158017102
 21
364.91098500000021
 31
0.0
  0
LINE
  5
2756
  8
AM_0
 10
474.85027158017152
 20
294.1067250000001
 30
0.0
 11
544.85027158017147
 21
294.1067250000001
 31
0.0
  0
LINE
  5
2757
  8
AM_0
 10
474.85027158017152
 20
313.549015
 30
0.0
 11
544.85027158017147
 21
313.549015
 31
0.0
  0
LINE
  5
2758
  8
AM_0
 10
433.85022158017131
 20
386.891975
 30
0.0
 11
552.85022158017091
 21
386.891975
 31
0.0
  0
LINE
  5
2759
  8
AM_0
 10
433.85022158017131
 20
366.92997000000003
 30
0.0
 11
552.85022158017091
 21
366.92997000000003
 31
0.0
  0
LINE
  5
275A
  8
AM_0
 10
433.85022158017131
 20
269.650485
 30
0.0
 11
548.67377158017098
 21
269.650485
 31
0.0
  0
LINE
  5
275B
  8
AM_0
 10
433.85022158017131
 20
255.19370000000001
 30
0.0
 11
523.63387158017122
 21
255.19370000000001
 31
0.0
  0
LINE
  5
275C
  8
ﾁｭｳｼﾝｾﾝ
 10
409.32306396156127
 20
414.91095500000017
 30
0.0
 11
646.79462158017122
 21
414.91095500000017
 31
0.0
  0
LINE
  5
275D
  8
AM_0
 10
446.85022158017108
 20
246.91098500000001
 30
0.0
 11
506.57877158017112
 21
245.34694500000001
 31
0.0
  0
LINE
  5
275E
  8
AM_0
 10
400.35022158017108
 20
300.85436100000021
 30
0.0
 11
344.13158858017118
 21
333.31220400000001
 31
0.0
  0
LINE
  5
275F
  8
AM_0
 10
416.85022158017108
 20
351.16407900000002
 30
0.0
 11
416.85022158017108
 21
316.99208499999997
 31
0.0
  0
ARC
  5
2760
  8
AM_0
 10
430.85027158017112
 20
289.955175
 30
0.0
 40
3.0000000500000001
 50
0.0
 51
88.0
  0
LINE
  5
2761
  8
AM_0
 10
416.85022158017108
 20
290.91098499999998
 30
0.0
 11
404.85022158017108
 21
290.91098499999998
 31
0.0
  0
LINE
  5
2762
  8
AM_0
 10
414.85022158017108
 20
314.99208499999997
 30
0.0
 11
404.85022158017108
 21
314.99208499999997
 31
0.0
  0
ARC
  5
2763
  8
AM_0
 10
397.85022158017108
 20
296.52423400000021
 30
0.0
 40
5.0
 50
0.0
 51
59.999999999999851
  0
ARC
  5
2764
  8
AM_0
 10
404.85022158017108
 20
292.9109850000001
 30
0.0
 40
2.0
 50
180.0
 51
270.0
  0
ARC
  5
2765
  8
AM_0
 10
404.85022158017108
 20
316.99208499999997
 30
0.0
 40
2.0
 50
180.0
 51
270.0
  0
LINE
  5
2766
  8
AM_0
 10
417.85022158017108
 20
293.410955
 30
0.0
 11
430.95492158017117
 21
292.95334500000013
 31
0.0
  0
LINE
  5
2767
  8
AM_0
 10
416.85022158017108
 20
290.91098499999998
 30
0.0
 11
417.85022158017108
 21
291.9109850000001
 31
0.0
  0
ARC
  5
2768
  8
AM_0
 10
414.85022158017108
 20
316.99208499999997
 30
0.0
 40
2.0
 50
270.0
 51
0.0
  0
ARC
  5
2769
  8
AM_0
 10
435.85027158017112
 20
249.29633000000001
 30
0.0
 40
2.0000000500000001
 50
179.99998999999991
 51
268.00000999999992
  0
LINE
  5
276A
  8
AM_0
 10
435.78042158017109
 20
247.29751999999999
 30
0.0
 11
446.85022158017108
 21
246.91095500000009
 31
0.0
  0
LINE
  5
276B
  8
AM_0
 10
474.85027158017152
 20
295.95337499999999
 30
0.0
 11
474.85027158017152
 21
312.05338
 31
0.0
  0
ARC
  5
276C
  8
AM_0
 10
474.85027158017152
 20
303.827855
 30
0.0
 40
9.7211409999999994
 50
90.000003000000007
 51
270.0
  0
LINE
  5
276D
  8
AM_0
 10
400.35022158017108
 20
452.9676090000001
 30
0.0
 11
344.13158858017118
 21
420.5097659999999
 31
0.0
  0
LINE
  5
276E
  8
AM_0
 10
342.33983358017122
 20
416.9109850000001
 30
0.0
 11
342.33983358017122
 21
336.91098499999998
 31
0.0
  0
LINE
  5
276F
  8
AM_0
 10
310.01047558017092
 20
415.9109850000001
 30
0.0
 11
310.01047558017092
 21
337.9109850000001
 31
0.0
  0
LINE
  5
2770
  8
AM_0
 10
301.35022158017102
 20
341.0656860000002
 30
0.0
 11
301.35022158017102
 21
412.75628399999999
 31
0.0
  0
LINE
  5
2771
  8
AM_0
 10
299.35022158017102
 20
351.91098500000021
 30
0.0
 11
299.35022158017102
 21
401.9109850000001
 31
0.0
  0
LINE
  5
2772
  8
AM_0
 10
288.35022158017102
 20
388.9109850000001
 30
0.0
 11
288.35022158017102
 21
391.91098500000021
 31
0.0
  0
LINE
  5
2773
  8
AM_0
 10
312.0791015801712
 20
334.8748770000002
 30
0.0
 11
340.27120758017122
 21
334.38278200000002
 31
0.0
  0
LINE
  5
2774
  8
AM_0
 10
302.35022158017102
 20
339.33363500000002
 30
0.0
 11
308.21872058017101
 21
335.94545500000021
 31
0.0
  0
ARC
  5
2775
  8
AM_0
 10
312.21872058017101
 20
342.87365900000009
 30
0.0
 40
8.0
 50
239.9999999999998
 51
268.99999999999812
  0
ARC
  5
2776
  8
AM_0
 10
303.35022158017102
 20
341.0656860000002
 30
0.0
 40
2.0
 50
180.0
 51
239.9999999999998
  0
LINE
  5
2777
  8
AM_0
 10
299.35022158017102
 20
351.91098500000021
 30
0.0
 11
301.35022158017102
 21
349.91098500000021
 31
0.0
  0
LINE
  5
2778
  8
AM_0
 10
296.35022158017102
 20
389.41098500000021
 30
0.0
 11
296.35022158017102
 21
364.41098500000021
 31
0.0
  0
LINE
  5
2779
  8
AM_0
 10
296.35022158017102
 20
364.41098500000021
 30
0.0
 11
299.35022158017102
 21
364.41098500000021
 31
0.0
  0
LINE
  5
277A
  8
AM_0
 10
296.35022158017102
 20
389.41098500000021
 30
0.0
 11
299.35022158017102
 21
389.41098500000021
 31
0.0
  0
ARC
  5
277B
  8
AM_0
 10
340.13158858017118
 20
326.38400000000013
 30
0.0
 40
8.0
 50
59.999999999999851
 51
88.999999999998224
  0
LINE
  5
277C
  8
AM_0
 10
312.0791015801712
 20
418.94709299999988
 30
0.0
 11
340.27120758017122
 21
419.43918800000017
 31
0.0
  0
LINE
  5
277D
  8
AM_0
 10
299.35022158017102
 20
401.9109850000001
 30
0.0
 11
301.35022158017102
 21
403.9109850000001
 31
0.0
  0
ARC
  5
277E
  8
AM_0
 10
312.21872058017101
 20
410.9483110000001
 30
0.0
 40
8.0
 50
91.000000000001705
 51
120.0000000000001
  0
ARC
  5
277F
  8
AM_0
 10
303.35022158017102
 20
412.75628399999999
 30
0.0
 40
2.0
 50
120.0000000000001
 51
180.0
  0
LINE
  5
2780
  8
AM_0
 10
302.35022158017102
 20
414.48833499999989
 30
0.0
 11
308.21872058017101
 21
417.87651500000021
 31
0.0
  0
ARC
  5
2781
  8
AM_0
 10
340.13158858017118
 20
427.43796999999989
 30
0.0
 40
8.0
 50
271.00000000000171
 51
300.0
  0
LINE
  5
2782
  8
AM_0
 10
419.85027158017112
 20
345.80054000000013
 30
0.0
 11
433.85022158017131
 21
345.80054000000013
 31
0.0
  0
LINE
  5
2783
  8
AM_0
 10
419.85027158017112
 20
321.05805000000009
 30
0.0
 11
433.85022158017131
 21
321.05805000000009
 31
0.0
  0
LINE
  5
2784
  8
AM_0
 10
419.85027158017112
 20
334.04843499999998
 30
0.0
 11
433.85022158017131
 21
334.04843499999998
 31
0.0
  0
LINE
  5
2785
  8
AM_0
 10
403.85022158017108
 20
351.16407900000002
 30
0.0
 11
415.85022158017108
 21
351.16407900000002
 31
0.0
  0
LINE
  5
2786
  8
AM_0
 10
404.85022158017108
 20
340.972847
 30
0.0
 11
414.85022158017108
 21
340.972847
 31
0.0
  0
ARC
  5
2787
  8
AM_0
 10
404.85022158017108
 20
342.972847
 30
0.0
 40
2.0
 50
180.0
 51
270.0
  0
LINE
  5
2788
  8
AM_0
 10
419.85027158017112
 20
345.80054000000013
 30
0.0
 11
419.85027158017112
 21
321.05805000000009
 31
0.0
  0
ARC
  5
2789
  8
AM_0
 10
414.85022158017108
 20
342.972847
 30
0.0
 40
2.0
 50
270.0
 51
0.0
  0
LINE
  5
278A
  8
AM_0
 10
417.85022158017108
 20
461.9109850000001
 30
0.0
 11
417.85022158017108
 21
291.9109850000001
 31
0.0
  0
LINE
  5
278B
  8
AM_0
 10
415.85022158017108
 20
460.84654199999989
 30
0.0
 11
403.85022158017108
 21
460.84654199999989
 31
0.0
  0
ARC
  5
278C
  8
AM_0
 10
397.85022158017108
 20
457.29773600000021
 30
0.0
 40
5.0
 50
300.0
 51
0.0
  0
LINE
  5
278D
  8
AM_0
 10
417.85022158017108
 20
460.41095500000017
 30
0.0
 11
419.85027158017112
 21
460.48081000000002
 31
0.0
  0
LINE
  5
278E
  8
AM_0
 10
419.85027158017112
 20
460.48081000000002
 30
0.0
 11
430.95492158017117
 21
460.86860000000001
 31
0.0
  0
LINE
  5
278F
  8
AM_0
 10
552.85022158017091
 20
414.91095500000017
 30
0.0
 11
552.85022158017091
 21
303.95368000000002
 31
0.0
  0
LINE
  5
2790
  8
AM_0
 10
566.85027158017135
 20
414.91095500000017
 30
0.0
 11
566.85027158017135
 21
294.910955
 31
0.0
  0
LINE
  5
2791
  8
AM_0
 10
544.85027158017147
 20
274.88898
 30
0.0
 11
544.85027158017147
 21
323.4041200000002
 31
0.0
  0
LINE
  5
2792
  8
AM_0
 10
506.57877158017112
 20
245.34691000000001
 30
0.0
 11
552.85027158017135
 21
272.06173999999999
 31
0.0
  0
ARC
  5
2793
  8
AM_0
 10
547.85022158017091
 20
274.88898
 30
0.0
 40
3.0000000500000001
 50
179.99998999999991
 51
271.99998999999991
  0
LINE
  5
2794
  8
AM_0
 10
547.95492158017123
 20
271.8908100000001
 30
0.0
 11
562.85027158017135
 21
272.410955
 31
0.0
  0
ARC
  5
2795
  8
AM_0
 10
547.85022158017091
 20
303.95368000000002
 30
0.0
 40
5.0
 50
268.0
 51
0.0
  0
LINE
  5
2796
  8
AM_0
 10
562.85022158017091
 20
294.910955
 30
0.0
 11
566.85027158017135
 21
294.910955
 31
0.0
  0
LINE
  5
2797
  8
AM_0
 10
582.85022158017091
 20
438.9109850000001
 30
0.0
 11
638.85022158017136
 21
438.9109850000001
 31
0.0
  0
LINE
  5
2798
  8
AM_0
 10
568.85022158017136
 20
435.91098500000021
 30
0.0
 11
638.85022158017136
 21
435.91098500000021
 31
0.0
  0
LINE
  5
2799
  8
AM_0
 10
568.85022158017136
 20
393.91098500000021
 30
0.0
 11
638.85022158017136
 21
393.91098500000021
 31
0.0
  0
ARC
  5
279A
  8
AM_0
 10
549.85027158017147
 20
323.4041200000002
 30
0.0
 40
5.0
 50
90.000003000000007
 51
180.00001
  0
ARC
  5
279B
  8
AM_0
 10
548.46282158017129
 20
434.83414500000009
 30
0.0
 40
5.0
 50
198.30292
 51
270.0
  0
LINE
  5
279C
  8
AM_0
 10
568.85022158017136
 20
392.410955
 30
0.0
 11
568.85022158017136
 21
437.410955
 31
0.0
  0
LINE
  5
279D
  8
AM_0
 10
566.85027158017135
 20
392.410955
 30
0.0
 11
568.85022158017136
 21
392.410955
 31
0.0
  0
LINE
  5
279E
  8
AM_0
 10
548.46282158017129
 20
429.83414500000009
 30
0.0
 11
552.85022158017091
 21
429.83414500000009
 31
0.0
  0
LINE
  5
279F
  8
AM_0
 10
566.85027158017135
 20
437.410955
 30
0.0
 11
568.85022158017136
 21
437.410955
 31
0.0
  0
LINE
  5
27A0
  8
AM_0
 10
582.85022158017091
 20
438.9109850000001
 30
0.0
 11
582.85022158017091
 21
435.91098500000021
 31
0.0
  0
LINE
  5
27A1
  8
AM_0
 10
638.85022158017136
 20
393.91098500000021
 30
0.0
 11
638.85022158017136
 21
438.9109850000001
 31
0.0
  0
LINE
  5
27A2
  8
AM_0
 10
433.85022158017131
 20
498.62827499999992
 30
0.0
 11
509.76077158017131
 21
498.62827499999992
 31
0.0
  0
LINE
  5
27A3
  8
AM_0
 10
433.85022158017131
 20
484.17148500000002
 30
0.0
 11
495.91172158017088
 21
484.17148500000002
 31
0.0
  0
LINE
  5
27A4
  8
AM_0
 10
446.85027158017118
 20
506.91100000000017
 30
0.0
 11
516.73842158017123
 21
508.74110000000007
 31
0.0
  0
ARC
  5
27A5
  8
AM_0
 10
430.85027158017112
 20
527.41094999999984
 30
0.0
 40
20.500000499999992
 50
304.61363999999992
 51
235.38634999999999
  0
CIRCLE
  5
27A6
  8
AM_0
 10
430.85027158017112
 20
527.41094999999984
 30
0.0
 40
12.5
  0
LINE
  5
27A7
  8
AM_0
 10
430.85022158017142
 20
514.91094999999984
 30
0.0
 11
438.35362158017108
 21
513.52560000000005
 31
0.0
  0
LINE
  5
27A8
  8
AM_0
 10
423.0331215801711
 20
513.41094999999996
 30
0.0
 11
438.66732158017129
 21
513.41094999999996
 31
0.0
  0
LINE
  5
27A9
  8
AM_0
 10
420.52737158017129
 20
506.41100000000017
 30
0.0
 11
435.18282158017109
 21
506.41100000000017
 31
0.0
  0
LINE
  5
27AA
  8
AM_0
 10
404.85022158017108
 20
475.9109850000001
 30
0.0
 11
414.85022158017108
 21
475.9109850000001
 31
0.0
  0
ARC
  5
27AB
  8
AM_0
 10
404.85022158017108
 20
473.9109850000001
 30
0.0
 40
2.0
 50
90.0
 51
180.0
  0
ARC
  5
27AC
  8
AM_0
 10
414.85022158017108
 20
473.9109850000001
 30
0.0
 40
2.0
 50
0.0
 51
90.0
  0
ARC
  5
27AD
  8
AM_0
 10
416.93327158017109
 20
507.24745000000007
 30
0.0
 40
4.000000049999997
 50
347.92932999999999
 51
55.386358999999992
  0
ARC
  5
27AE
  8
AM_0
 10
421.85027158017118
 20
504.91095000000013
 30
0.0
 40
2.0000000500000001
 50
131.4096199999999
 51
180.00001
  0
ARC
  5
27AF
  8
AM_0
 10
423.52842158017108
 20
512.54224999999985
 30
0.0
 40
1.0
 50
100.4607199999999
 51
164.99999
  0
LINE
  5
27B0
  8
AM_0
 10
420.85027158017118
 20
506.4109499999999
 30
0.0
 11
422.56247158017112
 21
512.80109999999979
 31
0.0
  0
LINE
  5
27B1
  8
AM_0
 10
423.34672158017088
 20
513.52565000000027
 30
0.0
 11
430.85012158017111
 21
514.91100000000017
 31
0.0
  0
ARC
  5
27B2
  8
AM_0
 10
444.76717158017101
 20
507.24745000000007
 30
0.0
 40
4.000000049999997
 50
124.61365000000001
 51
187.86822000000001
  0
ARC
  5
27B3
  8
AM_0
 10
435.85027158017112
 20
504.5256500000001
 30
0.0
 40
2.0000000500000001
 50
91.999997999999948
 51
180.00001
  0
ARC
  5
27B4
  8
AM_0
 10
438.17212158017128
 20
512.54224999999985
 30
0.0
 40
1.0
 50
15.0
 51
79.539281000000003
  0
LINE
  5
27B5
  8
AM_0
 10
440.77312158017088
 20
506.69875000000002
 30
0.0
 11
439.1379715801711
 21
512.80105000000015
 31
0.0
  0
LINE
  5
27B6
  8
AM_0
 10
435.78042158017109
 20
506.5243999999999
 30
0.0
 11
446.85022158017108
 21
506.91095000000001
 31
0.0
  0
ARC
  5
27B7
  8
AM_0
 10
539.85027158017135
 20
536.98205000000019
 30
0.0
 40
5.0
 50
315.0
 51
0.0
  0
ARC
  5
27B8
  8
AM_0
 10
539.85027158017135
 20
522.44875000000025
 30
0.0
 40
5.0
 50
300.88097999999979
 51
0.0
  0
LINE
  5
27B9
  8
AM_0
 10
528.79302158017106
 20
483.3922199999999
 30
0.0
 11
544.85027158017147
 21
495.37104000000022
 31
0.0
  0
LINE
  5
27BA
  8
AM_0
 10
542.70287158017118
 20
511.91460000000001
 30
0.0
 11
500.94482158017121
 21
486.94177999999988
 31
0.0
  0
LINE
  5
27BB
  8
AM_0
 10
542.41647158017122
 20
518.15760000000012
 30
0.0
 11
505.35757158017122
 21
495.99500499999988
 31
0.0
  0
LINE
  5
27BC
  8
AM_0
 10
498.35027158017118
 20
482.39990999999992
 30
0.0
 11
525.80327158017099
 21
482.39990999999992
 31
0.0
  0
ARC
  5
27BD
  8
AM_0
 10
477.05002158017101
 20
508.70610000000022
 30
0.0
 40
30.946884499999999
 50
307.55230999999992
 51
335.5961299999999
  0
ARC
  5
27BE
  8
AM_0
 10
498.35027158017118
 20
487.39990999999992
 30
0.0
 40
5.0
 50
229.76332999999991
 51
270.0
  0
ARC
  5
27BF
  8
AM_0
 10
525.80327158017099
 20
487.39990999999992
 30
0.0
 40
5.0
 50
270.0
 51
306.72320999999999
  0
ARC
  5
27C0
  8
AM_0
 10
516.60752158017101
 20
513.73934999999994
 30
0.0
 40
5.0
 50
271.49999999999972
 51
315.0
  0
LINE
  5
27C1
  8
AM_0
 10
520.14312158017106
 20
510.20375000000001
 30
0.0
 11
543.38577158017131
 21
533.44650000000013
 31
0.0
  0
LINE
  5
27C2
  8
AM_0
 10
520.05792158017107
 20
504.7863000000001
 30
0.0
 11
518.73252158017112
 21
508.7933000000001
 31
0.0
  0
ARC
  5
27C3
  8
AM_0
 10
547.85022158017091
 20
525.86824999999988
 30
0.0
 40
5.0
 50
0.0
 51
91.999997999999948
  0
ARC
  5
27C4
  8
AM_0
 10
547.85022158017091
 20
553.88530000000014
 30
0.0
 40
3.0000000500000001
 50
91.999997999999948
 51
180.00001
  0
LINE
  5
27C5
  8
AM_0
 10
562.85022158017091
 20
534.91094999999984
 30
0.0
 11
566.85027158017135
 21
534.91094999999984
 31
0.0
  0
LINE
  5
27C6
  8
AM_0
 10
547.74552158017104
 20
556.88350000000014
 30
0.0
 11
562.85027158017135
 21
557.41095000000018
 31
0.0
  0
CIRCLE
  5
27C7
  8
AM_0
 10
935.92454156834413
 20
414.91095500000017
 30
0.0
 40
120.0
  0
CIRCLE
  5
27C8
  8
AM_0
 10
935.92454156834413
 20
414.91095500000017
 30
0.0
 40
113.0
  0
ARC
  5
27C9
  8
AM_0
 10
935.92454156834413
 20
376.91098500000021
 30
0.0
 40
122.0
 50
22.571981999999991
 51
55.326820000000012
  0
ARC
  5
27CA
  8
AM_0
 10
935.92454156834413
 20
376.91098500000021
 30
0.0
 40
122.0
 50
124.67318
 51
157.42802
  0
LINE
  5
27CB
  8
ﾁｭｳｼﾝｾﾝ
 10
935.92454156834413
 20
565.00341448936001
 30
0.0
 11
935.92454156834413
 21
238.94138000000021
 31
0.0
  0
LINE
  5
27CC
  8
AM_0
 10
1015.499556568344
 20
487.41489500000017
 30
0.0
 11
986.30558656834376
 21
458.2208950000001
 31
0.0
  0
LINE
  5
27CD
  8
AM_0
 10
856.3495565683437
 20
487.41489500000017
 30
0.0
 11
885.54352656834362
 21
458.22092500000002
 31
0.0
  0
LINE
  5
27CE
  8
AM_0
 10
793.424546568344
 20
464.91095500000017
 30
0.0
 11
793.424546568344
 21
414.91095500000017
 31
0.0
  0
LINE
  5
27CF
  8
AM_0
 10
1078.4245265683439
 20
464.91095500000017
 30
0.0
 11
1078.4245265683439
 21
414.91095500000017
 31
0.0
  0
ARC
  5
27D0
  8
AM_0
 10
870.92454156834401
 20
264.32767000000013
 30
0.0
 40
10.0
 50
195.00001
 51
285.0
  0
LINE
  5
27D1
  8
ﾁｭｳｼﾝｾﾝ
 10
784.74207274643345
 20
414.91095500000017
 30
0.0
 11
1083.781734400912
 21
414.91095500000017
 31
0.0
  0
LINE
  5
27D2
  8
AM_0
 10
814.25272656834386
 20
274.91381999999999
 30
0.0
 11
885.92457156834371
 21
272.41098499999998
 31
0.0
  0
LINE
  5
27D3
  8
AM_0
 10
830.40204656834362
 20
386.9109850000001
 30
0.0
 11
865.92454156834356
 21
386.9109850000001
 31
0.0
  0
LINE
  5
27D4
  8
AM_0
 10
795.92739656834442
 20
293.23914000000002
 30
0.0
 11
793.424546568344
 21
364.91101500000008
 31
0.0
  0
CIRCLE
  5
27D5
  8
AM_0
 10
815.71638156834388
 20
294.70282500000019
 30
0.0
 40
9.5
  0
ARC
  5
27D6
  8
ﾁｭｳｼﾝｾﾝ1
 10
935.92454156834071
 20
414.9109549999971
 30
0.0
 40
170.0000049999955
 50
218.85865324382479
 51
231.0146100000002
  0
LINE
  5
27D7
  8
ﾁｭｳｼﾝｾﾝ1
 10
803.75054621348613
 20
282.7369255961973
 30
0.0
 11
828.36004827346676
 21
307.3464312217003
 31
0.0
  0
ARC
  5
27D8
  8
AM_0
 10
814.91578156834362
 20
293.90225500000008
 30
0.0
 40
19.000000499999999
 50
182.0
 51
268.0
  0
LINE
  5
27D9
  8
AM_0
 10
861.26527156834379
 20
261.7394750000002
 30
0.0
 11
858.14594656834367
 21
273.38098500000001
 31
0.0
  0
LINE
  5
27DA
  8
AM_0
 10
793.424546568344
 20
364.910955
 30
0.0
 11
793.424546568344
 21
414.91095500000017
 31
0.0
  0
ARC
  5
27DB
  8
AM_0
 10
830.40204656834362
 20
391.91098500000021
 30
0.0
 40
5.0
 50
192.29603999999981
 51
270.0
  0
LINE
  5
27DC
  8
AM_0
 10
1075.9217065683431
 20
293.23917
 30
0.0
 11
1078.4245265683439
 21
364.910955
 31
0.0
  0
ARC
  5
27DD
  8
AM_0
 10
935.92454156834413
 20
376.91098500000021
 30
0.0
 40
130.0
 50
246.6310399999999
 51
293.36896000000002
  0
LINE
  5
27DE
  8
AM_0
 10
985.92454156834413
 20
272.410955
 30
0.0
 11
935.92454156834413
 21
272.410955
 31
0.0
  0
LINE
  5
27DF
  8
AM_0
 10
885.92454156834413
 20
272.410955
 30
0.0
 11
935.92454156834413
 21
272.410955
 31
0.0
  0
LINE
  5
27E0
  8
AM_0
 10
873.51273656834371
 20
254.66839999999999
 30
0.0
 11
884.35993656834398
 21
257.5748950000002
 31
0.0
  0
LINE
  5
27E1
  8
AM_0
 10
1057.596356568343
 20
274.91379000000001
 30
0.0
 11
985.92454156834413
 21
272.41098499999998
 31
0.0
  0
ARC
  5
27E2
  8
AM_0
 10
1000.924541568344
 20
264.32767000000013
 30
0.0
 40
10.0
 50
255.0
 51
345.0
  0
LINE
  5
27E3
  8
AM_0
 10
998.33631656834393
 20
254.66839999999999
 30
0.0
 11
987.48908656834385
 21
257.57492500000001
 31
0.0
  0
LINE
  5
27E4
  8
AM_0
 10
1010.583781568344
 20
261.7394750000002
 30
0.0
 11
1013.7031065683429
 21
273.38101499999999
 31
0.0
  0
ARC
  5
27E5
  8
AM_0
 10
1056.933271568344
 20
293.90225500000008
 30
0.0
 40
19.000000499999999
 50
272.0
 51
358.0
  0
CIRCLE
  5
27E6
  8
AM_0
 10
1056.1326865683441
 20
294.70282500000019
 30
0.0
 40
9.5
  0
CIRCLE
  5
27E7
  8
AM_0
 10
935.92454156834413
 20
414.91095500000017
 30
0.0
 40
41.000000499999992
  0
LINE
  5
27E8
  8
ﾁｭｳｼﾝｾﾝ
 10
873.92454156834401
 20
376.91098500000021
 30
0.0
 11
997.92454156834401
 21
376.91098500000021
 31
0.0
  0
ARC
  5
27E9
  8
AM_0
 10
865.92454156834356
 20
394.910955
 30
0.0
 40
8.0
 50
270.0
 51
0.0
  0
ARC
  5
27EA
  8
AM_0
 10
935.92454156834413
 20
414.91095500000017
 30
0.0
 40
20.9999985
 50
106.60155
 51
73.398452000000006
  0
ARC
  5
27EB
  8
AM_0
 10
935.92454156834413
 20
414.91095500000017
 30
0.0
 40
61.999994999999998
 50
143.58112451767931
 51
180.00001
  0
LINE
  5
27EC
  8
AM_0
 10
873.92454156834356
 20
414.91095500000017
 30
0.0
 11
873.92454156834356
 21
394.910955
 31
0.0
  0
ARC
  5
27ED
  8
AM_0
 10
882.00800656834383
 20
454.68540000000002
 30
0.0
 40
5.0
 50
323.5836799999999
 51
45.00000099999999
  0
CIRCLE
  5
27EE
  8
AM_0
 10
935.92454156834413
 20
414.91095500000017
 30
0.0
 40
3.5000000500000001
  0
CIRCLE
  5
27EF
  8
AM_5
 10
935.92454156834413
 20
414.91095500000017
 30
0.0
 40
5.0
  0
LINE
  5
27F0
  8
AM_0
 10
929.92454156834401
 20
438.9109850000001
 30
0.0
 11
941.9245415683439
 21
438.9109850000001
 31
0.0
  0
LINE
  5
27F1
  8
AM_0
 10
929.92454156834401
 20
430.9109850000001
 30
0.0
 11
941.9245415683439
 21
430.9109850000001
 31
0.0
  0
LINE
  5
27F2
  8
AM_0
 10
929.92454156834401
 20
438.9109850000001
 30
0.0
 11
929.92454156834401
 21
430.9109850000001
 31
0.0
  0
LINE
  5
27F3
  8
AM_0
 10
941.9245415683439
 20
438.9109850000001
 30
0.0
 11
941.9245415683439
 21
430.9109850000001
 31
0.0
  0
LINE
  5
27F4
  8
AM_0
 10
1078.4245265683439
 20
364.910955
 30
0.0
 11
1078.4245265683439
 21
414.91095500000017
 31
0.0
  0
ARC
  5
27F5
  8
AM_0
 10
1005.924541568343
 20
394.910955
 30
0.0
 40
8.0
 50
179.99998999999991
 51
270.0
  0
ARC
  5
27F6
  8
AM_0
 10
1041.447036568343
 20
391.91098500000021
 30
0.0
 40
5.0
 50
270.0
 51
347.70395000000002
  0
LINE
  5
27F7
  8
AM_0
 10
1041.447036568343
 20
386.9109850000001
 30
0.0
 11
1005.924541568343
 21
386.9109850000001
 31
0.0
  0
ARC
  5
27F8
  8
AM_0
 10
935.92454156834413
 20
414.91095500000017
 30
0.0
 40
61.999994999999998
 50
0.0
 51
36.416317999999983
  0
LINE
  5
27F9
  8
AM_0
 10
997.92451156834363
 20
414.91095500000017
 30
0.0
 11
997.92451156834363
 21
394.910955
 31
0.0
  0
ARC
  5
27FA
  8
AM_0
 10
989.841106568344
 20
454.68540000000002
 30
0.0
 40
5.0
 50
135.0
 51
216.41632000000001
  0
LINE
  5
27FB
  8
AM_0
 10
863.42063656834364
 20
494.48597000000012
 30
0.0
 11
892.61460656834379
 21
465.29199999999992
 31
0.0
  0
LINE
  5
27FC
  8
AM_0
 10
814.25272656834386
 20
554.90820000000008
 30
0.0
 11
885.92457156834371
 21
557.41100000000006
 31
0.0
  0
CIRCLE
  5
27FD
  8
AM_0
 10
815.71638156834388
 20
535.1191500000001
 30
0.0
 40
9.5
  0
LINE
  5
27FE
  8
AM_0
 10
795.92739656834442
 20
536.58285000000012
 30
0.0
 11
793.424546568344
 21
464.91095500000017
 31
0.0
  0
ARC
  5
27FF
  8
AM_0
 10
866.95615656834389
 20
498.0215199999999
 30
0.0
 40
5.0
 50
129.68721999999991
 51
225.0
  0
ARC
  5
2800
  8
AM_0
 10
852.81400656834364
 20
483.87936999999999
 30
0.0
 40
5.0
 50
45.00000099999999
 51
140.31278
  0
ARC
  5
2801
  8
AM_0
 10
814.91578156834362
 20
535.91975000000025
 30
0.0
 40
19.000000499999999
 50
91.999997999999948
 51
178.0
  0
ARC
  5
2802
  8
AM_0
 10
975.69895656834365
 20
468.82755000000009
 30
0.0
 40
5.0
 50
233.5836799999999
 51
315.0
  0
ARC
  5
2803
  8
AM_0
 10
935.92454156834413
 20
376.91098500000021
 30
0.0
 40
122.0
 50
60.143059999999998
 51
86.162371999999962
  0
LINE
  5
2804
  8
AM_0
 10
985.92454156834413
 20
557.41095000000018
 30
0.0
 11
935.92454156834413
 21
557.41095000000018
 31
0.0
  0
ARC
  5
2805
  8
AM_0
 10
935.92454156834106
 20
376.91095500002473
 30
0.0
 40
121.9999999999761
 50
93.837626000002999
 51
119.8569400000037
  0
ARC
  5
2806
  8
AM_0
 10
935.92454156834413
 20
414.91095500000017
 30
0.0
 40
61.999994999999998
 50
53.583680999999999
 51
126.41632
  0
ARC
  5
2807
  8
AM_0
 10
896.15012656834358
 20
468.82755000000009
 30
0.0
 40
5.0
 50
225.0
 51
306.41631999999993
  0
ARC
  5
2808
  8
AM_0
 10
927.42454156834401
 20
503.62625000000008
 30
0.0
 40
5.0
 50
273.83762999999999
 51
0.0
  0
ARC
  5
2809
  8
AM_0
 10
944.42454156834401
 20
503.62625000000008
 30
0.0
 40
5.0
 50
179.99998999999991
 51
266.16235999999992
  0
LINE
  5
280A
  8
AM_0
 10
939.42454156834413
 20
522.57595000000015
 30
0.0
 11
939.42454156834413
 21
503.62625000000008
 31
0.0
  0
LINE
  5
280B
  8
AM_0
 10
932.42454156834401
 20
522.57595000000015
 30
0.0
 11
932.42454156834401
 21
503.62625000000008
 31
0.0
  0
ARC
  5
280C
  8
AM_0
 10
927.42454156834401
 20
522.57595000000015
 30
0.0
 40
5.0
 50
0.0
 51
94.514060999999984
  0
ARC
  5
280D
  8
AM_0
 10
944.42454156834401
 20
522.57595000000015
 30
0.0
 40
5.0
 50
85.485943999999975
 51
180.00001
  0
LINE
  5
280E
  8
AM_0
 10
885.92454156834413
 20
557.41095000000018
 30
0.0
 11
935.92454156834413
 21
557.41095000000018
 31
0.0
  0
LINE
  5
280F
  8
AM_0
 10
1075.9216915683421
 20
536.58285000000012
 30
0.0
 11
1078.4245265683439
 21
464.9109850000001
 31
0.0
  0
CIRCLE
  5
2810
  8
AM_0
 10
1056.1326865683441
 20
535.1191500000001
 30
0.0
 40
9.5
  0
ARC
  5
2811
  8
ﾁｭｳｼﾝｾﾝ1
 10
935.92454156833514
 20
414.91095499999147
 30
0.0
 40
170.00000500001201
 50
38.620247178703792
 51
51.014603999999522
  0
LINE
  5
2812
  8
ﾁｭｳｼﾝｾﾝ1
 10
1067.974423579481
 20
546.96082473097294
 30
0.0
 11
1043.795059695444
 21
522.78147610209396
 31
0.0
  0
ARC
  5
2813
  8
AM_0
 10
1004.892956568343
 20
498.0215199999999
 30
0.0
 40
5.0
 50
315.0
 51
50.312775000000002
  0
LINE
  5
2814
  8
AM_0
 10
1008.428481568343
 20
494.48594000000008
 30
0.0
 11
979.23451156834381
 21
465.29196999999988
 31
0.0
  0
ARC
  5
2815
  8
AM_0
 10
1019.035046568344
 20
483.87936999999999
 30
0.0
 40
5.0
 50
39.687224000000001
 51
135.0
  0
LINE
  5
2816
  8
AM_0
 10
1057.596356568343
 20
554.90815000000021
 30
0.0
 11
985.92457156834371
 21
557.41095000000018
 31
0.0
  0
ARC
  5
2817
  8
AM_0
 10
1056.933271568344
 20
535.91975000000025
 30
0.0
 40
19.000000499999999
 50
2.0
 51
88.0
  0
LINE
  5
2818
  8
AM_0
 10
402.85025158017118
 20
743.35876274074406
 30
0.0
 11
402.85025158017118
 21
923.85212544265096
 31
0.0
  0
ARC
  5
2819
  8
AM_0
 10
404.85025158017129
 20
743.35876274074406
 30
0.0
 40
2.0
 50
180.0
 51
270.0
1001
GENIUS_GENOBJ-N-FIL_13
1002
{
1000
OWNER
1000
GEN
1002
}
1001
GENIUS_GENODEF_13
1002
{
1000
HIER
1070
     0
1002
}
1002
{
1000
MANEDIT
1070
     0
1002
}
1002
{
1000
NOSEL
1070
     0
1002
}
1002
{
1000
BEHIND
1070
     0
1002
}
1002
{
1000
OTHER
1070
     0
1002
}
1002
{
1000
REACTOR
1002
}
  0
LINE
  5
281A
  8
AM_0
 10
404.85025158017129
 20
741.35876274074428
 30
0.0
 11
414.85025158017129
 21
741.35876274074428
 31
0.0
  0
LINE
  5
281B
  8
AM_0
 10
416.850251580171
 20
747.60544409169768
 30
0.0
 11
404.85025158017129
 21
747.60544409169768
 31
0.0
  0
ARC
  5
281C
  8
AM_0
 10
404.85025158017129
 20
749.60544409169745
 30
0.0
 40
2.0
 50
180.0
 51
270.0
  0
ARC
  5
281D
  8
AM_0
 10
397.85025158017129
 20
753.21869309169745
 30
0.0
 40
5.0
 50
0.0
 51
59.999999999999439
  0
LINE
  5
281E
  8
AM_0
 10
400.35025158017112
 20
757.54882009169773
 30
0.0
 11
344.13161858017122
 21
790.00666309169765
 31
0.0
  0
LINE
  5
281F
  8
AM_0
 10
400.35025158017112
 20
909.66206809169773
 30
0.0
 11
344.13161858017122
 21
877.20422509169759
 31
0.0
  0
ARC
  5
2820
  8
AM_0
 10
288.35025158017118
 20
833.60544409169756
 30
0.0
 40
4.0
 50
270.0
 51
90.0
  0
LINE
  5
2821
  8
AM_0
 10
296.35025158017112
 20
846.10544409169756
 30
0.0
 11
296.35025158017112
 21
821.10544409169756
 31
0.0
  0
LINE
  5
2822
  8
AM_0
 10
301.35025158017112
 20
797.76014509169772
 30
0.0
 11
301.35025158017112
 21
869.45074309169775
 31
0.0
  0
LINE
  5
2823
  8
AM_0
 10
299.35025158017112
 20
808.60544409169756
 30
0.0
 11
299.35025158017112
 21
858.60544409169756
 31
0.0
  0
LINE
  5
2824
  8
AM_0
 10
288.35025158017118
 20
829.60544409169745
 30
0.0
 11
288.35025158017118
 21
837.60544409169745
 31
0.0
  0
LINE
  5
2825
  8
AM_0
 10
260.35025158017129
 20
845.60544409169768
 30
0.0
 11
260.35025158017129
 21
821.60544409169768
 31
0.0
  0
LINE
  5
2826
  8
AM_0
 10
342.3398635801712
 20
873.60544409169745
 30
0.0
 11
342.3398635801712
 21
793.60544409169768
 31
0.0
  0
LINE
  5
2827
  8
AM_0
 10
310.01050558017118
 20
872.60544409169768
 30
0.0
 11
310.01050558017118
 21
794.60544409169745
 31
0.0
  0
LINE
  5
2828
  8
AM_0
 10
260.35025158017129
 20
821.60544409169768
 30
0.0
 11
296.35025158017112
 21
821.60544409169768
 31
0.0
  0
LINE
  5
2829
  8
AM_0
 10
260.35025158017129
 20
829.60544409169745
 30
0.0
 11
288.35025158017118
 21
829.60544409169745
 31
0.0
  0
LINE
  5
282A
  8
AM_0
 10
312.07913158017118
 20
791.56933609169755
 30
0.0
 11
340.2712375801712
 21
791.07724109169772
 31
0.0
  0
LINE
  5
282B
  8
AM_0
 10
302.35025158017118
 20
796.02809409169765
 30
0.0
 11
308.21875058017122
 21
792.63991409169773
 31
0.0
  0
ARC
  5
282C
  8
AM_0
 10
303.35025158017112
 20
797.76014509169772
 30
0.0
 40
2.0
 50
180.0
 51
239.99999999999949
  0
ARC
  5
282D
  8
AM_0
 10
312.21875058017122
 20
799.56811809169756
 30
0.0
 40
8.0
 50
239.99999999999949
 51
268.99999999999812
  0
ARC
  5
282E
  8
AM_0
 10
340.13161858017122
 20
783.07845909169771
 30
0.0
 40
8.0
 50
59.999999999999439
 51
88.999999999998224
  0
LINE
  5
282F
  8
AM_0
 10
299.35025158017112
 20
808.60544409169756
 30
0.0
 11
301.35025158017112
 21
806.60544409169745
 31
0.0
  0
LINE
  5
2830
  8
AM_0
 10
296.35025158017112
 20
821.10544409169756
 30
0.0
 11
299.35025158017112
 21
821.10544409169756
 31
0.0
  0
LINE
  5
2831
  8
AM_0
 10
260.35025158017129
 20
845.60544409169768
 30
0.0
 11
296.35025158017112
 21
845.60544409169768
 31
0.0
  0
LINE
  5
2832
  8
AM_0
 10
260.35025158017129
 20
837.60544409169745
 30
0.0
 11
288.35025158017118
 21
837.60544409169745
 31
0.0
  0
LINE
  5
2833
  8
AM_0
 10
302.35025158017118
 20
871.1827940916977
 30
0.0
 11
308.21875058017122
 21
874.57097409169774
 31
0.0
  0
LINE
  5
2834
  8
AM_0
 10
296.35025158017112
 20
846.10544409169756
 30
0.0
 11
299.35025158017112
 21
846.10544409169756
 31
0.0
  0
LINE
  5
2835
  8
AM_0
 10
299.35025158017112
 20
858.60544409169756
 30
0.0
 11
301.35025158017112
 21
860.60544409169756
 31
0.0
  0
ARC
  5
2836
  8
AM_0
 10
303.35025158017112
 20
869.45074309169775
 30
0.0
 40
2.0
 50
120.0000000000005
 51
180.0
  0
LINE
  5
2837
  8
AM_0
 10
312.07913158017118
 20
875.64155209169769
 30
0.0
 11
340.2712375801712
 21
876.13364709169764
 31
0.0
  0
ARC
  5
2838
  8
AM_0
 10
312.21875058017122
 20
867.64277009169757
 30
0.0
 40
8.0
 50
91.000000000001776
 51
120.0000000000005
  0
ARC
  5
2839
  8
AM_0
 10
340.13161858017122
 20
884.13242909169765
 30
0.0
 40
8.0
 50
271.00000000000171
 51
300.00000000000051
  0
LINE
  5
283A
  8
AM_0
 10
402.85025158017118
 20
814.87519437073013
 30
0.0
 11
416.850251580171
 21
814.87519437073013
 31
0.0
  0
LINE
  5
283B
  8
AM_0
 10
402.85025158017118
 20
818.60544409169756
 30
0.0
 11
416.85025158017112
 21
818.60544409169756
 31
0.0
  0
LINE
  5
283C
  8
AM_0
 10
402.85025158017118
 20
852.33569381266511
 30
0.0
 11
416.850251580171
 21
852.33569381266511
 31
0.0
  0
LINE
  5
283D
  8
AM_0
 10
402.85025158017118
 20
848.60544409169745
 30
0.0
 11
416.85025158017112
 21
848.60544409169745
 31
0.0
  0
LINE
  5
283E
  8
AM_0
 10
416.850251580171
 20
852.33569381266511
 30
0.0
 11
416.85025158017112
 21
837.60538419641705
 31
0.0
  0
ARC
  5
283F
  8
AM_0
 10
397.85025158017129
 20
913.99219509169757
 30
0.0
 40
5.0
 50
300.00000000000051
 51
0.0
  0
ARC
  5
2840
  8
AM_0
 10
404.85025158017129
 20
923.85212544265096
 30
0.0
 40
2.0
 50
90.0
 51
180.0
1001
GENIUS_GENOBJ-N-FIL_13
1002
{
1000
OWNER
1000
GEN
1002
}
1001
GENIUS_GENODEF_13
1002
{
1000
HIER
1070
     0
1002
}
1002
{
1000
MANEDIT
1070
     0
1002
}
1002
{
1000
NOSEL
1070
     0
1002
}
1002
{
1000
BEHIND
1070
     0
1002
}
1002
{
1000
OTHER
1070
     0
1002
}
1002
{
1000
REACTOR
1002
}
  0
LINE
  5
2841
  8
AM_0
 10
416.850251580171
 20
919.60544409169768
 30
0.0
 11
404.85025158017129
 21
919.60544409169768
 31
0.0
  0
LINE
  5
2842
  8
AM_0
 10
404.85025158017129
 20
925.85212544265096
 30
0.0
 11
414.85025158017129
 21
925.85212544265096
 31
0.0
  0
ARC
  5
2843
  8
AM_0
 10
404.85025158017129
 20
917.60544409169756
 30
0.0
 40
2.0
 50
90.0
 51
180.0
  0
LINE
  5
2844
  8
AM_0
 10
416.850251580171
 20
919.60544409169768
 30
0.0
 11
417.85025158017129
 21
918.60544409169756
 31
0.0
  0
LINE
  5
2845
  8
AM_0
 10
416.85025158017112
 20
919.60544409169768
 30
0.0
 11
416.850251580171
 21
923.85212544265096
 31
0.0
  0
ARC
  5
2846
  8
AM_0
 10
414.85025158017129
 20
923.85212544265096
 30
0.0
 40
2.0
 50
0.0
 51
90.0
1001
GENIUS_GENODEF_13
1002
{
1000
HIER
1070
     0
1002
}
1002
{
1000
MANEDIT
1070
     0
1002
}
1002
{
1000
NOSEL
1070
     0
1002
}
1002
{
1000
BEHIND
1070
     0
1002
}
1002
{
1000
OTHER
1070
     0
1002
}
1002
{
1000
REACTOR
1002
}
1001
GENIUS_GENOBJ-N-FIL_13
1002
{
1000
OWNER
1000
GEN
1002
}
  0
ARC
  5
2847
  8
AM_0
 10
414.85025158017129
 20
743.35876274074406
 30
0.0
 40
2.0
 50
270.0
 51
0.0
1001
GENIUS_GENODEF_13
1002
{
1000
HIER
1070
     0
1002
}
1002
{
1000
MANEDIT
1070
     0
1002
}
1002
{
1000
NOSEL
1070
     0
1002
}
1002
{
1000
BEHIND
1070
     0
1002
}
1002
{
1000
OTHER
1070
     0
1002
}
1002
{
1000
REACTOR
1002
}
1001
GENIUS_GENOBJ-N-FIL_13
1002
{
1000
OWNER
1000
GEN
1002
}
  0
LINE
  5
2848
  8
AM_0
 10
416.85025158017112
 20
747.60544409169745
 30
0.0
 11
416.850251580171
 21
743.35876274074406
 31
0.0
  0
LINE
  5
2849
  8
AM_0
 10
416.850251580171
 20
747.60544409169768
 30
0.0
 11
417.85025158017129
 21
748.60544409169756
 31
0.0
  0
ARC
  5
284B
  8
ﾁｭｳｼﾝｾﾝ1
 10
935.92454156835265
 20
414.91095499999147
 30
0.0
 40
170.00000500001201
 50
128.98539600000041
 51
141.37975282129619
  0
LINE
  5
284C
  8
ﾁｭｳｼﾝｾﾝ1
 10
803.87465955720666
 20
546.96082473097294
 30
0.0
 11
828.05402344124286
 21
522.78147610209396
 31
0.0
  0
ARC
  5
284D
  8
ﾁｭｳｼﾝｾﾝ1
 10
935.92454156834731
 20
414.9109549999971
 30
0.0
 40
170.0000049999955
 50
308.98538999999971
 51
321.14134675617521
  0
LINE
  5
284E
  8
ﾁｭｳｼﾝｾﾝ1
 10
1068.098536923201
 20
282.7369255961973
 30
0.0
 11
1043.48903486322
 21
307.3464312217003
 31
0.0
  0
LINE
  5
284F
  8
ﾁｭｳｼﾝｾﾝ
 10
244.98928197312279
 20
833.6054441964169
 30
0.0
 11
650.36422158017115
 21
833.6054441964169
 31
0.0
  0
POLYLINE
  5
2850
  8
AM_0
 66
     1
 10
0.0
 20
0.0
 30
0.0
  0
VERTEX
  5
2851
  8
AM_0
 10
523.71445158017127
 20
885.16993419641699
 30
0.0
 42
0.030646501
  0
VERTEX
  5
2852
  8
AM_0
 10
519.3049015801713
 20
850.88653419641651
 30
0.0
 42
0.064801596
  0
VERTEX
  5
2853
  8
AM_0
 10
523.71445158017127
 20
782.04091419641691
 30
0.0
  0
SEQEND
  5
2854
  8
AM_0
  0
ARC
  5
2855
  8
AM_0
 10
428.8501815801713
 20
817.73093419641702
 30
0.0
 40
5.0
 50
0.0
 51
82.818802999995938
  0
LINE
  5
2856
  8
AM_0
 10
566.85018158017124
 20
713.60544419641678
 30
0.0
 11
566.85018158017124
 21
953.60538419641705
 31
0.0
  0
LINE
  5
2857
  8
AM_0
 10
552.85018158017124
 20
722.64811419641694
 30
0.0
 11
552.85018158017124
 21
944.56272419641675
 31
0.0
  0
LINE
  5
2858
  8
AM_0
 10
562.85018158017124
 20
691.1054441964169
 30
0.0
 11
562.85018158017124
 21
976.10538419641682
 31
0.0
  0
LINE
  5
2859
  8
AM_0
 10
544.85025158017106
 20
694.6144141964171
 30
0.0
 11
544.85025158017106
 21
972.57981419641726
 31
0.0
  0
LINE
  5
285A
  8
AM_0
 10
638.85022158017136
 20
812.60544419641656
 30
0.0
 11
638.85022158017136
 21
854.6054441964169
 31
0.0
  0
LINE
  5
285B
  8
AM_0
 10
568.85025158017129
 20
811.1054441964169
 30
0.0
 11
568.85025158017129
 21
856.10544419641656
 31
0.0
  0
LINE
  5
285C
  8
AM_0
 10
417.85025158017129
 20
748.60544409169756
 30
0.0
 11
417.85025158017129
 21
829.6054441964169
 31
0.0
  0
LINE
  5
285D
  8
AM_0
 10
446.85025158017129
 20
693.86747419641688
 30
0.0
 11
446.85025158017129
 21
829.6054441964169
 31
0.0
  0
LINE
  5
285E
  8
AM_0
 10
433.8501815801713
 20
697.39566419641699
 30
0.0
 11
433.8501815801713
 21
824.06601419641697
 31
0.0
  0
LINE
  5
285F
  8
AM_0
 10
446.85025158017129
 20
782.04087419641667
 30
0.0
 11
544.85025158017106
 21
782.04087419641667
 31
0.0
  0
LINE
  5
2860
  8
AM_0
 10
446.85025158017129
 20
756.0396541964169
 30
0.0
 11
498.64596158017122
 21
756.0396541964169
 31
0.0
  0
LINE
  5
2861
  8
AM_0
 10
446.8501815801713
 20
693.86747419641688
 30
0.0
 11
547.78378158017131
 21
691.63181419641694
 31
0.0
  0
LINE
  5
2862
  8
AM_0
 10
446.85025158017129
 20
704.47507419641693
 30
0.0
 11
544.85025158017106
 21
701.05283419641694
 31
0.0
  0
LINE
  5
2863
  8
AM_0
 10
446.85025158017129
 20
693.86747419641688
 30
0.0
 11
436.69320158017132
 21
694.39975419641689
 31
0.0
  0
LINE
  5
2864
  8
AM_0
 10
435.78048158017128
 20
704.86167419641697
 30
0.0
 11
446.85031158017142
 21
704.47507419641693
 31
0.0
  0
ARC
  5
2865
  8
AM_0
 10
436.8501815801713
 20
697.39566419641699
 30
0.0
 40
3.0
 50
180.00001000000091
 51
266.99999000000008
  0
ARC
  5
2866
  8
AM_0
 10
435.85025158017118
 20
706.86051419641694
 30
0.0
 40
2.0
 50
179.9999899999988
 51
268.00000999999861
  0
LINE
  5
2867
  8
AM_0
 10
429.98983158017109
 20
746.82145419641711
 30
0.0
 11
419.8503715801711
 21
747.17551419641711
 31
0.0
  0
LINE
  5
2868
  8
AM_0
 10
429.98977158017118
 20
749.18155419641698
 30
0.0
 11
417.85031158017142
 21
749.60550419641697
 31
0.0
  0
LINE
  5
2869
  8
AM_0
 10
419.85031158017119
 20
749.53556419641711
 30
0.0
 11
419.85031158017119
 21
747.17545419641692
 31
0.0
  0
ARC
  5
286A
  8
AM_0
 10
429.8501815801713
 20
745.18399419641673
 30
0.0
 40
4.0
 50
0.0
 51
87.999999999996248
  0
ARC
  5
286B
  8
AM_0
 10
429.8501815801713
 20
742.82389419641709
 30
0.0
 40
4.0
 50
0.0
 51
87.999999999996248
  0
LINE
  5
286C
  8
AM_0
 10
433.8501815801713
 20
782.04093419641663
 30
0.0
 11
446.85025158017129
 21
782.04093419641663
 31
0.0
  0
LINE
  5
286D
  8
AM_0
 10
433.8501815801713
 20
756.0396541964169
 30
0.0
 11
446.85025158017129
 21
756.0396541964169
 31
0.0
  0
ARC
  5
286E
  8
AM_0
 10
547.85018158017124
 20
694.63102419641689
 30
0.0
 40
3.0
 50
179.9999899999988
 51
268.00000999999861
  0
LINE
  5
286F
  8
AM_0
 10
568.85025158017129
 20
812.60544419641656
 30
0.0
 11
638.85022158017136
 21
812.60544419641656
 31
0.0
  0
ARC
  5
2870
  8
AM_0
 10
498.64596158017122
 20
753.0396541964169
 30
0.0
 40
3.0
 50
59.11902300000196
 51
90.00000299999769
  0
ARC
  5
2871
  8
AM_0
 10
502.53775158017129
 20
757.70334419641711
 30
0.0
 40
3.0
 50
90.00000299999769
 51
239.11901999999981
  0
LINE
  5
2872
  8
AM_0
 10
542.70285158017145
 20
736.60178419641693
 30
0.0
 11
510.20010158017129
 21
756.0396541964169
 31
0.0
  0
LINE
  5
2873
  8
AM_0
 10
534.71884158017133
 20
760.70334419641665
 30
0.0
 11
544.85025158017106
 21
753.14524419641691
 31
0.0
  0
LINE
  5
2874
  8
AM_0
 10
542.41653158017129
 20
730.35880419641694
 30
0.0
 11
500.9979515801711
 21
755.12857419641693
 31
0.0
  0
POLYLINE
  5
2875
  8
AM_0
 66
     1
 10
0.0
 20
0.0
 30
0.0
  0
VERTEX
  5
2876
  8
AM_0
 10
537.19135158017139
 20
733.48346419641712
 30
0.0
 42
0.0052467293
  0
VERTEX
  5
2877
  8
AM_0
 10
539.61157158017124
 20
727.07363419641695
 30
0.0
 42
0.0052066122
  0
VERTEX
  5
2878
  8
AM_0
 10
542.16524158017126
 20
720.71580419641691
 30
0.0
 42
0.0051740405
  0
VERTEX
  5
2879
  8
AM_0
 10
544.85025158017106
 20
714.41257419641693
 30
0.0
  0
SEQEND
  5
287A
  8
AM_0
  0
LINE
  5
287B
  8
AM_0
 10
547.74551158017152
 20
691.63285419641693
 30
0.0
 11
562.85018158017124
 21
691.10538419641694
 31
0.0
  0
ARC
  5
287C
  8
AM_0
 10
547.85018158017124
 20
722.64811419641694
 30
0.0
 40
5.0
 50
267.99999999999631
 51
0.0
  0
LINE
  5
287D
  8
AM_0
 10
562.85018158017124
 20
713.60544419641678
 30
0.0
 11
566.85018158017124
 21
713.60544419641678
 31
0.0
  0
ARC
  5
287E
  8
AM_0
 10
539.85025158017129
 20
726.06760419641694
 30
0.0
 40
5.0
 50
0.0
 51
59.11901699999779
  0
LINE
  5
287F
  8
AM_0
 10
502.53775158017129
 20
760.70334419641665
 30
0.0
 11
544.85025158017106
 21
760.70334419641665
 31
0.0
  0
ARC
  5
2880
  8
AM_0
 10
549.85025158017106
 20
767.47098419641691
 30
0.0
 40
5.0
 50
90.00000299999769
 51
180.00001000000091
  0
LINE
  5
2881
  8
AM_0
 10
566.85018158017124
 20
811.1054441964169
 30
0.0
 11
568.85025158017129
 21
811.1054441964169
 31
0.0
  0
LINE
  5
2882
  8
AM_0
 10
446.85025158017129
 20
885.1699641964168
 30
0.0
 11
544.85025158017106
 21
885.1699641964168
 31
0.0
  0
LINE
  5
2883
  8
AM_0
 10
446.85025158017129
 20
962.73581419641721
 30
0.0
 11
544.85025158017106
 21
966.15799419641678
 31
0.0
  0
LINE
  5
2884
  8
AM_0
 10
446.8501815801713
 20
973.34336419641681
 30
0.0
 11
547.78378158017131
 21
975.57907419641674
 31
0.0
  0
LINE
  5
2885
  8
AM_0
 10
446.85025158017129
 20
911.17118419641668
 30
0.0
 11
498.64596158017122
 21
911.17118419641668
 31
0.0
  0
LINE
  5
2886
  8
AM_0
 10
433.8501815801713
 20
843.14487419641694
 30
0.0
 11
433.8501815801713
 21
969.81522419641681
 31
0.0
  0
LINE
  5
2887
  8
AM_0
 10
446.85025158017129
 20
837.60538419641705
 30
0.0
 11
446.85025158017129
 21
973.34342419641678
 31
0.0
  0
LINE
  5
2888
  8
AM_0
 10
414.35031158017131
 20
837.60538419641705
 30
0.0
 11
447.35031158017142
 21
837.60538419641705
 31
0.0
  0
LINE
  5
2889
  8
AM_0
 10
414.35031158017131
 20
829.6054441964169
 30
0.0
 11
447.35031158017142
 21
829.6054441964169
 31
0.0
  0
ARC
  5
288A
  8
AM_0
 10
414.35031158017131
 20
833.6054441964169
 30
0.0
 40
3.9999962
 50
90.00000299999769
 51
270.0
  0
LINE
  5
288B
  8
AM_0
 10
417.85025158017129
 20
837.60538419641705
 30
0.0
 11
417.85025158017129
 21
918.60544409169756
 31
0.0
  0
ARC
  5
288C
  8
AM_0
 10
430.85031158017131
 20
833.6054441964169
 30
0.0
 40
10.0
 50
203.5782699999985
 51
336.4217200000013
  0
ARC
  5
288D
  8
AM_0
 10
430.85031158017131
 20
833.6054441964169
 30
0.0
 40
10.0
 50
23.57803699999776
 51
156.42196000000081
  0
ARC
  5
288E
  8
AM_0
 10
430.85031158017131
 20
833.6054441964169
 30
0.0
 40
11.0
 50
201.32377999999761
 51
262.81880000000041
  0
ARC
  5
288F
  8
AM_0
 10
430.85031158017131
 20
833.6054441964169
 30
0.0
 40
11.0
 50
97.181195000004124
 51
158.67647999999841
  0
ARC
  5
2890
  8
AM_0
 10
428.8501815801713
 20
849.47995419641666
 30
0.0
 40
5.0
 50
277.18119999999942
 51
0.0
  0
ARC
  5
2891
  8
AM_0
 10
447.35031158017142
 20
833.6054441964169
 30
0.0
 40
3.9999962
 50
270.0
 51
90.00000299999769
  0
LINE
  5
2892
  8
AM_0
 10
433.8501815801713
 20
885.1699641964168
 30
0.0
 11
446.85025158017129
 21
885.1699641964168
 31
0.0
  0
ARC
  5
2893
  8
AM_0
 10
429.8501815801713
 20
922.02695419641668
 30
0.0
 40
4.0
 50
272.00000000000369
 51
0.0
  0
LINE
  5
2894
  8
AM_0
 10
419.85031158017119
 20
917.67527419641681
 30
0.0
 11
419.85031158017119
 21
920.03543419641676
 31
0.0
  0
LINE
  5
2895
  8
AM_0
 10
429.98977158017118
 20
918.02939419641689
 30
0.0
 11
417.85025158017129
 21
917.60544419641678
 31
0.0
  0
LINE
  5
2896
  8
AM_0
 10
433.8501815801713
 20
911.17124419641698
 30
0.0
 11
446.85025158017129
 21
911.17124419641698
 31
0.0
  0
LINE
  5
2897
  8
AM_0
 10
429.98983158017109
 20
920.38944419641678
 30
0.0
 11
419.85031158017119
 21
920.0353741964168
 31
0.0
  0
ARC
  5
2898
  8
AM_0
 10
429.8501815801713
 20
924.3870641964171
 30
0.0
 40
4.0
 50
272.00000000000369
 51
0.0
  0
LINE
  5
2899
  8
AM_0
 10
446.85025158017129
 20
973.34342419641678
 30
0.0
 11
436.69320158017132
 21
972.81113419641667
 31
0.0
  0
LINE
  5
289A
  8
AM_0
 10
435.78048158017128
 20
962.34922419641703
 30
0.0
 11
446.85025158017129
 21
962.73581419641721
 31
0.0
  0
ARC
  5
289B
  8
AM_0
 10
435.85025158017118
 20
960.35044419641724
 30
0.0
 40
2.0
 50
91.999998000000545
 51
180.00001000000091
  0
ARC
  5
289C
  8
AM_0
 10
436.8501815801713
 20
969.81522419641681
 30
0.0
 40
3.0
 50
92.999999000001679
 51
180.00001000000091
  0
POLYLINE
  5
289D
  8
AM_0
 66
     1
 10
0.0
 20
0.0
 30
0.0
  0
VERTEX
  5
289E
  8
AM_0
 10
544.85025158017106
 20
952.79825419641725
 30
0.0
  0
VERTEX
  5
289F
  8
AM_0
 10
537.19142158017132
 20
933.72756419641678
 30
0.0
 42
-1.0
  0
SEQEND
  5
28A0
  8
AM_0
  0
ARC
  5
28A1
  8
AM_0
 10
547.85018158017124
 20
944.56272419641675
 30
0.0
 40
5.0
 50
0.0
 51
91.999998000000545
  0
LINE
  5
28A2
  8
AM_0
 10
568.85025158017129
 20
854.6054441964169
 30
0.0
 11
638.85022158017136
 21
854.6054441964169
 31
0.0
  0
LINE
  5
28A3
  8
AM_0
 10
566.85018158017124
 20
856.10544419641656
 30
0.0
 11
568.85025158017129
 21
856.10544419641656
 31
0.0
  0
LINE
  5
28A4
  8
AM_0
 10
534.71884158017133
 20
906.5075441964168
 30
0.0
 11
544.85018158017124
 21
914.06559419641667
 31
0.0
  0
LINE
  5
28A5
  8
AM_0
 10
542.70285158017145
 20
930.60904419641724
 30
0.0
 11
510.20004158017122
 21
911.17124419641698
 31
0.0
  0
LINE
  5
28A6
  8
AM_0
 10
542.41647158017145
 20
936.85202419641689
 30
0.0
 11
500.9979515801711
 21
912.08219419641705
 31
0.0
  0
LINE
  5
28A7
  8
AM_0
 10
502.53775158017129
 20
906.50748419641661
 30
0.0
 11
544.85025158017106
 21
906.50748419641661
 31
0.0
  0
ARC
  5
28A8
  8
AM_0
 10
498.64596158017122
 20
914.17118419641679
 30
0.0
 40
3.0
 50
270.0
 51
300.88098000000002
  0
ARC
  5
28A9
  8
AM_0
 10
502.53775158017129
 20
909.50748419641684
 30
0.0
 40
3.0
 50
120.8809700000043
 51
270.0
  0
ARC
  5
28AA
  8
AM_0
 10
549.85025158017106
 20
899.73984419641681
 30
0.0
 40
5.0
 50
179.9999899999988
 51
270.0
  0
ARC
  5
28AB
  8
AM_0
 10
539.85025158017129
 20
941.14322419641667
 30
0.0
 40
5.0
 50
300.88098000000002
 51
0.0
  0
LINE
  5
28AC
  8
AM_0
 10
582.85025158017118
 20
827.60538419641682
 30
0.0
 11
638.85022158017136
 21
827.60538419641682
 31
0.0
  0
LINE
  5
28AD
  8
AM_0
 10
582.85025158017118
 20
839.60538419641694
 30
0.0
 11
638.85022158017136
 21
839.60538419641694
 31
0.0
  0
ARC
  5
28AE
  8
AM_0
 10
582.85025158017118
 20
833.60538419641694
 30
0.0
 40
6.0000037999999991
 50
90.00000299999769
 51
270.0
  0
LINE
  5
28AF
  8
AM_0
 10
582.85025158017118
 20
839.60538419641694
 30
0.0
 11
582.85025158017118
 21
827.60538419641682
 31
0.0
  0
LINE
  5
28B0
  8
AM_0
 10
547.74551158017152
 20
975.57798419641676
 30
0.0
 11
562.85018158017124
 21
976.1054441964169
 31
0.0
  0
ARC
  5
28B1
  8
AM_0
 10
547.85018158017124
 20
972.57981419641726
 30
0.0
 40
3.0
 50
91.999998000000545
 51
180.00001000000091
  0
LINE
  5
28B2
  8
AM_0
 10
562.85018158017124
 20
953.60538419641705
 30
0.0
 11
566.85018158017124
 21
953.60538419641705
 31
0.0
  0
LINE
  5
28B3
  8
AM_0
 10
416.85025158017112
 20
829.6054441964169
 30
0.0
 11
416.850251580171
 21
814.87519437073013
 31
0.0
  0
TEXT
  5
2A93
  8
AM_0
 10
774.79850540527332
 20
862.55369396678077
 30
0.0
 40
20.0
  1
VX22-025GF~VX22-030GF
  0
ENDSEC
  0
EOF
