  0
SECTION
  2
HEADER
  9
$ACADVER
  1
AC1009
  9
$INSBASE
 10
0.0
 20
0.0
 30
0.0
  9
$EXTMIN
 10
226.67187094650171
 20
234.51796877771861
 30
-0.0000000000112498
  9
$EXTMAX
 10
1167.0681792841849
 20
960.36155216290706
 30
0.0000000000002956
  9
$LIMMIN
 10
0.0
 20
0.0
  9
$LIMMAX
 10
1422.5
 20
925.0
  9
$ORTHOMODE
 70
     0
  9
$REGENMODE
 70
     1
  9
$FILLMODE
 70
     1
  9
$QTEXTMODE
 70
     0
  9
$MIRRTEXT
 70
     1
  9
$DRAGMODE
 70
     2
  9
$LTSCALE
 40
5.0
  9
$OSMODE
 70
   551
  9
$ATTMODE
 70
     1
  9
$TEXTSIZE
 40
2.5
  9
$TRACEWID
 40
1.0
  9
$TEXTSTYLE
  7
STANDARD
  9
$CLAYER
  8
AM_0
  9
$CELTYPE
  6
BYLAYER
  9
$CECOLOR
 62
   256
  9
$DIMSCALE
 40
1.0
  9
$DIMASZ
 40
2.5
  9
$DIMEXO
 40
1.0
  9
$DIMDLI
 40
8.0
  9
$DIMRND
 40
0.0
  9
$DIMDLE
 40
0.0
  9
$DIMEXE
 40
0.6
  9
$DIMTP
 40
0.1
  9
$DIMTM
 40
0.1
  9
$DIMTXT
 40
2.5
  9
$DIMCEN
 40
0.0
  9
$DIMTSZ
 40
0.0
  9
$DIMTOL
 70
     0
  9
$DIMLIM
 70
     0
  9
$DIMTIH
 70
     0
  9
$DIMTOH
 70
     0
  9
$DIMSE1
 70
     0
  9
$DIMSE2
 70
     0
  9
$DIMTAD
 70
     1
  9
$DIMZIN
 70
     8
  9
$DIMBLK
  1

  9
$DIMASO
 70
     1
  9
$DIMSHO
 70
     1
  9
$DIMPOST
  1

  9
$DIMAPOST
  1
"
  9
$DIMALT
 70
     0
  9
$DIMALTD
 70
     2
  9
$DIMALTF
 40
0.0393701
  9
$DIMLFAC
 40
1.0
  9
$DIMTOFL
 70
     1
  9
$DIMTVP
 40
0.0
  9
$DIMTIX
 70
     0
  9
$DIMSOXD
 70
     0
  9
$DIMSAH
 70
     0
  9
$DIMBLK1
  1

  9
$DIMBLK2
  1

  9
$DIMSTYLE
  2
AM_ISO
  9
$DIMCLRD
 70
   256
  9
$DIMCLRE
 70
   256
  9
$DIMCLRT
 70
     4
  9
$DIMTFAC
 40
0.71
  9
$DIMGAP
 40
0.8
  9
$LUNITS
 70
     2
  9
$LUPREC
 70
     2
  9
$SKETCHINC
 40
1.0
  9
$FILLETRAD
 40
25.0
  9
$AUNITS
 70
     0
  9
$AUPREC
 70
     0
  9
$MENU
  1
.
  9
$ELEVATION
 40
0.0
  9
$PELEVATION
 40
0.0
  9
$THICKNESS
 40
0.0
  9
$LIMCHECK
 70
     0
  9
$BLIPMODE
 70
     0
  9
$CHAMFERA
 40
10.0
  9
$CHAMFERB
 40
5.0
  9
$SKPOLY
 70
     0
  9
$TDCREATE
 40
2452066.6416127658
  9
$TDUPDATE
 40
2458541.4484632518
  9
$TDINDWG
 40
0.0724690278
  9
$TDUSRTIMER
 40
0.0724690162
  9
$USRTIMER
 70
     1
  9
$ANGBASE
 50
0.0
  9
$ANGDIR
 70
     0
  9
$PDMODE
 70
     0
  9
$PDSIZE
 40
0.0
  9
$PLINEWID
 40
0.0
  9
$COORDS
 70
     1
  9
$SPLFRAME
 70
     0
  9
$SPLINETYPE
 70
     6
  9
$SPLINESEGS
 70
     8
  9
$ATTDIA
 70
     1
  9
$ATTREQ
 70
     1
  9
$HANDLING
 70
     1
  9
$HANDSEED
  5
2C7E
  9
$SURFTAB1
 70
     6
  9
$SURFTAB2
 70
     6
  9
$SURFTYPE
 70
     6
  9
$SURFU
 70
     6
  9
$SURFV
 70
     6
  9
$UCSNAME
  2

  9
$UCSORG
 10
0.0
 20
0.0
 30
0.0
  9
$UCSXDIR
 10
1.0
 20
0.0
 30
0.0
  9
$UCSYDIR
 10
0.0
 20
1.0
 30
0.0
  9
$PUCSNAME
  2

  9
$PUCSORG
 10
0.0
 20
0.0
 30
0.0
  9
$PUCSXDIR
 10
1.0
 20
0.0
 30
0.0
  9
$PUCSYDIR
 10
0.0
 20
1.0
 30
0.0
  9
$USERI1
 70
     0
  9
$USERI2
 70
     0
  9
$USERI3
 70
     0
  9
$USERI4
 70
     0
  9
$USERI5
 70
     0
  9
$USERR1
 40
0.0
  9
$USERR2
 40
0.0
  9
$USERR3
 40
0.0
  9
$USERR4
 40
0.0
  9
$USERR5
 40
0.0
  9
$WORLDVIEW
 70
     1
  9
$SHADEDGE
 70
     3
  9
$SHADEDIF
 70
    70
  9
$TILEMODE
 70
     1
  9
$MAXACTVP
 70
    64
  9
$PLIMCHECK
 70
     0
  9
$PEXTMIN
 10
1.0000000000000000E+020
 20
1.0000000000000000E+020
 30
1.0000000000000000E+020
  9
$PEXTMAX
 10
-1.0000000000000000E+020
 20
-1.0000000000000000E+020
 30
-1.0000000000000000E+020
  9
$PLIMMIN
 10
0.0
 20
0.0
  9
$PLIMMAX
 10
420.0
 20
297.0
  9
$UNITMODE
 70
     0
  9
$VISRETAIN
 70
     1
  9
$PLINEGEN
 70
     0
  9
$PSLTSCALE
 70
     1
  0
ENDSEC
  0
SECTION
  2
TABLES
  0
TABLE
  2
VPORT
 70
     1
  0
VPORT
  2
*ACTIVE
 70
     0
 10
0.0
 20
0.0
 11
1.0
 21
1.0
 12
696.87002511534354
 22
597.43976047031288
 13
0.0
 23
0.0
 14
12.5
 24
12.5
 15
50.0
 25
50.0
 16
0.0
 26
0.0
 36
1.0
 17
0.0
 27
0.0
 37
0.0
 40
730.8264912802814
 41
1.7571592210767459
 42
50.0
 43
0.0
 44
0.0
 50
0.0
 51
0.0
 71
     0
 72
   100
 73
     1
 74
     3
 75
     0
 76
     0
 77
     0
 78
     0
  0
ENDTAB
  0
TABLE
  2
LTYPE
 70
    26
  0
LTYPE
  2
CONTINUOUS
 70
     0
  3
Solid line
 72
    65
 73
     0
 40
0.0
  0
LTYPE
  2
AM_ISO02W050
 70
     0
  3
__ __ __ __ __ __ __ __ __ __ __ __ __ __ __
 72
    65
 73
     2
 40
7.5
 49
6.0
 49
-1.5
  0
LTYPE
  2
AM_ISO08W050
 70
     0
  3
____ . ____ . ____ . ____ . ____ . ____ . ____
 72
    65
 73
     4
 40
18.0
 49
12.0
 49
-1.5
 49
3.0
 49
-1.5
  0
LTYPE
  2
AM_ISO09W050
 70
     0
  3
_____ . . _____ . . _____ . . ____ .. ____
 72
    65
 73
     6
 40
22.5
 49
12.0
 49
-1.5
 49
3.0
 49
-1.5
 49
3.0
 49
-1.5
  0
LTYPE
  2
AMCONSTR
 70
     0
  3
_______________________
 72
    65
 73
     2
 40
9999.0
 49
9999.0
 49
0.0
  0
LTYPE
  2
AM_ISO08W050X2
 70
     0
  3
__ . __ . __ . __ . __ . __
 72
    65
 73
     4
 40
9.0
 49
6.0
 49
-0.75
 49
1.5
 49
-0.75
  0
LTYPE
  2
AM_ISO02W050X2
 70
     0
  3
 _ _ _ _ _ _ _ _ _ _ _ _
 72
    65
 73
     2
 40
3.75
 49
3.0
 49
-0.75
  0
LTYPE
  2
AMZIGZAG
 70
     0
  3
/\/-/\/-/\/-/\/-/\/-/\/
 72
    65
 73
     2
 40
11.000099999999991
 49
0.0001
 49
-11.0
  0
LTYPE
  2
ACISOWELD
 70
     0
  3
_ _ _ _ _
 72
    65
 73
     2
 40
2.0
 49
2.0
 49
-1.0
  0
LTYPE
  2
ACISOTGB
 70
     0
  3
__ . . __ . .
 72
    65
 73
     6
 40
9.0
 49
4.0
 49
-1.0
 49
1.0
 49
-1.0
 49
1.0
 49
-1.0
  0
LTYPE
  2
ACISOTGL
 70
     0
  3
_ _ _ _ _
 72
    65
 73
     2
 40
3.0
 49
2.0
 49
-1.0
  0
LTYPE
  2
CENTER
 70
     0
  3
__ . __
 72
    65
 73
     4
 40
7.0
 49
4.0
 49
-1.0
 49
1.0
 49
-1.0
  0
LTYPE
  2
PHANTOM2
 70
     0
  3
Phantom (.5x) ___ _ _ ___ _ _ ___ _ _ ___ _ _
 72
    65
 73
     6
 40
31.75
 49
15.875
 49
-3.174999999999998
 49
3.174999999999998
 49
-3.174999999999998
 49
3.174999999999998
 49
-3.174999999999998
  0
LTYPE
  2
ACANSTGBM
 70
     0
  3
__ . . __ . .
 72
    65
 73
     6
 40
9.0
 49
4.0
 49
-1.0
 49
1.0
 49
-1.0
 49
1.0
 49
-1.0
  0
LTYPE
  2
ACANSTGLM
 70
     0
  3
_ _ _ _ _
 72
    65
 73
     2
 40
3.0
 49
2.0
 49
-1.0
  0
LTYPE
  2
GEN7
 70
     0
  3
____ . ____ . ____ . ____ . ____ . ____ . ____
 72
    65
 73
     4
 40
14.25
 49
9.75
 49
-1.5
 49
1.5
 49
-1.5
  0
LTYPE
  2
GEN7A
 70
     0
  3
__ . __ . __
 72
    65
 73
     4
 40
7.375
 49
4.75
 49
-0.875
 49
0.875
 49
-0.875
  0
LTYPE
  2
ACJISTGB
 70
     0
  3
__ . . __ . .
 72
    65
 73
     6
 40
9.0
 49
4.0
 49
-1.0
 49
1.0
 49
-1.0
 49
1.0
 49
-1.0
  0
LTYPE
  2
ACJISTGL
 70
     0
  3
_ _ _ _ _
 72
    65
 73
     2
 40
3.0
 49
2.0
 49
-1.0
  0
LTYPE
  2
HIDDEN
 70
     0
  3
Hidden __ __ __ __ __ __ __ __ __ __ __ __ __ _
 72
    65
 73
     2
 40
0.375
 49
0.25
 49
-0.125
  0
LTYPE
  2
CENTER2
 70
     0
  3
Center (.5x) ___ _ ___ _ ___ _ ___ _ ___ _ ___
 72
    65
 73
     4
 40
1.125
 49
0.75
 49
-0.125
 49
0.125
 49
-0.125
  0
LTYPE
  2
HIDDEN2
 70
     0
  3
Hidden (.5x) _ _ _ _ _ _ _ _ _ _ _ _ _ _ _ _ _
 72
    65
 73
     2
 40
0.1875
 49
0.125
 49
-0.0625
  0
LTYPE
  2
AMZIGZAG2
 70
     0
  3
/\/-/\/-/\/-/\/-/\/-/\/
 72
    65
 73
     2
 40
0.4401
 49
0.0001
 49
-0.4400000000000002
  0
LTYPE
  2
ACANSTGB
 70
     0
  3
__ . . __ . .
 72
    65
 73
     6
 40
0.35433070866
 49
0.15748031496
 49
-0.03937007874
 49
0.03937007874
 49
-0.03937007874
 49
0.03937007874
 49
-0.03937007874
  0
LTYPE
  2
ACANSTGL
 70
     0
  3
_ _ _ _ _
 72
    65
 73
     2
 40
0.11811023622
 49
0.07874015748
 49
-0.03937007874
  0
ENDTAB
  0
TABLE
  2
LAYER
 70
     6
  0
LAYER
  2
0
 70
     0
 62
     7
  6
CONTINUOUS
  0
LAYER
  2
AM_0
 70
     0
 62
     7
  6
CONTINUOUS
  0
LAYER
  2
AM_5
 70
     0
 62
     2
  6
CONTINUOUS
  0
LAYER
  2
DEFPOINTS
 70
     0
 62
     7
  6
CONTINUOUS
  0
LAYER
  2
ﾁｭｳｼﾝｾﾝ
 70
     0
 62
     1
  6
GEN7
  0
LAYER
  2
ﾁｭｳｼﾝｾﾝ1
 70
     0
 62
     1
  6
GEN7A
  0
ENDTAB
  0
TABLE
  2
STYLE
 70
     9
  0
STYLE
  2
STANDARD
 70
     0
 40
0.0
 41
0.8299999999999999
 50
0.0
 71
     0
 42
2.5
  3
txt.shx
  4
bigfont.shx
  0
STYLE
  2
ANNOTATIVE
 70
     0
 40
0.0
 41
1.0
 50
0.0
 71
     0
 42
0.2
  3
txt
  4

  0
STYLE
  2

 70
     1
 40
0.0
 41
1.0
 50
0.0
 71
     0
 42
2.5
  3
ltypeshp.shx
  4

  0
STYLE
  2
ACISOTS
 70
     0
 40
1.0
 41
1.0
 50
0.0
 71
     0
 42
2.5
  3
isocp.shx
  4
extfont.shx
  0
STYLE
  2
ACISOGDT
 70
     0
 40
0.0
 41
1.0
 50
0.0
 71
     0
 42
2.5
  3
amgdt.shx
  4

  0
STYLE
  2
ACANSTS
 70
     0
 40
1.0
 41
1.0
 50
0.0
 71
     0
 42
2.5
  3
romans.shx
  4
bigfont.shx
  0
STYLE
  2
ACANSGDT
 70
     0
 40
0.0
 41
1.0
 50
0.0
 71
     0
 42
2.5
  3
amgdt.shx
  4

  0
STYLE
  2
ACJISTS
 70
     0
 40
1.0
 41
1.0
 50
0.0
 71
     0
 42
2.5
  3
isocp.shx
  4
bigfont.shx
  0
STYLE
  2
ACJISGDT
 70
     0
 40
0.0
 41
1.0
 50
0.0
 71
     0
 42
2.5
  3
amgdt.shx
  4

  0
ENDTAB
  0
TABLE
  2
VIEW
 70
     6
  0
VIEW
  2
AM_VIEW1
 70
     0
 40
462.5
 10
416.07965009208078
 20
693.75
 41
832.15930018416213
 11
0.0
 21
0.0
 31
1.0
 12
0.0
 22
0.0
 32
0.0
 42
50.0
 43
0.0
 44
0.0
 50
0.0
 71
     0
  0
VIEW
  2
AM_VIEW2
 70
     0
 40
462.5
 10
1006.420349907918
 20
693.75
 41
832.15930018416213
 11
0.0
 21
0.0
 31
1.0
 12
0.0
 22
0.0
 32
0.0
 42
50.0
 43
0.0
 44
0.0
 50
0.0
 71
     0
  0
VIEW
  2
AM_VIEW3
 70
     0
 40
462.5
 10
416.07965009208078
 20
231.25
 41
832.15930018416213
 11
0.0
 21
0.0
 31
1.0
 12
0.0
 22
0.0
 32
0.0
 42
50.0
 43
0.0
 44
0.0
 50
0.0
 71
     0
  0
VIEW
  2
AM_VIEW4
 70
     0
 40
462.5
 10
1006.420349907918
 20
231.25
 41
832.15930018416213
 11
0.0
 21
0.0
 31
1.0
 12
0.0
 22
0.0
 32
0.0
 42
50.0
 43
0.0
 44
0.0
 50
0.0
 71
     0
  0
VIEW
  2
AM_VIEW5
 70
     0
 40
462.5
 10
711.24999999999966
 20
462.5
 41
832.15930018416179
 11
0.0
 21
0.0
 31
1.0
 12
0.0
 22
0.0
 32
0.0
 42
50.0
 43
0.0
 44
0.0
 50
0.0
 71
     0
  0
VIEW
  2
AM_VIEW6
 70
     0
 40
924.99075000000005
 10
711.24999999999966
 20
462.5
 41
1664.3019571823199
 11
0.0
 21
0.0
 31
1.0
 12
0.0
 22
0.0
 32
0.0
 42
50.0
 43
0.0
 44
0.0
 50
0.0
 71
     0
  0
ENDTAB
  0
TABLE
  2
UCS
 70
     0
  0
ENDTAB
  0
TABLE
  2
APPID
 70
    95
  0
APPID
  2
ACAD
 70
     0
  0
APPID
  2
ACADANNOTATIVE
 70
     0
  0
APPID
  2
MCAD_NO_VIS
 70
     0
  0
APPID
  2
ACAD_TEMP_GRAPHIC
 70
     0
  0
APPID
  2
ACATTRIBSERVICES
 70
     0
  0
APPID
  2
GENIUS_GENREC_14
 70
     0
  0
APPID
  2
GENIUS_GENOBJ-N-REC_13
 70
     0
  0
APPID
  2
GENIUS_GENODEF_13
 70
     0
  0
APPID
  2
GENIUS_GENOLIS_13
 70
     0
  0
APPID
  2
GENIUS_GENOBJ-N-TIT_13
 70
     0
  0
APPID
  2
GENIUS_GENOENT_13
 70
     0
  0
APPID
  2
GENIUS_GENTITLE_13
 70
     0
  0
APPID
  2
GENIUS_GENOREF_13
 70
     0
  0
APPID
  2
GENIUS_GENSCREG_15
 70
     0
  0
APPID
  2
GENIUS_GENOBJ-N-SDF_13
 70
     0
  0
APPID
  2
GENIUS_GENFIL_13
 70
     0
  0
APPID
  2
GENIUS_GENOBJ-N-CHA_13
 70
     0
  0
APPID
  2
GENIUS_GENDTOL_13
 70
     0
  0
APPID
  2
GENIUS_GENOBJ-N-FIL_13
 70
     0
  0
APPID
  2
AD_DRAW
 70
     0
  0
APPID
  2
DESIGNERASSEMBLIES
 70
     0
  0
APPID
  2
ASURF_PCURVE_APPNAME
 70
     0
  0
APPID
  2
GENIUS_GE3SECT_13
 70
     0
  0
APPID
  2
GENIUS_GENCFG_13
 70
     0
  0
APPID
  2
GENIUS_GE3CFG0_13
 70
     0
  0
APPID
  2
GENIUS_GENCFG0_13
 70
     0
  0
APPID
  2
GENIUS_GENCFG1_13
 70
     0
  0
APPID
  2
GENIUS_GENCFG2_13
 70
     0
  0
APPID
  2
GENIUS_GENCFG3_13
 70
     0
  0
APPID
  2
GENIUS_GENCFG4_13
 70
     0
  0
APPID
  2
GENIUS_GEVCFG0_13
 70
     0
  0
APPID
  2
GENIUS_GENHINW_13
 70
     0
  0
APPID
  2
GENIUS_FIRSTVISTXT_14
 70
     0
  0
APPID
  2
GENIUS_GENOBJ-N-LEADER_13
 70
     0
  0
APPID
  2
GEV_VCCNULL_SWITCH_OFF
 70
     0
  0
APPID
  2
GENIUS_GEFCFG0_13
 70
     0
  0
APPID
  2
GENIUS_GENZVEED_13
 70
     0
  0
APPID
  2
GENIUS_GENSCREG_13
 70
     0
  0
APPID
  2
GENIUS_DUMCFG0_13
 70
     0
  0
APPID
  2
GEVID936201362
 70
     0
  0
APPID
  2
GEVDC
 70
     0
  0
APPID
  2
GEVCON
 70
     0
  0
APPID
  2
VCC
 70
     0
  0
APPID
  2
GEVPT
 70
     0
  0
APPID
  2
GEVIT
 70
     0
  0
APPID
  2
GENBH
 70
     0
  0
APPID
  2
GEVMK
 70
     0
  0
APPID
  2
GENIUS_GENBH_13
 70
     0
  0
APPID
  2
GENIUS_GENOBJ-NBEHI-BHF_13
 70
     0
  0
APPID
  2
GENIUS_GENOBJ-NBEHI-BHB_13
 70
     0
  0
APPID
  2
GENIUS_GENOBJ-F-DESC_13
 70
     0
  0
APPID
  2
GENIUS_GEFDESC_14
 70
     0
  0
APPID
  2
GENIUS_GENOBJ-F-PART_13
 70
     0
  0
APPID
  2
GENIUS_GEFSTDP_13
 70
     0
  0
APPID
  2
GENIUS_GEFPARTINS_13
 70
     0
  0
APPID
  2
GENIUS_GENTRA_14
 70
     0
  0
APPID
  2
GENIUS_GENINF13_13
 70
     0
  0
APPID
  2
GENIUS_GENOBJ-N-INFOPT_13
 70
     0
  0
APPID
  2
GENIUS_GENOBJ-N-RSSYM_13
 70
     0
  0
APPID
  2
GENIUS_GENSYMENT_13
 70
     0
  0
APPID
  2
GENIUS_GENSCSYM_13
 70
     0
  0
APPID
  2
GENIUS_GEFINFNAM_13
 70
     0
  0
APPID
  2
GENIUS_GENOBJ-N-CEN_13
 70
     0
  0
APPID
  2
GENIUS_GENOBJ-N-CRS_13
 70
     0
  0
APPID
  2
GENIUS_GENOBJ-N-CRC_13
 70
     0
  0
APPID
  2
GENIUS_GENCRC_14
 70
     0
  0
APPID
  2
GEVID942827039
 70
     0
  0
APPID
  2
GEVID942827040
 70
     0
  0
APPID
  2
GEVID942827041
 70
     0
  0
APPID
  2
GENIUS_GENOBJ-F-SCPASSM_13
 70
     0
  0
APPID
  2
GENIUS_GENDIMSH_14
 70
     0
  0
APPID
  2
GEVID942827042
 70
     0
  0
APPID
  2
GEVID946020473
 70
     0
  0
APPID
  2
GEVID946020474
 70
     0
  0
APPID
  2
GEVID946020475
 70
     0
  0
APPID
  2
GENIUS_GENOBJ-N-HTC_13
 70
     0
  0
APPID
  2
GENIUS_GENHATCH_13
 70
     0
  0
APPID
  2
GEVID948854295
 70
     0
  0
APPID
  2
GEVID939402019
 70
     0
  0
APPID
  2
GEVID952919491
 70
     0
  0
APPID
  2
GEVID952919492
 70
     0
  0
APPID
  2
GENIUS_GEFWELD_13
 70
     0
  0
APPID
  2
GENIUS_GENOBJ-F-WELS_13
 70
     0
  0
APPID
  2
GEVID952919493
 70
     0
  0
APPID
  2
GENIUS_GENOBJ-N-RSBK_13
 70
     0
  0
APPID
  2
GENIUS_GENOBJ-N-LIB_13
 70
     0
  0
APPID
  2
GENIUS_GENSCALE_13
 70
     0
  0
APPID
  2
GEVID986376691
 70
     0
  0
APPID
  2
DCO15
 70
     0
  0
APPID
  2
ACAD_DSTYLE_DIMBREAK
 70
     0
  0
APPID
  2
ACAD_DSTYLE_DIMJAG
 70
     0
  0
APPID
  2
ACAD_NAV_VCDISPLAY
 70
     0
  0
APPID
  2
ACADANNOPO
 70
     0
  0
APPID
  2
ACAD_EXEMPT_FROM_CAD_STANDARDS
 70
     0
  0
APPID
  2
ACAD_MLEADERVER
 70
     0
  0
ENDTAB
  0
TABLE
  2
DIMSTYLE
 70
    22
  0
DIMSTYLE
  2
STANDARD
 70
     0
  3

  4

  5

  6

  7

 40
1.0
 41
0.18
 42
0.0625
 43
0.38
 44
0.18
 45
0.0
 46
0.0
 47
0.0
 48
0.0
140
0.18
141
0.09
142
0.0
143
25.399999999999999
144
1.0
145
0.0
146
1.0
147
0.09
 71
     0
 72
     0
 73
     1
 74
     1
 75
     0
 76
     0
 77
     0
 78
     0
170
     0
171
     2
172
     0
173
     0
174
     0
175
     0
176
     0
177
     0
178
     0
  0
DIMSTYLE
  2
ANNOTATIVE
 70
     0
  3

  4

  5

  6

  7

 40
1.0
 41
0.18
 42
0.0625
 43
0.38
 44
0.18
 45
0.0
 46
0.0
 47
0.0
 48
0.0
140
0.18
141
0.09
142
0.0
143
25.399999999999999
144
1.0
145
0.0
146
1.0
147
0.09
 71
     0
 72
     0
 73
     1
 74
     1
 75
     0
 76
     0
 77
     0
 78
     0
170
     0
171
     2
172
     0
173
     0
174
     0
175
     0
176
     0
177
     0
178
     0
  0
DIMSTYLE
  2
AM_ISO
 70
     0
  3

  4
"
  5

  6

  7

 40
1.0
 41
2.5
 42
1.0
 43
8.0
 44
0.6
 45
0.0
 46
0.0
 47
0.1
 48
0.1
140
2.5
141
0.0
142
0.0
143
0.0393701
144
1.0
145
0.0
146
0.71
147
0.8
 71
     0
 72
     0
 73
     0
 74
     0
 75
     0
 76
     0
 77
     1
 78
     8
170
     0
171
     2
172
     1
173
     0
174
     0
175
     0
176
   256
177
   256
178
     4
  0
DIMSTYLE
  2
AM_ISO$3
 70
     0
  3

  4
"
  5

  6

  7

 40
1.0
 41
2.5
 42
1.0
 43
8.0
 44
0.6
 45
0.0
 46
0.0
 47
0.1
 48
0.1
140
2.5
141
0.0
142
0.0
143
0.0393701
144
1.0
145
0.0
146
0.71
147
0.8
 71
     0
 72
     0
 73
     0
 74
     1
 75
     0
 76
     0
 77
     1
 78
     8
170
     0
171
     2
172
     0
173
     0
174
     0
175
     0
176
   256
177
   256
178
     4
  0
DIMSTYLE
  2
AM_ISO$4
 70
     0
  3

  4
"
  5

  6

  7

 40
1.0
 41
2.5
 42
1.0
 43
8.0
 44
0.6
 45
0.0
 46
0.0
 47
0.1
 48
0.1
140
2.5
141
0.0
142
0.0
143
0.0393701
144
1.0
145
0.0
146
0.71
147
0.8
 71
     0
 72
     0
 73
     0
 74
     1
 75
     0
 76
     0
 77
     1
 78
     8
170
     0
171
     2
172
     0
173
     0
174
     0
175
     0
176
   256
177
   256
178
     4
  0
DIMSTYLE
  2
AM_ISO$6
 70
     0
  3

  4
"
  5

  6

  7

 40
1.0
 41
2.5
 42
1.0
 43
8.0
 44
0.6
 45
0.0
 46
0.0
 47
0.1
 48
0.1
140
2.5
141
0.0
142
0.0
143
0.0393701
144
1.0
145
0.0
146
0.71
147
0.8
 71
     0
 72
     0
 73
     0
 74
     0
 75
     0
 76
     0
 77
     0
 78
     8
170
     0
171
     2
172
     1
173
     0
174
     0
175
     0
176
   256
177
   256
178
     4
  0
DIMSTYLE
  2
AM_ISO$7
 70
     0
  3

  4
"
  5

  6

  7

 40
1.0
 41
2.5
 42
1.0
 43
8.0
 44
0.6
 45
0.0
 46
0.0
 47
0.1
 48
0.1
140
2.5
141
0.0
142
0.0
143
0.0393701
144
1.0
145
0.0
146
0.71
147
0.8
 71
     0
 72
     0
 73
     0
 74
     0
 75
     0
 76
     0
 77
     1
 78
     8
170
     0
171
     2
172
     1
173
     0
174
     0
175
     0
176
   256
177
   256
178
     4
  0
DIMSTYLE
  2
AM_ISO$SF
 70
     0
  3

  4
"
  5

  6

  7

 40
1.0
 41
2.5
 42
1.0
 43
10.0
 44
1.0
 45
0.0
 46
0.0
 47
0.1
 48
0.1
140
3.5
141
0.0
142
0.0
143
0.0393701
144
1.0
145
0.0
146
0.71
147
1.5
 71
     0
 72
     0
 73
     0
 74
     0
 75
     1
 76
     1
 77
     1
 78
     8
170
     0
171
     2
172
     1
173
     0
174
     0
175
     0
176
   256
177
   256
178
     2
  0
DIMSTYLE
  2
AM_ISO$SH
 70
     0
  3

  4
"
  5

  6

  7

 40
1.0
 41
2.5
 42
1.0
 43
10.0
 44
1.0
 45
0.0
 46
0.0
 47
0.1
 48
0.1
140
3.5
141
0.0
142
0.0
143
0.0393701
144
2.0
145
0.0
146
0.71
147
1.5
 71
     0
 72
     0
 73
     0
 74
     0
 75
     1
 76
     1
 77
     1
 78
     8
170
     0
171
     2
172
     1
173
     1
174
     0
175
     0
176
   256
177
   256
178
     2
  0
DIMSTYLE
  2
AM_JIS
 70
     0
  3

  4
"
  5

  6

  7

 40
1.0
 41
2.5
 42
1.0
 43
7.0
 44
1.0
 45
0.0
 46
0.0
 47
0.1
 48
0.1000000001
140
2.5
141
0.0
142
0.0
143
0.0393701
144
1.0
145
0.0
146
0.71
147
1.0
 71
     0
 72
     0
 73
     0
 74
     0
 75
     0
 76
     0
 77
     3
 78
     8
170
     0
171
     2
172
     1
173
     0
174
     0
175
     0
176
   256
177
   256
178
     4
  0
DIMSTYLE
  2
AM_JIS$3
 70
     0
  3

  4
"
  5

  6

  7

 40
1.0
 41
2.5
 42
1.0
 43
7.0
 44
1.0
 45
0.0
 46
0.0
 47
0.1
 48
0.1000000001
140
2.5
141
0.0
142
0.0
143
0.0393701
144
1.0
145
0.0
146
0.71
147
1.0
 71
     0
 72
     0
 73
     0
 74
     1
 75
     0
 76
     0
 77
     3
 78
     8
170
     0
171
     2
172
     0
173
     0
174
     0
175
     0
176
   256
177
   256
178
     4
  0
DIMSTYLE
  2
AM_JIS$4
 70
     0
  3

  4
"
  5

  6

  7

 40
1.0
 41
2.5
 42
1.0
 43
7.0
 44
1.0
 45
0.0
 46
0.0
 47
0.1
 48
0.1000000001
140
2.5
141
0.0
142
0.0
143
0.0393701
144
1.0
145
0.0
146
0.71
147
1.0
 71
     0
 72
     0
 73
     0
 74
     0
 75
     0
 76
     0
 77
     3
 78
     8
170
     0
171
     2
172
     0
173
     0
174
     0
175
     0
176
   256
177
   256
178
     4
  0
DIMSTYLE
  2
AM_JIS$6
 70
     0
  3

  4
"
  5

  6

  7

 40
1.0
 41
2.5
 42
1.0
 43
7.0
 44
1.0
 45
0.0
 46
0.0
 47
0.1
 48
0.1000000001
140
2.5
141
0.0
142
0.0
143
0.0393701
144
1.0
145
0.0
146
0.71
147
1.0
 71
     0
 72
     0
 73
     0
 74
     0
 75
     0
 76
     0
 77
     0
 78
     8
170
     0
171
     2
172
     1
173
     0
174
     0
175
     0
176
   256
177
   256
178
     4
  0
DIMSTYLE
  2
AM_JIS$7
 70
     0
  3

  4
"
  5

  6

  7

 40
1.0
 41
2.5
 42
1.0
 43
7.0
 44
1.0
 45
0.0
 46
0.0
 47
0.1
 48
0.1000000001
140
2.5
141
0.0
142
0.0
143
0.0393701
144
1.0
145
0.0
146
0.71
147
1.0
 71
     0
 72
     0
 73
     0
 74
     0
 75
     0
 76
     0
 77
     3
 78
     8
170
     0
171
     2
172
     1
173
     0
174
     0
175
     0
176
   256
177
   256
178
     4
  0
DIMSTYLE
  2
AM_JIS$SF
 70
     0
  3

  4
"
  5

  6

  7

 40
1.0
 41
2.5
 42
1.0
 43
10.0
 44
1.0
 45
0.0
 46
0.0
 47
0.1
 48
0.1
140
3.5
141
0.0
142
0.0
143
0.0393701
144
1.0
145
0.0
146
0.71
147
1.5
 71
     0
 72
     0
 73
     0
 74
     0
 75
     1
 76
     1
 77
     3
 78
     8
170
     0
171
     2
172
     1
173
     0
174
     0
175
     0
176
   256
177
   256
178
     4
  0
DIMSTYLE
  2
AM_JIS$SH
 70
     0
  3

  4
"
  5

  6

  7

 40
1.0
 41
2.5
 42
1.0
 43
10.0
 44
1.0
 45
0.0
 46
0.0
 47
0.1
 48
0.1
140
3.5
141
0.0
142
0.0
143
0.0393701
144
1.0
145
0.0
146
0.71
147
1.5
 71
     0
 72
     0
 73
     0
 74
     0
 75
     1
 76
     0
 77
     3
 78
     8
170
     0
171
     2
172
     1
173
     1
174
     0
175
     0
176
   256
177
   256
178
     4
  0
DIMSTYLE
  2
AM_ANSI
 70
     0
  3

  4
mm
  5

  6

  7

 40
1.0
 41
0.1
 42
0.05
 43
0.5
 44
0.1
 45
0.0
 46
0.0
 47
0.1
 48
0.1
140
0.12
141
0.0
142
0.0
143
25.399999999999999
144
1.0
145
0.0
146
0.71
147
0.06
 71
     0
 72
     0
 73
     1
 74
     1
 75
     0
 76
     0
 77
     0
 78
     7
170
     0
171
     2
172
     0
173
     0
174
     0
175
     0
176
   256
177
   256
178
     2
  0
DIMSTYLE
  2
AM_ANSI$3
 70
     0
  3

  4
mm
  5

  6

  7

 40
1.0
 41
0.1
 42
0.05
 43
0.5
 44
0.1
 45
0.0
 46
0.0
 47
0.1
 48
0.1
140
0.12
141
0.0
142
0.0
143
25.399999999999999
144
1.0
145
0.0
146
0.71
147
0.06
 71
     0
 72
     0
 73
     1
 74
     1
 75
     0
 76
     0
 77
     0
 78
     7
170
     0
171
     2
172
     0
173
     0
174
     0
175
     0
176
   256
177
   256
178
     2
  0
DIMSTYLE
  2
AM_ANSI$4
 70
     0
  3

  4
mm
  5

  6

  7

 40
1.0
 41
0.1
 42
0.05
 43
0.5
 44
0.1
 45
0.0
 46
0.0
 47
0.1
 48
0.1
140
0.12
141
0.0
142
0.0
143
25.399999999999999
144
1.0
145
0.0
146
0.71
147
0.06
 71
     0
 72
     0
 73
     1
 74
     1
 75
     0
 76
     0
 77
     0
 78
     7
170
     0
171
     2
172
     0
173
     0
174
     0
175
     0
176
   256
177
   256
178
     2
  0
DIMSTYLE
  2
AM_ANSI$7
 70
     0
  3

  4
mm
  5

  6

  7

 40
1.0
 41
0.1
 42
0.05
 43
0.5
 44
0.1
 45
0.0
 46
0.0
 47
0.1
 48
0.1
140
0.24
141
0.0
142
0.0
143
25.399999999999999
144
1.0
145
0.0
146
0.71
147
0.06
 71
     0
 72
     0
 73
     1
 74
     1
 75
     0
 76
     0
 77
     0
 78
     7
170
     0
171
     2
172
     0
173
     0
174
     0
175
     0
176
   256
177
   256
178
     2
  0
DIMSTYLE
  2
AM_ANSI$SF
 70
     0
  3

  4
mm
  5

  6

  7

 40
1.0
 41
0.1
 42
0.05
 43
0.5
 44
0.1
 45
0.0
 46
0.0
 47
0.1
 48
0.1
140
0.12
141
0.0
142
0.0
143
25.399999999999999
144
1.0
145
0.0
146
0.71
147
0.06
 71
     0
 72
     0
 73
     1
 74
     1
 75
     1
 76
     1
 77
     0
 78
     7
170
     0
171
     2
172
     0
173
     0
174
     0
175
     0
176
   256
177
   256
178
     2
  0
DIMSTYLE
  2
AM_ANSI$SH
 70
     0
  3

  4
mm
  5

  6

  7

 40
1.0
 41
0.1
 42
0.05
 43
0.5
 44
0.1
 45
0.0
 46
0.0
 47
0.1
 48
0.1
140
0.12
141
0.0
142
0.0
143
25.399999999999999
144
1.0
145
0.0
146
0.71
147
0.06
 71
     0
 72
     0
 73
     1
 74
     1
 75
     1
 76
     1
 77
     0
 78
     7
170
     0
171
     2
172
     0
173
     1
174
     0
175
     0
176
   256
177
   256
178
     2
  0
ENDTAB
  0
ENDSEC
  0
SECTION
  2
BLOCKS
  0
BLOCK
  8
0
  2
$MODEL_SPACE
 70
     0
 10
0.0
 20
0.0
 30
0.0
  3
$MODEL_SPACE
  1

  0
ENDBLK
  5
2AEE
  8
0
  0
BLOCK
 67
     1
  8
0
  2
$PAPER_SPACE
 70
     0
 10
0.0
 20
0.0
 30
0.0
  3
$PAPER_SPACE
  1

  0
ENDBLK
  5
2AEA
 67
     1
  8
0
  0
BLOCK
  8
0
  2
GENAXEH
 70
     0
 10
0.0
 20
0.0
 30
0.0
  3
GENAXEH
  1

  0
LINE
  5
288E
  8
0
 10
-1.0
 20
0.0
 30
0.0
 11
1.0
 21
0.0
 31
0.0
  0
ENDBLK
  5
288F
  8
0
  0
BLOCK
  8
0
  2
_OPEN30
 70
     0
 10
0.0
 20
0.0
 30
0.0
  3
_OPEN30
  1

  0
LINE
  5
2892
  8
0
 62
     0
 10
-1.0
 20
0.26794919
 30
0.0
 11
0.0
 21
0.0
 31
0.0
  0
LINE
  5
2893
  8
0
 62
     0
 10
0.0
 20
0.0
 30
0.0
 11
-1.0
 21
-0.26794919
 31
0.0
  0
LINE
  5
2894
  8
0
 62
     0
 10
0.0
 20
0.0
 30
0.0
 11
-1.0
 21
0.0
 31
0.0
  0
ENDBLK
  5
2895
  8
0
  0
BLOCK
  8
0
  2
_NONE
 70
     0
 10
0.0
 20
0.0
 30
0.0
  3
_NONE
  1

  0
ENDBLK
  5
2898
  8
0
  0
BLOCK
  8
0
  2
*U5
 70
     1
 10
0.0
 20
0.0
 30
0.0
  3
*U5
  1

  0
TEXT
  5
289B
  8
AM_0
 62
     4
 10
734.66536356828669
 20
386.91058604514831
 30
0.0
 40
12.5
  1
\U+2205
 50
90.0
 41
0.8299999999999999
  0
TEXT
  5
289C
  8
AM_0
 62
     4
 10
734.66536356828669
 20
397.28558604514831
 30
0.0
 40
12.5
  1
240
 50
90.0
 41
0.8299999999999999
  0
TEXT
  5
289D
  8
AM_0
 62
     4
 10
734.66536356828669
 20
426.68141937848162
 30
0.0
 40
10.0
  1
h7
 50
90.0
 41
0.8299999999999999
  0
ENDBLK
  5
289E
  8
0
  0
BLOCK
  8
0
  2
*U6
 70
     1
 10
0.0
 20
0.0
 30
0.0
  3
*U6
  1

  0
TEXT
  5
28A1
  8
AM_0
 62
     4
 10
995.829042182585
 20
612.10817549650869
 30
0.0
 40
12.5
  1
o
 41
0.8299999999999999
  0
TEXT
  5
28A2
  8
AM_0
 62
     4
 10
1008.180232658774
 20
612.10817549650869
 30
0.0
 40
12.5
  1
 285
 41
0.8299999999999999
  0
ENDBLK
  5
28A3
  8
0
  0
BLOCK
  8
0
  2
_ACMFILLEDHALF
 70
     0
 10
0.0
 20
0.0
 30
0.0
  3
_ACMFILLEDHALF
  1

  0
TRACE
  5
2BE8
  8
AM_0
 62
     0
 10
-0.8
 20
0.0
 30
0.0
 11
-1.0
 21
0.166666666
 31
0.0
 12
0.0
 22
0.0
 32
0.0
 13
0.0
 23
0.0
 33
0.0
  0
LINE
  5
2BE9
  8
AM_0
 62
     0
 10
-1.0
 20
0.0
 30
0.0
 11
-0.8
 21
0.0
 31
0.0
  0
ENDBLK
  5
2BE7
  8
0
  0
ENDSEC
  0
SECTION
  2
ENTITIES
  0
LINE
  5
28A4
  8
AM_0
 10
398.61481205058271
 20
459.64821637848149
 30
0.0
 11
398.61481205058271
 21
472.71265937848159
 31
0.0
  0
LINE
  5
28A5
  8
AM_0
 10
401.6148120505826
 20
459.28251437848161
 30
0.0
 11
401.6148120505826
 21
470.21268937848129
 31
0.0
  0
ARC
  5
28A6
  8
AM_0
 10
432.6148120505822
 20
464.36750437848133
 30
0.0
 40
4.000000049999997
 50
272.0
 51
0.0
  0
LINE
  5
28A7
  8
AM_0
 10
384.61481205058271
 20
291.71265937848159
 30
0.0
 11
384.61481205058271
 21
472.71265937848159
 31
0.0
  0
LINE
  5
28A8
  8
AM_0
 10
436.61481205058271
 20
261.58811437848152
 30
0.0
 11
436.61481205058271
 21
474.33198437848148
 31
0.0
  0
LINE
  5
28A9
  8
AM_0
 10
450.61476205058239
 20
248.0980193784815
 30
0.0
 11
450.61476205058239
 21
503.32732937848152
 31
0.0
  0
LINE
  5
28AA
  8
AM_0
 10
463.61481205058249
 20
245.71267437848161
 30
0.0
 11
463.61481205058249
 21
505.71267937848148
 31
0.0
  0
LINE
  5
28AB
  8
AM_0
 10
561.61481205058271
 20
435.19950437848161
 30
0.0
 11
561.61481205058271
 21
552.68702937848161
 31
0.0
  0
LINE
  5
28AC
  8
AM_0
 10
579.61481205058271
 20
271.21265937848159
 30
0.0
 11
579.61481205058271
 21
556.21267937848165
 31
0.0
  0
LINE
  5
28AD
  8
AM_0
 10
560.48031205058271
 20
432.06559437848148
 30
0.0
 11
544.22731205058233
 21
481.20161437848151
 31
0.0
  0
LINE
  5
28AE
  8
AM_0
 10
569.61481205058271
 20
413.71265937848159
 30
0.0
 11
569.61481205058271
 21
524.66992937848136
 31
0.0
  0
LINE
  5
28AF
  8
AM_0
 10
583.61481205058215
 20
413.71265937848159
 30
0.0
 11
583.61481205058215
 21
533.71267937848165
 31
0.0
  0
LINE
  5
28B0
  8
ﾁｭｳｼﾝｾﾝ
 10
226.76934667367721
 20
375.71265937848148
 30
0.0
 11
444.23725876862699
 21
375.71265937848148
 31
0.0
  0
LINE
  5
28B1
  8
AM_0
 10
242.1148120505828
 20
390.71265937848148
 30
0.0
 11
270.1148120505826
 21
390.71265937848148
 31
0.0
  0
LINE
  5
28B2
  8
AM_0
 10
242.1148120505828
 20
363.71265937848148
 30
0.0
 11
278.11481205058271
 21
363.71265937848148
 31
0.0
  0
LINE
  5
28B3
  8
AM_0
 10
242.1148120505828
 20
387.71265937848148
 30
0.0
 11
278.11481205058271
 21
387.71265937848148
 31
0.0
  0
LINE
  5
28B4
  8
AM_0
 10
242.1148120505828
 20
387.71265937848148
 30
0.0
 11
242.1148120505828
 21
390.71265937848148
 31
0.0
  0
LINE
  5
28B5
  8
AM_0
 10
242.1148120505828
 20
387.71265937848148
 30
0.0
 11
242.1148120505828
 21
363.71265937848148
 31
0.0
  0
LINE
  5
28B6
  8
AM_0
 10
463.61476205058239
 20
245.71265937848159
 30
0.0
 11
523.34331205058209
 21
244.1486143784814
 31
0.0
  0
LINE
  5
28B7
  8
ﾁｭｳｼﾝｾﾝ
 10
426.26071205058241
 20
413.71265937848159
 30
0.0
 11
663.55921205058235
 21
413.71265937848159
 31
0.0
  0
LINE
  5
28B8
  8
AM_0
 10
450.61476205058239
 20
253.99538937848149
 30
0.0
 11
540.39851205058267
 21
253.99538937848149
 31
0.0
  0
LINE
  5
28B9
  8
AM_0
 10
450.61476205058239
 20
268.45218937848159
 30
0.0
 11
565.43831205058245
 21
268.45218937848159
 31
0.0
  0
LINE
  5
28BA
  8
AM_0
 10
450.61476205058239
 20
365.73166937848151
 30
0.0
 11
569.61481205058271
 21
365.73166937848151
 31
0.0
  0
LINE
  5
28BB
  8
AM_0
 10
450.61476205058239
 20
385.69367937848148
 30
0.0
 11
569.61481205058271
 21
385.69367937848148
 31
0.0
  0
ARC
  5
28BC
  8
AM_0
 10
491.61481205058271
 20
302.6295593784817
 30
0.0
 40
9.7211409999999994
 50
90.000003000000007
 51
270.0
  0
LINE
  5
28BD
  8
AM_0
 10
398.61481205058271
 20
349.96575337848162
 30
0.0
 11
398.61481205058271
 21
315.79375937848158
 31
0.0
  0
ARC
  5
28BE
  8
AM_0
 10
431.61481205058271
 20
314.85975437848163
 30
0.0
 40
5.0
 50
0.0
 51
90.000003000000007
  0
LINE
  5
28BF
  8
AM_0
 10
382.1148120505826
 20
299.6560353784817
 30
0.0
 11
325.8961790505827
 21
332.11387837848162
 31
0.0
  0
LINE
  5
28C0
  8
AM_0
 10
399.61481205058271
 20
460.71265937848159
 30
0.0
 11
399.61481205058271
 21
290.71265937848159
 31
0.0
  0
ARC
  5
28C1
  8
AM_0
 10
432.6148120505822
 20
287.05784437848138
 30
0.0
 40
4.000000049999997
 50
0.0
 51
88.0
  0
LINE
  5
28C2
  8
AM_0
 10
399.6147620505825
 20
292.21265937848159
 30
0.0
 11
432.75436205058247
 21
291.05539937848158
 31
0.0
  0
ARC
  5
28C3
  8
AM_0
 10
379.61481205058271
 20
295.32590837848159
 30
0.0
 40
5.0
 50
0.0
 51
59.999999999999851
  0
LINE
  5
28C4
  8
AM_0
 10
398.61481205058271
 20
289.71265937848159
 30
0.0
 11
386.6148120505826
 21
289.71265937848159
 31
0.0
  0
ARC
  5
28C5
  8
AM_0
 10
386.6148120505826
 20
291.71265937848159
 30
0.0
 40
2.0
 50
180.0
 51
270.0
  0
LINE
  5
28C6
  8
AM_0
 10
398.61481205058271
 20
289.71265937848159
 30
0.0
 11
399.61481205058271
 21
290.71265937848159
 31
0.0
  0
LINE
  5
28C7
  8
AM_0
 10
396.61481205058271
 20
313.79375937848158
 30
0.0
 11
386.6148120505826
 21
313.79375937848158
 31
0.0
  0
ARC
  5
28C8
  8
AM_0
 10
386.6148120505826
 20
315.79375937848158
 30
0.0
 40
2.0
 50
180.0
 51
270.0
  0
ARC
  5
28C9
  8
AM_0
 10
396.61481205058271
 20
315.79375937848158
 30
0.0
 40
2.0
 50
270.0
 51
0.0
  0
LINE
  5
28CA
  8
AM_0
 10
452.54491205058241
 20
246.0991943784816
 30
0.0
 11
463.61481205058249
 21
245.71262437848159
 31
0.0
  0
LINE
  5
28CB
  8
AM_0
 10
439.09381205058253
 20
258.63370937848151
 30
0.0
 11
448.13581205058227
 21
257.03934937848152
 31
0.0
  0
ARC
  5
28CC
  8
AM_0
 10
439.6148120505826
 20
261.58811437848152
 30
0.0
 40
3.0000000500000001
 50
179.99998999999991
 51
260.0
  0
ARC
  5
28CD
  8
AM_0
 10
452.61481205058237
 20
248.0980193784815
 30
0.0
 40
2.0000000500000001
 50
179.99998999999991
 51
268.00000999999992
  0
ARC
  5
28CE
  8
AM_0
 10
447.61481205058249
 20
254.08495437848151
 30
0.0
 40
3.0000000500000001
 50
0.0
 51
79.999998000000005
  0
LINE
  5
28CF
  8
AM_0
 10
382.1148120505826
 20
451.7692833784817
 30
0.0
 11
325.8961790505827
 21
419.31144037848162
 31
0.0
  0
LINE
  5
28D0
  8
AM_0
 10
270.1148120505826
 20
387.71265937848148
 30
0.0
 11
270.1148120505826
 21
390.71265937848148
 31
0.0
  0
LINE
  5
28D1
  8
AM_0
 10
324.10442405058279
 20
415.71265937848142
 30
0.0
 11
324.10442405058279
 21
335.71265937848159
 31
0.0
  0
LINE
  5
28D2
  8
AM_0
 10
291.77506605058261
 20
414.71265937848159
 30
0.0
 11
291.77506605058261
 21
336.7126593784817
 31
0.0
  0
LINE
  5
28D3
  8
AM_0
 10
283.11481205058271
 20
339.86736037848158
 30
0.0
 11
283.11481205058271
 21
411.5579583784816
 31
0.0
  0
LINE
  5
28D4
  8
AM_0
 10
281.11481205058271
 20
350.71265937848148
 30
0.0
 11
281.11481205058271
 21
400.71265937848159
 31
0.0
  0
ARC
  5
28D5
  8
AM_0
 10
321.8961790505827
 20
325.18567437848162
 30
0.0
 40
8.0
 50
59.999999999999851
 51
88.999999999998224
  0
LINE
  5
28D6
  8
AM_0
 10
293.84369205058277
 20
333.67655137848169
 30
0.0
 11
322.03579805058268
 21
333.18445637848163
 31
0.0
  0
LINE
  5
28D7
  8
AM_0
 10
284.11481205058271
 20
338.13530937848168
 30
0.0
 11
289.98331105058247
 21
334.7471293784817
 31
0.0
  0
ARC
  5
28D8
  8
AM_0
 10
293.98331105058247
 20
341.6753333784817
 30
0.0
 40
8.0
 50
239.9999999999998
 51
268.99999999999812
  0
ARC
  5
28D9
  8
AM_0
 10
285.11481205058271
 20
339.86736037848158
 30
0.0
 40
2.0
 50
180.0
 51
239.9999999999998
  0
LINE
  5
28DA
  8
AM_0
 10
281.11481205058271
 20
350.71265937848148
 30
0.0
 11
283.11481205058271
 21
348.71265937848148
 31
0.0
  0
LINE
  5
28DB
  8
AM_0
 10
278.11481205058271
 20
388.21265937848159
 30
0.0
 11
278.11481205058271
 21
363.21265937848148
 31
0.0
  0
LINE
  5
28DC
  8
AM_0
 10
278.11481205058271
 20
363.21265937848148
 30
0.0
 11
281.11481205058271
 21
363.21265937848148
 31
0.0
  0
LINE
  5
28DD
  8
AM_0
 10
278.11481205058271
 20
388.21265937848159
 30
0.0
 11
281.11481205058271
 21
388.21265937848159
 31
0.0
  0
ARC
  5
28DE
  8
AM_0
 10
321.8961790505827
 20
426.23964437848139
 30
0.0
 40
8.0
 50
271.00000000000171
 51
300.0
  0
LINE
  5
28DF
  8
AM_0
 10
293.84369205058277
 20
417.74876737848149
 30
0.0
 11
322.03579805058268
 21
418.24086237848161
 31
0.0
  0
LINE
  5
28E0
  8
AM_0
 10
281.11481205058271
 20
400.71265937848159
 30
0.0
 11
283.11481205058271
 21
402.71265937848148
 31
0.0
  0
LINE
  5
28E1
  8
AM_0
 10
284.11481205058271
 20
413.29000937848161
 30
0.0
 11
289.98331105058247
 21
416.67818937848159
 31
0.0
  0
ARC
  5
28E2
  8
AM_0
 10
285.11481205058271
 20
411.5579583784816
 30
0.0
 40
2.0
 50
120.0000000000001
 51
180.0
  0
ARC
  5
28E3
  8
AM_0
 10
293.98331105058247
 20
409.7499853784816
 30
0.0
 40
8.0
 50
91.000000000001705
 51
120.0000000000001
  0
LINE
  5
28E4
  8
AM_0
 10
401.6148120505826
 20
332.85010937848159
 30
0.0
 11
436.61481205058271
 21
332.85010937848159
 31
0.0
  0
ARC
  5
28E5
  8
AM_0
 10
431.61481205058271
 20
349.60224437848149
 30
0.0
 40
5.0
 50
270.0
 51
0.0
  0
LINE
  5
28E6
  8
AM_0
 10
401.6148120505826
 20
344.6022443784816
 30
0.0
 11
431.61481205058271
 21
344.6022443784816
 31
0.0
  0
LINE
  5
28E7
  8
AM_0
 10
401.6148120505826
 20
319.85975437848163
 30
0.0
 11
431.61481205058271
 21
319.85975437848163
 31
0.0
  0
LINE
  5
28E8
  8
AM_0
 10
401.6148120505826
 20
319.85975437848163
 30
0.0
 11
401.6148120505826
 21
344.6022443784816
 31
0.0
  0
LINE
  5
28E9
  8
AM_0
 10
385.61481205058271
 20
349.96575337848162
 30
0.0
 11
397.61481205058271
 21
349.96575337848162
 31
0.0
  0
LINE
  5
28EA
  8
AM_0
 10
386.6148120505826
 20
339.77452137848161
 30
0.0
 11
396.61481205058271
 21
339.77452137848161
 31
0.0
  0
ARC
  5
28EB
  8
AM_0
 10
386.6148120505826
 20
341.77452137848161
 30
0.0
 40
2.0
 50
180.0
 51
270.0
  0
ARC
  5
28EC
  8
AM_0
 10
396.61481205058271
 20
341.77452137848161
 30
0.0
 40
2.0
 50
270.0
 51
0.0
  0
LINE
  5
28ED
  8
AM_0
 10
401.6148120505826
 20
459.28248437848168
 30
0.0
 11
432.75441205058218
 21
460.36988437848129
 31
0.0
  0
LINE
  5
28EE
  8
AM_0
 10
397.61481205058271
 20
459.64821637848149
 30
0.0
 11
385.61481205058271
 21
459.64821637848149
 31
0.0
  0
ARC
  5
28EF
  8
AM_0
 10
379.61481205058271
 20
456.09941037848159
 30
0.0
 40
5.0
 50
300.0
 51
0.0
  0
LINE
  5
28F0
  8
AM_0
 10
399.61481205058271
 20
459.21262937848161
 30
0.0
 11
401.6148120505826
 21
459.28248437848168
 31
0.0
  0
LINE
  5
28F1
  8
AM_0
 10
398.61481205058271
 20
461.71265937848148
 30
0.0
 11
399.61481205058271
 21
460.71265937848159
 31
0.0
  0
LINE
  5
28F2
  8
AM_0
 10
569.61481205058271
 20
413.71265937848159
 30
0.0
 11
569.61481205058271
 21
302.75535437848163
 31
0.0
  0
LINE
  5
28F3
  8
AM_0
 10
561.61481205058271
 20
273.69068437848159
 30
0.0
 11
561.61481205058271
 21
322.20582437848162
 31
0.0
  0
LINE
  5
28F4
  8
AM_0
 10
583.61481205058215
 20
413.71265937848159
 30
0.0
 11
583.61481205058215
 21
293.71265937848159
 31
0.0
  0
LINE
  5
28F5
  8
AM_0
 10
523.34326205058255
 20
244.14864437848161
 30
0.0
 11
569.6147620505825
 21
270.86347437848161
 31
0.0
  0
LINE
  5
28F6
  8
AM_0
 10
491.61481205058271
 20
312.35068937848172
 30
0.0
 11
561.61481205058271
 21
312.35068937848172
 31
0.0
  0
LINE
  5
28F7
  8
AM_0
 10
491.61481205058271
 20
292.90839937848142
 30
0.0
 11
561.61481205058271
 21
292.90839937848142
 31
0.0
  0
LINE
  5
28F8
  8
AM_0
 10
491.61481205058271
 20
294.7550793784817
 30
0.0
 11
491.61481205058271
 21
310.85508437848148
 31
0.0
  0
LINE
  5
28F9
  8
AM_0
 10
564.71951205058235
 20
270.69254437848161
 30
0.0
 11
579.61481205058271
 21
271.21268937848151
 31
0.0
  0
ARC
  5
28FA
  8
AM_0
 10
564.61481205058249
 20
273.69068437848159
 30
0.0
 40
3.0000000500000001
 50
179.99998999999991
 51
271.99998999999991
  0
ARC
  5
28FB
  8
AM_0
 10
564.61481205058249
 20
302.75535437848163
 30
0.0
 40
5.0
 50
268.0
 51
0.0
  0
LINE
  5
28FC
  8
AM_0
 10
579.61481205058271
 20
293.71265937848159
 30
0.0
 11
583.61481205058215
 21
293.71265937848159
 31
0.0
  0
LINE
  5
28FD
  8
AM_0
 10
599.61481205058271
 20
437.71268937848151
 30
0.0
 11
655.6147620505825
 21
437.71268937848151
 31
0.0
  0
LINE
  5
28FE
  8
AM_0
 10
585.6147620505825
 20
392.71268937848151
 30
0.0
 11
655.6147620505825
 21
392.71268937848151
 31
0.0
  0
LINE
  5
28FF
  8
AM_0
 10
585.6147620505825
 20
434.71268937848163
 30
0.0
 11
655.6147620505825
 21
434.71268937848163
 31
0.0
  0
ARC
  5
2900
  8
AM_0
 10
566.61481205058271
 20
322.20582437848162
 30
0.0
 40
5.0
 50
90.000003000000007
 51
180.00001
  0
LINE
  5
2901
  8
AM_0
 10
585.6147620505825
 20
391.21265937848159
 30
0.0
 11
585.6147620505825
 21
436.21265937848148
 31
0.0
  0
LINE
  5
2902
  8
AM_0
 10
583.61481205058215
 20
391.21265937848159
 30
0.0
 11
585.6147620505825
 21
391.21265937848159
 31
0.0
  0
ARC
  5
2903
  8
AM_0
 10
565.22736205058254
 20
433.63584937848162
 30
0.0
 40
5.0
 50
198.30292
 51
270.0
  0
LINE
  5
2904
  8
AM_0
 10
565.22736205058254
 20
428.63584937848162
 30
0.0
 11
569.61481205058271
 21
428.63584937848162
 31
0.0
  0
LINE
  5
2905
  8
AM_0
 10
583.61481205058215
 20
436.21265937848148
 30
0.0
 11
585.6147620505825
 21
436.21265937848148
 31
0.0
  0
LINE
  5
2906
  8
AM_0
 10
599.61481205058271
 20
437.71268937848151
 30
0.0
 11
599.61481205058271
 21
434.71268937848163
 31
0.0
  0
LINE
  5
2907
  8
AM_0
 10
655.6147620505825
 20
392.71268937848151
 30
0.0
 11
655.6147620505825
 21
437.71268937848151
 31
0.0
  0
LINE
  5
2908
  8
AM_0
 10
463.61471205058251
 20
505.71267937848148
 30
0.0
 11
533.50296205058237
 21
507.54277937848161
 31
0.0
  0
LINE
  5
2909
  8
AM_0
 10
450.61476205058239
 20
482.97318937848149
 30
0.0
 11
512.67636205058238
 21
482.97318937848149
 31
0.0
  0
LINE
  5
290A
  8
AM_0
 10
450.61476205058239
 20
497.42997437848157
 30
0.0
 11
526.52536205058254
 21
497.42997437848157
 31
0.0
  0
ARC
  5
290B
  8
AM_0
 10
447.61481205058249
 20
526.21267937848165
 30
0.0
 40
20.500000499999992
 50
304.61363999999992
 51
235.38634999999999
  0
CIRCLE
  5
290C
  8
AM_0
 10
447.61481205058249
 20
526.21267937848165
 30
0.0
 40
12.5
  0
LINE
  5
290D
  8
AM_0
 10
401.6148120505826
 20
470.21262937848138
 30
0.0
 11
433.71951205058258
 21
471.33375437848161
 31
0.0
  0
LINE
  5
290E
  8
AM_0
 10
386.6148120505826
 20
474.71265937848148
 30
0.0
 11
396.61481205058271
 21
474.71265937848148
 31
0.0
  0
ARC
  5
290F
  8
AM_0
 10
386.6148120505826
 20
472.71265937848159
 30
0.0
 40
2.0
 50
90.0
 51
180.0
  0
ARC
  5
2910
  8
AM_0
 10
396.61481205058271
 20
472.71265937848159
 30
0.0
 40
2.0
 50
0.0
 51
90.0
  0
LINE
  5
2911
  8
AM_0
 10
436.61481205058271
 20
474.33198437848148
 30
0.0
 11
436.61481205058271
 21
503.7126793784816
 31
0.0
  0
ARC
  5
2912
  8
AM_0
 10
433.6148120505822
 20
474.33198437848148
 30
0.0
 40
3.0000000500000001
 50
272.0
 51
0.0
  0
LINE
  5
2913
  8
AM_0
 10
439.09381205058253
 20
492.79172937848148
 30
0.0
 11
448.13576205058251
 21
494.38605937848149
 31
0.0
  0
ARC
  5
2914
  8
AM_0
 10
439.6148120505826
 20
489.83723437848153
 30
0.0
 40
3.0000000500000001
 50
100.0
 51
180.00001
  0
ARC
  5
2915
  8
AM_0
 10
447.61481205058249
 20
497.34040937848141
 30
0.0
 40
3.0000000500000001
 50
280.0
 51
0.0
  0
LINE
  5
2916
  8
AM_0
 10
452.5450620505826
 20
505.32607937848161
 30
0.0
 11
463.61476205058239
 21
505.71267937848148
 31
0.0
  0
LINE
  5
2917
  8
AM_0
 10
437.29196205058241
 20
505.21267937848148
 30
0.0
 11
451.94741205058222
 21
505.21267937848148
 31
0.0
  0
LINE
  5
2918
  8
AM_0
 10
439.79766205058218
 20
512.21267937848165
 30
0.0
 11
455.43191205058218
 21
512.21267937848165
 31
0.0
  0
LINE
  5
2919
  8
AM_0
 10
440.11146205058259
 20
512.32732937848164
 30
0.0
 11
447.61486205058247
 21
513.71267937848165
 31
0.0
  0
LINE
  5
291A
  8
AM_0
 10
437.6148120505822
 20
505.21267937848148
 30
0.0
 11
439.32706205058253
 21
511.60277937848161
 31
0.0
  0
ARC
  5
291B
  8
AM_0
 10
438.61481205058249
 20
503.7126793784816
 30
0.0
 40
2.0000000500000001
 50
131.4096199999999
 51
180.00001
  0
ARC
  5
291C
  8
AM_0
 10
433.69781205058251
 20
506.04917937848182
 30
0.0
 40
4.000000049999997
 50
347.92932999999999
 51
55.386358999999992
  0
ARC
  5
291D
  8
AM_0
 10
440.29296205058228
 20
511.34392937848128
 30
0.0
 40
1.0
 50
100.4607199999999
 51
164.99999
  0
ARC
  5
291E
  8
AM_0
 10
452.61481205058237
 20
503.32732937848152
 30
0.0
 40
2.0000000500000001
 50
91.999997999999948
 51
180.00001
  0
LINE
  5
291F
  8
AM_0
 10
447.61481205058249
 20
513.71267937848165
 30
0.0
 11
455.11826205058259
 21
512.32727937848153
 31
0.0
  0
LINE
  5
2920
  8
AM_0
 10
457.53761205058248
 20
505.50042937848161
 30
0.0
 11
455.90256205058267
 21
511.60272937848151
 31
0.0
  0
ARC
  5
2921
  8
AM_0
 10
461.53176205058247
 20
506.04917937848182
 30
0.0
 40
4.000000049999997
 50
124.61365000000001
 51
187.86822000000001
  0
ARC
  5
2922
  8
AM_0
 10
454.93666205058253
 20
511.34392937848128
 30
0.0
 40
1.0
 50
15.0
 51
79.539281000000003
  0
LINE
  5
2923
  8
AM_0
 10
461.61481205058271
 20
505.71267937848148
 30
0.0
 11
463.61481205058249
 21
505.71267937848148
 31
0.0
  0
ARC
  5
2924
  8
AM_0
 10
556.61481205058271
 20
535.78372937848144
 30
0.0
 40
5.0
 50
315.0
 51
0.0
  0
LINE
  5
2925
  8
AM_0
 10
559.46741205058231
 20
510.7162793784816
 30
0.0
 11
517.70936205058251
 21
485.7433893784816
 31
0.0
  0
ARC
  5
2926
  8
AM_0
 10
542.56781205058269
 20
486.20161437848162
 30
0.0
 40
5.0
 50
270.0
 51
306.72320999999999
  0
LINE
  5
2927
  8
AM_0
 10
536.90766205058253
 20
509.00547937848148
 30
0.0
 11
560.15036205058277
 21
532.24817937848161
 31
0.0
  0
LINE
  5
2928
  8
AM_0
 10
559.18106205058257
 20
516.95922937848172
 30
0.0
 11
522.12216205058257
 21
494.79664437848157
 31
0.0
  0
ARC
  5
2929
  8
AM_0
 10
493.81466205058251
 20
507.50777937848147
 30
0.0
 40
30.946884499999999
 50
307.55230999999992
 51
335.5961299999999
  0
LINE
  5
292A
  8
AM_0
 10
515.11481205058215
 20
481.20161437848151
 30
0.0
 11
542.56781205058269
 21
481.20161437848151
 31
0.0
  0
ARC
  5
292B
  8
AM_0
 10
515.11481205058215
 20
486.20161437848162
 30
0.0
 40
5.0
 50
229.76332999999991
 51
270.0
  0
LINE
  5
292C
  8
AM_0
 10
536.82246205058254
 20
503.58797937848158
 30
0.0
 11
535.49706205058203
 21
507.59497937848158
 31
0.0
  0
ARC
  5
292D
  8
AM_0
 10
533.37216205058246
 20
512.54102937848165
 30
0.0
 40
5.0
 50
271.49999999999972
 51
315.0
  0
LINE
  5
292E
  8
AM_0
 10
545.55751205058277
 20
482.19401437848148
 30
0.0
 11
561.61471205058251
 21
494.17283437848158
 31
0.0
  0
ARC
  5
292F
  8
AM_0
 10
556.61481205058271
 20
521.25042937848161
 30
0.0
 40
5.0
 50
300.88097999999979
 51
0.0
  0
ARC
  5
2930
  8
AM_0
 10
564.61481205058249
 20
524.66992937848136
 30
0.0
 40
5.0
 50
0.0
 51
91.999997999999948
  0
LINE
  5
2931
  8
AM_0
 10
579.61481205058271
 20
533.71267937848165
 30
0.0
 11
583.61481205058215
 21
533.71267937848165
 31
0.0
  0
LINE
  5
2932
  8
AM_0
 10
564.51016205058227
 20
555.68517937848162
 30
0.0
 11
579.61481205058271
 21
556.21267937848165
 31
0.0
  0
ARC
  5
2933
  8
AM_0
 10
564.61481205058249
 20
552.68702937848161
 30
0.0
 40
3.0000000500000001
 50
91.999997999999948
 51
180.00001
  0
ARC
  5
2934
  8
AM_0
 10
984.19550174177152
 20
467.62925437848151
 30
0.0
 40
5.0
 50
233.5836799999999
 51
315.0
  0
LINE
  5
2935
  8
AM_0
 10
1023.996066741771
 20
486.21659937848159
 30
0.0
 11
994.80209674177149
 21
457.0226293784815
 31
0.0
  0
ARC
  5
2936
  8
AM_0
 10
904.64667174177134
 20
467.62925437848151
 30
0.0
 40
5.0
 50
225.0
 51
306.41631999999993
  0
LINE
  5
2937
  8
AM_0
 10
864.84607174177165
 20
486.21662937848163
 30
0.0
 11
894.04007174177138
 21
457.0226293784815
 31
0.0
  0
LINE
  5
2938
  8
AM_0
 10
1086.9211017417711
 20
463.71265937848159
 30
0.0
 11
1086.9211017417711
 21
413.71265937848159
 31
0.0
  0
LINE
  5
2939
  8
AM_0
 10
801.92110174177151
 20
463.71265937848159
 30
0.0
 11
801.92110174177151
 21
413.71265937848159
 31
0.0
  0
LINE
  5
293A
  8
ﾁｭｳｼﾝｾﾝ
 10
944.42111674177158
 20
563.79596242389425
 30
0.0
 11
944.42111674177158
 21
234.51982937848149
 31
0.0
  0
ARC
  5
293B
  8
AM_0
 10
944.42111674177158
 20
375.71265937848148
 30
0.0
 40
122.0
 50
124.67318
 51
157.42802
  0
ARC
  5
293C
  8
AM_0
 10
944.42111674177158
 20
375.71265937848148
 30
0.0
 40
122.0
 50
22.571981999999991
 51
55.326820000000012
  0
CIRCLE
  5
293D
  8
AM_0
 10
944.42111674177158
 20
413.71265937848159
 30
0.0
 40
113.0
  0
CIRCLE
  5
293E
  8
AM_0
 10
944.42111674177158
 20
413.71265937848159
 30
0.0
 40
120.0
  0
LINE
  5
293F
  8
ﾁｭｳｼﾝｾﾝ
 10
792.73639709196414
 20
413.71265937848159
 30
0.0
 11
1094.2586114322919
 21
413.71265937848159
 31
0.0
  0
ARC
  5
2940
  8
AM_0
 10
1065.4298467417691
 20
292.70392937848158
 30
0.0
 40
19.000000499999999
 50
272.0
 51
358.0
  0
LINE
  5
2941
  8
AM_0
 10
822.74927174177174
 20
273.71549437848148
 30
0.0
 11
894.42108674177143
 21
271.21265937848159
 31
0.0
  0
LINE
  5
2942
  8
AM_0
 10
838.8985917417715
 20
385.71265937848159
 30
0.0
 11
874.42111674177136
 21
385.71265937848159
 31
0.0
  0
LINE
  5
2943
  8
AM_0
 10
804.42395174177182
 20
292.04087437848159
 30
0.0
 11
801.92110174177151
 21
363.71265937848148
 31
0.0
  0
ARC
  5
2944
  8
AM_0
 10
823.41235674177142
 20
292.70392937848158
 30
0.0
 40
19.000000499999999
 50
182.0
 51
268.0
  0
ARC
  5
2945
  8
ﾁｭｳｼﾝｾﾝ1
 10
944.42111674177158
 20
413.71265937848159
 30
0.0
 40
170.00000499999979
 50
217.84323000000001
 51
231.01461
  0
LINE
  5
2946
  8
ﾁｭｳｼﾝｾﾝ1
 10
812.58902346292609
 20
281.88060809785458
 30
0.0
 11
837.46005854840791
 21
306.7516323730888
 31
0.0
  0
CIRCLE
  5
2947
  8
AM_0
 10
824.21292174177142
 20
293.50452937848172
 30
0.0
 40
9.5
  0
LINE
  5
2948
  8
AM_0
 10
801.92110174177151
 20
363.71265937848148
 30
0.0
 11
801.92110174177151
 21
413.71265937848159
 31
0.0
  0
ARC
  5
2949
  8
AM_0
 10
838.8985917417715
 20
390.71265937848148
 30
0.0
 40
5.0
 50
192.29603999999981
 51
270.0
  0
LINE
  5
294A
  8
AM_0
 10
994.42111674177158
 20
271.21265937848159
 30
0.0
 11
944.42111674177158
 21
271.21265937848159
 31
0.0
  0
ARC
  5
294B
  8
AM_0
 10
944.42111674177158
 20
375.71265937848148
 30
0.0
 40
130.0
 50
246.6310399999999
 51
293.36896000000002
  0
LINE
  5
294C
  8
AM_0
 10
894.42111674177158
 20
271.21265937848159
 30
0.0
 11
944.42111674177158
 21
271.21265937848159
 31
0.0
  0
LINE
  5
294D
  8
AM_0
 10
882.00931174177185
 20
253.4701193784816
 30
0.0
 11
892.85651174177156
 21
256.37662937848143
 31
0.0
  0
LINE
  5
294E
  8
AM_0
 10
869.76187674177174
 20
260.54117937848162
 30
0.0
 11
866.6425217417717
 21
272.1827493784815
 31
0.0
  0
ARC
  5
294F
  8
AM_0
 10
879.42111674177136
 20
263.12937437848137
 30
0.0
 40
10.0
 50
195.00001
 51
285.0
  0
LINE
  5
2950
  8
AM_0
 10
1066.09294674177
 20
273.71552437848152
 30
0.0
 11
994.42111674177158
 21
271.21268937848151
 31
0.0
  0
LINE
  5
2951
  8
AM_0
 10
1006.832921741771
 20
253.47010437848161
 30
0.0
 11
995.98566174177154
 21
256.37662937848143
 31
0.0
  0
LINE
  5
2952
  8
AM_0
 10
1019.0803567417699
 20
260.54117937848162
 30
0.0
 11
1022.19971174177
 21
272.18271937848152
 31
0.0
  0
ARC
  5
2953
  8
AM_0
 10
1009.421116741771
 20
263.12937437848137
 30
0.0
 40
10.0
 50
255.0
 51
345.0
  0
CIRCLE
  5
2954
  8
AM_0
 10
1064.6292467417711
 20
293.50452937848172
 30
0.0
 40
9.5
  0
LINE
  5
2955
  8
ﾁｭｳｼﾝｾﾝ
 10
882.42111674177136
 20
375.71265937848148
 30
0.0
 11
1006.421086741771
 21
375.71265937848148
 31
0.0
  0
CIRCLE
  5
2956
  8
AM_0
 10
944.42111674177158
 20
413.71265937848159
 30
0.0
 40
41.000000499999992
  0
ARC
  5
2957
  8
AM_0
 10
874.42111674177136
 20
393.71265937848159
 30
0.0
 40
8.0
 50
270.0
 51
0.0
  0
ARC
  5
2958
  8
AM_0
 10
944.42111674177158
 20
413.71265937848159
 30
0.0
 40
61.999994999999998
 50
142.11498999999981
 51
180.00001
  0
LINE
  5
2959
  8
AM_0
 10
882.42108674177155
 20
413.71265937848159
 30
0.0
 11
882.42108674177155
 21
393.71265937848159
 31
0.0
  0
ARC
  5
295A
  8
AM_0
 10
890.50455174177159
 20
453.4871043784816
 30
0.0
 40
5.0
 50
323.5836799999999
 51
45.00000099999999
  0
ARC
  5
295B
  8
AM_0
 10
944.42111674177158
 20
413.71265937848159
 30
0.0
 40
20.9999985
 50
106.60155
 51
73.398452000000006
  0
CIRCLE
  5
295C
  8
AM_0
 10
944.42111674177158
 20
413.71265937848159
 30
0.0
 40
3.5000000500000001
  0
CIRCLE
  5
295D
  8
AM_5
 10
944.42111674177158
 20
413.71265937848159
 30
0.0
 40
5.0
  0
LINE
  5
295E
  8
AM_0
 10
938.42108674177143
 20
429.71268937848151
 30
0.0
 11
950.42108674177155
 21
429.71268937848151
 31
0.0
  0
LINE
  5
295F
  8
AM_0
 10
938.42108674177143
 20
437.71268937848151
 30
0.0
 11
950.42108674177155
 21
437.71268937848151
 31
0.0
  0
LINE
  5
2960
  8
AM_0
 10
938.42108674177143
 20
437.71268937848151
 30
0.0
 11
938.42108674177143
 21
429.71268937848151
 31
0.0
  0
LINE
  5
2961
  8
AM_0
 10
950.42108674177155
 20
437.71268937848151
 30
0.0
 11
950.42108674177155
 21
429.71268937848151
 31
0.0
  0
ARC
  5
2962
  8
AM_0
 10
1014.42111674177
 20
393.71265937848159
 30
0.0
 40
8.0
 50
179.99998999999991
 51
270.0
  0
LINE
  5
2963
  8
AM_0
 10
1049.9436117417711
 20
385.71265937848159
 30
0.0
 11
1014.42111674177
 21
385.71265937848159
 31
0.0
  0
ARC
  5
2964
  8
AM_0
 10
1049.9436117417711
 20
390.71265937848148
 30
0.0
 40
5.0
 50
270.0
 51
347.70395000000002
  0
ARC
  5
2965
  8
AM_0
 10
944.42111674177158
 20
413.71265937848159
 30
0.0
 40
61.999994999999998
 50
0.0
 51
36.416317999999983
  0
LINE
  5
2966
  8
AM_0
 10
1006.421086741771
 20
413.71265937848159
 30
0.0
 11
1006.421086741771
 21
393.71265937848159
 31
0.0
  0
ARC
  5
2967
  8
AM_0
 10
998.33765174177188
 20
453.4871043784816
 30
0.0
 40
5.0
 50
135.0
 51
216.41632000000001
  0
LINE
  5
2968
  8
AM_0
 10
1084.41828174177
 20
292.04084437848161
 30
0.0
 11
1086.92111674177
 21
363.71268937848151
 31
0.0
  0
LINE
  5
2969
  8
AM_0
 10
1086.9211017417711
 20
363.71265937848148
 30
0.0
 11
1086.9211017417711
 21
413.71265937848159
 31
0.0
  0
ARC
  5
296A
  8
AM_0
 10
1065.4298467417691
 20
534.72137937848152
 30
0.0
 40
19.000000499999999
 50
2.0
 51
88.0
  0
LINE
  5
296B
  8
AM_0
 10
822.74927174177174
 20
553.70977937848136
 30
0.0
 11
894.42111674177158
 21
556.21267937848165
 31
0.0
  0
ARC
  5
296C
  8
AM_0
 10
861.31055174177141
 20
482.68104437848149
 30
0.0
 40
5.0
 50
45.00000099999999
 51
140.31278
  0
CIRCLE
  5
296D
  8
AM_0
 10
824.21292174177142
 20
533.92082937848159
 30
0.0
 40
9.5
  0
LINE
  5
296E
  8
AM_0
 10
804.42390174177183
 20
535.38452937848126
 30
0.0
 11
801.92110174177151
 21
463.71268937848163
 31
0.0
  0
ARC
  5
296F
  8
AM_0
 10
823.41235674177142
 20
534.72137937848152
 30
0.0
 40
19.000000499999999
 50
91.999997999999948
 51
178.0
  0
LINE
  5
2970
  8
AM_0
 10
994.42111674177158
 20
556.21267937848165
 30
0.0
 11
944.42111674177158
 21
556.21267937848165
 31
0.0
  0
ARC
  5
2971
  8
AM_0
 10
944.42111674177158
 20
413.71265937848159
 30
0.0
 40
61.999994999999998
 50
53.583680999999999
 51
126.41632
  0
ARC
  5
2972
  8
AM_0
 10
944.42111674177158
 20
375.71265937848148
 30
0.0
 40
122.0
 50
60.143059999999998
 51
86.162371999999962
  0
ARC
  5
2973
  8
AM_0
 10
875.45270174177142
 20
496.8231943784815
 30
0.0
 40
5.0
 50
129.68721999999991
 51
225.0
  0
LINE
  5
2974
  8
AM_0
 10
871.91714674177183
 20
493.2876743784816
 30
0.0
 11
901.11114674177134
 21
464.09370437848139
 31
0.0
  0
ARC
  5
2975
  8
AM_0
 10
952.92108674177155
 20
502.42787937848152
 30
0.0
 40
5.0
 50
179.99998999999991
 51
266.16235999999992
  0
ARC
  5
2976
  8
AM_0
 10
935.92108674177109
 20
502.42787937848152
 30
0.0
 40
5.0
 50
273.83762999999999
 51
0.0
  0
ARC
  5
2977
  8
AM_0
 10
944.42111674176874
 20
375.71265937850598
 30
0.0
 40
121.9999999999761
 50
93.837626000003567
 51
119.8569400000037
  0
ARC
  5
2978
  8
AM_0
 10
935.92108674177109
 20
521.37762937848152
 30
0.0
 40
5.0
 50
0.0
 51
94.514060999999984
  0
LINE
  5
2979
  8
AM_0
 10
940.92108674177143
 20
521.37762937848152
 30
0.0
 11
940.92108674177143
 21
502.42787937848152
 31
0.0
  0
LINE
  5
297A
  8
AM_0
 10
947.92108674177143
 20
521.37762937848152
 30
0.0
 11
947.92108674177143
 21
502.42787937848152
 31
0.0
  0
ARC
  5
297B
  8
AM_0
 10
952.92108674177155
 20
521.37762937848152
 30
0.0
 40
5.0
 50
85.485943999999975
 51
180.00001
  0
LINE
  5
297C
  8
AM_0
 10
894.42111674177158
 20
556.21267937848165
 30
0.0
 11
944.42111674177158
 21
556.21267937848165
 31
0.0
  0
CIRCLE
  5
297D
  8
AM_0
 10
1064.6292467417711
 20
533.92082937848159
 30
0.0
 40
9.5
  0
LINE
  5
297E
  8
ﾁｭｳｼﾝｾﾝ1
 10
1076.67532431525
 20
545.96690306560436
 30
0.0
 11
1052.2407505488341
 21
521.53230617492773
 31
0.0
  0
ARC
  5
297F
  8
ﾁｭｳｼﾝｾﾝ1
 10
944.42111674177067
 20
413.71265937848182
 30
0.0
 40
170.0000049999999
 50
38.591519728713429
 51
51.0146039999998
  0
ARC
  5
2980
  8
AM_0
 10
1027.531621741771
 20
482.68104437848149
 30
0.0
 40
5.0
 50
39.687224000000001
 51
135.0
  0
ARC
  5
2981
  8
AM_0
 10
1013.38950174177
 20
496.8231943784815
 30
0.0
 40
5.0
 50
315.0
 51
50.312775000000002
  0
LINE
  5
2982
  8
AM_0
 10
1016.925021741771
 20
493.2876743784816
 30
0.0
 11
987.73105174177181
 21
464.09370437848139
 31
0.0
  0
LINE
  5
2983
  8
AM_0
 10
1066.09294674177
 20
553.70982937848146
 30
0.0
 11
994.42111674177158
 21
556.21267937848165
 31
0.0
  0
LINE
  5
2984
  8
AM_0
 10
1084.41828174177
 20
535.3844793784815
 30
0.0
 11
1086.92111674177
 21
463.71265937848159
 31
0.0
  0
LINE
  5
2985
  8
AM_0
 10
384.61479205058248
 20
727.54278069720067
 30
0.0
 11
384.61479205058248
 21
908.03614339910723
 31
0.0
  0
ARC
  5
2986
  8
AM_0
 10
386.61479205058242
 20
727.54278069720067
 30
0.0
 40
2.0
 50
180.0
 51
270.0
1001
GENIUS_GENOBJ-N-FIL_13
1002
{
1000
OWNER
1000
GEN
1002
}
1001
GENIUS_GENODEF_13
1002
{
1000
HIER
1070
     0
1002
}
1002
{
1000
MANEDIT
1070
     0
1002
}
1002
{
1000
NOSEL
1070
     0
1002
}
1002
{
1000
BEHIND
1070
     0
1002
}
1002
{
1000
OTHER
1070
     0
1002
}
1002
{
1000
REACTOR
1002
}
  0
LINE
  5
2987
  8
AM_0
 10
386.61479205058242
 20
725.5427806972009
 30
0.0
 11
396.61479205058242
 21
725.5427806972009
 31
0.0
  0
LINE
  5
2988
  8
AM_0
 10
398.61479205058242
 20
731.78946204815372
 30
0.0
 11
386.61479205058242
 21
731.78946204815372
 31
0.0
  0
ARC
  5
2989
  8
AM_0
 10
386.61479205058242
 20
733.78946204815372
 30
0.0
 40
2.0
 50
180.0
 51
270.0
  0
ARC
  5
298A
  8
AM_0
 10
379.61479205058242
 20
737.40271104815372
 30
0.0
 40
5.0
 50
0.0
 51
59.999999999999439
  0
LINE
  5
298B
  8
AM_0
 10
382.11479205058242
 20
741.73283804815435
 30
0.0
 11
325.89615905058253
 21
774.19068104815415
 31
0.0
  0
LINE
  5
298C
  8
AM_0
 10
382.11479205058242
 20
893.84608604815412
 30
0.0
 11
325.89615905058253
 21
861.38824304815444
 31
0.0
  0
ARC
  5
298D
  8
AM_0
 10
270.11479205058242
 20
817.78946204815361
 30
0.0
 40
4.0
 50
270.0
 51
90.0
  0
LINE
  5
298E
  8
AM_0
 10
278.11479205058242
 20
830.28946204815361
 30
0.0
 11
278.11479205058242
 21
805.28946204815361
 31
0.0
  0
LINE
  5
298F
  8
AM_0
 10
283.11479205058242
 20
781.94416304815434
 30
0.0
 11
283.11479205058242
 21
853.63476104815413
 31
0.0
  0
LINE
  5
2990
  8
AM_0
 10
281.11479205058242
 20
792.78946204815372
 30
0.0
 11
281.11479205058242
 21
842.78946204815361
 31
0.0
  0
LINE
  5
2991
  8
AM_0
 10
270.11479205058242
 20
813.78946204815395
 30
0.0
 11
270.11479205058242
 21
821.78946204815395
 31
0.0
  0
LINE
  5
2992
  8
AM_0
 10
242.11479205058239
 20
829.78946204815395
 30
0.0
 11
242.11479205058239
 21
805.78946204815395
 31
0.0
  0
LINE
  5
2993
  8
AM_0
 10
324.10440405058262
 20
857.78946204815361
 30
0.0
 11
324.10440405058262
 21
777.78946204815372
 31
0.0
  0
LINE
  5
2994
  8
AM_0
 10
291.77504605058232
 20
856.78946204815372
 30
0.0
 11
291.77504605058232
 21
778.78946204815372
 31
0.0
  0
LINE
  5
2995
  8
AM_0
 10
242.11479205058239
 20
805.78946204815395
 30
0.0
 11
278.11479205058242
 21
805.78946204815395
 31
0.0
  0
LINE
  5
2996
  8
AM_0
 10
242.11479205058239
 20
813.78946204815395
 30
0.0
 11
270.11479205058242
 21
813.78946204815395
 31
0.0
  0
LINE
  5
2997
  8
AM_0
 10
293.84367205058248
 20
775.75335404815371
 30
0.0
 11
322.03577805058262
 21
775.2612590481541
 31
0.0
  0
LINE
  5
2998
  8
AM_0
 10
284.11479205058242
 20
780.2121120481537
 30
0.0
 11
289.98329105058252
 21
776.82393204815412
 31
0.0
  0
ARC
  5
2999
  8
AM_0
 10
285.11479205058248
 20
781.94416304815434
 30
0.0
 40
2.0
 50
180.0
 51
239.99999999999949
  0
ARC
  5
299A
  8
AM_0
 10
293.98329105058241
 20
783.75213604815417
 30
0.0
 40
8.0
 50
239.99999999999949
 51
268.99999999999812
  0
ARC
  5
299B
  8
AM_0
 10
321.89615905058253
 20
767.26247704815364
 30
0.0
 40
8.0
 50
59.999999999999439
 51
88.999999999998224
  0
LINE
  5
299C
  8
AM_0
 10
281.11479205058242
 20
792.78946204815372
 30
0.0
 11
283.11479205058242
 21
790.78946204815372
 31
0.0
  0
LINE
  5
299D
  8
AM_0
 10
278.11479205058242
 20
805.28946204815361
 30
0.0
 11
281.11479205058242
 21
805.28946204815361
 31
0.0
  0
LINE
  5
299E
  8
AM_0
 10
242.11479205058239
 20
829.78946204815395
 30
0.0
 11
278.11479205058242
 21
829.78946204815395
 31
0.0
  0
LINE
  5
299F
  8
AM_0
 10
242.11479205058239
 20
821.78946204815395
 30
0.0
 11
270.11479205058242
 21
821.78946204815395
 31
0.0
  0
LINE
  5
29A0
  8
AM_0
 10
284.11479205058242
 20
855.36681204815409
 30
0.0
 11
289.98329105058252
 21
858.75499204815435
 31
0.0
  0
LINE
  5
29A1
  8
AM_0
 10
278.11479205058242
 20
830.28946204815361
 30
0.0
 11
281.11479205058242
 21
830.28946204815361
 31
0.0
  0
LINE
  5
29A2
  8
AM_0
 10
281.11479205058242
 20
842.78946204815361
 30
0.0
 11
283.11479205058242
 21
844.78946204815372
 31
0.0
  0
ARC
  5
29A3
  8
AM_0
 10
285.11479205058248
 20
853.63476104815413
 30
0.0
 40
2.0
 50
120.0000000000005
 51
180.0
  0
LINE
  5
29A4
  8
AM_0
 10
293.84367205058248
 20
859.82557004815374
 30
0.0
 11
322.03577805058262
 21
860.31766504815414
 31
0.0
  0
ARC
  5
29A5
  8
AM_0
 10
293.98329105058241
 20
851.82678804815384
 30
0.0
 40
8.0
 50
91.000000000001776
 51
120.0000000000005
  0
ARC
  5
29A6
  8
AM_0
 10
321.89615905058253
 20
868.31644704815415
 30
0.0
 40
8.0
 50
271.00000000000171
 51
300.00000000000051
  0
LINE
  5
29A7
  8
AM_0
 10
384.61479205058259
 20
799.0592123271864
 30
0.0
 11
398.61479205058242
 21
799.0592123271864
 31
0.0
  0
LINE
  5
29A8
  8
AM_0
 10
384.61479205058248
 20
802.78946204815429
 30
0.0
 11
398.61479205058259
 21
802.78946204815429
 31
0.0
  0
LINE
  5
29A9
  8
AM_0
 10
384.61479205058259
 20
836.5197117691215
 30
0.0
 11
398.61479205058242
 21
836.5197117691215
 31
0.0
  0
LINE
  5
29AA
  8
AM_0
 10
384.61479205058248
 20
832.78946204815361
 30
0.0
 11
398.61479205058259
 21
832.78946204815361
 31
0.0
  0
LINE
  5
29AB
  8
AM_0
 10
398.61479205058242
 20
836.5197117691215
 30
0.0
 11
398.61479205058242
 21
799.0592123271864
 31
0.0
  0
ARC
  5
29AC
  8
AM_0
 10
379.61479205058242
 20
898.17621304815384
 30
0.0
 40
5.0
 50
300.00000000000051
 51
0.0
  0
ARC
  5
29AD
  8
AM_0
 10
386.61479205058242
 20
908.03614339910723
 30
0.0
 40
2.0
 50
90.0
 51
180.0
1001
GENIUS_GENOBJ-N-FIL_13
1002
{
1000
OWNER
1000
GEN
1002
}
1001
GENIUS_GENODEF_13
1002
{
1000
HIER
1070
     0
1002
}
1002
{
1000
MANEDIT
1070
     0
1002
}
1002
{
1000
NOSEL
1070
     0
1002
}
1002
{
1000
BEHIND
1070
     0
1002
}
1002
{
1000
OTHER
1070
     0
1002
}
1002
{
1000
REACTOR
1002
}
  0
LINE
  5
29AE
  8
AM_0
 10
398.61479205058242
 20
903.78946204815372
 30
0.0
 11
386.61479205058242
 21
903.78946204815372
 31
0.0
  0
LINE
  5
29AF
  8
AM_0
 10
386.61479205058242
 20
910.03614339910712
 30
0.0
 11
396.61479205058242
 21
910.03614339910712
 31
0.0
  0
ARC
  5
29B0
  8
AM_0
 10
386.61479205058242
 20
901.78946204815384
 30
0.0
 40
2.0
 50
90.0
 51
180.0
  0
LINE
  5
29B1
  8
AM_0
 10
398.61479205058242
 20
903.78946204815372
 30
0.0
 11
399.61479205058248
 21
902.78946204815384
 31
0.0
  0
LINE
  5
29B2
  8
AM_0
 10
398.61479205058259
 20
903.78946204815441
 30
0.0
 11
398.61479205058242
 21
908.03614339910723
 31
0.0
  0
ARC
  5
29B3
  8
AM_0
 10
396.61479205058242
 20
908.03614339910723
 30
0.0
 40
2.0
 50
0.0
 51
90.0
1001
GENIUS_GENODEF_13
1002
{
1000
HIER
1070
     0
1002
}
1002
{
1000
MANEDIT
1070
     0
1002
}
1002
{
1000
NOSEL
1070
     0
1002
}
1002
{
1000
BEHIND
1070
     0
1002
}
1002
{
1000
OTHER
1070
     0
1002
}
1002
{
1000
REACTOR
1002
}
1001
GENIUS_GENOBJ-N-FIL_13
1002
{
1000
OWNER
1000
GEN
1002
}
  0
ARC
  5
29B4
  8
AM_0
 10
396.61479205058242
 20
727.54278069720067
 30
0.0
 40
2.0
 50
270.0
 51
0.0
1001
GENIUS_GENODEF_13
1002
{
1000
HIER
1070
     0
1002
}
1002
{
1000
MANEDIT
1070
     0
1002
}
1002
{
1000
NOSEL
1070
     0
1002
}
1002
{
1000
BEHIND
1070
     0
1002
}
1002
{
1000
OTHER
1070
     0
1002
}
1002
{
1000
REACTOR
1002
}
1001
GENIUS_GENOBJ-N-FIL_13
1002
{
1000
OWNER
1000
GEN
1002
}
  0
LINE
  5
29B5
  8
AM_0
 10
398.61479205058259
 20
731.78946204815372
 30
0.0
 11
398.61479205058242
 21
727.54278069720067
 31
0.0
  0
LINE
  5
29B6
  8
AM_0
 10
398.61479205058242
 20
731.78946204815372
 30
0.0
 11
399.61479205058248
 21
732.78946204815361
 31
0.0
  0
ARC
  5
29B8
  8
ﾁｭｳｼﾝｾﾝ1
 10
944.42111674177124
 20
413.71265937848182
 30
0.0
 40
170.0000049999999
 50
128.98539600000061
 51
141.408480271287
  0
LINE
  5
29B9
  8
ﾁｭｳｼﾝｾﾝ1
 10
812.166909168291
 20
545.96690306560322
 30
0.0
 11
836.60148293470695
 21
521.53230617492682
 31
0.0
  0
ARC
  5
29BA
  8
ﾁｭｳｼﾝｾﾝ1
 10
944.42111674177033
 20
413.71265937848159
 30
0.0
 40
170.00000499999979
 50
308.98539000000039
 51
322.15677000000039
  0
LINE
  5
29BB
  8
ﾁｭｳｼﾝｾﾝ1
 10
1076.253210020617
 20
281.8806080978556
 30
0.0
 11
1051.382174935135
 21
306.75163237308971
 31
0.0
  0
LINE
  5
29BC
  8
AM_0
 10
585.61479205058254
 20
838.78946204815395
 30
0.0
 11
655.6147620505825
 21
838.78946204815395
 31
0.0
  0
LINE
  5
29BD
  8
AM_0
 10
585.61479205058254
 20
796.78946204815372
 30
0.0
 11
655.6147620505825
 21
796.78946204815372
 31
0.0
  0
LINE
  5
29BE
  8
AM_0
 10
599.61479205058254
 20
823.78940204815399
 30
0.0
 11
655.6147620505825
 21
823.78940204815399
 31
0.0
  0
LINE
  5
29BF
  8
AM_0
 10
599.61479205058254
 20
811.7894020481541
 30
0.0
 11
655.6147620505825
 21
811.7894020481541
 31
0.0
  0
LINE
  5
29C0
  8
ﾁｭｳｼﾝｾﾝ
 10
226.76934667367721
 20
817.78946204815361
 30
0.0
 11
667.12873205058236
 21
817.78946204815361
 31
0.0
  0
POLYLINE
  5
29C1
  8
AM_0
 66
     1
 10
0.0
 20
0.0
 30
0.0
  0
VERTEX
  5
29C2
  8
AM_0
 10
540.47899205058252
 20
869.35395204815416
 30
0.0
 42
0.030646501
  0
VERTEX
  5
29C3
  8
AM_0
 10
536.06944205058267
 20
835.07055204815413
 30
0.0
 42
0.064801596
  0
VERTEX
  5
29C4
  8
AM_0
 10
540.47899205058252
 20
766.22494204815359
 30
0.0
  0
SEQEND
  5
29C5
  8
AM_0
  0
ARC
  5
29C6
  8
AM_0
 10
432.61479205058248
 20
801.73868204815415
 30
0.0
 40
4.0
 50
0.0
 51
87.999999999996248
  0
LINE
  5
29C7
  8
AM_0
 10
585.61479205058254
 20
795.28946204815372
 30
0.0
 11
585.61479205058254
 21
840.28946204815384
 31
0.0
  0
LINE
  5
29C8
  8
AM_0
 10
561.61479205058254
 20
678.79844204815413
 30
0.0
 11
561.61479205058254
 21
956.76383204815363
 31
0.0
  0
LINE
  5
29C9
  8
AM_0
 10
579.61472205058226
 20
675.28946204815418
 30
0.0
 11
579.61472205058226
 21
960.28940204815399
 31
0.0
  0
LINE
  5
29CA
  8
AM_0
 10
569.61472205058249
 20
706.83213204815399
 30
0.0
 11
569.61472205058249
 21
928.74674204815369
 31
0.0
  0
LINE
  5
29CB
  8
AM_0
 10
583.61472205058226
 20
697.78946204815395
 30
0.0
 11
583.61472205058226
 21
937.78940204815353
 31
0.0
  0
LINE
  5
29CC
  8
AM_0
 10
399.61479205058248
 20
732.78946204815361
 30
0.0
 11
399.61479205058248
 21
902.78946204815384
 31
0.0
  0
LINE
  5
29CD
  8
AM_0
 10
463.61479205058259
 20
678.05143204815408
 30
0.0
 11
463.61479205058259
 21
813.7894020481541
 31
0.0
  0
LINE
  5
29CE
  8
AM_0
 10
450.61466205058252
 20
681.57962204815419
 30
0.0
 11
450.61466205058252
 21
808.25003204815414
 31
0.0
  0
LINE
  5
29CF
  8
AM_0
 10
436.61479205058259
 20
703.68143204815385
 30
0.0
 11
436.61479205058259
 21
813.7894020481541
 31
0.0
  0
LINE
  5
29D0
  8
AM_0
 10
463.61479205058259
 20
688.65909204815375
 30
0.0
 11
561.61479205058254
 21
685.23685204815376
 31
0.0
  0
LINE
  5
29D1
  8
AM_0
 10
463.61472205058249
 20
678.05149204815405
 30
0.0
 11
564.54832205058256
 21
675.81583204815411
 31
0.0
  0
LINE
  5
29D2
  8
AM_0
 10
463.61479205058259
 20
740.2236720481543
 30
0.0
 11
515.41050205058264
 21
740.2236720481543
 31
0.0
  0
LINE
  5
29D3
  8
AM_0
 10
463.61479205058259
 20
766.22489204815372
 30
0.0
 11
561.61479205058254
 21
766.22489204815372
 31
0.0
  0
LINE
  5
29D4
  8
AM_0
 10
432.75437205058262
 20
730.27207204815409
 30
0.0
 11
401.61485205058273
 21
731.35953204815416
 31
0.0
  0
LINE
  5
29D5
  8
AM_0
 10
432.75431205058271
 20
732.63218204815371
 30
0.0
 11
399.61479205058248
 21
733.7894020481541
 31
0.0
  0
LINE
  5
29D6
  8
AM_0
 10
401.61479205058259
 20
733.71958204815371
 30
0.0
 11
401.61479205058259
 21
731.35947204815432
 31
0.0
  0
ARC
  5
29D7
  8
AM_0
 10
447.61479205058259
 20
696.16172204815405
 30
0.0
 40
3.0
 50
0.0
 51
79.999998000001099
  0
ARC
  5
29D8
  8
AM_0
 10
439.61479205058259
 20
703.66483204815415
 30
0.0
 40
3.0
 50
179.9999899999988
 51
260.00000000000119
  0
LINE
  5
29D9
  8
AM_0
 10
439.09379205058258
 20
700.7104220481541
 30
0.0
 11
448.13572205058261
 21
699.11606204815405
 31
0.0
  0
ARC
  5
29DA
  8
AM_0
 10
432.61479205058248
 20
726.2744520481541
 30
0.0
 40
4.0
 50
0.0
 51
87.999999999996248
  0
ARC
  5
29DB
  8
AM_0
 10
432.61479205058248
 20
728.63462204815414
 30
0.0
 40
4.0
 50
0.0
 51
87.999999999996248
  0
LINE
  5
29DC
  8
AM_0
 10
452.54496205058268
 20
689.04569204815402
 30
0.0
 11
463.61479205058259
 21
688.65909204815375
 31
0.0
  0
LINE
  5
29DD
  8
AM_0
 10
453.44474205058242
 20
678.58451204815412
 30
0.0
 11
463.61472205058249
 21
678.05149204815405
 31
0.0
  0
ARC
  5
29DE
  8
AM_0
 10
453.61466205058241
 20
681.57962204815419
 30
0.0
 40
3.0
 50
180.00001000000091
 51
266.99999000000008
  0
ARC
  5
29DF
  8
AM_0
 10
452.61479205058259
 20
691.04447204815415
 30
0.0
 40
2.0
 50
179.9999899999988
 51
268.00000999999861
  0
LINE
  5
29E0
  8
AM_0
 10
450.61466205058252
 20
740.2236720481543
 30
0.0
 11
463.61479205058259
 21
740.2236720481543
 31
0.0
  0
LINE
  5
29E1
  8
AM_0
 10
450.61466205058252
 20
766.22489204815372
 30
0.0
 11
463.61479205058259
 21
766.22489204815372
 31
0.0
  0
ARC
  5
29E2
  8
AM_0
 10
564.61472205058249
 20
678.81504204815406
 30
0.0
 40
3.0
 50
179.9999899999988
 51
268.00000999999861
  0
LINE
  5
29E3
  8
AM_0
 10
564.51005205058277
 20
675.81687204815421
 30
0.0
 11
579.61472205058226
 21
675.2894020481541
 31
0.0
  0
ARC
  5
29E4
  8
AM_0
 10
519.30229205058254
 20
741.88736204815359
 30
0.0
 40
3.0
 50
90.00000299999769
 51
239.11901999999981
  0
ARC
  5
29E5
  8
AM_0
 10
515.41050205058264
 20
737.22367204815373
 30
0.0
 40
3.0
 50
59.11902300000196
 51
90.00000299999769
  0
LINE
  5
29E6
  8
AM_0
 10
551.48338205058258
 20
744.8873620481537
 30
0.0
 11
561.61479205058254
 21
737.32926204815374
 31
0.0
  0
LINE
  5
29E7
  8
AM_0
 10
559.4673920505827
 20
720.78580204815364
 30
0.0
 11
526.96458205058275
 21
740.2236720481543
 31
0.0
  0
LINE
  5
29E8
  8
AM_0
 10
559.18101205058269
 20
714.54282204815411
 30
0.0
 11
517.76249205058252
 21
739.31266204815415
 31
0.0
  0
POLYLINE
  5
29E9
  8
AM_0
 66
     1
 10
0.0
 20
0.0
 30
0.0
  0
VERTEX
  5
29EA
  8
AM_0
 10
553.95589205058263
 20
717.66748204815406
 30
0.0
 42
0.0052467293
  0
VERTEX
  5
29EB
  8
AM_0
 10
556.37611205058261
 20
711.25765204815411
 30
0.0
 42
0.0052066122
  0
VERTEX
  5
29EC
  8
AM_0
 10
558.92978205058262
 20
704.89982204815419
 30
0.0
 42
0.0051740405
  0
VERTEX
  5
29ED
  8
AM_0
 10
561.61479205058254
 20
698.59659204815398
 30
0.0
  0
SEQEND
  5
29EE
  8
AM_0
  0
ARC
  5
29EF
  8
AM_0
 10
564.61472205058249
 20
706.83213204815399
 30
0.0
 40
5.0
 50
267.99999999999631
 51
0.0
  0
ARC
  5
29F0
  8
AM_0
 10
556.61479205058254
 20
710.2516220481541
 30
0.0
 40
5.0
 50
0.0
 51
59.11901699999779
  0
LINE
  5
29F1
  8
AM_0
 10
519.30229205058254
 20
744.8873620481537
 30
0.0
 11
561.61479205058254
 21
744.8873620481537
 31
0.0
  0
ARC
  5
29F2
  8
AM_0
 10
566.61479205058254
 20
751.6550020481543
 30
0.0
 40
5.0
 50
90.00000299999769
 51
180.00001000000091
  0
LINE
  5
29F3
  8
AM_0
 10
579.61472205058226
 20
697.78946204815395
 30
0.0
 11
583.61472205058226
 21
697.78946204815395
 31
0.0
  0
LINE
  5
29F4
  8
AM_0
 10
583.61472205058226
 20
795.28946204815372
 30
0.0
 11
585.61479205058254
 21
795.28946204815372
 31
0.0
  0
LINE
  5
29F5
  8
AM_0
 10
463.61479205058259
 20
895.35520204815361
 30
0.0
 11
515.41050205058264
 21
895.35520204815361
 31
0.0
  0
LINE
  5
29F6
  8
AM_0
 10
463.61472205058249
 20
957.52738204815364
 30
0.0
 11
564.54832205058256
 21
959.76310204815388
 31
0.0
  0
LINE
  5
29F7
  8
AM_0
 10
463.61479205058259
 20
946.91983204815358
 30
0.0
 11
561.61479205058254
 21
950.34201204815372
 31
0.0
  0
LINE
  5
29F8
  8
AM_0
 10
463.61479205058259
 20
869.35398204815385
 30
0.0
 11
561.61479205058254
 21
869.35398204815385
 31
0.0
  0
ARC
  5
29F9
  8
AM_0
 10
439.61479205058259
 20
931.91397204815394
 30
0.0
 40
3.0
 50
99.999999999998593
 51
180.00001000000091
  0
LINE
  5
29FA
  8
AM_0
 10
450.61466205058252
 20
827.32883204815369
 30
0.0
 11
450.61466205058252
 21
953.99918204815367
 31
0.0
  0
LINE
  5
29FB
  8
AM_0
 10
463.61479205058259
 20
821.7894020481541
 30
0.0
 11
463.61479205058259
 21
957.52738204815364
 31
0.0
  0
LINE
  5
29FC
  8
AM_0
 10
432.75437205058262
 20
809.19999204815372
 30
0.0
 11
401.61479205058259
 21
810.28739204815361
 31
0.0
  0
LINE
  5
29FD
  8
AM_0
 10
432.75437205058262
 20
805.73630204815424
 30
0.0
 11
401.61485205058273
 21
806.82370204815413
 31
0.0
  0
LINE
  5
29FE
  8
AM_0
 10
432.75443205058252
 20
829.84256204815415
 30
0.0
 11
401.61485205058273
 21
828.75516204815415
 31
0.0
  0
LINE
  5
29FF
  8
AM_0
 10
432.75437205058262
 20
826.37888204815363
 30
0.0
 11
401.61485205058273
 21
825.29142204815412
 31
0.0
  0
LINE
  5
2A00
  8
AM_0
 10
432.75443205058252
 20
905.30680204815371
 30
0.0
 11
401.61485205058273
 21
904.21939204815374
 31
0.0
  0
LINE
  5
2A01
  8
AM_0
 10
432.75437205058262
 20
902.94669204815375
 30
0.0
 11
399.61479205058248
 21
901.7894020481541
 31
0.0
  0
LINE
  5
2A02
  8
AM_0
 10
401.61479205058259
 20
806.82370204815413
 30
0.0
 11
401.61479205058259
 21
828.75516204815415
 31
0.0
  0
LINE
  5
2A03
  8
AM_0
 10
401.61479205058259
 20
901.85929204815409
 30
0.0
 11
401.61479205058259
 21
904.21939204815374
 31
0.0
  0
LINE
  5
2A04
  8
AM_0
 10
436.61479205058259
 20
821.7894020481541
 30
0.0
 11
436.61479205058259
 21
931.93058204815361
 31
0.0
  0
ARC
  5
2A05
  8
AM_0
 10
447.61479205058259
 20
817.78946204815361
 30
0.0
 40
10.0
 50
203.5782699999985
 51
336.4217200000013
  0
ARC
  5
2A06
  8
AM_0
 10
447.61479205058259
 20
817.78946204815361
 30
0.0
 40
10.0
 50
23.57803699999776
 51
156.42196000000081
  0
LINE
  5
2A07
  8
AM_0
 10
431.11479205058259
 20
821.7894020481541
 30
0.0
 11
464.11479205058259
 21
821.7894020481541
 31
0.0
  0
LINE
  5
2A08
  8
AM_0
 10
431.11479205058259
 20
813.7894020481541
 30
0.0
 11
464.11479205058259
 21
813.7894020481541
 31
0.0
  0
ARC
  5
2A09
  8
AM_0
 10
431.11479205058259
 20
817.78940204815433
 30
0.0
 40
3.9999962
 50
90.00000299999769
 51
270.0
  0
ARC
  5
2A0A
  8
AM_0
 10
432.61479205058248
 20
805.20243204815415
 30
0.0
 40
4.0
 50
0.0
 51
87.999999999996248
  0
ARC
  5
2A0B
  8
AM_0
 10
432.61479205058248
 20
830.37644204815399
 30
0.0
 40
4.0
 50
272.00000000000369
 51
0.0
  0
ARC
  5
2A0C
  8
AM_0
 10
432.61479205058248
 20
833.84012204815383
 30
0.0
 40
4.0
 50
272.00000000000369
 51
0.0
  0
ARC
  5
2A0D
  8
AM_0
 10
464.11479205058259
 20
817.78940204815433
 30
0.0
 40
3.9999962
 50
270.0
 51
90.00000299999769
  0
LINE
  5
2A0E
  8
AM_0
 10
450.61466205058252
 20
869.35398204815385
 30
0.0
 11
463.61479205058259
 21
869.35398204815385
 31
0.0
  0
ARC
  5
2A0F
  8
AM_0
 10
432.61479205058248
 20
909.30436204815373
 30
0.0
 40
4.0
 50
272.00000000000369
 51
0.0
  0
ARC
  5
2A10
  8
AM_0
 10
432.61479205058248
 20
906.944252048154
 30
0.0
 40
4.0
 50
272.00000000000369
 51
0.0
  0
LINE
  5
2A11
  8
AM_0
 10
450.61466205058252
 20
895.35520204815361
 30
0.0
 11
463.61479205058259
 21
895.35520204815361
 31
0.0
  0
ARC
  5
2A12
  8
AM_0
 10
447.61479205058259
 20
939.41715204815375
 30
0.0
 40
3.0
 50
280.00001000000128
 51
0.0
  0
LINE
  5
2A13
  8
AM_0
 10
439.09385205058271
 20
934.86844204815384
 30
0.0
 11
448.13572205058261
 21
936.46280204815389
 31
0.0
  0
LINE
  5
2A14
  8
AM_0
 10
452.54502205058259
 20
946.53324204815374
 30
0.0
 11
463.61479205058259
 21
946.91983204815358
 31
0.0
  0
ARC
  5
2A15
  8
AM_0
 10
452.61479205058259
 20
944.53440204815399
 30
0.0
 40
2.0
 50
91.999998000000545
 51
180.00001000000091
  0
LINE
  5
2A16
  8
AM_0
 10
453.4576820505826
 20
956.99509204815433
 30
0.0
 11
463.61479205058259
 21
957.52738204815364
 31
0.0
  0
ARC
  5
2A17
  8
AM_0
 10
453.61466205058241
 20
953.99918204815367
 30
0.0
 40
3.0
 50
92.999999000001679
 51
180.00001000000091
  0
POLYLINE
  5
2A18
  8
AM_0
 66
     1
 10
0.0
 20
0.0
 30
0.0
  0
VERTEX
  5
2A19
  8
AM_0
 10
561.61479205058254
 20
936.98227204815419
 30
0.0
  0
VERTEX
  5
2A1A
  8
AM_0
 10
553.95596205058246
 20
917.91158204815383
 30
0.0
 42
-1.0
  0
SEQEND
  5
2A1B
  8
AM_0
  0
ARC
  5
2A1C
  8
AM_0
 10
564.61472205058249
 20
928.74674204815369
 30
0.0
 40
5.0
 50
0.0
 51
91.999998000000545
  0
LINE
  5
2A1D
  8
AM_0
 10
519.30229205058254
 20
890.69150204815412
 30
0.0
 11
561.61479205058254
 21
890.69150204815412
 31
0.0
  0
LINE
  5
2A1E
  8
AM_0
 10
559.18101205058269
 20
921.03605204815358
 30
0.0
 11
517.76249205058252
 21
896.2662120481541
 31
0.0
  0
LINE
  5
2A1F
  8
AM_0
 10
559.4673920505827
 20
914.79306204815362
 30
0.0
 11
526.96458205058275
 21
895.35526204815415
 31
0.0
  0
ARC
  5
2A20
  8
AM_0
 10
519.30229205058254
 20
893.69150204815389
 30
0.0
 40
3.0
 50
120.8809700000043
 51
270.0
  0
ARC
  5
2A21
  8
AM_0
 10
515.41050205058264
 20
898.35520204815373
 30
0.0
 40
3.0
 50
270.0
 51
300.88098000000002
  0
ARC
  5
2A22
  8
AM_0
 10
566.61479205058254
 20
883.92386204815409
 30
0.0
 40
5.0
 50
179.9999899999988
 51
270.0
  0
LINE
  5
2A23
  8
AM_0
 10
551.48338205058258
 20
890.69156204815374
 30
0.0
 11
561.61472205058237
 21
898.24961204815372
 31
0.0
  0
ARC
  5
2A24
  8
AM_0
 10
556.61479205058254
 20
925.32724204815361
 30
0.0
 40
5.0
 50
300.88098000000002
 51
0.0
  0
ARC
  5
2A25
  8
AM_0
 10
599.61479205058254
 20
817.78940204815433
 30
0.0
 40
6.0000037999999991
 50
90.00000299999769
 51
270.0
  0
LINE
  5
2A26
  8
AM_0
 10
599.61479205058254
 20
823.78940204815399
 30
0.0
 11
599.61479205058254
 21
811.7894020481541
 31
0.0
  0
LINE
  5
2A27
  8
AM_0
 10
583.61472205058226
 20
840.28946204815384
 30
0.0
 11
585.61479205058254
 21
840.28946204815384
 31
0.0
  0
LINE
  5
2A28
  8
AM_0
 10
564.5099920505827
 20
959.76200204815393
 30
0.0
 11
579.61472205058226
 21
960.28946204815395
 31
0.0
  0
ARC
  5
2A29
  8
AM_0
 10
564.61472205058249
 20
956.76383204815363
 30
0.0
 40
3.0
 50
91.999998000000545
 51
180.00001000000091
  0
LINE
  5
2A2A
  8
AM_0
 10
579.61472205058226
 20
937.78940204815353
 30
0.0
 11
583.61472205058226
 21
937.78940204815353
 31
0.0
  0
LINE
  5
2A2B
  8
AM_0
 10
655.6147620505825
 20
796.78946204815372
 30
0.0
 11
655.6147620505825
 21
838.78946204815395
 31
0.0
  0
TEXT
  5
2C0F
  8
AM_0
 10
753.71140573076764
 20
849.51719376911251
 30
0.0
 40
20.0
  1
VX22-040GF~VX22-050GF
  0
ENDSEC
  0
EOF
