  0
SECTION
  2
HEADER
  9
$ACADVER
  1
AC1009
  9
$INSBASE
 10
0.0
 20
0.0
 30
0.0
  9
$EXTMIN
 10
212.67174123049651
 20
212.90092604191159
 30
-0.0000000000112498
  9
$EXTMAX
 10
1228.0609924655409
 20
1027.2336299369131
 30
0.0000000000002956
  9
$LIMMIN
 10
0.0
 20
0.0
  9
$LIMMAX
 10
1422.5
 20
925.0
  9
$ORTHOMODE
 70
     0
  9
$REGENMODE
 70
     1
  9
$FILLMODE
 70
     1
  9
$QTEXTMODE
 70
     0
  9
$MIRRTEXT
 70
     1
  9
$DRAGMODE
 70
     2
  9
$LTSCALE
 40
5.0
  9
$OSMODE
 70
   551
  9
$ATTMODE
 70
     1
  9
$TEXTSIZE
 40
2.5
  9
$TRACEWID
 40
1.0
  9
$TEXTSTYLE
  7
STANDARD
  9
$CLAYER
  8
AM_0
  9
$CELTYPE
  6
BYLAYER
  9
$CECOLOR
 62
   256
  9
$DIMSCALE
 40
1.0
  9
$DIMASZ
 40
2.5
  9
$DIMEXO
 40
1.0
  9
$DIMDLI
 40
8.0
  9
$DIMRND
 40
0.0
  9
$DIMDLE
 40
0.0
  9
$DIMEXE
 40
0.6
  9
$DIMTP
 40
0.1
  9
$DIMTM
 40
0.1
  9
$DIMTXT
 40
2.5
  9
$DIMCEN
 40
0.0
  9
$DIMTSZ
 40
0.0
  9
$DIMTOL
 70
     0
  9
$DIMLIM
 70
     0
  9
$DIMTIH
 70
     0
  9
$DIMTOH
 70
     0
  9
$DIMSE1
 70
     0
  9
$DIMSE2
 70
     0
  9
$DIMTAD
 70
     1
  9
$DIMZIN
 70
     8
  9
$DIMBLK
  1

  9
$DIMASO
 70
     1
  9
$DIMSHO
 70
     1
  9
$DIMPOST
  1

  9
$DIMAPOST
  1
"
  9
$DIMALT
 70
     0
  9
$DIMALTD
 70
     2
  9
$DIMALTF
 40
0.0393701
  9
$DIMLFAC
 40
1.0
  9
$DIMTOFL
 70
     1
  9
$DIMTVP
 40
0.0
  9
$DIMTIX
 70
     0
  9
$DIMSOXD
 70
     0
  9
$DIMSAH
 70
     0
  9
$DIMBLK1
  1

  9
$DIMBLK2
  1

  9
$DIMSTYLE
  2
AM_ISO
  9
$DIMCLRD
 70
   256
  9
$DIMCLRE
 70
   256
  9
$DIMCLRT
 70
     4
  9
$DIMTFAC
 40
0.71
  9
$DIMGAP
 40
0.8
  9
$LUNITS
 70
     2
  9
$LUPREC
 70
     2
  9
$SKETCHINC
 40
1.0
  9
$FILLETRAD
 40
25.0
  9
$AUNITS
 70
     0
  9
$AUPREC
 70
     0
  9
$MENU
  1
.
  9
$ELEVATION
 40
0.0
  9
$PELEVATION
 40
0.0
  9
$THICKNESS
 40
0.0
  9
$LIMCHECK
 70
     0
  9
$BLIPMODE
 70
     0
  9
$CHAMFERA
 40
10.0
  9
$CHAMFERB
 40
5.0
  9
$SKPOLY
 70
     0
  9
$TDCREATE
 40
2452066.6640160191
  9
$TDUPDATE
 40
2458541.4488537968
  9
$TDINDWG
 40
0.0998598495
  9
$TDUSRTIMER
 40
0.0998596528
  9
$USRTIMER
 70
     1
  9
$ANGBASE
 50
0.0
  9
$ANGDIR
 70
     0
  9
$PDMODE
 70
     0
  9
$PDSIZE
 40
0.0
  9
$PLINEWID
 40
0.0
  9
$COORDS
 70
     1
  9
$SPLFRAME
 70
     0
  9
$SPLINETYPE
 70
     6
  9
$SPLINESEGS
 70
     8
  9
$ATTDIA
 70
     1
  9
$ATTREQ
 70
     1
  9
$HANDLING
 70
     1
  9
$HANDSEED
  5
2BFC
  9
$SURFTAB1
 70
     6
  9
$SURFTAB2
 70
     6
  9
$SURFTYPE
 70
     6
  9
$SURFU
 70
     6
  9
$SURFV
 70
     6
  9
$UCSNAME
  2

  9
$UCSORG
 10
0.0
 20
0.0
 30
0.0
  9
$UCSXDIR
 10
1.0
 20
0.0
 30
0.0
  9
$UCSYDIR
 10
0.0
 20
1.0
 30
0.0
  9
$PUCSNAME
  2

  9
$PUCSORG
 10
0.0
 20
0.0
 30
0.0
  9
$PUCSXDIR
 10
1.0
 20
0.0
 30
0.0
  9
$PUCSYDIR
 10
0.0
 20
1.0
 30
0.0
  9
$USERI1
 70
     0
  9
$USERI2
 70
     0
  9
$USERI3
 70
     0
  9
$USERI4
 70
     0
  9
$USERI5
 70
     0
  9
$USERR1
 40
0.0
  9
$USERR2
 40
0.0
  9
$USERR3
 40
0.0
  9
$USERR4
 40
0.0
  9
$USERR5
 40
0.0
  9
$WORLDVIEW
 70
     1
  9
$SHADEDGE
 70
     3
  9
$SHADEDIF
 70
    70
  9
$TILEMODE
 70
     1
  9
$MAXACTVP
 70
    64
  9
$PLIMCHECK
 70
     0
  9
$PEXTMIN
 10
1.0000000000000000E+020
 20
1.0000000000000000E+020
 30
1.0000000000000000E+020
  9
$PEXTMAX
 10
-1.0000000000000000E+020
 20
-1.0000000000000000E+020
 30
-1.0000000000000000E+020
  9
$PLIMMIN
 10
0.0
 20
0.0
  9
$PLIMMAX
 10
420.0
 20
297.0
  9
$UNITMODE
 70
     0
  9
$VISRETAIN
 70
     1
  9
$PLINEGEN
 70
     0
  9
$PSLTSCALE
 70
     1
  0
ENDSEC
  0
SECTION
  2
TABLES
  0
TABLE
  2
VPORT
 70
     1
  0
VPORT
  2
*ACTIVE
 70
     0
 10
0.0
 20
0.0
 11
1.0
 21
1.0
 12
720.36636684801897
 22
620.06727798941256
 13
0.0
 23
0.0
 14
12.5
 24
12.5
 15
50.0
 25
50.0
 16
0.0
 26
0.0
 36
1.0
 17
0.0
 27
0.0
 37
0.0
 40
819.92308858993317
 41
1.7571592210767459
 42
50.0
 43
0.0
 44
0.0
 50
0.0
 51
0.0
 71
     0
 72
   100
 73
     1
 74
     3
 75
     0
 76
     0
 77
     0
 78
     0
  0
ENDTAB
  0
TABLE
  2
LTYPE
 70
    26
  0
LTYPE
  2
CONTINUOUS
 70
     0
  3
Solid line
 72
    65
 73
     0
 40
0.0
  0
LTYPE
  2
AM_ISO02W050
 70
     0
  3
__ __ __ __ __ __ __ __ __ __ __ __ __ __ __
 72
    65
 73
     2
 40
7.5
 49
6.0
 49
-1.5
  0
LTYPE
  2
AM_ISO08W050
 70
     0
  3
____ . ____ . ____ . ____ . ____ . ____ . ____
 72
    65
 73
     4
 40
18.0
 49
12.0
 49
-1.5
 49
3.0
 49
-1.5
  0
LTYPE
  2
AM_ISO09W050
 70
     0
  3
_____ . . _____ . . _____ . . ____ .. ____
 72
    65
 73
     6
 40
22.5
 49
12.0
 49
-1.5
 49
3.0
 49
-1.5
 49
3.0
 49
-1.5
  0
LTYPE
  2
AMCONSTR
 70
     0
  3
_______________________
 72
    65
 73
     2
 40
9999.0
 49
9999.0
 49
0.0
  0
LTYPE
  2
AM_ISO08W050X2
 70
     0
  3
__ . __ . __ . __ . __ . __
 72
    65
 73
     4
 40
9.0
 49
6.0
 49
-0.75
 49
1.5
 49
-0.75
  0
LTYPE
  2
AM_ISO02W050X2
 70
     0
  3
 _ _ _ _ _ _ _ _ _ _ _ _
 72
    65
 73
     2
 40
3.75
 49
3.0
 49
-0.75
  0
LTYPE
  2
AMZIGZAG
 70
     0
  3
/\/-/\/-/\/-/\/-/\/-/\/
 72
    65
 73
     2
 40
11.000099999999991
 49
0.0001
 49
-11.0
  0
LTYPE
  2
ACISOWELD
 70
     0
  3
_ _ _ _ _
 72
    65
 73
     2
 40
2.0
 49
2.0
 49
-1.0
  0
LTYPE
  2
ACISOTGB
 70
     0
  3
__ . . __ . .
 72
    65
 73
     6
 40
9.0
 49
4.0
 49
-1.0
 49
1.0
 49
-1.0
 49
1.0
 49
-1.0
  0
LTYPE
  2
ACISOTGL
 70
     0
  3
_ _ _ _ _
 72
    65
 73
     2
 40
3.0
 49
2.0
 49
-1.0
  0
LTYPE
  2
CENTER
 70
     0
  3
__ . __
 72
    65
 73
     4
 40
7.0
 49
4.0
 49
-1.0
 49
1.0
 49
-1.0
  0
LTYPE
  2
PHANTOM2
 70
     0
  3
Phantom (.5x) ___ _ _ ___ _ _ ___ _ _ ___ _ _
 72
    65
 73
     6
 40
31.75
 49
15.875
 49
-3.174999999999998
 49
3.174999999999998
 49
-3.174999999999998
 49
3.174999999999998
 49
-3.174999999999998
  0
LTYPE
  2
ACANSTGBM
 70
     0
  3
__ . . __ . .
 72
    65
 73
     6
 40
9.0
 49
4.0
 49
-1.0
 49
1.0
 49
-1.0
 49
1.0
 49
-1.0
  0
LTYPE
  2
ACANSTGLM
 70
     0
  3
_ _ _ _ _
 72
    65
 73
     2
 40
3.0
 49
2.0
 49
-1.0
  0
LTYPE
  2
GEN7
 70
     0
  3
____ . ____ . ____ . ____ . ____ . ____ . ____
 72
    65
 73
     4
 40
14.25
 49
9.75
 49
-1.5
 49
1.5
 49
-1.5
  0
LTYPE
  2
GEN7A
 70
     0
  3
__ . __ . __
 72
    65
 73
     4
 40
7.375
 49
4.75
 49
-0.875
 49
0.875
 49
-0.875
  0
LTYPE
  2
ACJISTGB
 70
     0
  3
__ . . __ . .
 72
    65
 73
     6
 40
9.0
 49
4.0
 49
-1.0
 49
1.0
 49
-1.0
 49
1.0
 49
-1.0
  0
LTYPE
  2
ACJISTGL
 70
     0
  3
_ _ _ _ _
 72
    65
 73
     2
 40
3.0
 49
2.0
 49
-1.0
  0
LTYPE
  2
HIDDEN
 70
     0
  3
Hidden __ __ __ __ __ __ __ __ __ __ __ __ __ _
 72
    65
 73
     2
 40
0.375
 49
0.25
 49
-0.125
  0
LTYPE
  2
CENTER2
 70
     0
  3
Center (.5x) ___ _ ___ _ ___ _ ___ _ ___ _ ___
 72
    65
 73
     4
 40
1.125
 49
0.75
 49
-0.125
 49
0.125
 49
-0.125
  0
LTYPE
  2
HIDDEN2
 70
     0
  3
Hidden (.5x) _ _ _ _ _ _ _ _ _ _ _ _ _ _ _ _ _
 72
    65
 73
     2
 40
0.1875
 49
0.125
 49
-0.0625
  0
LTYPE
  2
AMZIGZAG2
 70
     0
  3
/\/-/\/-/\/-/\/-/\/-/\/
 72
    65
 73
     2
 40
0.4401
 49
0.0001
 49
-0.4400000000000002
  0
LTYPE
  2
ACANSTGB
 70
     0
  3
__ . . __ . .
 72
    65
 73
     6
 40
0.35433070866
 49
0.15748031496
 49
-0.03937007874
 49
0.03937007874
 49
-0.03937007874
 49
0.03937007874
 49
-0.03937007874
  0
LTYPE
  2
ACANSTGL
 70
     0
  3
_ _ _ _ _
 72
    65
 73
     2
 40
0.11811023622
 49
0.07874015748
 49
-0.03937007874
  0
ENDTAB
  0
TABLE
  2
LAYER
 70
     6
  0
LAYER
  2
0
 70
     0
 62
     7
  6
CONTINUOUS
  0
LAYER
  2
AM_0
 70
     0
 62
     7
  6
CONTINUOUS
  0
LAYER
  2
AM_5
 70
     0
 62
     2
  6
CONTINUOUS
  0
LAYER
  2
DEFPOINTS
 70
     0
 62
     7
  6
CONTINUOUS
  0
LAYER
  2
ﾁｭｳｼﾝｾﾝ
 70
     0
 62
     1
  6
GEN7
  0
LAYER
  2
ﾁｭｳｼﾝｾﾝ1
 70
     0
 62
     1
  6
GEN7A
  0
ENDTAB
  0
TABLE
  2
STYLE
 70
     9
  0
STYLE
  2
STANDARD
 70
     0
 40
0.0
 41
0.8299999999999999
 50
0.0
 71
     0
 42
2.5
  3
txt.shx
  4
bigfont.shx
  0
STYLE
  2
ANNOTATIVE
 70
     0
 40
0.0
 41
1.0
 50
0.0
 71
     0
 42
0.2
  3
txt
  4

  0
STYLE
  2

 70
     1
 40
0.0
 41
1.0
 50
0.0
 71
     0
 42
2.5
  3
ltypeshp.shx
  4

  0
STYLE
  2
ACISOTS
 70
     0
 40
1.0
 41
1.0
 50
0.0
 71
     0
 42
2.5
  3
isocp.shx
  4
extfont.shx
  0
STYLE
  2
ACISOGDT
 70
     0
 40
0.0
 41
1.0
 50
0.0
 71
     0
 42
2.5
  3
amgdt.shx
  4

  0
STYLE
  2
ACANSTS
 70
     0
 40
1.0
 41
1.0
 50
0.0
 71
     0
 42
2.5
  3
romans.shx
  4
bigfont.shx
  0
STYLE
  2
ACANSGDT
 70
     0
 40
0.0
 41
1.0
 50
0.0
 71
     0
 42
2.5
  3
amgdt.shx
  4

  0
STYLE
  2
ACJISTS
 70
     0
 40
1.0
 41
1.0
 50
0.0
 71
     0
 42
2.5
  3
isocp.shx
  4
bigfont.shx
  0
STYLE
  2
ACJISGDT
 70
     0
 40
0.0
 41
1.0
 50
0.0
 71
     0
 42
2.5
  3
amgdt.shx
  4

  0
ENDTAB
  0
TABLE
  2
VIEW
 70
     6
  0
VIEW
  2
AM_VIEW1
 70
     0
 40
462.5
 10
416.07965009208078
 20
693.75
 41
832.15930018416213
 11
0.0
 21
0.0
 31
1.0
 12
0.0
 22
0.0
 32
0.0
 42
50.0
 43
0.0
 44
0.0
 50
0.0
 71
     0
  0
VIEW
  2
AM_VIEW2
 70
     0
 40
462.5
 10
1006.420349907918
 20
693.75
 41
832.15930018416213
 11
0.0
 21
0.0
 31
1.0
 12
0.0
 22
0.0
 32
0.0
 42
50.0
 43
0.0
 44
0.0
 50
0.0
 71
     0
  0
VIEW
  2
AM_VIEW3
 70
     0
 40
462.5
 10
416.07965009208078
 20
231.25
 41
832.15930018416213
 11
0.0
 21
0.0
 31
1.0
 12
0.0
 22
0.0
 32
0.0
 42
50.0
 43
0.0
 44
0.0
 50
0.0
 71
     0
  0
VIEW
  2
AM_VIEW4
 70
     0
 40
462.5
 10
1006.420349907918
 20
231.25
 41
832.15930018416213
 11
0.0
 21
0.0
 31
1.0
 12
0.0
 22
0.0
 32
0.0
 42
50.0
 43
0.0
 44
0.0
 50
0.0
 71
     0
  0
VIEW
  2
AM_VIEW5
 70
     0
 40
462.5
 10
711.24999999999966
 20
462.5
 41
832.15930018416179
 11
0.0
 21
0.0
 31
1.0
 12
0.0
 22
0.0
 32
0.0
 42
50.0
 43
0.0
 44
0.0
 50
0.0
 71
     0
  0
VIEW
  2
AM_VIEW6
 70
     0
 40
924.99075000000005
 10
711.24999999999966
 20
462.5
 41
1664.3019571823199
 11
0.0
 21
0.0
 31
1.0
 12
0.0
 22
0.0
 32
0.0
 42
50.0
 43
0.0
 44
0.0
 50
0.0
 71
     0
  0
ENDTAB
  0
TABLE
  2
UCS
 70
     0
  0
ENDTAB
  0
TABLE
  2
APPID
 70
    95
  0
APPID
  2
ACAD
 70
     0
  0
APPID
  2
ACADANNOTATIVE
 70
     0
  0
APPID
  2
MCAD_NO_VIS
 70
     0
  0
APPID
  2
ACAD_TEMP_GRAPHIC
 70
     0
  0
APPID
  2
ACATTRIBSERVICES
 70
     0
  0
APPID
  2
GENIUS_GENREC_14
 70
     0
  0
APPID
  2
GENIUS_GENOBJ-N-REC_13
 70
     0
  0
APPID
  2
GENIUS_GENODEF_13
 70
     0
  0
APPID
  2
GENIUS_GENOLIS_13
 70
     0
  0
APPID
  2
GENIUS_GENOBJ-N-TIT_13
 70
     0
  0
APPID
  2
GENIUS_GENOENT_13
 70
     0
  0
APPID
  2
GENIUS_GENTITLE_13
 70
     0
  0
APPID
  2
GENIUS_GENOREF_13
 70
     0
  0
APPID
  2
GENIUS_GENSCREG_15
 70
     0
  0
APPID
  2
GENIUS_GENOBJ-N-SDF_13
 70
     0
  0
APPID
  2
GENIUS_GENFIL_13
 70
     0
  0
APPID
  2
GENIUS_GENOBJ-N-CHA_13
 70
     0
  0
APPID
  2
GENIUS_GENDTOL_13
 70
     0
  0
APPID
  2
GENIUS_GENOBJ-N-FIL_13
 70
     0
  0
APPID
  2
AD_DRAW
 70
     0
  0
APPID
  2
DESIGNERASSEMBLIES
 70
     0
  0
APPID
  2
ASURF_PCURVE_APPNAME
 70
     0
  0
APPID
  2
GENIUS_GE3SECT_13
 70
     0
  0
APPID
  2
GENIUS_GENCFG_13
 70
     0
  0
APPID
  2
GENIUS_GE3CFG0_13
 70
     0
  0
APPID
  2
GENIUS_GENCFG0_13
 70
     0
  0
APPID
  2
GENIUS_GENCFG1_13
 70
     0
  0
APPID
  2
GENIUS_GENCFG2_13
 70
     0
  0
APPID
  2
GENIUS_GENCFG3_13
 70
     0
  0
APPID
  2
GENIUS_GENCFG4_13
 70
     0
  0
APPID
  2
GENIUS_GEVCFG0_13
 70
     0
  0
APPID
  2
GENIUS_GENHINW_13
 70
     0
  0
APPID
  2
GENIUS_FIRSTVISTXT_14
 70
     0
  0
APPID
  2
GENIUS_GENOBJ-N-LEADER_13
 70
     0
  0
APPID
  2
GEV_VCCNULL_SWITCH_OFF
 70
     0
  0
APPID
  2
GENIUS_GEFCFG0_13
 70
     0
  0
APPID
  2
GENIUS_GENZVEED_13
 70
     0
  0
APPID
  2
GENIUS_GENSCREG_13
 70
     0
  0
APPID
  2
GENIUS_DUMCFG0_13
 70
     0
  0
APPID
  2
GEVID936201362
 70
     0
  0
APPID
  2
GEVDC
 70
     0
  0
APPID
  2
GEVCON
 70
     0
  0
APPID
  2
VCC
 70
     0
  0
APPID
  2
GEVPT
 70
     0
  0
APPID
  2
GEVIT
 70
     0
  0
APPID
  2
GENBH
 70
     0
  0
APPID
  2
GEVMK
 70
     0
  0
APPID
  2
GENIUS_GENBH_13
 70
     0
  0
APPID
  2
GENIUS_GENOBJ-NBEHI-BHF_13
 70
     0
  0
APPID
  2
GENIUS_GENOBJ-NBEHI-BHB_13
 70
     0
  0
APPID
  2
GENIUS_GENOBJ-F-DESC_13
 70
     0
  0
APPID
  2
GENIUS_GEFDESC_14
 70
     0
  0
APPID
  2
GENIUS_GENOBJ-F-PART_13
 70
     0
  0
APPID
  2
GENIUS_GEFSTDP_13
 70
     0
  0
APPID
  2
GENIUS_GEFPARTINS_13
 70
     0
  0
APPID
  2
GENIUS_GENTRA_14
 70
     0
  0
APPID
  2
GENIUS_GENINF13_13
 70
     0
  0
APPID
  2
GENIUS_GENOBJ-N-INFOPT_13
 70
     0
  0
APPID
  2
GENIUS_GENOBJ-N-RSSYM_13
 70
     0
  0
APPID
  2
GENIUS_GENSYMENT_13
 70
     0
  0
APPID
  2
GENIUS_GENSCSYM_13
 70
     0
  0
APPID
  2
GENIUS_GEFINFNAM_13
 70
     0
  0
APPID
  2
GENIUS_GENOBJ-N-CEN_13
 70
     0
  0
APPID
  2
GENIUS_GENOBJ-N-CRS_13
 70
     0
  0
APPID
  2
GENIUS_GENOBJ-N-CRC_13
 70
     0
  0
APPID
  2
GENIUS_GENCRC_14
 70
     0
  0
APPID
  2
GEVID942827039
 70
     0
  0
APPID
  2
GEVID942827040
 70
     0
  0
APPID
  2
GEVID942827041
 70
     0
  0
APPID
  2
GENIUS_GENOBJ-F-SCPASSM_13
 70
     0
  0
APPID
  2
GENIUS_GENDIMSH_14
 70
     0
  0
APPID
  2
GEVID942827042
 70
     0
  0
APPID
  2
GEVID946020473
 70
     0
  0
APPID
  2
GEVID946020474
 70
     0
  0
APPID
  2
GEVID946020475
 70
     0
  0
APPID
  2
GENIUS_GENOBJ-N-HTC_13
 70
     0
  0
APPID
  2
GENIUS_GENHATCH_13
 70
     0
  0
APPID
  2
GEVID948854295
 70
     0
  0
APPID
  2
GEVID939402019
 70
     0
  0
APPID
  2
GEVID952919491
 70
     0
  0
APPID
  2
GEVID952919492
 70
     0
  0
APPID
  2
GENIUS_GEFWELD_13
 70
     0
  0
APPID
  2
GENIUS_GENOBJ-F-WELS_13
 70
     0
  0
APPID
  2
GEVID952919493
 70
     0
  0
APPID
  2
GENIUS_GENOBJ-N-RSBK_13
 70
     0
  0
APPID
  2
GENIUS_GENOBJ-N-LIB_13
 70
     0
  0
APPID
  2
GENIUS_GENSCALE_13
 70
     0
  0
APPID
  2
GEVID986376691
 70
     0
  0
APPID
  2
DCO15
 70
     0
  0
APPID
  2
ACAD_DSTYLE_DIMBREAK
 70
     0
  0
APPID
  2
ACAD_DSTYLE_DIMJAG
 70
     0
  0
APPID
  2
ACAD_NAV_VCDISPLAY
 70
     0
  0
APPID
  2
ACADANNOPO
 70
     0
  0
APPID
  2
ACAD_EXEMPT_FROM_CAD_STANDARDS
 70
     0
  0
APPID
  2
ACAD_MLEADERVER
 70
     0
  0
ENDTAB
  0
TABLE
  2
DIMSTYLE
 70
    22
  0
DIMSTYLE
  2
STANDARD
 70
     0
  3

  4

  5

  6

  7

 40
1.0
 41
0.18
 42
0.0625
 43
0.38
 44
0.18
 45
0.0
 46
0.0
 47
0.0
 48
0.0
140
0.18
141
0.09
142
0.0
143
25.399999999999999
144
1.0
145
0.0
146
1.0
147
0.09
 71
     0
 72
     0
 73
     1
 74
     1
 75
     0
 76
     0
 77
     0
 78
     0
170
     0
171
     2
172
     0
173
     0
174
     0
175
     0
176
     0
177
     0
178
     0
  0
DIMSTYLE
  2
ANNOTATIVE
 70
     0
  3

  4

  5

  6

  7

 40
1.0
 41
0.18
 42
0.0625
 43
0.38
 44
0.18
 45
0.0
 46
0.0
 47
0.0
 48
0.0
140
0.18
141
0.09
142
0.0
143
25.399999999999999
144
1.0
145
0.0
146
1.0
147
0.09
 71
     0
 72
     0
 73
     1
 74
     1
 75
     0
 76
     0
 77
     0
 78
     0
170
     0
171
     2
172
     0
173
     0
174
     0
175
     0
176
     0
177
     0
178
     0
  0
DIMSTYLE
  2
AM_ISO
 70
     0
  3

  4
"
  5

  6

  7

 40
1.0
 41
2.5
 42
1.0
 43
8.0
 44
0.6
 45
0.0
 46
0.0
 47
0.1
 48
0.1
140
2.5
141
0.0
142
0.0
143
0.0393701
144
1.0
145
0.0
146
0.71
147
0.8
 71
     0
 72
     0
 73
     0
 74
     0
 75
     0
 76
     0
 77
     1
 78
     8
170
     0
171
     2
172
     1
173
     0
174
     0
175
     0
176
   256
177
   256
178
     4
  0
DIMSTYLE
  2
AM_ISO$3
 70
     0
  3

  4
"
  5

  6

  7

 40
1.0
 41
2.5
 42
1.0
 43
8.0
 44
0.6
 45
0.0
 46
0.0
 47
0.1
 48
0.1
140
2.5
141
0.0
142
0.0
143
0.0393701
144
1.0
145
0.0
146
0.71
147
0.8
 71
     0
 72
     0
 73
     0
 74
     1
 75
     0
 76
     0
 77
     1
 78
     8
170
     0
171
     2
172
     0
173
     0
174
     0
175
     0
176
   256
177
   256
178
     4
  0
DIMSTYLE
  2
AM_ISO$4
 70
     0
  3

  4
"
  5

  6

  7

 40
1.0
 41
2.5
 42
1.0
 43
8.0
 44
0.6
 45
0.0
 46
0.0
 47
0.1
 48
0.1
140
2.5
141
0.0
142
0.0
143
0.0393701
144
1.0
145
0.0
146
0.71
147
0.8
 71
     0
 72
     0
 73
     0
 74
     1
 75
     0
 76
     0
 77
     1
 78
     8
170
     0
171
     2
172
     0
173
     0
174
     0
175
     0
176
   256
177
   256
178
     4
  0
DIMSTYLE
  2
AM_ISO$6
 70
     0
  3

  4
"
  5

  6

  7

 40
1.0
 41
2.5
 42
1.0
 43
8.0
 44
0.6
 45
0.0
 46
0.0
 47
0.1
 48
0.1
140
2.5
141
0.0
142
0.0
143
0.0393701
144
1.0
145
0.0
146
0.71
147
0.8
 71
     0
 72
     0
 73
     0
 74
     0
 75
     0
 76
     0
 77
     0
 78
     8
170
     0
171
     2
172
     1
173
     0
174
     0
175
     0
176
   256
177
   256
178
     4
  0
DIMSTYLE
  2
AM_ISO$7
 70
     0
  3

  4
"
  5

  6

  7

 40
1.0
 41
2.5
 42
1.0
 43
8.0
 44
0.6
 45
0.0
 46
0.0
 47
0.1
 48
0.1
140
2.5
141
0.0
142
0.0
143
0.0393701
144
1.0
145
0.0
146
0.71
147
0.8
 71
     0
 72
     0
 73
     0
 74
     0
 75
     0
 76
     0
 77
     1
 78
     8
170
     0
171
     2
172
     1
173
     0
174
     0
175
     0
176
   256
177
   256
178
     4
  0
DIMSTYLE
  2
AM_ISO$SF
 70
     0
  3

  4
"
  5

  6

  7

 40
1.0
 41
2.5
 42
1.0
 43
10.0
 44
1.0
 45
0.0
 46
0.0
 47
0.1
 48
0.1
140
3.5
141
0.0
142
0.0
143
0.0393701
144
1.0
145
0.0
146
0.71
147
1.5
 71
     0
 72
     0
 73
     0
 74
     0
 75
     1
 76
     1
 77
     1
 78
     8
170
     0
171
     2
172
     1
173
     0
174
     0
175
     0
176
   256
177
   256
178
     2
  0
DIMSTYLE
  2
AM_ISO$SH
 70
     0
  3

  4
"
  5

  6

  7

 40
1.0
 41
2.5
 42
1.0
 43
10.0
 44
1.0
 45
0.0
 46
0.0
 47
0.1
 48
0.1
140
3.5
141
0.0
142
0.0
143
0.0393701
144
2.0
145
0.0
146
0.71
147
1.5
 71
     0
 72
     0
 73
     0
 74
     0
 75
     1
 76
     1
 77
     1
 78
     8
170
     0
171
     2
172
     1
173
     1
174
     0
175
     0
176
   256
177
   256
178
     2
  0
DIMSTYLE
  2
AM_JIS
 70
     0
  3

  4
"
  5

  6

  7

 40
1.0
 41
2.5
 42
1.0
 43
7.0
 44
1.0
 45
0.0
 46
0.0
 47
0.1
 48
0.1000000001
140
2.5
141
0.0
142
0.0
143
0.0393701
144
1.0
145
0.0
146
0.71
147
1.0
 71
     0
 72
     0
 73
     0
 74
     0
 75
     0
 76
     0
 77
     3
 78
     8
170
     0
171
     2
172
     1
173
     0
174
     0
175
     0
176
   256
177
   256
178
     4
  0
DIMSTYLE
  2
AM_JIS$3
 70
     0
  3

  4
"
  5

  6

  7

 40
1.0
 41
2.5
 42
1.0
 43
7.0
 44
1.0
 45
0.0
 46
0.0
 47
0.1
 48
0.1000000001
140
2.5
141
0.0
142
0.0
143
0.0393701
144
1.0
145
0.0
146
0.71
147
1.0
 71
     0
 72
     0
 73
     0
 74
     1
 75
     0
 76
     0
 77
     3
 78
     8
170
     0
171
     2
172
     0
173
     0
174
     0
175
     0
176
   256
177
   256
178
     4
  0
DIMSTYLE
  2
AM_JIS$4
 70
     0
  3

  4
"
  5

  6

  7

 40
1.0
 41
2.5
 42
1.0
 43
7.0
 44
1.0
 45
0.0
 46
0.0
 47
0.1
 48
0.1000000001
140
2.5
141
0.0
142
0.0
143
0.0393701
144
1.0
145
0.0
146
0.71
147
1.0
 71
     0
 72
     0
 73
     0
 74
     0
 75
     0
 76
     0
 77
     3
 78
     8
170
     0
171
     2
172
     0
173
     0
174
     0
175
     0
176
   256
177
   256
178
     4
  0
DIMSTYLE
  2
AM_JIS$6
 70
     0
  3

  4
"
  5

  6

  7

 40
1.0
 41
2.5
 42
1.0
 43
7.0
 44
1.0
 45
0.0
 46
0.0
 47
0.1
 48
0.1000000001
140
2.5
141
0.0
142
0.0
143
0.0393701
144
1.0
145
0.0
146
0.71
147
1.0
 71
     0
 72
     0
 73
     0
 74
     0
 75
     0
 76
     0
 77
     0
 78
     8
170
     0
171
     2
172
     1
173
     0
174
     0
175
     0
176
   256
177
   256
178
     4
  0
DIMSTYLE
  2
AM_JIS$7
 70
     0
  3

  4
"
  5

  6

  7

 40
1.0
 41
2.5
 42
1.0
 43
7.0
 44
1.0
 45
0.0
 46
0.0
 47
0.1
 48
0.1000000001
140
2.5
141
0.0
142
0.0
143
0.0393701
144
1.0
145
0.0
146
0.71
147
1.0
 71
     0
 72
     0
 73
     0
 74
     0
 75
     0
 76
     0
 77
     3
 78
     8
170
     0
171
     2
172
     1
173
     0
174
     0
175
     0
176
   256
177
   256
178
     4
  0
DIMSTYLE
  2
AM_JIS$SF
 70
     0
  3

  4
"
  5

  6

  7

 40
1.0
 41
2.5
 42
1.0
 43
10.0
 44
1.0
 45
0.0
 46
0.0
 47
0.1
 48
0.1
140
3.5
141
0.0
142
0.0
143
0.0393701
144
1.0
145
0.0
146
0.71
147
1.5
 71
     0
 72
     0
 73
     0
 74
     0
 75
     1
 76
     1
 77
     3
 78
     8
170
     0
171
     2
172
     1
173
     0
174
     0
175
     0
176
   256
177
   256
178
     4
  0
DIMSTYLE
  2
AM_JIS$SH
 70
     0
  3

  4
"
  5

  6

  7

 40
1.0
 41
2.5
 42
1.0
 43
10.0
 44
1.0
 45
0.0
 46
0.0
 47
0.1
 48
0.1
140
3.5
141
0.0
142
0.0
143
0.0393701
144
1.0
145
0.0
146
0.71
147
1.5
 71
     0
 72
     0
 73
     0
 74
     0
 75
     1
 76
     0
 77
     3
 78
     8
170
     0
171
     2
172
     1
173
     1
174
     0
175
     0
176
   256
177
   256
178
     4
  0
DIMSTYLE
  2
AM_ANSI
 70
     0
  3

  4
mm
  5

  6

  7

 40
1.0
 41
0.1
 42
0.05
 43
0.5
 44
0.1
 45
0.0
 46
0.0
 47
0.1
 48
0.1
140
0.12
141
0.0
142
0.0
143
25.399999999999999
144
1.0
145
0.0
146
0.71
147
0.06
 71
     0
 72
     0
 73
     1
 74
     1
 75
     0
 76
     0
 77
     0
 78
     7
170
     0
171
     2
172
     0
173
     0
174
     0
175
     0
176
   256
177
   256
178
     2
  0
DIMSTYLE
  2
AM_ANSI$3
 70
     0
  3

  4
mm
  5

  6

  7

 40
1.0
 41
0.1
 42
0.05
 43
0.5
 44
0.1
 45
0.0
 46
0.0
 47
0.1
 48
0.1
140
0.12
141
0.0
142
0.0
143
25.399999999999999
144
1.0
145
0.0
146
0.71
147
0.06
 71
     0
 72
     0
 73
     1
 74
     1
 75
     0
 76
     0
 77
     0
 78
     7
170
     0
171
     2
172
     0
173
     0
174
     0
175
     0
176
   256
177
   256
178
     2
  0
DIMSTYLE
  2
AM_ANSI$4
 70
     0
  3

  4
mm
  5

  6

  7

 40
1.0
 41
0.1
 42
0.05
 43
0.5
 44
0.1
 45
0.0
 46
0.0
 47
0.1
 48
0.1
140
0.12
141
0.0
142
0.0
143
25.399999999999999
144
1.0
145
0.0
146
0.71
147
0.06
 71
     0
 72
     0
 73
     1
 74
     1
 75
     0
 76
     0
 77
     0
 78
     7
170
     0
171
     2
172
     0
173
     0
174
     0
175
     0
176
   256
177
   256
178
     2
  0
DIMSTYLE
  2
AM_ANSI$7
 70
     0
  3

  4
mm
  5

  6

  7

 40
1.0
 41
0.1
 42
0.05
 43
0.5
 44
0.1
 45
0.0
 46
0.0
 47
0.1
 48
0.1
140
0.24
141
0.0
142
0.0
143
25.399999999999999
144
1.0
145
0.0
146
0.71
147
0.06
 71
     0
 72
     0
 73
     1
 74
     1
 75
     0
 76
     0
 77
     0
 78
     7
170
     0
171
     2
172
     0
173
     0
174
     0
175
     0
176
   256
177
   256
178
     2
  0
DIMSTYLE
  2
AM_ANSI$SF
 70
     0
  3

  4
mm
  5

  6

  7

 40
1.0
 41
0.1
 42
0.05
 43
0.5
 44
0.1
 45
0.0
 46
0.0
 47
0.1
 48
0.1
140
0.12
141
0.0
142
0.0
143
25.399999999999999
144
1.0
145
0.0
146
0.71
147
0.06
 71
     0
 72
     0
 73
     1
 74
     1
 75
     1
 76
     1
 77
     0
 78
     7
170
     0
171
     2
172
     0
173
     0
174
     0
175
     0
176
   256
177
   256
178
     2
  0
DIMSTYLE
  2
AM_ANSI$SH
 70
     0
  3

  4
mm
  5

  6

  7

 40
1.0
 41
0.1
 42
0.05
 43
0.5
 44
0.1
 45
0.0
 46
0.0
 47
0.1
 48
0.1
140
0.12
141
0.0
142
0.0
143
25.399999999999999
144
1.0
145
0.0
146
0.71
147
0.06
 71
     0
 72
     0
 73
     1
 74
     1
 75
     1
 76
     1
 77
     0
 78
     7
170
     0
171
     2
172
     0
173
     1
174
     0
175
     0
176
   256
177
   256
178
     2
  0
ENDTAB
  0
ENDSEC
  0
SECTION
  2
BLOCKS
  0
BLOCK
  8
0
  2
$MODEL_SPACE
 70
     0
 10
0.0
 20
0.0
 30
0.0
  3
$MODEL_SPACE
  1

  0
ENDBLK
  5
2A70
  8
0
  0
BLOCK
 67
     1
  8
0
  2
$PAPER_SPACE
 70
     0
 10
0.0
 20
0.0
 30
0.0
  3
$PAPER_SPACE
  1

  0
ENDBLK
  5
2A6C
 67
     1
  8
0
  0
BLOCK
  8
0
  2
GENAXEH
 70
     0
 10
0.0
 20
0.0
 30
0.0
  3
GENAXEH
  1

  0
LINE
  5
2827
  8
0
 10
-1.0
 20
0.0
 30
0.0
 11
1.0
 21
0.0
 31
0.0
  0
ENDBLK
  5
2828
  8
0
  0
BLOCK
  8
0
  2
_OPEN30
 70
     0
 10
0.0
 20
0.0
 30
0.0
  3
_OPEN30
  1

  0
LINE
  5
282B
  8
0
 62
     0
 10
-1.0
 20
0.26794919
 30
0.0
 11
0.0
 21
0.0
 31
0.0
  0
LINE
  5
282C
  8
0
 62
     0
 10
0.0
 20
0.0
 30
0.0
 11
-1.0
 21
-0.26794919
 31
0.0
  0
LINE
  5
282D
  8
0
 62
     0
 10
0.0
 20
0.0
 30
0.0
 11
-1.0
 21
0.0
 31
0.0
  0
ENDBLK
  5
282E
  8
0
  0
BLOCK
  8
0
  2
_NONE
 70
     0
 10
0.0
 20
0.0
 30
0.0
  3
_NONE
  1

  0
ENDBLK
  5
2831
  8
0
  0
BLOCK
  8
0
  2
_ACMFILLEDHALF
 70
     0
 10
0.0
 20
0.0
 30
0.0
  3
_ACMFILLEDHALF
  1

  0
TRACE
  5
2B66
  8
AM_0
 62
     0
 10
-0.8
 20
0.0
 30
0.0
 11
-1.0
 21
0.166666666
 31
0.0
 12
0.0
 22
0.0
 32
0.0
 13
0.0
 23
0.0
 33
0.0
  0
LINE
  5
2B67
  8
AM_0
 62
     0
 10
-1.0
 20
0.0
 30
0.0
 11
-0.8
 21
0.0
 31
0.0
  0
ENDBLK
  5
2B65
  8
0
  0
ENDSEC
  0
SECTION
  2
ENTITIES
  0
ARC
  5
2832
  8
AM_0
 10
398.5061818732928
 20
463.93592000000018
 30
0.0
 40
5.0
 50
272.0
 51
0.0
  0
LINE
  5
2833
  8
AM_0
 10
453.5061818732928
 20
541.96145000000001
 30
0.0
 11
453.5061818732928
 21
226.96145999999999
 31
0.0
  0
LINE
  5
2834
  8
AM_0
 10
576.50618187329269
 20
579.36475000000019
 30
0.0
 11
576.50618187329269
 21
385.69809500000002
 31
0.0
  0
LINE
  5
2835
  8
AM_0
 10
598.5061818732928
 20
584.9615
 30
0.0
 11
598.5061818732928
 21
254.96145999999999
 31
0.0
  0
LINE
  5
2836
  8
AM_0
 10
603.5061818732928
 20
559.9615
 30
0.0
 11
603.5061818732928
 21
279.96146000000027
 31
0.0
  0
LINE
  5
2837
  8
AM_0
 10
585.50618187329246
 20
544.31060000000002
 30
0.0
 11
585.50618187329246
 21
295.61234000000002
 31
0.0
  0
LINE
  5
2838
  8
AM_0
 10
575.83283187329266
 20
377.473365
 30
0.0
 11
563.92903187329273
 21
505.83505000000008
 31
0.0
  0
LINE
  5
2839
  8
AM_0
 10
403.5061818732928
 20
486.66113999999999
 30
0.0
 11
403.5061818732928
 21
275.748875
 31
0.0
  0
LINE
  5
283A
  8
AM_0
 10
423.5061818732928
 20
538.98249999999996
 30
0.0
 11
423.5061818732928
 21
229.94045
 31
0.0
  0
LINE
  5
283B
  8
AM_0
 10
387.00623187329239
 20
458.53131999999999
 30
0.0
 11
387.00623187329239
 21
473.96146499999998
 31
0.0
  0
LINE
  5
283C
  8
AM_0
 10
370.00618187329292
 20
291.71265937848182
 30
0.0
 11
370.00618187329292
 21
472.71265937848159
 31
0.0
  0
LINE
  5
283D
  8
AM_0
 10
384.0061818732928
 20
459.64821637848172
 30
0.0
 11
384.0061818732928
 21
472.71265937848159
 31
0.0
  0
LINE
  5
283E
  8
AM_0
 10
266.5061818732928
 20
400.7126593784817
 30
0.0
 11
268.5061818732928
 21
402.71265937848159
 31
0.0
  0
LINE
  5
283F
  8
AM_0
 10
266.5061818732928
 20
350.71265937848182
 30
0.0
 11
268.5061818732928
 21
348.71265937848182
 31
0.0
  0
LINE
  5
2840
  8
ﾁｭｳｼﾝｾﾝ
 10
212.6975934095102
 20
374.9614600000001
 30
0.0
 11
457.06540825290108
 21
374.9614600000001
 31
0.0
  0
LINE
  5
2841
  8
AM_0
 10
266.5061818732928
 20
350.71265937848182
 30
0.0
 11
266.5061818732928
 21
400.7126593784817
 31
0.0
  0
LINE
  5
2842
  8
AM_0
 10
255.5061818732928
 20
387.7126593784817
 30
0.0
 11
255.5061818732928
 21
390.7126593784817
 31
0.0
  0
LINE
  5
2843
  8
AM_0
 10
227.50618187329289
 20
387.7126593784817
 30
0.0
 11
227.50618187329289
 21
390.7126593784817
 31
0.0
  0
LINE
  5
2844
  8
AM_0
 10
227.50618187329289
 20
387.7126593784817
 30
0.0
 11
263.5061818732928
 21
387.7126593784817
 31
0.0
  0
LINE
  5
2845
  8
AM_0
 10
227.50618187329289
 20
363.7126593784817
 30
0.0
 11
263.5061818732928
 21
363.7126593784817
 31
0.0
  0
LINE
  5
2846
  8
AM_0
 10
227.50618187329289
 20
387.7126593784817
 30
0.0
 11
227.50618187329289
 21
363.7126593784817
 31
0.0
  0
LINE
  5
2847
  8
AM_0
 10
263.5061818732928
 20
388.21265937848159
 30
0.0
 11
263.5061818732928
 21
363.21265937848159
 31
0.0
  0
LINE
  5
2848
  8
AM_0
 10
263.5061818732928
 20
363.21265937848159
 30
0.0
 11
266.5061818732928
 21
363.21265937848159
 31
0.0
  0
LINE
  5
2849
  8
AM_0
 10
263.5061818732928
 20
388.21265937848159
 30
0.0
 11
266.5061818732928
 21
388.21265937848159
 31
0.0
  0
LINE
  5
284A
  8
AM_0
 10
227.50618187329289
 20
390.7126593784817
 30
0.0
 11
255.5061818732928
 21
390.7126593784817
 31
0.0
  0
LINE
  5
284B
  8
AM_0
 10
453.5061818732928
 20
226.96145999999999
 30
0.0
 11
535.3494818732928
 21
224.81831500000001
 31
0.0
  0
LINE
  5
284C
  8
ﾁｭｳｼﾝｾﾝ
 10
431.23508187329281
 20
419.96146499999998
 30
0.0
 11
693.9350318732927
 21
419.96146499999998
 31
0.0
  0
LINE
  5
284D
  8
AM_0
 10
423.50618187329241
 20
428.427865
 30
0.0
 11
571.10748187329273
 21
428.427865
 31
0.0
  0
LINE
  5
284E
  8
AM_0
 10
425.50618187329241
 20
326.63227000000001
 30
0.0
 11
576.50618187329269
 21
326.63227000000001
 31
0.0
  0
ARC
  5
284F
  8
AM_0
 10
389.50623187329239
 20
315.88193000000001
 30
0.0
 40
3.0000000500000001
 50
0.0
 51
90.000003000000007
  0
LINE
  5
2850
  8
AM_0
 10
385.00618187329292
 20
460.71265937848159
 30
0.0
 11
385.00618187329292
 21
290.71265937848182
 31
0.0
  0
LINE
  5
2851
  8
AM_0
 10
367.5061818732928
 20
299.65603537848182
 30
0.0
 11
311.28754887329291
 21
332.11387837848167
 31
0.0
  0
LINE
  5
2852
  8
AM_0
 10
384.0061818732928
 20
349.96575337848191
 30
0.0
 11
384.0061818732928
 21
315.79375937848181
 31
0.0
  0
LINE
  5
2853
  8
AM_0
 10
382.00618187329292
 20
313.79375937848181
 30
0.0
 11
372.00618187329292
 21
313.79375937848181
 31
0.0
  0
LINE
  5
2854
  8
AM_0
 10
384.0061818732928
 20
289.71265937848182
 30
0.0
 11
372.00618187329292
 21
289.71265937848182
 31
0.0
  0
ARC
  5
2855
  8
AM_0
 10
365.00618187329292
 20
295.32590837848193
 30
0.0
 40
5.0
 50
0.0
 51
59.999999999999851
  0
ARC
  5
2856
  8
AM_0
 10
372.00618187329292
 20
291.71265937848182
 30
0.0
 40
2.0
 50
180.0
 51
270.0
  0
ARC
  5
2857
  8
AM_0
 10
372.00618187329292
 20
315.79375937848181
 30
0.0
 40
2.0
 50
180.0
 51
270.0
  0
LINE
  5
2858
  8
AM_0
 10
422.09733187329272
 20
242.64983000000001
 30
0.0
 11
406.32403187329282
 21
258.93100500000003
 31
0.0
  0
LINE
  5
2859
  8
AM_0
 10
425.4363818732927
 20
227.9416700000001
 30
0.0
 11
453.5061818732928
 21
226.96145999999999
 31
0.0
  0
ARC
  5
285A
  8
AM_0
 10
425.50618187329241
 20
229.94045
 30
0.0
 40
2.0000000500000001
 50
179.99998999999991
 51
268.00000999999992
  0
ARC
  5
285B
  8
AM_0
 10
418.5061818732928
 20
239.17075
 30
0.0
 40
5.0
 50
0.0
 51
44.092232000000003
  0
ARC
  5
285C
  8
AM_0
 10
413.5061818732928
 20
265.88919500000009
 30
0.0
 40
10.0
 50
179.99998999999991
 51
224.09222
  0
LINE
  5
285D
  8
AM_0
 10
403.5061818732928
 20
275.748875
 30
0.0
 11
403.5061818732928
 21
265.88919500000009
 31
0.0
  0
LINE
  5
285E
  8
AM_0
 10
392.5061818732928
 20
315.88193000000001
 30
0.0
 11
392.5061818732928
 21
298.31803000000019
 31
0.0
  0
LINE
  5
285F
  8
AM_0
 10
385.00618187329252
 20
291.46143000000001
 30
0.0
 11
398.68073187329247
 21
290.98392000000013
 31
0.0
  0
LINE
  5
2860
  8
AM_0
 10
384.0061818732928
 20
289.71265937848182
 30
0.0
 11
385.00618187329292
 21
290.71265937848182
 31
0.0
  0
ARC
  5
2861
  8
AM_0
 10
400.50618187329241
 20
292.31803000000019
 30
0.0
 40
3.0000000500000001
 50
0.0
 51
90.000003000000007
  0
ARC
  5
2862
  8
AM_0
 10
398.5061818732928
 20
285.98697500000009
 30
0.0
 40
5.0
 50
0.0
 51
88.0
  0
ARC
  5
2863
  8
AM_0
 10
395.50618187329241
 20
298.31803000000019
 30
0.0
 40
3.0000000500000001
 50
179.99998999999991
 51
270.0
  0
LINE
  5
2864
  8
AM_0
 10
395.50618187329241
 20
295.31803000000008
 30
0.0
 11
400.50618187329241
 21
295.31803000000008
 31
0.0
  0
ARC
  5
2865
  8
AM_0
 10
382.00618187329292
 20
315.79375937848181
 30
0.0
 40
2.0
 50
270.0
 51
0.0
  0
LINE
  5
2866
  8
AM_0
 10
383.00618187329292
 20
459.64821637848172
 30
0.0
 11
371.00618187329292
 21
459.64821637848172
 31
0.0
  0
LINE
  5
2867
  8
AM_0
 10
372.00618187329292
 20
339.77452137848189
 30
0.0
 11
382.00618187329292
 21
339.77452137848189
 31
0.0
  0
LINE
  5
2868
  8
AM_0
 10
371.00618187329292
 20
349.96575337848191
 30
0.0
 11
383.00618187329292
 21
349.96575337848191
 31
0.0
  0
LINE
  5
2869
  8
AM_0
 10
268.5061818732928
 20
339.86736037848192
 30
0.0
 11
268.5061818732928
 21
411.55795837848183
 31
0.0
  0
LINE
  5
286A
  8
AM_0
 10
277.16643587329281
 20
414.71265937848159
 30
0.0
 11
277.16643587329281
 21
336.71265937848182
 31
0.0
  0
LINE
  5
286B
  8
AM_0
 10
309.495793873293
 20
415.71265937848159
 30
0.0
 11
309.495793873293
 21
335.71265937848182
 31
0.0
  0
LINE
  5
286C
  8
AM_0
 10
279.23506187329292
 20
333.67655137848192
 30
0.0
 11
307.427167873293
 21
333.18445637848203
 31
0.0
  0
LINE
  5
286D
  8
AM_0
 10
269.5061818732928
 20
338.13530937848202
 30
0.0
 11
275.37468087329268
 21
334.74712937848182
 31
0.0
  0
ARC
  5
286E
  8
AM_0
 10
279.37468087329268
 20
341.67533337848192
 30
0.0
 40
8.0
 50
239.9999999999998
 51
268.99999999999812
  0
ARC
  5
286F
  8
AM_0
 10
270.5061818732928
 20
339.86736037848192
 30
0.0
 40
2.0
 50
180.0
 51
239.9999999999998
  0
ARC
  5
2870
  8
AM_0
 10
307.28754887329291
 20
325.18567437848202
 30
0.0
 40
8.0
 50
59.999999999999851
 51
88.999999999998224
  0
ARC
  5
2871
  8
AM_0
 10
372.00618187329292
 20
341.77452137848189
 30
0.0
 40
2.0
 50
180.0
 51
270.0
  0
LINE
  5
2872
  8
AM_0
 10
367.5061818732928
 20
451.7692833784817
 30
0.0
 11
311.28754887329291
 21
419.3114403784819
 31
0.0
  0
LINE
  5
2873
  8
AM_0
 10
279.23506187329292
 20
417.74876737848172
 30
0.0
 11
307.427167873293
 21
418.24086237848172
 31
0.0
  0
ARC
  5
2874
  8
AM_0
 10
279.37468087329268
 20
409.7499853784816
 30
0.0
 40
8.0
 50
91.000000000001705
 51
120.0000000000001
  0
ARC
  5
2875
  8
AM_0
 10
270.5061818732928
 20
411.55795837848183
 30
0.0
 40
2.0
 50
120.0000000000001
 51
180.0
  0
LINE
  5
2876
  8
AM_0
 10
269.5061818732928
 20
413.2900093784819
 30
0.0
 11
275.37468087329268
 21
416.67818937848182
 31
0.0
  0
ARC
  5
2877
  8
AM_0
 10
307.28754887329291
 20
426.2396443784819
 30
0.0
 40
8.0
 50
271.00000000000171
 51
300.0
  0
ARC
  5
2878
  8
AM_0
 10
365.00618187329292
 20
456.09941037848182
 30
0.0
 40
5.0
 50
300.0
 51
0.0
  0
LINE
  5
2879
  8
AM_0
 10
387.00623187329239
 20
343.85102000000001
 30
0.0
 11
387.00623187329239
 21
319.108495
 31
0.0
  0
LINE
  5
287A
  8
AM_0
 10
387.00623187329239
 20
319.108495
 30
0.0
 11
403.5061818732928
 21
319.108495
 31
0.0
  0
LINE
  5
287B
  8
AM_0
 10
387.00623187329239
 20
332.09888000000018
 30
0.0
 11
403.5061818732928
 21
332.09888000000018
 31
0.0
  0
LINE
  5
287C
  8
AM_0
 10
387.00623187329239
 20
343.85102000000001
 30
0.0
 11
403.5061818732928
 21
343.85102000000001
 31
0.0
  0
ARC
  5
287D
  8
AM_0
 10
382.00618187329292
 20
341.77452137848189
 30
0.0
 40
2.0
 50
270.0
 51
0.0
  0
LINE
  5
287E
  8
AM_0
 10
385.00618187329252
 20
458.46146499999998
 30
0.0
 11
398.68068187329237
 21
458.93896999999993
 31
0.0
  0
LINE
  5
287F
  8
AM_0
 10
384.0061818732928
 20
461.71265937848159
 30
0.0
 11
385.00618187329292
 21
460.71265937848159
 31
0.0
  0
LINE
  5
2880
  8
AM_0
 10
576.50618187329269
 20
327.68756500000001
 30
0.0
 11
576.50618187329269
 21
259.9614600000001
 31
0.0
  0
LINE
  5
2881
  8
AM_0
 10
598.5061818732928
 20
279.96146000000027
 30
0.0
 11
603.5061818732928
 21
279.96146000000027
 31
0.0
  0
LINE
  5
2882
  8
AM_0
 10
540.61133187329267
 20
226.15463500000001
 30
0.0
 11
590.50618187329235
 21
254.96145999999999
 31
0.0
  0
ARC
  5
2883
  8
AM_0
 10
535.61133187329267
 20
234.81490000000011
 30
0.0
 40
10.0
 50
268.5
 51
300.0
  0
LINE
  5
2884
  8
AM_0
 10
498.5061818732928
 20
300.2073700000002
 30
0.0
 11
576.50618187329269
 21
300.2073700000002
 31
0.0
  0
LINE
  5
2885
  8
AM_0
 10
498.5061818732928
 20
275.56253500000003
 30
0.0
 11
576.50618187329269
 21
275.56253500000003
 31
0.0
  0
LINE
  5
2886
  8
AM_0
 10
493.5061818732928
 20
295.20737000000008
 30
0.0
 11
493.5061818732928
 21
280.5625050000001
 31
0.0
  0
ARC
  5
2887
  8
AM_0
 10
498.5061818732928
 20
280.5625050000001
 30
0.0
 40
5.0
 50
179.99998999999991
 51
270.0
  0
ARC
  5
2888
  8
AM_0
 10
498.5061818732928
 20
295.20737000000008
 30
0.0
 40
5.0
 50
90.000003000000007
 51
180.00001
  0
LINE
  5
2889
  8
AM_0
 10
581.50618187329269
 20
254.96145999999999
 30
0.0
 11
598.5061818732928
 21
254.96145999999999
 31
0.0
  0
ARC
  5
288A
  8
AM_0
 10
581.50618187329269
 20
259.9614600000001
 30
0.0
 40
5.0
 50
179.99998999999991
 51
270.0
  0
ARC
  5
288B
  8
AM_0
 10
577.5061818732928
 20
295.61234000000002
 30
0.0
 40
8.0
 50
270.0
 51
0.0
  0
ARC
  5
288C
  8
AM_0
 10
577.5061818732928
 20
335.62482
 30
0.0
 40
8.0
 50
270.0
 51
0.0
  0
ARC
  5
288D
  8
AM_0
 10
583.79858187329273
 20
378.21210500000001
 30
0.0
 40
8.0
 50
185.29823999999991
 51
270.0
  0
LINE
  5
288E
  8
AM_0
 10
606.5061818732928
 20
449.96146499999998
 30
0.0
 11
606.5061818732928
 21
389.96146000000022
 31
0.0
  0
LINE
  5
288F
  8
AM_0
 10
603.5061818732928
 20
389.96146000000022
 30
0.0
 11
606.5061818732928
 21
389.96146000000022
 31
0.0
  0
LINE
  5
2890
  8
AM_0
 10
606.5061818732928
 20
447.46146500000032
 30
0.0
 11
688.50618187329269
 21
447.46146500000032
 31
0.0
  0
LINE
  5
2891
  8
AM_0
 10
606.5061818732928
 20
392.46146000000022
 30
0.0
 11
688.50618187329269
 21
392.46146000000022
 31
0.0
  0
LINE
  5
2892
  8
AM_0
 10
626.50618187329269
 20
451.46146500000009
 30
0.0
 11
688.50618187329269
 21
451.46146500000009
 31
0.0
  0
LINE
  5
2893
  8
AM_0
 10
603.5061818732928
 20
449.96146499999998
 30
0.0
 11
606.5061818732928
 21
449.96146499999998
 31
0.0
  0
LINE
  5
2894
  8
AM_0
 10
626.50618187329269
 20
451.46146500000009
 30
0.0
 11
626.50618187329269
 21
447.46146500000032
 31
0.0
  0
LINE
  5
2895
  8
AM_0
 10
688.50618187329269
 20
451.46146500000009
 30
0.0
 11
688.50618187329269
 21
392.46146000000022
 31
0.0
  0
LINE
  5
2896
  8
AM_0
 10
453.50613187329247
 20
541.96150000000011
 30
0.0
 11
555.28753187329289
 21
544.62670000000003
 31
0.0
  0
LINE
  5
2897
  8
AM_0
 10
372.00618187329292
 20
474.7126593784817
 30
0.0
 11
382.00618187329292
 21
474.7126593784817
 31
0.0
  0
ARC
  5
2898
  8
AM_0
 10
372.00618187329292
 20
472.71265937848159
 30
0.0
 40
2.0
 50
90.0
 51
180.0
  0
LINE
  5
2899
  8
AM_0
 10
420.50618187329218
 20
539.96150000000011
 30
0.0
 11
420.50618187329218
 21
514.56160000000011
 31
0.0
  0
LINE
  5
289A
  8
AM_0
 10
419.52398187329271
 20
511.58545000000009
 30
0.0
 11
405.4705818732927
 21
492.61338000000001
 31
0.0
  0
LINE
  5
289B
  8
AM_0
 10
387.00618187329252
 20
473.96146499999998
 30
0.0
 11
400.61088187329273
 21
474.4365600000001
 31
0.0
  0
ARC
  5
289C
  8
AM_0
 10
382.00618187329292
 20
472.71265937848159
 30
0.0
 40
2.0
 50
0.0
 51
90.0
  0
ARC
  5
289D
  8
AM_0
 10
400.50618187329241
 20
477.43473
 30
0.0
 40
3.0000000500000001
 50
272.0
 51
0.0
  0
ARC
  5
289E
  8
AM_0
 10
413.5061818732928
 20
486.66113999999999
 30
0.0
 40
10.0
 50
143.47113999999991
 51
180.00001
  0
ARC
  5
289F
  8
AM_0
 10
418.5061818732928
 20
518.61160000000007
 30
0.0
 40
5.0
 50
323.47113999999999
 51
0.0
  0
ARC
  5
28A0
  8
AM_0
 10
415.50618187329241
 20
514.56160000000011
 30
0.0
 40
5.0
 50
323.47113999999999
 51
0.0
  0
LINE
  5
28A1
  8
AM_0
 10
422.52398187329271
 20
515.63544999999988
 30
0.0
 11
419.52398187329271
 21
511.58545000000009
 31
0.0
  0
LINE
  5
28A2
  8
AM_0
 10
425.71213187329278
 20
550.96145000000001
 30
0.0
 11
445.30018187329279
 21
550.96145000000001
 31
0.0
  0
LINE
  5
28A3
  8
AM_0
 10
426.02808187329242
 20
551.08244999999999
 30
0.0
 11
435.50613187329287
 21
552.96145000000001
 31
0.0
  0
CIRCLE
  5
28A4
  8
AM_0
 10
435.50618187329252
 20
567.96145000000013
 30
0.0
 40
15.0
  0
ARC
  5
28A5
  8
AM_0
 10
435.50618187329252
 20
567.96145000000013
 30
0.0
 40
25.000000499999999
 50
306.46672000000001
 51
233.53328999999999
  0
LINE
  5
28A6
  8
AM_0
 10
425.4363818732927
 20
540.98119999999994
 30
0.0
 11
453.5061818732928
 21
541.96145000000001
 31
0.0
  0
LINE
  5
28A7
  8
AM_0
 10
422.50618187329241
 20
541.96145000000001
 30
0.0
 11
453.5061818732928
 21
541.96145000000001
 31
0.0
  0
ARC
  5
28A8
  8
AM_0
 10
426.22263187329293
 20
550.1015500000002
 30
0.0
 40
1.0
 50
101.21329
 51
164.99999
  0
ARC
  5
28A9
  8
AM_0
 10
417.08113187329241
 20
543.03120000000013
 30
0.0
 40
6.0
 50
349.72994999999997
 51
53.533291000000013
  0
ARC
  5
28AA
  8
AM_0
 10
422.50618187329241
 20
539.96150000000011
 30
0.0
 40
2.0000000500000001
 50
90.000003000000007
 51
180.00001
  0
ARC
  5
28AB
  8
AM_0
 10
425.50618187329241
 20
538.98249999999996
 30
0.0
 40
2.0000000500000001
 50
91.999997999999948
 51
180.00001
  0
LINE
  5
28AC
  8
AM_0
 10
423.00613187329287
 20
541.96150000000011
 30
0.0
 11
425.25663187329269
 21
550.36040000000025
 31
0.0
  0
LINE
  5
28AD
  8
AM_0
 10
435.50613187329287
 20
552.96145000000001
 30
0.0
 11
444.9842318732924
 21
551.08244999999999
 31
0.0
  0
ARC
  5
28AE
  8
AM_0
 10
453.93118187329242
 20
543.03120000000013
 30
0.0
 40
6.0
 50
126.4666999999999
 51
190.27006
  0
LINE
  5
28AF
  8
AM_0
 10
448.00623187329279
 20
541.96145000000001
 30
0.0
 11
445.7557318732924
 21
550.36035000000015
 31
0.0
  0
ARC
  5
28B0
  8
AM_0
 10
444.78983187329271
 20
550.1015500000002
 30
0.0
 40
1.0
 50
15.0
 51
78.786709999999999
  0
LINE
  5
28B1
  8
AM_0
 10
598.5061818732928
 20
559.9615
 30
0.0
 11
603.5061818732928
 21
559.9615
 31
0.0
  0
LINE
  5
28B2
  8
AM_0
 10
561.30408187329226
 20
534.14080000000013
 30
0.0
 11
560.23318187329278
 21
545.68840000000012
 31
0.0
  0
LINE
  5
28B3
  8
AM_0
 10
535.8557818732927
 20
517.32545000000027
 30
0.0
 11
574.0949818732928
 21
540.46785000000011
 31
0.0
  0
LINE
  5
28B4
  8
AM_0
 10
538.4445818732928
 20
505.83499999999998
 30
0.0
 11
562.19943187329272
 21
505.83499999999998
 31
0.0
  0
LINE
  5
28B5
  8
AM_0
 10
538.43528187329275
 20
507.61190000000022
 30
0.0
 11
574.00443187329245
 21
529.13835000000017
 31
0.0
  0
ARC
  5
28B6
  8
AM_0
 10
538.4445818732928
 20
513.04785000000015
 30
0.0
 40
5.0
 50
121.18236
 51
180.00001
  0
LINE
  5
28B7
  8
AM_0
 10
533.4445818732928
 20
513.04785000000015
 30
0.0
 11
533.4445818732928
 21
510.83499999999998
 31
0.0
  0
ARC
  5
28B8
  8
AM_0
 10
538.4445818732928
 20
510.83499999999998
 30
0.0
 40
5.0
 50
179.99998999999991
 51
270.0
  0
ARC
  5
28B9
  8
AM_0
 10
577.5061818732928
 20
486.29810500000008
 30
0.0
 40
8.0
 50
0.0
 51
90.000003000000007
  0
LINE
  5
28BA
  8
AM_0
 10
565.15633187329286
 20
506.80310000000009
 30
0.0
 11
576.50623187329245
 21
515.12689999999998
 31
0.0
  0
ARC
  5
28BB
  8
AM_0
 10
562.19943187329272
 20
510.83499999999998
 30
0.0
 40
5.0
 50
270.0
 51
306.25555000000008
  0
LINE
  5
28BC
  8
AM_0
 10
562.09693187329265
 20
547.55219999999986
 30
0.0
 11
576.50618187329269
 21
561.9614499999999
 31
0.0
  0
ARC
  5
28BD
  8
AM_0
 10
555.02583187329265
 20
554.6232500000001
 30
0.0
 40
10.0
 50
271.49999999999972
 51
315.0
  0
ARC
  5
28BE
  8
AM_0
 10
577.5061818732928
 20
544.31060000000002
 30
0.0
 40
8.0
 50
0.0
 51
90.000003000000007
  0
ARC
  5
28BF
  8
AM_0
 10
571.5061818732928
 20
544.74555000000009
 30
0.0
 40
5.0
 50
301.18236000000002
 51
0.0
  0
LINE
  5
28C0
  8
AM_0
 10
581.33168187329272
 20
584.36170000000016
 30
0.0
 11
598.5061818732928
 21
584.96145000000013
 31
0.0
  0
ARC
  5
28C1
  8
AM_0
 10
581.50618187329269
 20
579.36475000000019
 30
0.0
 40
5.0
 50
91.999997999999948
 51
180.00001
  0
ARC
  5
28C2
  8
AM_0
 10
1001.263258131672
 20
419.96146499999998
 30
0.0
 40
75.0
 50
142.90321
 51
180.00001
  0
CIRCLE
  5
28C3
  8
AM_0
 10
1001.263258131672
 20
419.96146499999998
 30
0.0
 40
132.0
  0
ARC
  5
28C4
  8
AM_0
 10
1001.263258131672
 20
419.96146499999998
 30
0.0
 40
60.0
 50
90.000003000000007
 51
270.0
  0
ARC
  5
28C5
  8
AM_0
 10
1001.263258131672
 20
419.96146499999998
 30
0.0
 40
60.0
 50
270.0
 51
90.000003000000007
  0
CIRCLE
  5
28C6
  8
AM_0
 10
1001.263258131672
 20
419.96146499999998
 30
0.0
 40
140.0
  0
ARC
  5
28C7
  8
AM_0
 10
1001.263258131672
 20
419.96146499999998
 30
0.0
 40
75.0
 50
0.0
 51
37.096792999999991
  0
LINE
  5
28C8
  8
ﾁｭｳｼﾝｾﾝ
 10
1001.263258131672
 20
212.93628000000001
 30
0.0
 11
1001.263258131672
 21
599.41414999999995
 31
0.0
  0
LINE
  5
28C9
  8
AM_0
 10
836.26323813167392
 20
364.96146000000022
 30
0.0
 11
836.26323813167392
 21
474.96146499999998
 31
0.0
  0
LINE
  5
28CA
  8
AM_0
 10
1166.263233131672
 20
364.96146000000022
 30
0.0
 11
1166.263233131672
 21
474.96146499999998
 31
0.0
  0
ARC
  5
28CB
  8
AM_0
 10
1127.8689281316731
 20
409.9614600000001
 30
0.0
 40
5.0
 50
270.0
 51
355.48385000000002
  0
CIRCLE
  5
28CC
  8
AM_0
 10
1139.1490631316731
 20
282.07565499999998
 30
0.0
 40
9.5
  0
LINE
  5
28CD
  8
AM_0
 10
1056.263228131673
 20
254.961445
 30
0.0
 11
1142.8020631316731
 21
259.49677000000008
 31
0.0
  0
LINE
  5
28CE
  8
ﾁｭｳｼﾝｾﾝ
 10
825.2815381316741
 20
419.96146499999998
 30
0.0
 11
1178.689823131672
 21
419.96146499999998
 31
0.0
  0
LINE
  5
28CF
  8
AM_0
 10
874.65758813167361
 20
404.9614600000001
 30
0.0
 11
921.26325813167364
 21
404.9614600000001
 31
0.0
  0
LINE
  5
28D0
  8
AM_0
 10
932.06297313167374
 20
226.45993500000009
 30
0.0
 11
909.28809813167391
 21
242.4070600000002
 31
0.0
  0
LINE
  5
28D1
  8
AM_0
 10
946.26322813167383
 20
254.9614600000001
 30
0.0
 11
859.72438813167423
 21
259.49677000000008
 31
0.0
  0
LINE
  5
28D2
  8
AM_0
 10
836.26323813167392
 20
364.96146000000022
 30
0.0
 11
840.79858813167357
 21
278.42264
 31
0.0
  0
ARC
  5
28D3
  8
AM_0
 10
968.2632281316736
 20
326.63227000000001
 30
0.0
 40
102.81999499999991
 50
222.01517999999999
 51
235.0
  0
ARC
  5
28D4
  8
AM_0
 10
860.77113813167375
 20
279.4693650000001
 30
0.0
 40
20.000000499999999
 50
183.00001
 51
267.0
  0
ARC
  5
28D5
  8
ﾁｭｳｼﾝｾﾝ1
 10
1001.263258131672
 20
419.96146499999998
 30
0.0
 40
195.0000049999999
 50
218.16531999999989
 51
232.12885999999989
  0
CIRCLE
  5
28D6
  8
AM_0
 10
863.37743813167378
 20
282.07565499999998
 30
0.0
 40
9.5
  0
LINE
  5
28D7
  8
ﾁｭｳｼﾝｾﾝ1
 10
879.58678813167376
 20
298.28498000000019
 30
0.0
 11
849.14668813167373
 21
267.84491500000013
 31
0.0
  0
ARC
  5
28D8
  8
AM_0
 10
874.65758813167361
 20
409.9614600000001
 30
0.0
 40
5.0
 50
184.51616000000001
 51
270.0
  0
LINE
  5
28D9
  8
AM_0
 10
939.41621313167343
 20
224.1414700000002
 30
0.0
 11
1063.110243131674
 21
224.1414700000002
 31
0.0
  0
LINE
  5
28DA
  8
AM_0
 10
946.26325813167364
 20
254.9614600000001
 30
0.0
 11
1056.2631981316731
 21
254.9614600000001
 31
0.0
  0
ARC
  5
28DB
  8
AM_0
 10
939.41621313167343
 20
236.9614600000001
 30
0.0
 40
12.82
 50
235.0
 51
270.0
  0
ARC
  5
28DC
  8
AM_0
 10
1034.263228131673
 20
326.63227000000001
 30
0.0
 40
102.81999499999991
 50
305.0
 51
317.98482000000001
  0
LINE
  5
28DD
  8
AM_0
 10
1070.463488131674
 20
226.45994999999999
 30
0.0
 11
1093.2383581316731
 21
242.40708000000001
 31
0.0
  0
ARC
  5
28DE
  8
AM_0
 10
1063.110243131674
 20
236.9614600000001
 30
0.0
 40
12.82
 50
270.0
 51
305.0
  0
ARC
  5
28DF
  8
AM_0
 10
1001.263258131672
 20
419.96146499999998
 30
0.0
 40
27.500000499999999
 50
106.91239
 51
73.087597000000002
  0
LINE
  5
28E0
  8
ﾁｭｳｼﾝｾﾝ
 10
926.26325813167364
 20
374.9614600000001
 30
0.0
 11
1076.263228131673
 21
374.9614600000001
 31
0.0
  0
ARC
  5
28E1
  8
AM_0
 10
921.26325813167364
 20
409.9614600000001
 30
0.0
 40
5.0
 50
270.0
 51
0.0
  0
LINE
  5
28E2
  8
AM_0
 10
926.26325813167364
 20
419.96146499999998
 30
0.0
 11
926.26325813167364
 21
409.9614600000001
 31
0.0
  0
CIRCLE
  5
28E3
  8
AM_5
 10
1001.263258131672
 20
419.96146499999998
 30
0.0
 40
6.0
  0
CIRCLE
  5
28E4
  8
AM_0
 10
1001.263258131672
 20
419.96146499999998
 30
0.0
 40
4.500000049999997
  0
LINE
  5
28E5
  8
AM_0
 10
993.2632281316736
 20
441.46146499999992
 30
0.0
 11
993.2632281316736
 21
451.46146500000009
 31
0.0
  0
LINE
  5
28E6
  8
AM_0
 10
1009.263228131673
 20
441.46146499999992
 30
0.0
 11
1009.263228131673
 21
451.46146500000009
 31
0.0
  0
LINE
  5
28E7
  8
AM_0
 10
993.2632281316736
 20
441.46146499999992
 30
0.0
 11
1009.263228131673
 21
441.46146499999992
 31
0.0
  0
LINE
  5
28E8
  8
AM_0
 10
993.2632281316736
 20
451.46146500000009
 30
0.0
 11
1009.263228131673
 21
451.46146500000009
 31
0.0
  0
ARC
  5
28E9
  8
AM_0
 10
1081.263228131673
 20
409.9614600000001
 30
0.0
 40
5.0
 50
179.99998999999991
 51
270.0
  0
LINE
  5
28EA
  8
AM_0
 10
1076.263228131673
 20
419.96146499999998
 30
0.0
 11
1076.263228131673
 21
409.9614600000001
 31
0.0
  0
LINE
  5
28EB
  8
AM_0
 10
1127.8689281316731
 20
404.9614600000001
 30
0.0
 11
1081.263228131673
 21
404.9614600000001
 31
0.0
  0
LINE
  5
28EC
  8
AM_0
 10
1166.2632481316739
 20
364.96143000000001
 30
0.0
 11
1161.7279381316739
 21
278.42264
 31
0.0
  0
ARC
  5
28ED
  8
AM_0
 10
1141.755343131673
 20
279.4693650000001
 30
0.0
 40
20.000000499999999
 50
273.0
 51
357.0
  0
CIRCLE
  5
28EE
  8
AM_0
 10
1139.1490631316731
 20
557.84730000000013
 30
0.0
 40
9.5
  0
ARC
  5
28EF
  8
ﾁｭｳｼﾝｾﾝ1
 10
1001.263258131672
 20
419.96146499999998
 30
0.0
 40
195.0000049999999
 50
39.367218999999999
 51
50.896189000000007
  0
LINE
  5
28F0
  8
ﾁｭｳｼﾝｾﾝ1
 10
1123.841753131672
 20
542.53995000000009
 30
0.0
 11
1153.3797631316741
 21
572.07794999999987
 31
0.0
  0
LINE
  5
28F1
  8
AM_0
 10
1056.263228131673
 20
584.96145000000013
 30
0.0
 11
1142.8020631316731
 21
580.42615000000012
 31
0.0
  0
LINE
  5
28F2
  8
AM_0
 10
940.9893331316739
 20
471.75006999999999
 30
0.0
 11
907.55552313167391
 21
505.18389999999999
 31
0.0
  0
LINE
  5
28F3
  8
AM_0
 10
946.26325813167364
 20
584.9615
 30
0.0
 11
859.72438813167423
 21
580.42615000000012
 31
0.0
  0
LINE
  5
28F4
  8
AM_0
 10
836.26323813167392
 20
474.96146499999998
 30
0.0
 11
840.79858813167357
 21
561.50025000000005
 31
0.0
  0
ARC
  5
28F5
  8
AM_0
 10
904.01997313167385
 20
501.64840000000009
 30
0.0
 40
5.0
 50
45.00000099999999
 51
139.96885
  0
ARC
  5
28F6
  8
AM_0
 10
860.77113813167375
 20
560.45354999999995
 30
0.0
 40
20.000000499999999
 50
92.999999000000017
 51
176.99999
  0
CIRCLE
  5
28F7
  8
AM_0
 10
863.37743813167378
 20
557.84730000000013
 30
0.0
 40
9.5
  0
ARC
  5
28F8
  8
AM_0
 10
1001.263258131672
 20
419.96146499999998
 30
0.0
 40
75.0
 50
52.903206000000019
 51
127.0967899999999
  0
LINE
  5
28F9
  8
AM_0
 10
946.26325813167364
 20
584.9615
 30
0.0
 11
1056.2631981316731
 21
584.9615
 31
0.0
  0
LINE
  5
28FA
  8
AM_0
 10
949.47462313167375
 20
480.23536000000001
 30
0.0
 11
916.04078313167395
 21
513.66920000000005
 31
0.0
  0
ARC
  5
28FB
  8
AM_0
 10
953.01014313167354
 20
483.77087999999998
 30
0.0
 40
5.0
 50
225.0
 51
307.09678999999983
  0
ARC
  5
28FC
  8
AM_0
 10
937.45380813167412
 20
468.2145450000001
 30
0.0
 40
5.0
 50
322.90320999999989
 51
45.00000099999999
  0
ARC
  5
28FD
  8
AM_0
 10
919.57633813167354
 20
517.2047
 30
0.0
 40
5.0
 50
130.03115
 51
225.0
  0
ARC
  5
28FE
  8
AM_0
 10
1001.263258131672
 20
587.96145000000013
 30
0.0
 40
5.0
 50
359.99998999999991
 51
179.99998999999991
  0
LINE
  5
28FF
  8
AM_0
 10
1006.263258131673
 20
587.96145000000013
 30
0.0
 11
1006.263258131673
 21
584.9615
 31
0.0
  0
LINE
  5
2900
  8
AM_0
 10
996.26325813167364
 20
587.96145000000013
 30
0.0
 11
996.26325813167364
 21
584.9615
 31
0.0
  0
LINE
  5
2901
  8
AM_0
 10
1053.0518331316721
 20
480.23536000000001
 30
0.0
 11
1086.485673131674
 21
513.66920000000005
 31
0.0
  0
LINE
  5
2902
  8
AM_0
 10
1061.5371231316731
 20
471.75006999999999
 30
0.0
 11
1094.970963131673
 21
505.18389999999999
 31
0.0
  0
ARC
  5
2903
  8
AM_0
 10
1049.516313131674
 20
483.77087999999998
 30
0.0
 40
5.0
 50
232.9032099999998
 51
315.0
  0
ARC
  5
2904
  8
AM_0
 10
1065.072648131674
 20
468.2145450000001
 30
0.0
 40
5.0
 50
135.0
 51
217.0967999999998
  0
ARC
  5
2905
  8
AM_0
 10
1082.9501481316729
 20
517.2047
 30
0.0
 40
5.0
 50
315.0
 51
49.968851000000001
  0
ARC
  5
2906
  8
AM_0
 10
1098.506483131674
 20
501.64840000000009
 30
0.0
 40
5.0
 50
40.031147999999973
 51
135.0
  0
LINE
  5
2907
  8
AM_0
 10
1166.2632481316739
 20
474.96146499999998
 30
0.0
 11
1161.7279381316739
 21
561.50030000000015
 31
0.0
  0
ARC
  5
2908
  8
AM_0
 10
1141.755343131673
 20
560.45354999999995
 30
0.0
 40
20.000000499999999
 50
3.0000000999999981
 51
86.999998999999988
  0
LINE
  5
2909
  8
AM_0
 10
370.00624187329282
 20
771.90980221010454
 30
0.0
 11
370.00624187329282
 21
952.40316491201133
 31
0.0
  0
ARC
  5
290A
  8
AM_0
 10
372.00624187329282
 20
771.90980221010454
 30
0.0
 40
2.0
 50
180.0
 51
270.0
1001
GENIUS_GENOBJ-N-FIL_13
1002
{
1000
OWNER
1000
GEN
1002
}
1001
GENIUS_GENODEF_13
1002
{
1000
HIER
1070
     0
1002
}
1002
{
1000
MANEDIT
1070
     0
1002
}
1002
{
1000
NOSEL
1070
     0
1002
}
1002
{
1000
BEHIND
1070
     0
1002
}
1002
{
1000
OTHER
1070
     0
1002
}
1002
{
1000
REACTOR
1002
}
  0
LINE
  5
290B
  8
AM_0
 10
372.00624187329282
 20
769.90980221010454
 30
0.0
 11
382.00624187329282
 21
769.90980221010454
 31
0.0
  0
LINE
  5
290C
  8
AM_0
 10
384.00624187329282
 20
776.15648356105794
 30
0.0
 11
372.00624187329282
 21
776.15648356105794
 31
0.0
  0
ARC
  5
290D
  8
AM_0
 10
372.00624187329282
 20
778.15648356105794
 30
0.0
 40
2.0
 50
180.0
 51
270.0
  0
ARC
  5
290E
  8
AM_0
 10
365.00624187329282
 20
781.76973256105794
 30
0.0
 40
5.0
 50
0.0
 51
59.999999999999439
  0
LINE
  5
290F
  8
AM_0
 10
367.50624187329282
 20
786.09985956105788
 30
0.0
 11
311.28760887329281
 21
818.55770256105779
 31
0.0
  0
LINE
  5
2910
  8
AM_0
 10
367.50624187329282
 20
938.213107561058
 30
0.0
 11
311.28760887329281
 21
905.75526456105752
 31
0.0
  0
ARC
  5
2911
  8
AM_0
 10
255.50624187329279
 20
862.15648356105771
 30
0.0
 40
4.0
 50
270.0
 51
90.0
  0
LINE
  5
2912
  8
AM_0
 10
263.50624187329282
 20
874.65648356105794
 30
0.0
 11
263.50624187329282
 21
849.65648356105794
 31
0.0
  0
LINE
  5
2913
  8
AM_0
 10
268.50624187329288
 20
826.31118456105753
 30
0.0
 11
268.50624187329288
 21
898.00178256105789
 31
0.0
  0
LINE
  5
2914
  8
AM_0
 10
266.50624187329288
 20
837.15648356105794
 30
0.0
 11
266.50624187329288
 21
887.15648356105794
 31
0.0
  0
LINE
  5
2915
  8
AM_0
 10
255.50624187329279
 20
858.1564835610576
 30
0.0
 11
255.50624187329279
 21
866.1564835610576
 31
0.0
  0
LINE
  5
2916
  8
AM_0
 10
227.50624187329279
 20
874.15648356105805
 30
0.0
 11
227.50624187329279
 21
850.15648356105794
 31
0.0
  0
LINE
  5
2917
  8
AM_0
 10
309.4958538732929
 20
902.15648356105794
 30
0.0
 11
309.4958538732929
 21
822.15648356105771
 31
0.0
  0
LINE
  5
2918
  8
AM_0
 10
277.16649587329272
 20
901.15648356105794
 30
0.0
 11
277.16649587329272
 21
823.15648356105805
 31
0.0
  0
LINE
  5
2919
  8
AM_0
 10
227.50624187329279
 20
850.15648356105794
 30
0.0
 11
263.50624187329282
 21
850.15648356105794
 31
0.0
  0
LINE
  5
291A
  8
AM_0
 10
227.50624187329279
 20
858.1564835610576
 30
0.0
 11
255.50624187329279
 21
858.1564835610576
 31
0.0
  0
LINE
  5
291B
  8
AM_0
 10
279.235121873293
 20
820.12037556105793
 30
0.0
 11
307.42722787329291
 21
819.62828056105775
 31
0.0
  0
LINE
  5
291C
  8
AM_0
 10
269.50624187329282
 20
824.57913356105792
 30
0.0
 11
275.37474087329281
 21
821.190953561058
 31
0.0
  0
ARC
  5
291D
  8
AM_0
 10
270.50624187329282
 20
826.31118456105753
 30
0.0
 40
2.0
 50
180.0
 51
239.99999999999949
  0
ARC
  5
291E
  8
AM_0
 10
279.37474087329281
 20
828.11915756105793
 30
0.0
 40
8.0
 50
239.99999999999949
 51
268.99999999999812
  0
ARC
  5
291F
  8
AM_0
 10
307.28760887329281
 20
811.62949856105774
 30
0.0
 40
8.0
 50
59.999999999999439
 51
88.999999999998224
  0
LINE
  5
2920
  8
AM_0
 10
266.50624187329288
 20
837.15648356105794
 30
0.0
 11
268.50624187329288
 21
835.15648356105794
 31
0.0
  0
LINE
  5
2921
  8
AM_0
 10
263.50624187329282
 20
849.65648356105794
 30
0.0
 11
266.50624187329288
 21
849.65648356105794
 31
0.0
  0
LINE
  5
2922
  8
AM_0
 10
227.50624187329279
 20
874.15648356105805
 30
0.0
 11
263.50624187329282
 21
874.15648356105805
 31
0.0
  0
LINE
  5
2923
  8
AM_0
 10
227.50624187329279
 20
866.1564835610576
 30
0.0
 11
255.50624187329279
 21
866.1564835610576
 31
0.0
  0
LINE
  5
2924
  8
AM_0
 10
269.50624187329282
 20
899.73383356105762
 30
0.0
 11
275.37474087329281
 21
903.12201356105788
 31
0.0
  0
LINE
  5
2925
  8
AM_0
 10
263.50624187329282
 20
874.65648356105794
 30
0.0
 11
266.50624187329288
 21
874.65648356105794
 31
0.0
  0
LINE
  5
2926
  8
AM_0
 10
266.50624187329288
 20
887.15648356105794
 30
0.0
 11
268.50624187329288
 21
889.1564835610576
 31
0.0
  0
ARC
  5
2927
  8
AM_0
 10
270.50624187329282
 20
898.00178256105789
 30
0.0
 40
2.0
 50
120.0000000000005
 51
180.0
  0
LINE
  5
2928
  8
AM_0
 10
279.235121873293
 20
904.19259156105761
 30
0.0
 11
307.42722787329291
 21
904.68468656105802
 31
0.0
  0
ARC
  5
2929
  8
AM_0
 10
279.37474087329281
 20
896.19380956105772
 30
0.0
 40
8.0
 50
91.000000000001776
 51
120.0000000000005
  0
ARC
  5
292A
  8
AM_0
 10
307.28760887329281
 20
912.68346856105779
 30
0.0
 40
8.0
 50
271.00000000000171
 51
300.00000000000051
  0
LINE
  5
292B
  8
AM_0
 10
370.00624187329282
 20
843.42623384009016
 30
0.0
 11
384.00624187329282
 21
843.42623384009016
 31
0.0
  0
LINE
  5
292C
  8
AM_0
 10
370.00624187329282
 20
847.15648356105771
 30
0.0
 11
384.00624187329282
 21
847.15648356105771
 31
0.0
  0
LINE
  5
292D
  8
AM_0
 10
370.00624187329282
 20
880.88673328202515
 30
0.0
 11
384.00624187329282
 21
880.88673328202515
 31
0.0
  0
LINE
  5
292E
  8
AM_0
 10
370.00624187329282
 20
877.15648356105771
 30
0.0
 11
384.00624187329282
 21
877.15648356105771
 31
0.0
  0
LINE
  5
292F
  8
AM_0
 10
384.00624187329282
 20
880.88673328202515
 30
0.0
 11
384.00624187329282
 21
843.42623384009016
 31
0.0
  0
ARC
  5
2930
  8
AM_0
 10
365.00624187329282
 20
942.54323456105794
 30
0.0
 40
5.0
 50
300.00000000000051
 51
0.0
  0
ARC
  5
2931
  8
AM_0
 10
372.00624187329282
 20
952.40316491201133
 30
0.0
 40
2.0
 50
90.0
 51
180.0
1001
GENIUS_GENOBJ-N-FIL_13
1002
{
1000
OWNER
1000
GEN
1002
}
1001
GENIUS_GENODEF_13
1002
{
1000
HIER
1070
     0
1002
}
1002
{
1000
MANEDIT
1070
     0
1002
}
1002
{
1000
NOSEL
1070
     0
1002
}
1002
{
1000
BEHIND
1070
     0
1002
}
1002
{
1000
OTHER
1070
     0
1002
}
1002
{
1000
REACTOR
1002
}
  0
LINE
  5
2932
  8
AM_0
 10
384.00624187329282
 20
948.15648356105805
 30
0.0
 11
372.00624187329282
 21
948.15648356105805
 31
0.0
  0
LINE
  5
2933
  8
AM_0
 10
372.00624187329282
 20
954.40316491201099
 30
0.0
 11
382.00624187329282
 21
954.40316491201099
 31
0.0
  0
ARC
  5
2934
  8
AM_0
 10
372.00624187329282
 20
946.15648356105794
 30
0.0
 40
2.0
 50
90.0
 51
180.0
  0
LINE
  5
2935
  8
AM_0
 10
384.00624187329282
 20
948.15648356105805
 30
0.0
 11
385.00624187329282
 21
947.15648356105771
 31
0.0
  0
LINE
  5
2936
  8
AM_0
 10
384.00624187329282
 20
948.15648356105805
 30
0.0
 11
384.00624187329282
 21
952.40316491201133
 31
0.0
  0
ARC
  5
2937
  8
AM_0
 10
382.00624187329282
 20
952.40316491201133
 30
0.0
 40
2.0
 50
0.0
 51
90.0
1001
GENIUS_GENODEF_13
1002
{
1000
HIER
1070
     0
1002
}
1002
{
1000
MANEDIT
1070
     0
1002
}
1002
{
1000
NOSEL
1070
     0
1002
}
1002
{
1000
BEHIND
1070
     0
1002
}
1002
{
1000
OTHER
1070
     0
1002
}
1002
{
1000
REACTOR
1002
}
1001
GENIUS_GENOBJ-N-FIL_13
1002
{
1000
OWNER
1000
GEN
1002
}
  0
ARC
  5
2938
  8
AM_0
 10
382.00624187329282
 20
771.90980221010454
 30
0.0
 40
2.0
 50
270.0
 51
0.0
1001
GENIUS_GENODEF_13
1002
{
1000
HIER
1070
     0
1002
}
1002
{
1000
MANEDIT
1070
     0
1002
}
1002
{
1000
NOSEL
1070
     0
1002
}
1002
{
1000
BEHIND
1070
     0
1002
}
1002
{
1000
OTHER
1070
     0
1002
}
1002
{
1000
REACTOR
1002
}
1001
GENIUS_GENOBJ-N-FIL_13
1002
{
1000
OWNER
1000
GEN
1002
}
  0
LINE
  5
2939
  8
AM_0
 10
384.00624187329282
 20
776.15648356105771
 30
0.0
 11
384.00624187329282
 21
771.90980221010454
 31
0.0
  0
LINE
  5
293A
  8
AM_0
 10
384.00624187329282
 20
776.15648356105794
 30
0.0
 11
385.00624187329282
 21
777.15648356105794
 31
0.0
  0
ARC
  5
293C
  8
ﾁｭｳｼﾝｾﾝ1
 10
1001.263258131672
 20
419.96146499999998
 30
0.0
 40
195.0000049999999
 50
129.10381099999981
 51
140.63278099999999
  0
LINE
  5
293D
  8
ﾁｭｳｼﾝｾﾝ1
 10
878.684763131674
 20
542.53995000000009
 30
0.0
 11
849.14675313167402
 21
572.07794999999987
 31
0.0
  0
ARC
  5
293E
  8
ﾁｭｳｼﾝｾﾝ1
 10
1001.263258131672
 20
419.96146499999998
 30
0.0
 40
195.0000049999999
 50
307.87114000000008
 51
321.83467999999988
  0
LINE
  5
293F
  8
ﾁｭｳｼﾝｾﾝ1
 10
1122.9397281316731
 20
298.28498000000019
 30
0.0
 11
1153.379828131674
 21
267.84491500000013
 31
0.0
  0
LINE
  5
2940
  8
AM_0
 10
606.5061818732928
 20
889.65651356105775
 30
0.0
 11
688.50618187329269
 21
889.65651356105775
 31
0.0
  0
LINE
  5
2941
  8
AM_0
 10
606.5061818732928
 20
834.65651356105775
 30
0.0
 11
688.50618187329269
 21
834.65651356105775
 31
0.0
  0
LINE
  5
2942
  8
AM_0
 10
626.50624187329265
 20
854.15645356105733
 30
0.0
 11
688.50618187329269
 21
854.15645356105733
 31
0.0
  0
LINE
  5
2943
  8
AM_0
 10
626.50624187329265
 20
870.15645356105733
 30
0.0
 11
688.50618187329269
 21
870.15645356105733
 31
0.0
  0
LINE
  5
2944
  8
ﾁｭｳｼﾝｾﾝ
 10
212.6975934095102
 20
862.15651356105775
 30
0.0
 11
699.1234318732927
 21
862.15651356105775
 31
0.0
  0
POLYLINE
  5
2945
  8
AM_0
 66
     1
 10
0.0
 20
0.0
 30
0.0
  0
VERTEX
  5
2946
  8
AM_0
 10
564.40907187329265
 20
948.54476356105783
 30
0.0
 42
0.01720808
  0
VERTEX
  5
2947
  8
AM_0
 10
559.99280187329282
 20
891.16957356105763
 30
0.0
 42
0.0088311605
  0
VERTEX
  5
2948
  8
AM_0
 10
559.27595187329268
 20
862.15651356105775
 30
0.0
 42
0.025919753
  0
VERTEX
  5
2949
  8
AM_0
 10
563.1447818732928
 20
776.19282356105771
 30
0.0
  0
SEQEND
  5
294A
  8
AM_0
  0
ARC
  5
294B
  8
AM_0
 10
398.5061818732928
 20
845.78615356105774
 30
0.0
 40
5.0
 50
0.0
 51
88.000000000002785
  0
LINE
  5
294C
  8
AM_0
 10
585.50630187329273
 20
986.50563356105761
 30
0.0
 11
585.50630187329273
 21
737.80739356105778
 31
0.0
  0
LINE
  5
294D
  8
AM_0
 10
603.50624187329288
 20
1002.156513561057
 30
0.0
 11
603.50624187329288
 21
722.15651356105775
 31
0.0
  0
LINE
  5
294E
  8
AM_0
 10
598.50624187329288
 20
1027.1565135610581
 30
0.0
 11
598.50624187329288
 21
697.15645356105745
 31
0.0
  0
LINE
  5
294F
  8
AM_0
 10
576.50624187329265
 20
1021.559773561057
 30
0.0
 11
576.50624187329265
 21
702.7532535610577
 31
0.0
  0
LINE
  5
2950
  8
AM_0
 10
606.5061818732928
 20
892.15651356105775
 30
0.0
 11
606.5061818732928
 21
832.15651356105775
 31
0.0
  0
LINE
  5
2951
  8
AM_0
 10
423.5061818732928
 20
735.03261356105759
 30
0.0
 11
423.5061818732928
 21
851.62092356105791
 31
0.0
  0
LINE
  5
2952
  8
AM_0
 10
453.50624187329282
 20
857.15651356105775
 30
0.0
 11
453.50624187329282
 21
729.15651356105775
 31
0.0
  0
LINE
  5
2953
  8
AM_0
 10
403.5061818732928
 20
755.70082356105775
 30
0.0
 11
403.5061818732928
 21
968.61220356105764
 31
0.0
  0
LINE
  5
2954
  8
AM_0
 10
385.00624187329282
 20
777.15648356105794
 30
0.0
 11
385.00624187329282
 21
947.15648356105771
 31
0.0
  0
LINE
  5
2955
  8
AM_0
 10
453.50624187329282
 20
729.1564535610579
 30
0.0
 11
569.66298187329289
 21
725.10017356105777
 31
0.0
  0
ARC
  5
2956
  8
AM_0
 10
408.50618187329292
 20
755.70082356105775
 30
0.0
 40
5.0
 50
180.00001000000091
 51
268.00000000000261
  0
ARC
  5
2957
  8
AM_0
 10
398.5061818732928
 20
770.32191356105773
 30
0.0
 40
5.0
 50
0.0
 51
88.000000000002785
  0
ARC
  5
2958
  8
AM_0
 10
398.5061818732928
 20
772.68196356105773
 30
0.0
 40
5.0
 50
0.0
 51
88.000000000002785
  0
LINE
  5
2959
  8
AM_0
 10
385.00618187329292
 20
778.1564535610579
 30
0.0
 11
398.68068187329283
 21
777.67891356105758
 31
0.0
  0
LINE
  5
295A
  8
AM_0
 10
398.68068187329283
 20
775.3188635610577
 30
0.0
 11
387.00624187329282
 21
775.72651356105769
 31
0.0
  0
LINE
  5
295B
  8
AM_0
 10
387.00624187329282
 20
775.72658356105774
 30
0.0
 11
387.00624187329282
 21
778.08656356105746
 31
0.0
  0
LINE
  5
295C
  8
AM_0
 10
453.50624187329282
 20
729.15651356105775
 30
0.0
 11
428.3317418732928
 21
730.03566356105773
 31
0.0
  0
ARC
  5
295D
  8
AM_0
 10
428.5061818732928
 20
735.03261356105759
 30
0.0
 40
5.0
 50
180.00001000000091
 51
268.00000000000261
  0
LINE
  5
295E
  8
AM_0
 10
418.68074187329279
 20
750.34248356105775
 30
0.0
 11
408.33168187329278
 21
750.70387356105789
 31
0.0
  0
ARC
  5
295F
  8
AM_0
 10
418.5061818732928
 20
745.3454735610577
 30
0.0
 40
5.0
 50
0.0
 51
88.000000000002785
  0
ARC
  5
2960
  8
AM_0
 10
581.50624187329265
 20
702.7532535610577
 30
0.0
 40
5.0
 50
179.9999899999988
 51
268.00000999999861
  0
LINE
  5
2961
  8
AM_0
 10
581.33180187329265
 20
697.75624356105754
 30
0.0
 11
598.50630187329273
 21
697.15651356105775
 31
0.0
  0
ARC
  5
2962
  8
AM_0
 10
577.50624187329265
 20
737.80739356105778
 30
0.0
 40
8.0
 50
270.0
 51
0.0
  0
ARC
  5
2963
  8
AM_0
 10
577.50624187329265
 20
795.81984356105772
 30
0.0
 40
8.0
 50
270.0
 51
0.0
  0
ARC
  5
2964
  8
AM_0
 10
538.44465187329286
 20
771.2829735610577
 30
0.0
 40
5.0
 50
90.00000299999769
 51
180.00001000000091
  0
LINE
  5
2965
  8
AM_0
 10
538.43538187329284
 20
774.50606356105777
 30
0.0
 11
574.0044718732928
 21
752.97963356105743
 31
0.0
  0
LINE
  5
2966
  8
AM_0
 10
565.15638187329273
 20
775.31483356105775
 30
0.0
 11
576.50630187329273
 21
766.99104356105772
 31
0.0
  0
LINE
  5
2967
  8
AM_0
 10
535.8557918732929
 20
764.79243356105769
 30
0.0
 11
574.09504187329276
 21
741.64998356105775
 31
0.0
  0
ARC
  5
2968
  8
AM_0
 10
538.44465187329286
 20
769.07008356105746
 30
0.0
 40
5.0
 50
179.9999899999988
 51
238.81764999999689
  0
LINE
  5
2969
  8
AM_0
 10
533.44465187329286
 20
769.07008356105746
 30
0.0
 11
533.44465187329286
 21
771.2829735610577
 31
0.0
  0
POLYLINE
  5
296A
  8
AM_0
 66
     1
 10
0.0
 20
0.0
 30
0.0
  0
VERTEX
  5
296B
  8
AM_0
 10
566.58978187329285
 20
746.19221356105777
 30
0.0
 42
0.0020909347
  0
VERTEX
  5
296C
  8
AM_0
 10
567.5556318732929
 20
739.15170356105773
 30
0.0
 42
0.0020881749
  0
VERTEX
  5
296D
  8
AM_0
 10
568.5802118732928
 20
732.12008356105775
 30
0.0
 42
0.0020849591
  0
VERTEX
  5
296E
  8
AM_0
 10
569.66298187329289
 20
725.10023356105773
 30
0.0
  0
SEQEND
  5
296F
  8
AM_0
  0
ARC
  5
2970
  8
AM_0
 10
569.48848187329281
 20
720.10328356105754
 30
0.0
 40
5.0
 50
45.000001000003799
 51
88.000000000002785
  0
LINE
  5
2971
  8
AM_0
 10
573.02400187329295
 20
723.63881356105753
 30
0.0
 11
576.50630187329273
 21
720.15651356105786
 31
0.0
  0
ARC
  5
2972
  8
AM_0
 10
571.50624187329265
 20
737.37239356105772
 30
0.0
 40
5.0
 50
0.0
 51
58.817640999998339
  0
LINE
  5
2973
  8
AM_0
 10
538.44465187329286
 20
776.28297356105747
 30
0.0
 11
562.19947187329285
 21
776.28297356105747
 31
0.0
  0
ARC
  5
2974
  8
AM_0
 10
562.19947187329285
 20
771.2829735610577
 30
0.0
 40
5.0
 50
53.744453000003212
 51
90.00000299999769
  0
LINE
  5
2975
  8
AM_0
 10
598.50624187329288
 20
722.15651356105775
 30
0.0
 11
603.50624187329288
 21
722.15651356105775
 31
0.0
  0
LINE
  5
2976
  8
AM_0
 10
603.50624187329288
 20
832.15651356105775
 30
0.0
 11
606.5061818732928
 21
832.15651356105775
 31
0.0
  0
LINE
  5
2977
  8
AM_0
 10
453.50624187329282
 20
995.15645356105733
 30
0.0
 11
569.66298187329289
 21
999.21278356105756
 31
0.0
  0
ARC
  5
2978
  8
AM_0
 10
408.50618187329292
 20
968.61220356105764
 30
0.0
 40
5.0
 50
91.999998000000545
 51
180.00001000000091
  0
LINE
  5
2979
  8
AM_0
 10
387.00624187329282
 20
851.1907535610577
 30
0.0
 11
387.00624187329282
 21
873.12221356105772
 31
0.0
  0
LINE
  5
297A
  8
AM_0
 10
398.68068187329283
 20
850.78309356105774
 30
0.0
 11
387.00624187329282
 21
851.1907535610577
 31
0.0
  0
LINE
  5
297B
  8
AM_0
 10
398.68068187329283
 20
854.24684356105774
 30
0.0
 11
387.00624187329282
 21
854.65449356105785
 31
0.0
  0
ARC
  5
297C
  8
AM_0
 10
398.5061818732928
 20
849.24983356105747
 30
0.0
 40
5.0
 50
0.0
 51
88.000000000002785
  0
LINE
  5
297D
  8
AM_0
 10
398.68068187329283
 20
873.52992356105744
 30
0.0
 11
387.00624187329282
 21
873.12221356105772
 31
0.0
  0
LINE
  5
297E
  8
AM_0
 10
398.68068187329283
 20
870.06617356105778
 30
0.0
 11
387.00624187329282
 21
869.65852356105779
 31
0.0
  0
ARC
  5
297F
  8
AM_0
 10
398.5061818732928
 20
875.06312356105775
 30
0.0
 40
5.0
 50
271.9999999999971
 51
0.0
  0
ARC
  5
2980
  8
AM_0
 10
398.5061818732928
 20
878.52687356105776
 30
0.0
 40
5.0
 50
271.9999999999971
 51
0.0
  0
LINE
  5
2981
  8
AM_0
 10
385.00618187329292
 20
946.1564535610579
 30
0.0
 11
398.68068187329283
 21
946.63398356105745
 31
0.0
  0
LINE
  5
2982
  8
AM_0
 10
398.68068187329283
 20
948.99415356105783
 30
0.0
 11
387.00624187329282
 21
948.58644356105765
 31
0.0
  0
LINE
  5
2983
  8
AM_0
 10
387.00624187329282
 20
946.22633356105769
 30
0.0
 11
387.00624187329282
 21
948.58644356105765
 31
0.0
  0
ARC
  5
2984
  8
AM_0
 10
398.5061818732928
 20
953.99110356105791
 30
0.0
 40
5.0
 50
271.9999999999971
 51
0.0
  0
ARC
  5
2985
  8
AM_0
 10
398.5061818732928
 20
951.63099356105772
 30
0.0
 40
5.0
 50
271.9999999999971
 51
0.0
  0
LINE
  5
2986
  8
AM_0
 10
423.5061818732928
 20
872.69203356105731
 30
0.0
 11
423.5061818732928
 21
989.28041356105746
 31
0.0
  0
LINE
  5
2987
  8
AM_0
 10
453.50624187329282
 20
995.15651356105775
 30
0.0
 11
453.50624187329282
 21
867.15651356105775
 31
0.0
  0
ARC
  5
2988
  8
AM_0
 10
455.50624187329282
 20
862.15651356105775
 30
0.0
 40
5.0
 50
270.0
 51
90.00000299999769
  0
LINE
  5
2989
  8
AM_0
 10
415.50624187329282
 20
867.15651356105775
 30
0.0
 11
455.50624187329282
 21
867.15651356105775
 31
0.0
  0
LINE
  5
298A
  8
AM_0
 10
415.50624187329282
 20
857.15651356105775
 30
0.0
 11
455.50624187329282
 21
857.15651356105775
 31
0.0
  0
ARC
  5
298B
  8
AM_0
 10
435.50624187329282
 20
862.15651356105775
 30
0.0
 40
12.5
 50
203.5781799999973
 51
336.42183000000068
  0
ARC
  5
298C
  8
AM_0
 10
435.50624187329282
 20
862.15651356105775
 30
0.0
 40
12.5
 50
23.578179999997531
 51
156.42182000000241
  0
ARC
  5
298D
  8
AM_0
 10
415.50624187329282
 20
862.15651356105775
 30
0.0
 40
5.0
 50
90.00000299999769
 51
270.0
  0
ARC
  5
298E
  8
AM_0
 10
418.5061818732928
 20
851.62092356105791
 30
0.0
 40
5.0
 50
0.0
 51
31.78801800000311
  0
ARC
  5
298F
  8
AM_0
 10
435.50624187329282
 20
862.15651356105775
 30
0.0
 40
15.0
 50
199.4712300000005
 51
211.78801999999919
  0
ARC
  5
2990
  8
AM_0
 10
418.5061818732928
 20
872.69203356105731
 30
0.0
 40
5.0
 50
328.21198000000078
 51
0.0
  0
ARC
  5
2991
  8
AM_0
 10
435.50624187329282
 20
862.15651356105775
 30
0.0
 40
15.0
 50
148.21198000000049
 51
160.52876999999901
  0
LINE
  5
2992
  8
AM_0
 10
453.5061818732928
 20
995.15645356105733
 30
0.0
 11
428.33168187329278
 21
994.27736356105765
 31
0.0
  0
ARC
  5
2993
  8
AM_0
 10
418.5061818732928
 20
978.96748356105763
 30
0.0
 40
5.0
 50
271.9999999999971
 51
0.0
  0
LINE
  5
2994
  8
AM_0
 10
418.68068187329283
 20
973.97053356105755
 30
0.0
 11
408.33168187329278
 21
973.60914356105764
 31
0.0
  0
ARC
  5
2995
  8
AM_0
 10
428.5061818732928
 20
989.28041356105746
 30
0.0
 40
5.0
 50
91.999998000000545
 51
180.00001000000091
  0
POLYLINE
  5
2996
  8
AM_0
 66
     1
 10
0.0
 20
0.0
 30
0.0
  0
VERTEX
  5
2997
  8
AM_0
 10
571.6313618732928
 20
999.28151356105775
 30
0.0
  0
VERTEX
  5
2998
  8
AM_0
 10
568.40110187329276
 20
979.21700356105782
 30
0.0
 42
-1.0
  0
SEQEND
  5
2999
  8
AM_0
  0
ARC
  5
299A
  8
AM_0
 10
577.50624187329265
 20
986.50563356105761
 30
0.0
 40
8.0
 50
0.0
 51
90.00000299999769
  0
ARC
  5
299B
  8
AM_0
 10
577.50624187329265
 20
928.49312356105759
 30
0.0
 40
8.0
 50
0.0
 51
90.00000299999769
  0
ARC
  5
299C
  8
AM_0
 10
538.44465187329286
 20
953.03004356105748
 30
0.0
 40
5.0
 50
179.9999899999988
 51
270.0
  0
LINE
  5
299D
  8
AM_0
 10
535.85572187329285
 20
959.52058356105783
 30
0.0
 11
574.09504187329276
 21
982.66298356105779
 31
0.0
  0
ARC
  5
299E
  8
AM_0
 10
538.44465187329286
 20
955.24287356105754
 30
0.0
 40
5.0
 50
121.18235999999619
 51
180.00001000000091
  0
LINE
  5
299F
  8
AM_0
 10
533.44465187329286
 20
955.24287356105754
 30
0.0
 11
533.44465187329286
 21
953.03004356105748
 31
0.0
  0
LINE
  5
29A0
  8
AM_0
 10
538.43538187329284
 20
949.80690356105754
 30
0.0
 11
574.0044718732928
 21
971.33339356105762
 31
0.0
  0
LINE
  5
29A1
  8
AM_0
 10
538.44465187329286
 20
948.0300435610576
 30
0.0
 11
562.19947187329285
 21
948.0300435610576
 31
0.0
  0
LINE
  5
29A2
  8
AM_0
 10
565.15638187329273
 20
948.99806356105762
 30
0.0
 11
576.50630187329273
 21
957.32185356105754
 31
0.0
  0
ARC
  5
29A3
  8
AM_0
 10
562.19947187329285
 20
953.03004356105748
 30
0.0
 40
5.0
 50
270.0
 51
306.25554999999889
  0
ARC
  5
29A4
  8
AM_0
 10
571.50624187329265
 20
986.94056356105762
 30
0.0
 40
5.0
 50
301.18235999999632
 51
0.0
  0
ARC
  5
29A5
  8
AM_0
 10
626.50624187329265
 20
862.15645356105733
 30
0.0
 40
8.0000113999999982
 50
90.00000299999769
 51
270.0
  0
LINE
  5
29A6
  8
AM_0
 10
603.50624187329288
 20
892.15651356105775
 30
0.0
 11
606.5061818732928
 21
892.15651356105775
 31
0.0
  0
LINE
  5
29A7
  8
AM_0
 10
626.50618187329269
 20
870.15645356105733
 30
0.0
 11
626.50618187329269
 21
854.15645356105733
 31
0.0
  0
ARC
  5
29A8
  8
AM_0
 10
581.50624187329265
 20
1021.559773561057
 30
0.0
 40
5.0
 50
91.999998000000545
 51
180.00001000000091
  0
ARC
  5
29A9
  8
AM_0
 10
569.48848187329281
 20
1004.209733561058
 30
0.0
 40
5.0
 50
271.9999999999971
 51
315.0
  0
LINE
  5
29AA
  8
AM_0
 10
573.02406187329279
 20
1000.674153561057
 30
0.0
 11
576.50630187329273
 21
1004.1563835610571
 31
0.0
  0
LINE
  5
29AB
  8
AM_0
 10
598.50624187329288
 20
1002.156513561057
 30
0.0
 11
603.50624187329288
 21
1002.156513561057
 31
0.0
  0
LINE
  5
29AC
  8
AM_0
 10
581.33186187329272
 20
1026.5567835610559
 30
0.0
 11
598.50630187329273
 21
1027.1565135610581
 31
0.0
  0
LINE
  5
29AD
  8
AM_0
 10
688.50618187329269
 20
889.65651356105775
 30
0.0
 11
688.50618187329269
 21
834.65651356105775
 31
0.0
  0
TEXT
  5
2B8D
  8
AM_0
 10
814.64359984558087
 20
909.38125543935325
 30
0.0
 40
20.0
  1
VX22-060GF~VX22-200GF
  0
ENDSEC
  0
EOF
