  0
SECTION
  2
HEADER
  9
$ACADVER
  1
AC1009
  9
$INSBASE
 10
0.0
 20
0.0
 30
0.0
  9
$EXTMIN
 10
224.21045345418449
 20
282.73845748637399
 30
-0.0000000000112498
  9
$EXTMAX
 10
1433.561191400235
 20
1187.2549896687419
 30
0.0000000000002956
  9
$LIMMIN
 10
0.0
 20
0.0
  9
$LIMMAX
 10
1707.0
 20
1110.0
  9
$ORTHOMODE
 70
     0
  9
$REGENMODE
 70
     1
  9
$FILLMODE
 70
     1
  9
$QTEXTMODE
 70
     0
  9
$MIRRTEXT
 70
     1
  9
$DRAGMODE
 70
     2
  9
$LTSCALE
 40
6.0
  9
$OSMODE
 70
   551
  9
$ATTMODE
 70
     1
  9
$TEXTSIZE
 40
2.5
  9
$TRACEWID
 40
1.0
  9
$TEXTSTYLE
  7
STANDARD
  9
$CLAYER
  8
AM_0
  9
$CELTYPE
  6
BYLAYER
  9
$CECOLOR
 62
   256
  9
$DIMSCALE
 40
1.0
  9
$DIMASZ
 40
2.5
  9
$DIMEXO
 40
1.0
  9
$DIMDLI
 40
8.0
  9
$DIMRND
 40
0.0
  9
$DIMDLE
 40
0.0
  9
$DIMEXE
 40
0.6
  9
$DIMTP
 40
0.1
  9
$DIMTM
 40
0.1
  9
$DIMTXT
 40
2.5
  9
$DIMCEN
 40
0.0
  9
$DIMTSZ
 40
0.0
  9
$DIMTOL
 70
     0
  9
$DIMLIM
 70
     0
  9
$DIMTIH
 70
     0
  9
$DIMTOH
 70
     0
  9
$DIMSE1
 70
     0
  9
$DIMSE2
 70
     0
  9
$DIMTAD
 70
     1
  9
$DIMZIN
 70
     8
  9
$DIMBLK
  1

  9
$DIMASO
 70
     1
  9
$DIMSHO
 70
     1
  9
$DIMPOST
  1

  9
$DIMAPOST
  1
"
  9
$DIMALT
 70
     0
  9
$DIMALTD
 70
     2
  9
$DIMALTF
 40
0.0393701
  9
$DIMLFAC
 40
1.0
  9
$DIMTOFL
 70
     1
  9
$DIMTVP
 40
0.0
  9
$DIMTIX
 70
     0
  9
$DIMSOXD
 70
     0
  9
$DIMSAH
 70
     0
  9
$DIMBLK1
  1

  9
$DIMBLK2
  1

  9
$DIMSTYLE
  2
AM_ISO
  9
$DIMCLRD
 70
   256
  9
$DIMCLRE
 70
   256
  9
$DIMCLRT
 70
     4
  9
$DIMTFAC
 40
0.71
  9
$DIMGAP
 40
0.8
  9
$LUNITS
 70
     2
  9
$LUPREC
 70
     2
  9
$SKETCHINC
 40
1.0
  9
$FILLETRAD
 40
30.0
  9
$AUNITS
 70
     0
  9
$AUPREC
 70
     0
  9
$MENU
  1
.
  9
$ELEVATION
 40
0.0
  9
$PELEVATION
 40
0.0
  9
$THICKNESS
 40
0.0
  9
$LIMCHECK
 70
     0
  9
$BLIPMODE
 70
     0
  9
$CHAMFERA
 40
12.0
  9
$CHAMFERB
 40
6.0
  9
$SKPOLY
 70
     0
  9
$TDCREATE
 40
2452066.6814348148
  9
$TDUPDATE
 40
2458541.4492876502
  9
$TDINDWG
 40
0.1083006944
  9
$TDUSRTIMER
 40
0.1083006713
  9
$USRTIMER
 70
     1
  9
$ANGBASE
 50
0.0
  9
$ANGDIR
 70
     0
  9
$PDMODE
 70
     0
  9
$PDSIZE
 40
0.0
  9
$PLINEWID
 40
0.0
  9
$COORDS
 70
     1
  9
$SPLFRAME
 70
     0
  9
$SPLINETYPE
 70
     6
  9
$SPLINESEGS
 70
     8
  9
$ATTDIA
 70
     1
  9
$ATTREQ
 70
     1
  9
$HANDLING
 70
     1
  9
$HANDSEED
  5
2D97
  9
$SURFTAB1
 70
     6
  9
$SURFTAB2
 70
     6
  9
$SURFTYPE
 70
     6
  9
$SURFU
 70
     6
  9
$SURFV
 70
     6
  9
$UCSNAME
  2

  9
$UCSORG
 10
0.0
 20
0.0
 30
0.0
  9
$UCSXDIR
 10
1.0
 20
0.0
 30
0.0
  9
$UCSYDIR
 10
0.0
 20
1.0
 30
0.0
  9
$PUCSNAME
  2

  9
$PUCSORG
 10
0.0
 20
0.0
 30
0.0
  9
$PUCSXDIR
 10
1.0
 20
0.0
 30
0.0
  9
$PUCSYDIR
 10
0.0
 20
1.0
 30
0.0
  9
$USERI1
 70
     0
  9
$USERI2
 70
     0
  9
$USERI3
 70
     0
  9
$USERI4
 70
     0
  9
$USERI5
 70
     0
  9
$USERR1
 40
0.0
  9
$USERR2
 40
0.0
  9
$USERR3
 40
0.0
  9
$USERR4
 40
0.0
  9
$USERR5
 40
0.0
  9
$WORLDVIEW
 70
     1
  9
$SHADEDGE
 70
     3
  9
$SHADEDIF
 70
    70
  9
$TILEMODE
 70
     1
  9
$MAXACTVP
 70
    64
  9
$PLIMCHECK
 70
     0
  9
$PEXTMIN
 10
1.0000000000000000E+020
 20
1.0000000000000000E+020
 30
1.0000000000000000E+020
  9
$PEXTMAX
 10
-1.0000000000000000E+020
 20
-1.0000000000000000E+020
 30
-1.0000000000000000E+020
  9
$PLIMMIN
 10
0.0
 20
0.0
  9
$PLIMMAX
 10
420.0
 20
297.0
  9
$UNITMODE
 70
     0
  9
$VISRETAIN
 70
     1
  9
$PLINEGEN
 70
     0
  9
$PSLTSCALE
 70
     1
  0
ENDSEC
  0
SECTION
  2
TABLES
  0
TABLE
  2
VPORT
 70
     1
  0
VPORT
  2
*ACTIVE
 70
     0
 10
0.0
 20
0.0
 11
1.0
 21
1.0
 12
828.88582242720975
 22
734.99672357755821
 13
0.0
 23
0.0
 14
15.0
 24
15.0
 15
60.0
 25
60.0
 16
0.0
 26
0.0
 36
1.0
 17
0.0
 27
0.0
 37
0.0
 40
910.72602782664069
 41
1.7571592210767459
 42
50.0
 43
0.0
 44
0.0
 50
0.0
 51
0.0
 71
     0
 72
   100
 73
     1
 74
     3
 75
     0
 76
     0
 77
     0
 78
     0
  0
ENDTAB
  0
TABLE
  2
LTYPE
 70
    26
  0
LTYPE
  2
CONTINUOUS
 70
     0
  3
Solid line
 72
    65
 73
     0
 40
0.0
  0
LTYPE
  2
AM_ISO02W050
 70
     0
  3
__ __ __ __ __ __ __ __ __ __ __ __ __ __ __
 72
    65
 73
     2
 40
7.5
 49
6.0
 49
-1.5
  0
LTYPE
  2
AM_ISO08W050
 70
     0
  3
____ . ____ . ____ . ____ . ____ . ____ . ____
 72
    65
 73
     4
 40
18.0
 49
12.0
 49
-1.5
 49
3.0
 49
-1.5
  0
LTYPE
  2
AM_ISO09W050
 70
     0
  3
_____ . . _____ . . _____ . . ____ .. ____
 72
    65
 73
     6
 40
22.5
 49
12.0
 49
-1.5
 49
3.0
 49
-1.5
 49
3.0
 49
-1.5
  0
LTYPE
  2
AMCONSTR
 70
     0
  3
_______________________
 72
    65
 73
     2
 40
9999.0
 49
9999.0
 49
0.0
  0
LTYPE
  2
AM_ISO08W050X2
 70
     0
  3
__ . __ . __ . __ . __ . __
 72
    65
 73
     4
 40
9.0
 49
6.0
 49
-0.75
 49
1.5
 49
-0.75
  0
LTYPE
  2
AM_ISO02W050X2
 70
     0
  3
 _ _ _ _ _ _ _ _ _ _ _ _
 72
    65
 73
     2
 40
3.75
 49
3.0
 49
-0.75
  0
LTYPE
  2
AMZIGZAG
 70
     0
  3
/\/-/\/-/\/-/\/-/\/-/\/
 72
    65
 73
     2
 40
11.000099999999991
 49
0.0001
 49
-11.0
  0
LTYPE
  2
ACISOWELD
 70
     0
  3
_ _ _ _ _
 72
    65
 73
     2
 40
2.0
 49
2.0
 49
-1.0
  0
LTYPE
  2
ACISOTGB
 70
     0
  3
__ . . __ . .
 72
    65
 73
     6
 40
9.0
 49
4.0
 49
-1.0
 49
1.0
 49
-1.0
 49
1.0
 49
-1.0
  0
LTYPE
  2
ACISOTGL
 70
     0
  3
_ _ _ _ _
 72
    65
 73
     2
 40
3.0
 49
2.0
 49
-1.0
  0
LTYPE
  2
CENTER
 70
     0
  3
__ . __
 72
    65
 73
     4
 40
7.0
 49
4.0
 49
-1.0
 49
1.0
 49
-1.0
  0
LTYPE
  2
PHANTOM2
 70
     0
  3
Phantom (.5x) ___ _ _ ___ _ _ ___ _ _ ___ _ _
 72
    65
 73
     6
 40
31.75
 49
15.875
 49
-3.174999999999998
 49
3.174999999999998
 49
-3.174999999999998
 49
3.174999999999998
 49
-3.174999999999998
  0
LTYPE
  2
ACANSTGBM
 70
     0
  3
__ . . __ . .
 72
    65
 73
     6
 40
9.0
 49
4.0
 49
-1.0
 49
1.0
 49
-1.0
 49
1.0
 49
-1.0
  0
LTYPE
  2
ACANSTGLM
 70
     0
  3
_ _ _ _ _
 72
    65
 73
     2
 40
3.0
 49
2.0
 49
-1.0
  0
LTYPE
  2
GEN7
 70
     0
  3
____ . ____ . ____ . ____ . ____ . ____ . ____
 72
    65
 73
     4
 40
14.25
 49
9.75
 49
-1.5
 49
1.5
 49
-1.5
  0
LTYPE
  2
GEN7A
 70
     0
  3
__ . __ . __
 72
    65
 73
     4
 40
7.375
 49
4.75
 49
-0.875
 49
0.875
 49
-0.875
  0
LTYPE
  2
ACJISTGB
 70
     0
  3
__ . . __ . .
 72
    65
 73
     6
 40
9.0
 49
4.0
 49
-1.0
 49
1.0
 49
-1.0
 49
1.0
 49
-1.0
  0
LTYPE
  2
ACJISTGL
 70
     0
  3
_ _ _ _ _
 72
    65
 73
     2
 40
3.0
 49
2.0
 49
-1.0
  0
LTYPE
  2
HIDDEN
 70
     0
  3
Hidden __ __ __ __ __ __ __ __ __ __ __ __ __ _
 72
    65
 73
     2
 40
0.375
 49
0.25
 49
-0.125
  0
LTYPE
  2
CENTER2
 70
     0
  3
Center (.5x) ___ _ ___ _ ___ _ ___ _ ___ _ ___
 72
    65
 73
     4
 40
1.125
 49
0.75
 49
-0.125
 49
0.125
 49
-0.125
  0
LTYPE
  2
HIDDEN2
 70
     0
  3
Hidden (.5x) _ _ _ _ _ _ _ _ _ _ _ _ _ _ _ _ _
 72
    65
 73
     2
 40
0.1875
 49
0.125
 49
-0.0625
  0
LTYPE
  2
AMZIGZAG2
 70
     0
  3
/\/-/\/-/\/-/\/-/\/-/\/
 72
    65
 73
     2
 40
0.4401
 49
0.0001
 49
-0.4400000000000002
  0
LTYPE
  2
ACANSTGB
 70
     0
  3
__ . . __ . .
 72
    65
 73
     6
 40
0.35433070866
 49
0.15748031496
 49
-0.03937007874
 49
0.03937007874
 49
-0.03937007874
 49
0.03937007874
 49
-0.03937007874
  0
LTYPE
  2
ACANSTGL
 70
     0
  3
_ _ _ _ _
 72
    65
 73
     2
 40
0.11811023622
 49
0.07874015748
 49
-0.03937007874
  0
ENDTAB
  0
TABLE
  2
LAYER
 70
     6
  0
LAYER
  2
0
 70
     0
 62
     7
  6
CONTINUOUS
  0
LAYER
  2
AM_0
 70
     0
 62
     7
  6
CONTINUOUS
  0
LAYER
  2
AM_5
 70
     0
 62
     2
  6
CONTINUOUS
  0
LAYER
  2
DEFPOINTS
 70
     0
 62
     7
  6
CONTINUOUS
  0
LAYER
  2
ﾁｭｳｼﾝｾﾝ
 70
     0
 62
     1
  6
GEN7
  0
LAYER
  2
ﾁｭｳｼﾝｾﾝ1
 70
     0
 62
     1
  6
GEN7A
  0
ENDTAB
  0
TABLE
  2
STYLE
 70
     9
  0
STYLE
  2
STANDARD
 70
     0
 40
0.0
 41
0.8299999999999999
 50
0.0
 71
     0
 42
2.5
  3
txt.shx
  4
bigfont.shx
  0
STYLE
  2
ANNOTATIVE
 70
     0
 40
0.0
 41
1.0
 50
0.0
 71
     0
 42
0.2
  3
txt
  4

  0
STYLE
  2

 70
     1
 40
0.0
 41
1.0
 50
0.0
 71
     0
 42
2.5
  3
ltypeshp.shx
  4

  0
STYLE
  2
ACISOTS
 70
     0
 40
1.0
 41
1.0
 50
0.0
 71
     0
 42
2.5
  3
isocp.shx
  4
extfont.shx
  0
STYLE
  2
ACISOGDT
 70
     0
 40
0.0
 41
1.0
 50
0.0
 71
     0
 42
2.5
  3
amgdt.shx
  4

  0
STYLE
  2
ACANSTS
 70
     0
 40
1.0
 41
1.0
 50
0.0
 71
     0
 42
2.5
  3
romans.shx
  4
bigfont.shx
  0
STYLE
  2
ACANSGDT
 70
     0
 40
0.0
 41
1.0
 50
0.0
 71
     0
 42
2.5
  3
amgdt.shx
  4

  0
STYLE
  2
ACJISTS
 70
     0
 40
1.0
 41
1.0
 50
0.0
 71
     0
 42
2.5
  3
isocp.shx
  4
bigfont.shx
  0
STYLE
  2
ACJISGDT
 70
     0
 40
0.0
 41
1.0
 50
0.0
 71
     0
 42
2.5
  3
amgdt.shx
  4

  0
ENDTAB
  0
TABLE
  2
VIEW
 70
     6
  0
VIEW
  2
AM_VIEW1
 70
     0
 40
555.00000000000011
 10
499.2955801104971
 20
832.50000000000011
 41
998.59116022099431
 11
0.0
 21
0.0
 31
1.0
 12
0.0
 22
0.0
 32
0.0
 42
50.0
 43
0.0
 44
0.0
 50
0.0
 71
     0
  0
VIEW
  2
AM_VIEW2
 70
     0
 40
555.00000000000011
 10
1207.704419889501
 20
832.50000000000011
 41
998.59116022099431
 11
0.0
 21
0.0
 31
1.0
 12
0.0
 22
0.0
 32
0.0
 42
50.0
 43
0.0
 44
0.0
 50
0.0
 71
     0
  0
VIEW
  2
AM_VIEW3
 70
     0
 40
555.00000000000011
 10
499.2955801104971
 20
277.49999999999989
 41
998.59116022099431
 11
0.0
 21
0.0
 31
1.0
 12
0.0
 22
0.0
 32
0.0
 42
50.0
 43
0.0
 44
0.0
 50
0.0
 71
     0
  0
VIEW
  2
AM_VIEW4
 70
     0
 40
555.00000000000011
 10
1207.704419889501
 20
277.49999999999989
 41
998.59116022099431
 11
0.0
 21
0.0
 31
1.0
 12
0.0
 22
0.0
 32
0.0
 42
50.0
 43
0.0
 44
0.0
 50
0.0
 71
     0
  0
VIEW
  2
AM_VIEW5
 70
     0
 40
555.00000000000011
 10
853.5
 20
555.00000000000011
 41
998.59116022099431
 11
0.0
 21
0.0
 31
1.0
 12
0.0
 22
0.0
 32
0.0
 42
50.0
 43
0.0
 44
0.0
 50
0.0
 71
     0
  0
VIEW
  2
AM_VIEW6
 70
     0
 40
1109.9889000000001
 10
853.5
 20
555.0
 41
1997.162348618785
 11
0.0
 21
0.0
 31
1.0
 12
0.0
 22
0.0
 32
0.0
 42
50.0
 43
0.0
 44
0.0
 50
0.0
 71
     0
  0
ENDTAB
  0
TABLE
  2
UCS
 70
     0
  0
ENDTAB
  0
TABLE
  2
APPID
 70
    95
  0
APPID
  2
ACAD
 70
     0
  0
APPID
  2
ACADANNOTATIVE
 70
     0
  0
APPID
  2
MCAD_NO_VIS
 70
     0
  0
APPID
  2
ACAD_TEMP_GRAPHIC
 70
     0
  0
APPID
  2
ACATTRIBSERVICES
 70
     0
  0
APPID
  2
GENIUS_GENREC_14
 70
     0
  0
APPID
  2
GENIUS_GENOBJ-N-REC_13
 70
     0
  0
APPID
  2
GENIUS_GENODEF_13
 70
     0
  0
APPID
  2
GENIUS_GENOLIS_13
 70
     0
  0
APPID
  2
GENIUS_GENOBJ-N-TIT_13
 70
     0
  0
APPID
  2
GENIUS_GENOENT_13
 70
     0
  0
APPID
  2
GENIUS_GENTITLE_13
 70
     0
  0
APPID
  2
GENIUS_GENOREF_13
 70
     0
  0
APPID
  2
GENIUS_GENSCREG_15
 70
     0
  0
APPID
  2
GENIUS_GENOBJ-N-SDF_13
 70
     0
  0
APPID
  2
GENIUS_GENFIL_13
 70
     0
  0
APPID
  2
GENIUS_GENOBJ-N-CHA_13
 70
     0
  0
APPID
  2
GENIUS_GENDTOL_13
 70
     0
  0
APPID
  2
GENIUS_GENOBJ-N-FIL_13
 70
     0
  0
APPID
  2
AD_DRAW
 70
     0
  0
APPID
  2
DESIGNERASSEMBLIES
 70
     0
  0
APPID
  2
ASURF_PCURVE_APPNAME
 70
     0
  0
APPID
  2
GENIUS_GE3SECT_13
 70
     0
  0
APPID
  2
GENIUS_GENCFG_13
 70
     0
  0
APPID
  2
GENIUS_GE3CFG0_13
 70
     0
  0
APPID
  2
GENIUS_GENCFG0_13
 70
     0
  0
APPID
  2
GENIUS_GENCFG1_13
 70
     0
  0
APPID
  2
GENIUS_GENCFG2_13
 70
     0
  0
APPID
  2
GENIUS_GENCFG3_13
 70
     0
  0
APPID
  2
GENIUS_GENCFG4_13
 70
     0
  0
APPID
  2
GENIUS_GEVCFG0_13
 70
     0
  0
APPID
  2
GENIUS_GENHINW_13
 70
     0
  0
APPID
  2
GENIUS_FIRSTVISTXT_14
 70
     0
  0
APPID
  2
GENIUS_GENOBJ-N-LEADER_13
 70
     0
  0
APPID
  2
GEV_VCCNULL_SWITCH_OFF
 70
     0
  0
APPID
  2
GENIUS_GEFCFG0_13
 70
     0
  0
APPID
  2
GENIUS_GENZVEED_13
 70
     0
  0
APPID
  2
GENIUS_GENSCREG_13
 70
     0
  0
APPID
  2
GENIUS_DUMCFG0_13
 70
     0
  0
APPID
  2
GEVID936201362
 70
     0
  0
APPID
  2
GEVDC
 70
     0
  0
APPID
  2
GEVCON
 70
     0
  0
APPID
  2
VCC
 70
     0
  0
APPID
  2
GEVPT
 70
     0
  0
APPID
  2
GEVIT
 70
     0
  0
APPID
  2
GENBH
 70
     0
  0
APPID
  2
GEVMK
 70
     0
  0
APPID
  2
GENIUS_GENBH_13
 70
     0
  0
APPID
  2
GENIUS_GENOBJ-NBEHI-BHF_13
 70
     0
  0
APPID
  2
GENIUS_GENOBJ-NBEHI-BHB_13
 70
     0
  0
APPID
  2
GENIUS_GENOBJ-F-DESC_13
 70
     0
  0
APPID
  2
GENIUS_GEFDESC_14
 70
     0
  0
APPID
  2
GENIUS_GENOBJ-F-PART_13
 70
     0
  0
APPID
  2
GENIUS_GEFSTDP_13
 70
     0
  0
APPID
  2
GENIUS_GEFPARTINS_13
 70
     0
  0
APPID
  2
GENIUS_GENTRA_14
 70
     0
  0
APPID
  2
GENIUS_GENINF13_13
 70
     0
  0
APPID
  2
GENIUS_GENOBJ-N-INFOPT_13
 70
     0
  0
APPID
  2
GENIUS_GENOBJ-N-RSSYM_13
 70
     0
  0
APPID
  2
GENIUS_GENSYMENT_13
 70
     0
  0
APPID
  2
GENIUS_GENSCSYM_13
 70
     0
  0
APPID
  2
GENIUS_GEFINFNAM_13
 70
     0
  0
APPID
  2
GENIUS_GENOBJ-N-CEN_13
 70
     0
  0
APPID
  2
GENIUS_GENOBJ-N-CRS_13
 70
     0
  0
APPID
  2
GENIUS_GENOBJ-N-CRC_13
 70
     0
  0
APPID
  2
GENIUS_GENCRC_14
 70
     0
  0
APPID
  2
GEVID942827039
 70
     0
  0
APPID
  2
GEVID942827040
 70
     0
  0
APPID
  2
GEVID942827041
 70
     0
  0
APPID
  2
GENIUS_GENOBJ-F-SCPASSM_13
 70
     0
  0
APPID
  2
GENIUS_GENDIMSH_14
 70
     0
  0
APPID
  2
GEVID942827042
 70
     0
  0
APPID
  2
GEVID946020473
 70
     0
  0
APPID
  2
GEVID946020474
 70
     0
  0
APPID
  2
GEVID946020475
 70
     0
  0
APPID
  2
GENIUS_GENOBJ-N-HTC_13
 70
     0
  0
APPID
  2
GENIUS_GENHATCH_13
 70
     0
  0
APPID
  2
GEVID948854295
 70
     0
  0
APPID
  2
GEVID939402019
 70
     0
  0
APPID
  2
GEVID952919491
 70
     0
  0
APPID
  2
GEVID952919492
 70
     0
  0
APPID
  2
GENIUS_GEFWELD_13
 70
     0
  0
APPID
  2
GENIUS_GENOBJ-F-WELS_13
 70
     0
  0
APPID
  2
GEVID952919493
 70
     0
  0
APPID
  2
GENIUS_GENOBJ-N-RSBK_13
 70
     0
  0
APPID
  2
GENIUS_GENOBJ-N-LIB_13
 70
     0
  0
APPID
  2
GENIUS_GENSCALE_13
 70
     0
  0
APPID
  2
GEVID986376691
 70
     0
  0
APPID
  2
DCO15
 70
     0
  0
APPID
  2
ACAD_DSTYLE_DIMBREAK
 70
     0
  0
APPID
  2
ACAD_DSTYLE_DIMJAG
 70
     0
  0
APPID
  2
ACAD_NAV_VCDISPLAY
 70
     0
  0
APPID
  2
ACADANNOPO
 70
     0
  0
APPID
  2
ACAD_EXEMPT_FROM_CAD_STANDARDS
 70
     0
  0
APPID
  2
ACAD_MLEADERVER
 70
     0
  0
ENDTAB
  0
TABLE
  2
DIMSTYLE
 70
    22
  0
DIMSTYLE
  2
STANDARD
 70
     0
  3

  4

  5

  6

  7

 40
1.0
 41
0.18
 42
0.0625
 43
0.38
 44
0.18
 45
0.0
 46
0.0
 47
0.0
 48
0.0
140
0.18
141
0.09
142
0.0
143
25.399999999999999
144
1.0
145
0.0
146
1.0
147
0.09
 71
     0
 72
     0
 73
     1
 74
     1
 75
     0
 76
     0
 77
     0
 78
     0
170
     0
171
     2
172
     0
173
     0
174
     0
175
     0
176
     0
177
     0
178
     0
  0
DIMSTYLE
  2
ANNOTATIVE
 70
     0
  3

  4

  5

  6

  7

 40
1.0
 41
0.18
 42
0.0625
 43
0.38
 44
0.18
 45
0.0
 46
0.0
 47
0.0
 48
0.0
140
0.18
141
0.09
142
0.0
143
25.399999999999999
144
1.0
145
0.0
146
1.0
147
0.09
 71
     0
 72
     0
 73
     1
 74
     1
 75
     0
 76
     0
 77
     0
 78
     0
170
     0
171
     2
172
     0
173
     0
174
     0
175
     0
176
     0
177
     0
178
     0
  0
DIMSTYLE
  2
AM_ISO
 70
     0
  3

  4
"
  5

  6

  7

 40
1.0
 41
2.5
 42
1.0
 43
8.0
 44
0.6
 45
0.0
 46
0.0
 47
0.1
 48
0.1
140
2.5
141
0.0
142
0.0
143
0.0393701
144
1.0
145
0.0
146
0.71
147
0.8
 71
     0
 72
     0
 73
     0
 74
     0
 75
     0
 76
     0
 77
     1
 78
     8
170
     0
171
     2
172
     1
173
     0
174
     0
175
     0
176
   256
177
   256
178
     4
  0
DIMSTYLE
  2
AM_ISO$3
 70
     0
  3

  4
"
  5

  6

  7

 40
1.0
 41
2.5
 42
1.0
 43
8.0
 44
0.6
 45
0.0
 46
0.0
 47
0.1
 48
0.1
140
2.5
141
0.0
142
0.0
143
0.0393701
144
1.0
145
0.0
146
0.71
147
0.8
 71
     0
 72
     0
 73
     0
 74
     1
 75
     0
 76
     0
 77
     1
 78
     8
170
     0
171
     2
172
     0
173
     0
174
     0
175
     0
176
   256
177
   256
178
     4
  0
DIMSTYLE
  2
AM_ISO$4
 70
     0
  3

  4
"
  5

  6

  7

 40
1.0
 41
2.5
 42
1.0
 43
8.0
 44
0.6
 45
0.0
 46
0.0
 47
0.1
 48
0.1
140
2.5
141
0.0
142
0.0
143
0.0393701
144
1.0
145
0.0
146
0.71
147
0.8
 71
     0
 72
     0
 73
     0
 74
     1
 75
     0
 76
     0
 77
     1
 78
     8
170
     0
171
     2
172
     0
173
     0
174
     0
175
     0
176
   256
177
   256
178
     4
  0
DIMSTYLE
  2
AM_ISO$6
 70
     0
  3

  4
"
  5

  6

  7

 40
1.0
 41
2.5
 42
1.0
 43
8.0
 44
0.6
 45
0.0
 46
0.0
 47
0.1
 48
0.1
140
2.5
141
0.0
142
0.0
143
0.0393701
144
1.0
145
0.0
146
0.71
147
0.8
 71
     0
 72
     0
 73
     0
 74
     0
 75
     0
 76
     0
 77
     0
 78
     8
170
     0
171
     2
172
     1
173
     0
174
     0
175
     0
176
   256
177
   256
178
     4
  0
DIMSTYLE
  2
AM_ISO$7
 70
     0
  3

  4
"
  5

  6

  7

 40
1.0
 41
2.5
 42
1.0
 43
8.0
 44
0.6
 45
0.0
 46
0.0
 47
0.1
 48
0.1
140
2.5
141
0.0
142
0.0
143
0.0393701
144
1.0
145
0.0
146
0.71
147
0.8
 71
     0
 72
     0
 73
     0
 74
     0
 75
     0
 76
     0
 77
     1
 78
     8
170
     0
171
     2
172
     1
173
     0
174
     0
175
     0
176
   256
177
   256
178
     4
  0
DIMSTYLE
  2
AM_ISO$SF
 70
     0
  3

  4
"
  5

  6

  7

 40
1.0
 41
2.5
 42
1.0
 43
10.0
 44
1.0
 45
0.0
 46
0.0
 47
0.1
 48
0.1
140
3.5
141
0.0
142
0.0
143
0.0393701
144
1.0
145
0.0
146
0.71
147
1.5
 71
     0
 72
     0
 73
     0
 74
     0
 75
     1
 76
     1
 77
     1
 78
     8
170
     0
171
     2
172
     1
173
     0
174
     0
175
     0
176
   256
177
   256
178
     2
  0
DIMSTYLE
  2
AM_ISO$SH
 70
     0
  3

  4
"
  5

  6

  7

 40
1.0
 41
2.5
 42
1.0
 43
10.0
 44
1.0
 45
0.0
 46
0.0
 47
0.1
 48
0.1
140
3.5
141
0.0
142
0.0
143
0.0393701
144
2.0
145
0.0
146
0.71
147
1.5
 71
     0
 72
     0
 73
     0
 74
     0
 75
     1
 76
     1
 77
     1
 78
     8
170
     0
171
     2
172
     1
173
     1
174
     0
175
     0
176
   256
177
   256
178
     2
  0
DIMSTYLE
  2
AM_JIS
 70
     0
  3

  4
"
  5

  6

  7

 40
1.0
 41
2.5
 42
1.0
 43
7.0
 44
1.0
 45
0.0
 46
0.0
 47
0.1
 48
0.1000000001
140
2.5
141
0.0
142
0.0
143
0.0393701
144
1.0
145
0.0
146
0.71
147
1.0
 71
     0
 72
     0
 73
     0
 74
     0
 75
     0
 76
     0
 77
     3
 78
     8
170
     0
171
     2
172
     1
173
     0
174
     0
175
     0
176
   256
177
   256
178
     4
  0
DIMSTYLE
  2
AM_JIS$3
 70
     0
  3

  4
"
  5

  6

  7

 40
1.0
 41
2.5
 42
1.0
 43
7.0
 44
1.0
 45
0.0
 46
0.0
 47
0.1
 48
0.1000000001
140
2.5
141
0.0
142
0.0
143
0.0393701
144
1.0
145
0.0
146
0.71
147
1.0
 71
     0
 72
     0
 73
     0
 74
     1
 75
     0
 76
     0
 77
     3
 78
     8
170
     0
171
     2
172
     0
173
     0
174
     0
175
     0
176
   256
177
   256
178
     4
  0
DIMSTYLE
  2
AM_JIS$4
 70
     0
  3

  4
"
  5

  6

  7

 40
1.0
 41
2.5
 42
1.0
 43
7.0
 44
1.0
 45
0.0
 46
0.0
 47
0.1
 48
0.1000000001
140
2.5
141
0.0
142
0.0
143
0.0393701
144
1.0
145
0.0
146
0.71
147
1.0
 71
     0
 72
     0
 73
     0
 74
     0
 75
     0
 76
     0
 77
     3
 78
     8
170
     0
171
     2
172
     0
173
     0
174
     0
175
     0
176
   256
177
   256
178
     4
  0
DIMSTYLE
  2
AM_JIS$6
 70
     0
  3

  4
"
  5

  6

  7

 40
1.0
 41
2.5
 42
1.0
 43
7.0
 44
1.0
 45
0.0
 46
0.0
 47
0.1
 48
0.1000000001
140
2.5
141
0.0
142
0.0
143
0.0393701
144
1.0
145
0.0
146
0.71
147
1.0
 71
     0
 72
     0
 73
     0
 74
     0
 75
     0
 76
     0
 77
     0
 78
     8
170
     0
171
     2
172
     1
173
     0
174
     0
175
     0
176
   256
177
   256
178
     4
  0
DIMSTYLE
  2
AM_JIS$7
 70
     0
  3

  4
"
  5

  6

  7

 40
1.0
 41
2.5
 42
1.0
 43
7.0
 44
1.0
 45
0.0
 46
0.0
 47
0.1
 48
0.1000000001
140
2.5
141
0.0
142
0.0
143
0.0393701
144
1.0
145
0.0
146
0.71
147
1.0
 71
     0
 72
     0
 73
     0
 74
     0
 75
     0
 76
     0
 77
     3
 78
     8
170
     0
171
     2
172
     1
173
     0
174
     0
175
     0
176
   256
177
   256
178
     4
  0
DIMSTYLE
  2
AM_JIS$SF
 70
     0
  3

  4
"
  5

  6

  7

 40
1.0
 41
2.5
 42
1.0
 43
10.0
 44
1.0
 45
0.0
 46
0.0
 47
0.1
 48
0.1
140
3.5
141
0.0
142
0.0
143
0.0393701
144
1.0
145
0.0
146
0.71
147
1.5
 71
     0
 72
     0
 73
     0
 74
     0
 75
     1
 76
     1
 77
     3
 78
     8
170
     0
171
     2
172
     1
173
     0
174
     0
175
     0
176
   256
177
   256
178
     4
  0
DIMSTYLE
  2
AM_JIS$SH
 70
     0
  3

  4
"
  5

  6

  7

 40
1.0
 41
2.5
 42
1.0
 43
10.0
 44
1.0
 45
0.0
 46
0.0
 47
0.1
 48
0.1
140
3.5
141
0.0
142
0.0
143
0.0393701
144
1.0
145
0.0
146
0.71
147
1.5
 71
     0
 72
     0
 73
     0
 74
     0
 75
     1
 76
     0
 77
     3
 78
     8
170
     0
171
     2
172
     1
173
     1
174
     0
175
     0
176
   256
177
   256
178
     4
  0
DIMSTYLE
  2
AM_ANSI
 70
     0
  3

  4
mm
  5

  6

  7

 40
1.0
 41
0.1
 42
0.05
 43
0.5
 44
0.1
 45
0.0
 46
0.0
 47
0.1
 48
0.1
140
0.12
141
0.0
142
0.0
143
25.399999999999999
144
1.0
145
0.0
146
0.71
147
0.06
 71
     0
 72
     0
 73
     1
 74
     1
 75
     0
 76
     0
 77
     0
 78
     7
170
     0
171
     2
172
     0
173
     0
174
     0
175
     0
176
   256
177
   256
178
     2
  0
DIMSTYLE
  2
AM_ANSI$3
 70
     0
  3

  4
mm
  5

  6

  7

 40
1.0
 41
0.1
 42
0.05
 43
0.5
 44
0.1
 45
0.0
 46
0.0
 47
0.1
 48
0.1
140
0.12
141
0.0
142
0.0
143
25.399999999999999
144
1.0
145
0.0
146
0.71
147
0.06
 71
     0
 72
     0
 73
     1
 74
     1
 75
     0
 76
     0
 77
     0
 78
     7
170
     0
171
     2
172
     0
173
     0
174
     0
175
     0
176
   256
177
   256
178
     2
  0
DIMSTYLE
  2
AM_ANSI$4
 70
     0
  3

  4
mm
  5

  6

  7

 40
1.0
 41
0.1
 42
0.05
 43
0.5
 44
0.1
 45
0.0
 46
0.0
 47
0.1
 48
0.1
140
0.12
141
0.0
142
0.0
143
25.399999999999999
144
1.0
145
0.0
146
0.71
147
0.06
 71
     0
 72
     0
 73
     1
 74
     1
 75
     0
 76
     0
 77
     0
 78
     7
170
     0
171
     2
172
     0
173
     0
174
     0
175
     0
176
   256
177
   256
178
     2
  0
DIMSTYLE
  2
AM_ANSI$7
 70
     0
  3

  4
mm
  5

  6

  7

 40
1.0
 41
0.1
 42
0.05
 43
0.5
 44
0.1
 45
0.0
 46
0.0
 47
0.1
 48
0.1
140
0.24
141
0.0
142
0.0
143
25.399999999999999
144
1.0
145
0.0
146
0.71
147
0.06
 71
     0
 72
     0
 73
     1
 74
     1
 75
     0
 76
     0
 77
     0
 78
     7
170
     0
171
     2
172
     0
173
     0
174
     0
175
     0
176
   256
177
   256
178
     2
  0
DIMSTYLE
  2
AM_ANSI$SF
 70
     0
  3

  4
mm
  5

  6

  7

 40
1.0
 41
0.1
 42
0.05
 43
0.5
 44
0.1
 45
0.0
 46
0.0
 47
0.1
 48
0.1
140
0.12
141
0.0
142
0.0
143
25.399999999999999
144
1.0
145
0.0
146
0.71
147
0.06
 71
     0
 72
     0
 73
     1
 74
     1
 75
     1
 76
     1
 77
     0
 78
     7
170
     0
171
     2
172
     0
173
     0
174
     0
175
     0
176
   256
177
   256
178
     2
  0
DIMSTYLE
  2
AM_ANSI$SH
 70
     0
  3

  4
mm
  5

  6

  7

 40
1.0
 41
0.1
 42
0.05
 43
0.5
 44
0.1
 45
0.0
 46
0.0
 47
0.1
 48
0.1
140
0.12
141
0.0
142
0.0
143
25.399999999999999
144
1.0
145
0.0
146
0.71
147
0.06
 71
     0
 72
     0
 73
     1
 74
     1
 75
     1
 76
     1
 77
     0
 78
     7
170
     0
171
     2
172
     0
173
     1
174
     0
175
     0
176
   256
177
   256
178
     2
  0
ENDTAB
  0
ENDSEC
  0
SECTION
  2
BLOCKS
  0
BLOCK
  8
0
  2
$MODEL_SPACE
 70
     0
 10
0.0
 20
0.0
 30
0.0
  3
$MODEL_SPACE
  1

  0
ENDBLK
  5
2C0B
  8
0
  0
BLOCK
 67
     1
  8
0
  2
$PAPER_SPACE
 70
     0
 10
0.0
 20
0.0
 30
0.0
  3
$PAPER_SPACE
  1

  0
ENDBLK
  5
2C07
 67
     1
  8
0
  0
BLOCK
  8
0
  2
GENAXEH
 70
     0
 10
0.0
 20
0.0
 30
0.0
  3
GENAXEH
  1

  0
LINE
  5
293C
  8
0
 10
-1.0
 20
0.0
 30
0.0
 11
1.0
 21
0.0
 31
0.0
  0
ENDBLK
  5
293D
  8
0
  0
BLOCK
  8
0
  2
_OPEN30
 70
     0
 10
0.0
 20
0.0
 30
0.0
  3
_OPEN30
  1

  0
LINE
  5
2940
  8
0
 62
     0
 10
-1.0
 20
0.26794919
 30
0.0
 11
0.0
 21
0.0
 31
0.0
  0
LINE
  5
2941
  8
0
 62
     0
 10
0.0
 20
0.0
 30
0.0
 11
-1.0
 21
-0.26794919
 31
0.0
  0
LINE
  5
2942
  8
0
 62
     0
 10
0.0
 20
0.0
 30
0.0
 11
-1.0
 21
0.0
 31
0.0
  0
ENDBLK
  5
2943
  8
0
  0
BLOCK
  8
0
  2
_NONE
 70
     0
 10
0.0
 20
0.0
 30
0.0
  3
_NONE
  1

  0
ENDBLK
  5
2946
  8
0
  0
BLOCK
  8
0
  2
_ACMFILLEDHALF
 70
     0
 10
0.0
 20
0.0
 30
0.0
  3
_ACMFILLEDHALF
  1

  0
TRACE
  5
2D01
  8
AM_0
 62
     0
 10
-0.8
 20
0.0
 30
0.0
 11
-1.0
 21
0.166666666
 31
0.0
 12
0.0
 22
0.0
 32
0.0
 13
0.0
 23
0.0
 33
0.0
  0
LINE
  5
2D02
  8
AM_0
 62
     0
 10
-1.0
 20
0.0
 30
0.0
 11
-0.8
 21
0.0
 31
0.0
  0
ENDBLK
  5
2D00
  8
0
  0
ENDSEC
  0
SECTION
  2
ENTITIES
  0
LINE
  5
2947
  8
ﾁｭｳｼﾝｾﾝ
 10
868.00327487333425
 20
511.7143319214872
 30
0.0
 11
513.77187487333401
 21
511.7143319214872
 31
0.0
  0
LINE
  5
2948
  8
AM_0
 10
760.06422487333373
 20
481.7143319214872
 30
0.0
 11
865.06427487333394
 21
481.7143319214872
 31
0.0
  0
LINE
  5
2949
  8
AM_0
 10
784.06422487333373
 20
545.71436192148735
 30
0.0
 11
865.06427487333394
 21
545.71436192148735
 31
0.0
  0
LINE
  5
294A
  8
AM_0
 10
760.06422487333373
 20
541.71433192148731
 30
0.0
 11
865.06427487333394
 21
541.71433192148731
 31
0.0
  0
LINE
  5
294B
  8
AM_0
 10
430.73417487333421
 20
541.69769692148725
 30
0.0
 11
446.52832487333399
 21
569.05411192148745
 31
0.0
  0
LINE
  5
294C
  8
AM_0
 10
556.56422487333361
 20
641.71435192148738
 30
0.0
 11
556.56422487333361
 21
293.56634692148742
 31
0.0
  0
LINE
  5
294D
  8
AM_0
 10
490.06422487333361
 20
581.7143319214872
 30
0.0
 11
490.06422487333361
 21
345.71432692148733
 31
0.0
  0
LINE
  5
294E
  8
AM_0
 10
477.06427487333428
 20
583.71433192148731
 30
0.0
 11
477.06427487333428
 21
343.71432692148733
 31
0.0
  0
LINE
  5
294F
  8
AM_0
 10
536.56422487333361
 20
591.90810192148751
 30
0.0
 11
536.56422487333361
 21
342.10083192148733
 31
0.0
  0
LINE
  5
2950
  8
AM_0
 10
448.06422487333361
 20
531.7109719214875
 30
0.0
 11
448.06422487333361
 21
561.44153692148734
 31
0.0
  0
LINE
  5
2951
  8
AM_0
 10
701.55872487333397
 20
604.15690192148736
 30
0.0
 11
724.80182487333423
 21
454.17120692148751
 31
0.0
  0
LINE
  5
2952
  8
AM_0
 10
611.56422487333361
 20
643.71435192148715
 30
0.0
 11
611.56422487333361
 21
289.71432692148733
 31
0.0
  0
LINE
  5
2953
  8
AM_0
 10
755.06422487333373
 20
356.71432692148733
 30
0.0
 11
755.06422487333373
 21
666.71435192148738
 31
0.0
  0
LINE
  5
2954
  8
AM_0
 10
725.06422487333373
 20
693.71435192148715
 30
0.0
 11
725.06422487333373
 21
453.77731692148723
 31
0.0
  0
LINE
  5
2955
  8
AM_0
 10
734.06422487333373
 20
658.27325192148714
 30
0.0
 11
734.06422487333373
 21
365.15546192148742
 31
0.0
  0
LINE
  5
2956
  8
AM_0
 10
750.06422487333373
 20
696.71440192148748
 30
0.0
 11
750.06422487333373
 21
326.71432692148733
 31
0.0
  0
ARC
  5
2957
  8
AM_0
 10
318.84559187333389
 20
353.4385762999691
 30
0.0
 40
8.0
 50
59.999999999999851
 51
88.999999999998224
  0
ARC
  5
2958
  8
AM_0
 10
318.84559187333389
 20
454.49254629996921
 30
0.0
 40
8.0
 50
271.00000000000171
 51
300.0
  0
LINE
  5
2959
  8
ﾁｭｳｼﾝｾﾝ
 10
224.2556364095511
 20
403.21436192148752
 30
0.0
 11
530.92732487333433
 21
403.2143619214873
 31
0.0
  0
LINE
  5
295A
  8
AM_0
 10
278.06422487333373
 20
378.96556129996912
 30
0.0
 11
278.06422487333373
 21
428.96556129996912
 31
0.0
  0
LINE
  5
295B
  8
AM_0
 10
280.06422487333373
 20
368.12026229996911
 30
0.0
 11
280.06422487333373
 21
439.81086029996891
 31
0.0
  0
LINE
  5
295C
  8
AM_0
 10
288.72447887333362
 20
442.96556129996918
 30
0.0
 11
288.72447887333362
 21
364.96556129996912
 31
0.0
  0
LINE
  5
295D
  8
AM_0
 10
281.06422487333373
 20
366.3882112999691
 30
0.0
 11
286.93272387333388
 21
363.00003129996912
 31
0.0
  0
LINE
  5
295E
  8
AM_0
 10
278.06422487333373
 20
378.96556129996912
 30
0.0
 11
280.06422487333373
 21
376.96556129996918
 31
0.0
  0
ARC
  5
295F
  8
AM_0
 10
282.06422487333373
 20
368.12026229996911
 30
0.0
 40
2.0
 50
180.0
 51
239.9999999999998
  0
LINE
  5
2960
  8
AM_0
 10
290.7931048733339
 20
361.92945329996911
 30
0.0
 11
318.98521087333393
 21
361.43735829996911
 31
0.0
  0
ARC
  5
2961
  8
AM_0
 10
290.93272387333388
 20
369.92823529996912
 30
0.0
 40
8.0
 50
239.9999999999998
 51
268.99999999999812
  0
LINE
  5
2962
  8
AM_0
 10
239.06422487333381
 20
415.9655612999689
 30
0.0
 11
275.06422487333373
 21
415.9655612999689
 31
0.0
  0
LINE
  5
2963
  8
AM_0
 10
239.06422487333381
 20
418.96556129996918
 30
0.0
 11
267.06422487333373
 21
418.96556129996918
 31
0.0
  0
LINE
  5
2964
  8
AM_0
 10
239.06422487333381
 20
391.96556129996918
 30
0.0
 11
275.06422487333373
 21
391.96556129996918
 31
0.0
  0
LINE
  5
2965
  8
AM_0
 10
239.06422487333381
 20
415.9655612999689
 30
0.0
 11
239.06422487333381
 21
391.96556129996918
 31
0.0
  0
LINE
  5
2966
  8
AM_0
 10
239.06422487333381
 20
415.9655612999689
 30
0.0
 11
239.06422487333381
 21
418.96556129996918
 31
0.0
  0
LINE
  5
2967
  8
AM_0
 10
275.06422487333373
 20
416.46556129996912
 30
0.0
 11
275.06422487333373
 21
391.46556129996918
 31
0.0
  0
LINE
  5
2968
  8
AM_0
 10
275.06422487333373
 20
391.46556129996918
 30
0.0
 11
278.06422487333373
 21
391.46556129996918
 31
0.0
  0
LINE
  5
2969
  8
AM_0
 10
267.06422487333373
 20
415.9655612999689
 30
0.0
 11
267.06422487333373
 21
418.96556129996918
 31
0.0
  0
LINE
  5
296A
  8
AM_0
 10
275.06422487333373
 20
416.46556129996912
 30
0.0
 11
278.06422487333373
 21
416.46556129996912
 31
0.0
  0
LINE
  5
296B
  8
AM_0
 10
281.06422487333373
 20
441.54291129996892
 30
0.0
 11
286.93272387333388
 21
444.93109129996913
 31
0.0
  0
ARC
  5
296C
  8
AM_0
 10
282.06422487333373
 20
439.81086029996891
 30
0.0
 40
2.0
 50
120.0000000000001
 51
180.0
  0
LINE
  5
296D
  8
AM_0
 10
278.06422487333373
 20
428.96556129996912
 30
0.0
 11
280.06422487333373
 21
430.96556129996918
 31
0.0
  0
LINE
  5
296E
  8
AM_0
 10
290.7931048733339
 20
446.00166929996902
 30
0.0
 11
318.98521087333393
 21
446.4937642999692
 31
0.0
  0
ARC
  5
296F
  8
AM_0
 10
290.93272387333388
 20
438.00288729996919
 30
0.0
 40
8.0
 50
91.000000000001705
 51
120.0000000000001
  0
LINE
  5
2970
  8
AM_0
 10
561.56422487333361
 20
536.93936692148748
 30
0.0
 11
587.56422487333361
 21
536.93936692148748
 31
0.0
  0
LINE
  5
2971
  8
AM_0
 10
558.49447487333418
 20
291.56758192148732
 30
0.0
 11
611.56422487333361
 21
289.7143419214874
 31
0.0
  0
LINE
  5
2972
  8
AM_0
 10
561.56422487333361
 20
305.71432692148733
 30
0.0
 11
587.56422487333361
 21
305.71432692148733
 31
0.0
  0
LINE
  5
2973
  8
AM_0
 10
561.56422487333361
 20
374.3878519214872
 30
0.0
 11
587.56422487333361
 21
374.3878519214872
 31
0.0
  0
LINE
  5
2974
  8
AM_0
 10
561.56422487333361
 20
414.65723192148732
 30
0.0
 11
587.56422487333361
 21
414.65723192148732
 31
0.0
  0
LINE
  5
2975
  8
AM_0
 10
561.56422487333361
 20
499.76517192148719
 30
0.0
 11
587.56422487333361
 21
499.76517192148719
 31
0.0
  0
LINE
  5
2976
  8
AM_0
 10
448.06422487333361
 20
365.98712692148729
 30
0.0
 11
448.06422487333361
 21
395.71765692148728
 31
0.0
  0
LINE
  5
2977
  8
AM_0
 10
321.05383687333398
 20
443.96556129996918
 30
0.0
 11
321.05383687333398
 21
363.96556129996912
 31
0.0
  0
LINE
  5
2978
  8
AM_0
 10
396.56422487333373
 20
488.96556129996918
 30
0.0
 11
396.56422487333373
 21
318.21432692148733
 31
0.0
  0
LINE
  5
2979
  8
AM_0
 10
381.56422487333361
 20
319.96556129996912
 30
0.0
 11
381.56422487333361
 21
500.96556129996918
 31
0.0
  0
LINE
  5
297A
  8
AM_0
 10
448.06422487333361
 20
379.54346192148728
 30
0.0
 11
490.06422487333361
 21
379.54346192148728
 31
0.0
  0
LINE
  5
297B
  8
AM_0
 10
450.06422487333373
 20
363.98712692148729
 30
0.0
 11
490.06422487333361
 21
363.98712692148729
 31
0.0
  0
LINE
  5
297C
  8
AM_0
 10
440.88977487333437
 20
342.45108192148717
 30
0.0
 11
477.06427487333428
 21
343.71432692148733
 31
0.0
  0
LINE
  5
297D
  8
AM_0
 10
383.56422487333373
 20
368.0274232999692
 30
0.0
 11
393.56422487333373
 21
368.0274232999692
 31
0.0
  0
LINE
  5
297E
  8
AM_0
 10
382.56422487333373
 20
378.2186552999691
 30
0.0
 11
394.56422487333373
 21
378.2186552999691
 31
0.0
  0
LINE
  5
297F
  8
AM_0
 10
393.56422487333373
 20
342.04666129996912
 30
0.0
 11
383.56422487333373
 21
342.04666129996912
 31
0.0
  0
LINE
  5
2980
  8
AM_0
 10
395.56422487333373
 20
317.96556129996912
 30
0.0
 11
383.56422487333373
 21
317.96556129996912
 31
0.0
  0
LINE
  5
2981
  8
AM_0
 10
379.06422487333373
 20
327.90893729996912
 30
0.0
 11
322.84559187333389
 21
360.36678029996898
 31
0.0
  0
ARC
  5
2982
  8
AM_0
 10
376.56422487333373
 20
323.57881029996912
 30
0.0
 40
5.0
 50
0.0
 51
59.999999999999851
  0
ARC
  5
2983
  8
AM_0
 10
383.56422487333373
 20
319.96556129996912
 30
0.0
 40
2.0
 50
180.0
 51
270.0
  0
ARC
  5
2984
  8
AM_0
 10
383.56422487333373
 20
344.04666129996912
 30
0.0
 40
2.0
 50
180.0
 51
270.0
  0
ARC
  5
2985
  8
AM_0
 10
383.56422487333373
 20
370.0274232999692
 30
0.0
 40
2.0
 50
180.0
 51
270.0
  0
ARC
  5
2986
  8
AM_0
 10
441.0642748733336
 20
337.45413692148742
 30
0.0
 40
5.0
 50
91.999997999999948
 51
180.00001
  0
LINE
  5
2987
  8
AM_0
 10
436.06437487333392
 20
360.98712692148729
 30
0.0
 11
436.06437487333392
 21
321.2143419214874
 31
0.0
  0
LINE
  5
2988
  8
AM_0
 10
396.56422487333373
 20
318.21432692148733
 30
0.0
 11
433.06422487333373
 21
318.21432692148733
 31
0.0
  0
LINE
  5
2989
  8
AM_0
 10
395.56422487333373
 20
317.96556129996912
 30
0.0
 11
396.56422487333373
 21
318.96556129996918
 31
0.0
  0
ARC
  5
298A
  8
AM_0
 10
433.06422487333373
 20
321.2143419214874
 30
0.0
 40
3.0000000500000001
 50
270.0
 51
0.0
  0
LINE
  5
298B
  8
AM_0
 10
398.56437487333397
 20
360.35174692148729
 30
0.0
 11
425.56422487333361
 21
360.35174692148729
 31
0.0
  0
LINE
  5
298C
  8
AM_0
 10
398.56437487333397
 20
372.10388692148729
 30
0.0
 11
430.56422487333361
 21
372.10388692148729
 31
0.0
  0
LINE
  5
298D
  8
AM_0
 10
398.56437487333397
 20
347.36139192148732
 30
0.0
 11
430.56422487333361
 21
347.36139192148732
 31
0.0
  0
LINE
  5
298E
  8
AM_0
 10
395.56422487333373
 20
378.2186552999691
 30
0.0
 11
395.56422487333373
 21
344.04666129996912
 31
0.0
  0
LINE
  5
298F
  8
AM_0
 10
398.56437487333397
 20
372.10388692148729
 30
0.0
 11
398.56437487333397
 21
347.36139192148732
 31
0.0
  0
ARC
  5
2990
  8
AM_0
 10
393.56422487333373
 20
344.04666129996912
 30
0.0
 40
2.0
 50
270.0
 51
0.0
  0
ARC
  5
2991
  8
AM_0
 10
393.56422487333373
 20
370.0274232999692
 30
0.0
 40
2.0
 50
270.0
 51
0.0
  0
LINE
  5
2992
  8
AM_0
 10
425.56422487333361
 20
360.35174692148729
 30
0.0
 11
425.56422487333361
 21
347.36139192148732
 31
0.0
  0
LINE
  5
2993
  8
AM_0
 10
430.56422487333361
 20
372.10388692148729
 30
0.0
 11
430.56422487333361
 21
347.36139192148732
 31
0.0
  0
ARC
  5
2994
  8
AM_0
 10
439.06422487333361
 20
360.98712692148729
 30
0.0
 40
3.0000000500000001
 50
90.000003000000007
 51
180.00001
  0
LINE
  5
2995
  8
AM_0
 10
425.56422487333361
 20
360.3517819214872
 30
0.0
 11
430.56422487333361
 21
372.10391692148721
 31
0.0
  0
ARC
  5
2996
  8
AM_0
 10
450.06422487333373
 20
365.98712692148729
 30
0.0
 40
2.0000000500000001
 50
179.99998999999991
 51
270.0
  0
ARC
  5
2997
  8
AM_0
 10
558.56427487333394
 20
293.56634692148742
 30
0.0
 40
2.0000000500000001
 50
179.99998999999991
 51
268.00000999999992
  0
LINE
  5
2998
  8
AM_0
 10
490.06422487333361
 20
377.03946192148732
 30
0.0
 11
536.56422487333361
 21
377.03946192148732
 31
0.0
  0
LINE
  5
2999
  8
AM_0
 10
492.06427487333428
 20
351.71432692148733
 30
0.0
 11
531.56422487333361
 21
351.71432692148733
 31
0.0
  0
LINE
  5
299A
  8
AM_0
 10
477.06427487333428
 20
343.71432692148733
 30
0.0
 11
488.06422487333361
 21
343.71432692148733
 31
0.0
  0
ARC
  5
299B
  8
AM_0
 10
488.06422487333361
 20
345.71432692148733
 30
0.0
 40
2.0000000500000001
 50
270.0
 51
0.0
  0
ARC
  5
299C
  8
AM_0
 10
492.06427487333428
 20
349.71432692148733
 30
0.0
 40
2.0000000500000001
 50
90.000003000000007
 51
180.00001
  0
ARC
  5
299D
  8
AM_0
 10
546.56422487333361
 20
342.10083192148733
 30
0.0
 40
10.0
 50
179.99998999999991
 51
225.28792000000001
  0
LINE
  5
299E
  8
AM_0
 10
539.52882487333409
 20
334.99431192148739
 30
0.0
 11
553.59967487333415
 21
321.06416692148741
 31
0.0
  0
ARC
  5
299F
  8
AM_0
 10
546.56422487333361
 20
313.95762692148742
 30
0.0
 40
10.0
 50
0.0
 51
45.287917999999991
  0
ARC
  5
29A0
  8
AM_0
 10
561.56422487333361
 20
310.71432692148733
 30
0.0
 40
5.0
 50
179.99998999999991
 51
270.0
  0
ARC
  5
29A1
  8
AM_0
 10
531.56422487333361
 20
346.71432692148733
 30
0.0
 40
5.0
 50
0.0
 51
90.000003000000007
  0
ARC
  5
29A2
  8
AM_0
 10
561.56422487333361
 20
369.38785192148731
 30
0.0
 40
5.0
 50
90.000003000000007
 51
180.00001
  0
LINE
  5
29A3
  8
AM_0
 10
448.06422487333361
 20
547.88516692148733
 30
0.0
 11
490.06422487333361
 21
547.88516692148733
 31
0.0
  0
LINE
  5
29A4
  8
AM_0
 10
379.06422487333373
 20
480.02218529996901
 30
0.0
 11
322.84559187333389
 21
447.5643422999691
 31
0.0
  0
LINE
  5
29A5
  8
AM_0
 10
430.06422487333361
 20
403.2143619214873
 30
0.0
 11
430.06422487333361
 21
539.19766692148733
 31
0.0
  0
ARC
  5
29A6
  8
AM_0
 10
446.06427487333372
 20
395.71765692148728
 30
0.0
 40
2.0000000500000001
 50
0.0
 51
90.000003000000007
  0
LINE
  5
29A7
  8
AM_0
 10
383.56422487333373
 20
502.9655612999689
 30
0.0
 11
393.56422487333373
 21
502.9655612999689
 31
0.0
  0
LINE
  5
29A8
  8
AM_0
 10
394.56422487333373
 20
487.9011182999692
 30
0.0
 11
382.56422487333373
 21
487.9011182999692
 31
0.0
  0
ARC
  5
29A9
  8
AM_0
 10
376.56422487333373
 20
484.35231229996913
 30
0.0
 40
5.0
 50
300.0
 51
0.0
  0
ARC
  5
29AA
  8
AM_0
 10
383.56422487333373
 20
500.96556129996918
 30
0.0
 40
2.0
 50
90.0
 51
180.0
  0
ARC
  5
29AB
  8
AM_0
 10
417.06422487333361
 20
510.7143619214873
 30
0.0
 40
3.0000000500000001
 50
90.000003000000007
 51
180.00001
  0
LINE
  5
29AC
  8
AM_0
 10
414.06422487333361
 20
485.94791192148722
 30
0.0
 11
429.32252487333398
 21
485.94791192148722
 31
0.0
  0
LINE
  5
29AD
  8
AM_0
 10
395.56422487333373
 20
489.96556129996912
 30
0.0
 11
396.56422487333373
 21
488.96556129996918
 31
0.0
  0
LINE
  5
29AE
  8
AM_0
 10
395.56422487333373
 20
487.9011182999692
 30
0.0
 11
395.56422487333373
 21
500.96556129996918
 31
0.0
  0
LINE
  5
29AF
  8
AM_0
 10
398.56437487333397
 20
488.28415692148729
 30
0.0
 11
398.56437487333397
 21
502.21433192148731
 31
0.0
  0
LINE
  5
29B0
  8
AM_0
 10
414.06422487333361
 20
488.94791192148728
 30
0.0
 11
414.06422487333361
 21
510.7143619214873
 31
0.0
  0
ARC
  5
29B1
  8
AM_0
 10
411.06437487333392
 20
491.72250692148742
 30
0.0
 40
3.0000000500000001
 50
272.0
 51
0.0
  0
LINE
  5
29B2
  8
AM_0
 10
396.56422487333373
 20
488.21433192148743
 30
0.0
 11
411.16897487333432
 21
488.72434192148728
 31
0.0
  0
ARC
  5
29B3
  8
AM_0
 10
411.06437487333392
 20
488.94791192148728
 30
0.0
 40
3.0000000500000001
 50
270.0
 51
0.0
  0
LINE
  5
29B4
  8
AM_0
 10
398.56437487333397
 20
502.21433192148731
 30
0.0
 11
411.06437487333392
 21
502.21433192148731
 31
0.0
  0
ARC
  5
29B5
  8
AM_0
 10
393.56422487333373
 20
500.96556129996918
 30
0.0
 40
2.0
 50
0.0
 51
90.0
  0
ARC
  5
29B6
  8
AM_0
 10
411.06437487333392
 20
505.21433192148743
 30
0.0
 40
3.0000000500000001
 50
270.0
 51
0.0
  0
LINE
  5
29B7
  8
AM_0
 10
417.06422487333361
 20
513.71433192148731
 30
0.0
 11
427.06422487333361
 21
513.71433192148731
 31
0.0
  0
ARC
  5
29B8
  8
AM_0
 10
427.06422487333361
 20
516.71433192148731
 30
0.0
 40
3.0000000500000001
 50
270.0
 51
0.0
  0
ARC
  5
29B9
  8
AM_0
 10
446.06427487333372
 20
531.7109719214875
 30
0.0
 40
2.0000000500000001
 50
270.0
 51
0.0
  0
ARC
  5
29BA
  8
AM_0
 10
435.06422487333361
 20
539.19766692148733
 30
0.0
 40
5.0
 50
150.0
 51
180.00001
  0
LINE
  5
29BB
  8
AM_0
 10
459.06422487333361
 20
537.71100692148752
 30
0.0
 11
459.06422487333361
 21
389.7176869214872
 31
0.0
  0
LINE
  5
29BC
  8
AM_0
 10
490.06422487333361
 20
392.78152692148728
 30
0.0
 11
536.56422487333361
 21
392.78152692148728
 31
0.0
  0
LINE
  5
29BD
  8
AM_0
 10
461.06427487333372
 20
387.7176869214872
 30
0.0
 11
490.06422487333361
 21
387.7176869214872
 31
0.0
  0
ARC
  5
29BE
  8
AM_0
 10
461.06427487333372
 20
389.7176869214872
 30
0.0
 40
2.0000000500000001
 50
179.99998999999991
 51
270.0
  0
ARC
  5
29BF
  8
AM_0
 10
561.56422487333361
 20
419.65723192148721
 30
0.0
 40
5.0
 50
179.99998999999991
 51
270.0
  0
LINE
  5
29C0
  8
AM_0
 10
490.06422487333361
 20
534.6471619214874
 30
0.0
 11
536.56422487333361
 21
534.6471619214874
 31
0.0
  0
LINE
  5
29C1
  8
AM_0
 10
490.06422487333361
 20
550.38922692148753
 30
0.0
 11
536.56422487333361
 21
550.38922692148753
 31
0.0
  0
LINE
  5
29C2
  8
AM_0
 10
461.06427487333372
 20
539.71097192148716
 30
0.0
 11
490.06422487333361
 21
539.71097192148716
 31
0.0
  0
ARC
  5
29C3
  8
AM_0
 10
461.06427487333372
 20
537.71100692148752
 30
0.0
 40
2.0000000500000001
 50
90.000003000000007
 51
180.00001
  0
ARC
  5
29C4
  8
AM_0
 10
561.56422487333361
 20
494.76517192148731
 30
0.0
 40
5.0
 50
90.000003000000007
 51
180.00001
  0
ARC
  5
29C5
  8
AM_0
 10
561.56422487333361
 20
541.93936692148736
 30
0.0
 40
5.0
 50
179.99998999999991
 51
270.0
  0
LINE
  5
29C6
  8
AM_0
 10
589.5642748733344
 20
412.65720192148717
 30
0.0
 11
589.5642748733344
 21
376.38788192148729
 31
0.0
  0
LINE
  5
29C7
  8
AM_0
 10
725.06422487333373
 20
399.93106692148729
 30
0.0
 11
725.06422487333373
 21
329.71432692148738
 31
0.0
  0
ARC
  5
29C8
  8
AM_0
 10
678.44412487333432
 20
361.75732692148728
 30
0.0
 40
20.3124945
 50
90.000003000000007
 51
270.0
  0
LINE
  5
29C9
  8
AM_0
 10
675.09687487333395
 20
288.05066192148718
 30
0.0
 11
742.06427487333428
 21
326.71432692148733
 31
0.0
  0
LINE
  5
29CA
  8
AM_0
 10
678.44412487333432
 20
341.44481192148749
 30
0.0
 11
725.06422487333373
 21
341.44481192148749
 31
0.0
  0
LINE
  5
29CB
  8
AM_0
 10
589.5642748733344
 20
303.7143419214874
 30
0.0
 11
589.5642748733344
 21
292.41397192148742
 31
0.0
  0
LINE
  5
29CC
  8
AM_0
 10
611.5641748733342
 20
289.7143419214874
 30
0.0
 11
675.09677487333374
 21
288.05067692148748
 31
0.0
  0
ARC
  5
29CD
  8
AM_0
 10
591.56422487333361
 20
292.41397192148742
 30
0.0
 40
2.0000000500000001
 50
179.99998999999991
 51
268.00000999999992
  0
LINE
  5
29CE
  8
AM_0
 10
641.98342487333412
 20
369.73599692148741
 30
0.0
 11
659.76422487333411
 21
369.73599692148741
 31
0.0
  0
LINE
  5
29CF
  8
AM_0
 10
641.98342487333412
 20
352.6152969214873
 30
0.0
 11
660.30512487333408
 21
352.6152969214873
 31
0.0
  0
ARC
  5
29D0
  8
AM_0
 10
587.56422487333361
 20
303.7143419214874
 30
0.0
 40
2.0000000500000001
 50
0.0
 51
90.000003000000007
  0
ARC
  5
29D1
  8
AM_0
 10
587.56422487333361
 20
376.38788192148729
 30
0.0
 40
2.0000000500000001
 50
270.0
 51
0.0
  0
LINE
  5
29D2
  8
AM_0
 10
645.06422487333361
 20
368.15109692148729
 30
0.0
 11
645.06422487333361
 21
354.50107192148721
 31
0.0
  0
ARC
  5
29D3
  8
AM_0
 10
641.98342487333412
 20
361.17566192148729
 30
0.0
 40
8.5603475000000007
 50
90.000003000000007
 51
270.0
  0
LINE
  5
29D4
  8
AM_0
 10
680.06422487333361
 20
379.91107692148728
 30
0.0
 11
680.06422487333361
 21
343.79108192148732
 31
0.0
  0
LINE
  5
29D5
  8
AM_0
 10
750.06422487333373
 20
326.71432692148733
 30
0.0
 11
728.06422487333373
 21
326.71432692148733
 31
0.0
  0
ARC
  5
29D6
  8
AM_0
 10
728.06422487333373
 20
329.71432692148738
 30
0.0
 40
3.0000000500000001
 50
179.99998999999991
 51
270.0
  0
LINE
  5
29D7
  8
AM_0
 10
750.06422487333373
 20
356.71432692148733
 30
0.0
 11
755.06422487333373
 21
356.71432692148733
 31
0.0
  0
ARC
  5
29D8
  8
AM_0
 10
732.0642748733344
 20
365.15546192148742
 30
0.0
 40
2.0000000500000001
 50
270.0
 51
0.0
  0
ARC
  5
29D9
  8
AM_0
 10
727.0642748733344
 20
361.15543192148738
 30
0.0
 40
2.0000000500000001
 50
90.000003000000007
 51
180.00001
  0
LINE
  5
29DA
  8
AM_0
 10
727.0642748733344
 20
363.1554619214873
 30
0.0
 11
732.0642748733344
 21
363.1554619214873
 31
0.0
  0
LINE
  5
29DB
  8
AM_0
 10
678.44412487333432
 20
382.06982692148728
 30
0.0
 11
725.06422487333373
 21
382.06982692148728
 31
0.0
  0
ARC
  5
29DC
  8
AM_0
 10
587.56422487333361
 20
412.65720192148717
 30
0.0
 40
2.0000000500000001
 50
0.0
 51
90.000003000000007
  0
LINE
  5
29DD
  8
AM_0
 10
589.5642748733344
 20
534.93936692148725
 30
0.0
 11
589.5642748733344
 21
501.76517192148742
 31
0.0
  0
ARC
  5
29DE
  8
AM_0
 10
587.56422487333361
 20
501.76517192148742
 30
0.0
 40
2.0000000500000001
 50
270.0
 51
0.0
  0
ARC
  5
29DF
  8
AM_0
 10
587.56422487333361
 20
534.93936692148725
 30
0.0
 40
2.0000000500000001
 50
0.0
 51
90.000003000000007
  0
ARC
  5
29E0
  8
AM_0
 10
732.0642748733344
 20
403.12042692148719
 30
0.0
 40
2.0000000500000001
 50
270.0
 51
0.0
  0
LINE
  5
29E1
  8
AM_0
 10
727.0642748733344
 20
401.12042692148719
 30
0.0
 11
732.0642748733344
 21
401.12042692148719
 31
0.0
  0
ARC
  5
29E2
  8
AM_0
 10
732.0642748733344
 20
450.47754192148727
 30
0.0
 40
2.0000000500000001
 50
0.0
 51
90.000003000000007
  0
ARC
  5
29E3
  8
AM_0
 10
726.77817487333425
 20
454.47751192148729
 30
0.0
 40
2.0000000500000001
 50
188.809
 51
270.0
  0
ARC
  5
29E4
  8
AM_0
 10
726.06427487333394
 20
453.77731692148723
 30
0.0
 40
1.0
 50
179.99998999999991
 51
224.4439999999999
  0
LINE
  5
29E5
  8
AM_0
 10
726.77817487333425
 20
452.47751192148712
 30
0.0
 11
732.0642748733344
 21
452.47751192148712
 31
0.0
  0
LINE
  5
29E6
  8
AM_0
 10
760.06422487333373
 20
544.2143319214872
 30
0.0
 11
760.06422487333373
 21
479.2143319214872
 31
0.0
  0
LINE
  5
29E7
  8
AM_0
 10
755.06422487333373
 20
479.2143319214872
 30
0.0
 11
760.06422487333373
 21
479.2143319214872
 31
0.0
  0
LINE
  5
29E8
  8
AM_0
 10
755.06422487333373
 20
544.2143319214872
 30
0.0
 11
760.06422487333373
 21
544.2143319214872
 31
0.0
  0
LINE
  5
29E9
  8
AM_0
 10
784.06422487333373
 20
545.71436192148735
 30
0.0
 11
784.06422487333373
 21
541.71433192148731
 31
0.0
  0
LINE
  5
29EA
  8
AM_0
 10
561.56422487333361
 20
616.83500192148745
 30
0.0
 11
587.56422487333361
 21
616.83500192148745
 31
0.0
  0
LINE
  5
29EB
  8
AM_0
 10
561.38987487333395
 20
641.96220192148735
 30
0.0
 11
611.5642748733344
 21
643.71435192148715
 31
0.0
  0
LINE
  5
29EC
  8
AM_0
 10
558.56427487333394
 20
643.71435192148715
 30
0.0
 11
611.56422487333361
 21
643.71435192148715
 31
0.0
  0
ARC
  5
29ED
  8
AM_0
 10
571.56422487333361
 20
669.71435192148738
 30
0.0
 40
25.000000499999999
 50
306.46672000000001
 51
233.53328999999999
  0
LINE
  5
29EE
  8
AM_0
 10
561.56422487333361
 20
633.46190192148731
 30
0.0
 11
587.56422487333361
 21
633.46190192148731
 31
0.0
  0
LINE
  5
29EF
  8
AM_0
 10
449.12642487333392
 20
570.55408192148718
 30
0.0
 11
456.06427487333372
 21
570.55408192148718
 31
0.0
  0
LINE
  5
29F0
  8
AM_0
 10
450.06422487333373
 20
563.44156692148715
 30
0.0
 11
490.06422487333361
 21
563.44156692148715
 31
0.0
  0
ARC
  5
29F1
  8
AM_0
 10
450.06422487333373
 20
561.44153692148734
 30
0.0
 40
2.0000000500000001
 50
90.000003000000007
 51
180.00001
  0
ARC
  5
29F2
  8
AM_0
 10
449.12642487333392
 20
567.55405192148714
 30
0.0
 40
3.0000000500000001
 50
90.000003000000007
 51
150.0
  0
ARC
  5
29F3
  8
AM_0
 10
558.56427487333394
 20
641.71435192148738
 30
0.0
 40
2.0000000500000001
 50
90.000003000000007
 51
180.00001
  0
ARC
  5
29F4
  8
AM_0
 10
561.56422487333361
 20
636.96525192148738
 30
0.0
 40
5.0
 50
91.999997999999948
 51
180.00001
  0
LINE
  5
29F5
  8
AM_0
 10
492.06427487333428
 20
575.71436192148747
 30
0.0
 11
531.56422487333361
 21
575.71436192148747
 31
0.0
  0
LINE
  5
29F6
  8
AM_0
 10
477.06427487333428
 20
583.71433192148731
 30
0.0
 11
488.06422487333361
 21
583.71433192148731
 31
0.0
  0
LINE
  5
29F7
  8
AM_0
 10
459.06422487333361
 20
580.71436192148735
 30
0.0
 11
459.06422487333361
 21
563.44156692148715
 31
0.0
  0
ARC
  5
29F8
  8
AM_0
 10
456.06427487333372
 20
573.5540819214873
 30
0.0
 40
3.0000000500000001
 50
270.0
 51
0.0
  0
LINE
  5
29F9
  8
AM_0
 10
462.06427487333428
 20
583.71433192148731
 30
0.0
 11
477.06427487333428
 21
583.71433192148731
 31
0.0
  0
ARC
  5
29FA
  8
AM_0
 10
462.06427487333428
 20
580.71436192148735
 30
0.0
 40
3.0000000500000001
 50
90.000003000000007
 51
180.00001
  0
ARC
  5
29FB
  8
AM_0
 10
492.06427487333428
 20
577.7143319214872
 30
0.0
 40
2.0000000500000001
 50
179.99998999999991
 51
270.0
  0
ARC
  5
29FC
  8
AM_0
 10
488.06422487333361
 20
581.7143319214872
 30
0.0
 40
2.0000000500000001
 50
0.0
 51
90.000003000000007
  0
ARC
  5
29FD
  8
AM_0
 10
546.56422487333361
 20
591.90810192148751
 30
0.0
 40
10.0
 50
128.65980999999991
 51
180.00001
  0
ARC
  5
29FE
  8
AM_0
 10
531.56422487333361
 20
580.71436192148735
 30
0.0
 40
5.0
 50
270.0
 51
0.0
  0
ARC
  5
29FF
  8
AM_0
 10
546.56422487333361
 20
617.52055192148725
 30
0.0
 40
10.0
 50
308.65980999999982
 51
0.0
  0
LINE
  5
2A00
  8
AM_0
 10
552.8112248733338
 20
609.71190192148731
 30
0.0
 11
540.31727487333376
 21
599.71675192148734
 31
0.0
  0
ARC
  5
2A01
  8
AM_0
 10
561.56422487333361
 20
611.83500192148745
 30
0.0
 40
5.0
 50
90.000003000000007
 51
180.00001
  0
ARC
  5
2A02
  8
AM_0
 10
561.56422487333361
 20
638.46190192148731
 30
0.0
 40
5.0
 50
179.99998999999991
 51
270.0
  0
CIRCLE
  5
2A03
  8
AM_0
 10
571.56422487333361
 20
669.71435192148738
 30
0.0
 40
15.0
  0
LINE
  5
2A04
  8
AM_0
 10
561.77022487333397
 20
652.71435192148738
 30
0.0
 11
581.35832487333391
 21
652.71435192148738
 31
0.0
  0
LINE
  5
2A05
  8
AM_0
 10
562.08622487333355
 20
652.83530192148737
 30
0.0
 11
571.56422487333361
 21
654.71425192148718
 31
0.0
  0
LINE
  5
2A06
  8
AM_0
 10
559.06437487333415
 20
643.7142519214874
 30
0.0
 11
561.31482487333415
 21
652.11320192148719
 31
0.0
  0
ARC
  5
2A07
  8
AM_0
 10
562.28067487333385
 20
651.85445192148745
 30
0.0
 40
1.0
 50
101.21329
 51
164.99999
  0
ARC
  5
2A08
  8
AM_0
 10
553.139224873334
 20
644.78405192148728
 30
0.0
 40
6.0
 50
349.72994999999997
 51
53.533291000000013
  0
LINE
  5
2A09
  8
AM_0
 10
584.06427487333428
 20
643.71435192148715
 30
0.0
 11
581.81382487333394
 21
652.11325192148752
 31
0.0
  0
ARC
  5
2A0A
  8
AM_0
 10
589.98927487333413
 20
644.78405192148728
 30
0.0
 40
6.0
 50
126.4666999999999
 51
190.27006
  0
LINE
  5
2A0B
  8
AM_0
 10
571.56427487333428
 20
654.71435192148726
 30
0.0
 11
581.04232487333411
 21
652.83535192148724
 31
0.0
  0
ARC
  5
2A0C
  8
AM_0
 10
580.84787487333415
 20
651.85445192148745
 30
0.0
 40
1.0
 50
15.0
 51
78.786709999999999
  0
LINE
  5
2A0D
  8
AM_0
 10
725.06427487333394
 20
621.62105192148726
 30
0.0
 11
702.88642487333425
 21
605.14345192148733
 31
0.0
  0
LINE
  5
2A0E
  8
AM_0
 10
722.69642487333374
 20
640.46140192148732
 30
0.0
 11
667.75937487333431
 21
606.44490192148726
 31
0.0
  0
LINE
  5
2A0F
  8
AM_0
 10
722.69642487333374
 20
652.42690192148734
 30
0.0
 11
666.4320248733336
 21
617.58855192148735
 31
0.0
  0
LINE
  5
2A10
  8
AM_0
 10
697.05002487333422
 20
648.70005192148756
 30
0.0
 11
723.599824873334
 21
675.24985192148722
 31
0.0
  0
LINE
  5
2A11
  8
AM_0
 10
694.97712487333422
 20
646.62710192148734
 30
0.0
 11
696.58402487333353
 21
636.25835192148725
 31
0.0
  0
LINE
  5
2A12
  8
AM_0
 10
589.5642748733344
 20
631.46190192148731
 30
0.0
 11
589.5642748733344
 21
618.83500192148745
 31
0.0
  0
ARC
  5
2A13
  8
AM_0
 10
587.56422487333361
 20
618.83500192148745
 30
0.0
 40
2.0000000500000001
 50
270.0
 51
0.0
  0
ARC
  5
2A14
  8
AM_0
 10
587.56422487333361
 20
631.46190192148731
 30
0.0
 40
2.0000000500000001
 50
0.0
 51
90.000003000000007
  0
LINE
  5
2A15
  8
AM_0
 10
669.06422487333361
 20
604.15695192148735
 30
0.0
 11
699.90457487333424
 21
604.15695192148735
 31
0.0
  0
LINE
  5
2A16
  8
AM_0
 10
664.0642248733335
 20
613.3375019214875
 30
0.0
 11
664.0642248733335
 21
609.15695192148735
 31
0.0
  0
ARC
  5
2A17
  8
AM_0
 10
669.06422487333361
 20
609.15695192148735
 30
0.0
 40
5.0
 50
179.99998999999991
 51
270.0
  0
ARC
  5
2A18
  8
AM_0
 10
669.06422487333361
 20
613.3375019214875
 30
0.0
 40
5.0
 50
121.76536
 51
180.00001
  0
ARC
  5
2A19
  8
AM_0
 10
699.90457487333424
 20
609.15695192148735
 30
0.0
 40
5.0
 50
270.0
 51
306.61149999999992
  0
LINE
  5
2A1A
  8
AM_0
 10
611.5642748733344
 20
643.71435192148715
 30
0.0
 11
690.24067487333423
 21
645.7745019214874
 31
0.0
  0
ARC
  5
2A1B
  8
AM_0
 10
689.97892487333422
 20
655.77110192148734
 30
0.0
 40
10.0
 50
271.49999999999972
 51
315.0
  0
ARC
  5
2A1C
  8
AM_0
 10
732.0642748733344
 20
595.98570192148725
 30
0.0
 40
2.0000000500000001
 50
0.0
 51
90.000003000000007
  0
LINE
  5
2A1D
  8
AM_0
 10
725.06422487333373
 20
597.98570192148736
 30
0.0
 11
732.0642748733344
 21
597.98570192148736
 31
0.0
  0
LINE
  5
2A1E
  8
AM_0
 10
750.06422487333373
 20
666.71435192148738
 30
0.0
 11
755.06422487333373
 21
666.71435192148738
 31
0.0
  0
ARC
  5
2A1F
  8
AM_0
 10
732.0642748733344
 20
658.27325192148714
 30
0.0
 40
2.0000000500000001
 50
0.0
 51
90.000003000000007
  0
ARC
  5
2A20
  8
AM_0
 10
727.0642748733344
 20
662.27325192148714
 30
0.0
 40
2.0000000500000001
 50
179.99998999999991
 51
270.0
  0
ARC
  5
2A21
  8
AM_0
 10
720.06422487333361
 20
656.67795192148731
 30
0.0
 40
5.0
 50
301.76537000000002
 51
0.0
  0
LINE
  5
2A22
  8
AM_0
 10
727.0642748733344
 20
660.27325192148737
 30
0.0
 11
732.0642748733344
 21
660.27325192148737
 31
0.0
  0
ARC
  5
2A23
  8
AM_0
 10
720.06422487333361
 20
678.78540192148739
 30
0.0
 40
5.0
 50
315.0
 51
0.0
  0
LINE
  5
2A24
  8
AM_0
 10
728.06422487333373
 20
696.71440192148748
 30
0.0
 11
750.06422487333373
 21
696.71440192148748
 31
0.0
  0
ARC
  5
2A25
  8
AM_0
 10
728.06422487333373
 20
693.71435192148715
 30
0.0
 40
3.0000000500000001
 50
90.000003000000007
 51
180.00001
  0
ARC
  5
2A26
  8
AM_0
 10
1181.6500429479461
 20
519.21555192148753
 30
0.0
 40
112.0
 50
133.0483099999999
 51
169.99998999999991
  0
ARC
  5
2A27
  8
AM_0
 10
1227.2401029479461
 20
519.21555192148753
 30
0.0
 40
112.0
 50
9.9999996999999983
 51
46.95168300000001
  0
LINE
  5
2A28
  8
ﾁｭｳｼﾝｾﾝ
 10
1204.4450879479459
 20
704.88460192148716
 30
0.0
 11
1204.4450879479459
 21
282.80560692148742
 31
0.0
  0
LINE
  5
2A29
  8
AM_0
 10
1389.445067947946
 20
671.71435192148715
 30
0.0
 11
1389.445067947946
 21
351.71432692148733
 31
0.0
  0
LINE
  5
2A2A
  8
AM_0
 10
1019.445087947945
 20
351.71432692148733
 30
0.0
 11
1019.445087947945
 21
671.71435192148715
 31
0.0
  0
ARC
  5
2A2B
  8
AM_0
 10
1204.4450879479459
 20
511.7143319214872
 30
0.0
 40
155.0
 50
90.000003000000007
 51
270.0
  0
ARC
  5
2A2C
  8
AM_0
 10
1204.4450879479459
 20
511.7143319214872
 30
0.0
 40
65.0
 50
270.0
 51
90.000003000000007
  0
ARC
  5
2A2D
  8
AM_0
 10
1204.4450879479459
 20
511.7143319214872
 30
0.0
 40
155.0
 50
270.0
 51
90.000003000000007
  0
ARC
  5
2A2E
  8
AM_0
 10
1204.4450879479459
 20
511.7143319214872
 30
0.0
 40
65.0
 50
90.000003000000007
 51
270.0
  0
ARC
  5
2A2F
  8
AM_0
 10
1204.4450879479459
 20
511.7143319214872
 30
0.0
 40
146.0
 50
90.000003000000007
 51
270.0
  0
ARC
  5
2A30
  8
AM_0
 10
1204.4450879479459
 20
511.7143319214872
 30
0.0
 40
146.0
 50
270.0
 51
90.000003000000007
  0
ARC
  5
2A31
  8
AM_0
 10
1204.4450879479459
 20
511.7143319214872
 30
0.0
 40
82.0
 50
0.0
 51
35.405931999999993
  0
ARC
  5
2A32
  8
AM_0
 10
1204.4450879479459
 20
511.7143319214872
 30
0.0
 40
82.0
 50
144.5940699999999
 51
180.00001
  0
LINE
  5
2A33
  8
ﾁｭｳｼﾝｾﾝ
 10
1006.708972947946
 20
511.7143319214872
 30
0.0
 11
1403.8770929479449
 21
511.7143319214872
 31
0.0
  0
LINE
  5
2A34
  8
AM_0
 10
1364.4450779479459
 20
326.71432692148733
 30
0.0
 11
1044.4450879479459
 21
326.71432692148733
 31
0.0
  0
LINE
  5
2A35
  8
AM_0
 10
1344.644932947946
 20
491.7143319214872
 30
0.0
 11
1296.445057947946
 21
491.7143319214872
 31
0.0
  0
LINE
  5
2A36
  8
AM_0
 10
1064.245227947946
 20
491.7143319214872
 30
0.0
 11
1112.4450579479451
 21
491.7143319214872
 31
0.0
  0
LINE
  5
2A37
  8
AM_0
 10
1063.096637947946
 20
491.84805692148728
 30
0.0
 11
1071.3515829479461
 21
538.66416192148745
 31
0.0
  0
ARC
  5
2A38
  8
AM_0
 10
1044.4450879479459
 20
351.71432692148733
 30
0.0
 40
25.000000499999999
 50
179.99998999999991
 51
270.0
  0
LINE
  5
2A39
  8
ﾁｭｳｼﾝｾﾝ1
 10
1030.1432379479461
 20
337.41254192148722
 30
0.0
 11
1060.548817947946
 21
367.81811692148727
 31
0.0
  0
ARC
  5
2A3A
  8
ﾁｭｳｼﾝｾﾝ1
 10
1204.4450879479459
 20
511.7143319214872
 30
0.0
 40
225.00000499999999
 50
219.5229799999999
 51
230.47702000000001
  0
CIRCLE
  5
2A3B
  8
AM_0
 10
1045.3460279479459
 20
352.6152969214873
 30
0.0
 40
12.0
  0
LINE
  5
2A3C
  8
AM_0
 10
865.06427487333394
 20
545.71436192148735
 30
0.0
 11
865.06427487333394
 21
481.7143319214872
 31
0.0
  0
ARC
  5
2A3D
  8
AM_0
 10
1064.245227947946
 20
496.71433192148743
 30
0.0
 40
5.0
 50
186.10685000000001
 51
270.0
  0
LINE
  5
2A3E
  8
AM_0
 10
1141.9450879479459
 20
287.62134192148733
 30
0.0
 11
1266.945072947947
 21
287.62134192148733
 31
0.0
  0
LINE
  5
2A3F
  8
AM_0
 10
1133.7137029479461
 20
290.2750419214874
 30
0.0
 11
1098.088977947946
 21
315.90956192148741
 31
0.0
  0
ARC
  5
2A40
  8
AM_0
 10
1141.9450879479459
 20
301.71432692148733
 30
0.0
 40
14.092999499999999
 50
234.26228
 51
270.0
  0
ARC
  5
2A41
  8
AM_0
 10
1204.4450879479459
 20
463.71433192148743
 30
0.0
 40
182.0929899999999
 50
228.79546999999999
 51
234.26228
  0
LINE
  5
2A42
  8
AM_0
 10
1275.1764579479459
 20
290.27505692148748
 30
0.0
 11
1310.8011679479459
 21
315.90959192148722
 31
0.0
  0
ARC
  5
2A43
  8
AM_0
 10
1266.945072947947
 20
301.71432692148733
 30
0.0
 40
14.092999499999999
 50
270.0
 51
305.73772000000002
  0
ARC
  5
2A44
  8
AM_0
 10
1204.4450879479459
 20
463.71433192148743
 30
0.0
 40
182.0929899999999
 50
305.73772000000002
 51
311.20452999999992
  0
LINE
  5
2A45
  8
AM_0
 10
1195.445057947946
 20
534.71433192148731
 30
0.0
 11
1213.445087947945
 21
534.71433192148731
 31
0.0
  0
LINE
  5
2A46
  8
AM_0
 10
1195.445057947946
 20
545.71436192148735
 30
0.0
 11
1213.445087947945
 21
545.71436192148735
 31
0.0
  0
CIRCLE
  5
2A47
  8
AM_5
 10
1204.4450879479459
 20
511.7143319214872
 30
0.0
 40
6.0
  0
CIRCLE
  5
2A48
  8
AM_0
 10
1204.4450879479459
 20
511.7143319214872
 30
0.0
 40
4.500000049999997
  0
ARC
  5
2A49
  8
AM_0
 10
1204.4450879479459
 20
511.7143319214872
 30
0.0
 40
30.000000499999999
 50
107.4575999999999
 51
72.542383999999998
  0
LINE
  5
2A4A
  8
AM_0
 10
1122.445057947946
 20
511.7143319214872
 30
0.0
 11
1122.445057947946
 21
501.71433192148731
 31
0.0
  0
ARC
  5
2A4B
  8
AM_0
 10
1112.4450579479451
 20
501.71433192148731
 30
0.0
 40
10.0
 50
270.0
 51
0.0
  0
LINE
  5
2A4C
  8
AM_0
 10
1195.445057947946
 20
545.71436192148735
 30
0.0
 11
1195.445057947946
 21
534.71433192148731
 31
0.0
  0
LINE
  5
2A4D
  8
AM_0
 10
1213.445087947945
 20
545.71436192148735
 30
0.0
 11
1213.445087947945
 21
534.71433192148731
 31
0.0
  0
LINE
  5
2A4E
  8
AM_0
 10
1286.445057947946
 20
511.7143319214872
 30
0.0
 11
1286.445057947946
 21
501.71433192148731
 31
0.0
  0
ARC
  5
2A4F
  8
AM_0
 10
1296.445057947946
 20
501.71433192148731
 30
0.0
 40
10.0
 50
179.99998999999991
 51
270.0
  0
ARC
  5
2A50
  8
AM_0
 10
1364.4450779479459
 20
351.71432692148733
 30
0.0
 40
25.000000499999999
 50
270.0
 51
0.0
  0
CIRCLE
  5
2A51
  8
AM_0
 10
1363.5441029479459
 20
352.6152969214873
 30
0.0
 40
12.0
  0
LINE
  5
2A52
  8
AM_0
 10
1345.793507947946
 20
491.84802692148742
 30
0.0
 11
1337.538567947945
 21
538.6641319214873
 31
0.0
  0
ARC
  5
2A53
  8
AM_0
 10
1344.644932947946
 20
496.71433192148743
 30
0.0
 40
5.0
 50
270.0
 51
353.89314999999982
  0
LINE
  5
2A54
  8
AM_0
 10
1044.4450879479459
 20
696.71440192148748
 30
0.0
 11
1364.4450779479459
 21
696.71440192148748
 31
0.0
  0
ARC
  5
2A55
  8
AM_0
 10
1044.4450879479459
 20
671.71435192148715
 30
0.0
 40
25.000000499999999
 50
90.000003000000007
 51
180.00001
  0
CIRCLE
  5
2A56
  8
AM_0
 10
1045.3460279479459
 20
670.8134019214873
 30
0.0
 40
12.0
  0
ARC
  5
2A57
  8
AM_0
 10
1204.4450879479459
 20
463.71433192148743
 30
0.0
 40
172.0000049999999
 50
58.770288000000001
 51
121.22971
  0
ARC
  5
2A58
  8
AM_0
 10
1204.4450879479459
 20
511.7143319214872
 30
0.0
 40
82.0
 50
54.594067000000003
 51
125.4059299999999
  0
LINE
  5
2A59
  8
AM_0
 10
1136.745837947946
 20
569.51407692148734
 30
0.0
 11
1102.4928179479459
 21
603.76715192148754
 31
0.0
  0
LINE
  5
2A5A
  8
AM_0
 10
1146.6453129479451
 20
579.41358192148732
 30
0.0
 11
1112.3922929479461
 21
613.66660192148731
 31
0.0
  0
ARC
  5
2A5B
  8
AM_0
 10
1096.8358929479459
 20
598.11035192148745
 30
0.0
 40
8.0
 50
45.00000099999999
 51
141.24012999999991
  0
ARC
  5
2A5C
  8
AM_0
 10
1118.0490929479461
 20
619.32350192148715
 30
0.0
 40
8.0
 50
128.75986999999969
 51
225.0
  0
ARC
  5
2A5D
  8
AM_0
 10
1152.302172947946
 20
585.07044192148715
 30
0.0
 40
8.0
 50
225.0
 51
305.4059299999999
  0
ARC
  5
2A5E
  8
AM_0
 10
1131.088977947946
 20
563.85724692148733
 30
0.0
 40
8.0
 50
324.5940700000001
 51
45.00000099999999
  0
LINE
  5
2A5F
  8
AM_0
 10
1262.2448179479461
 20
579.41358192148732
 30
0.0
 11
1296.497882947946
 21
613.66665192148753
 31
0.0
  0
ARC
  5
2A60
  8
AM_0
 10
1256.5879579479461
 20
585.07044192148715
 30
0.0
 40
8.0
 50
234.5940699999999
 51
315.0
  0
LINE
  5
2A61
  8
AM_0
 10
1272.144292947946
 20
569.51410692148738
 30
0.0
 11
1306.397357947945
 21
603.76720192148719
 31
0.0
  0
ARC
  5
2A62
  8
AM_0
 10
1277.8011679479459
 20
563.85724692148733
 30
0.0
 40
8.0
 50
135.0
 51
215.40593000000001
  0
ARC
  5
2A63
  8
AM_0
 10
1290.841037947946
 20
619.32350192148715
 30
0.0
 40
8.0
 50
315.0
 51
51.240130000000001
  0
ARC
  5
2A64
  8
AM_0
 10
1312.0542529479451
 20
598.11035192148745
 30
0.0
 40
8.0
 50
38.759869000000002
 51
135.0
  0
LINE
  5
2A65
  8
ﾁｭｳｼﾝｾﾝ1
 10
1378.7468629479461
 20
686.01615192148734
 30
0.0
 11
1347.0911298534591
 21
654.36047584552523
 31
0.0
  0
ARC
  5
2A66
  8
ﾁｭｳｼﾝｾﾝ1
 10
1204.4450879479459
 20
511.7143319214872
 30
0.0
 40
225.00000499999999
 50
38.696153000000002
 51
50.477013999999997
  0
ARC
  5
2A67
  8
AM_0
 10
1364.4450779479459
 20
671.71435192148715
 30
0.0
 40
25.000000499999999
 50
0.0
 51
90.000003000000007
  0
CIRCLE
  5
2A68
  8
AM_0
 10
1363.5441029479459
 20
670.8134019214873
 30
0.0
 40
12.0
  0
LINE
  5
2A69
  8
AM_0
 10
381.5643148733339
 20
912.00332682536953
 30
0.0
 11
381.5643148733339
 21
1092.496689527276
 31
0.0
  0
ARC
  5
2A6A
  8
AM_0
 10
383.5643148733339
 20
912.00332682536953
 30
0.0
 40
2.0
 50
180.0
 51
270.0
1001
GENIUS_GENOBJ-N-FIL_13
1002
{
1000
OWNER
1000
GEN
1002
}
1001
GENIUS_GENODEF_13
1002
{
1000
HIER
1070
     0
1002
}
1002
{
1000
MANEDIT
1070
     0
1002
}
1002
{
1000
NOSEL
1070
     0
1002
}
1002
{
1000
BEHIND
1070
     0
1002
}
1002
{
1000
OTHER
1070
     0
1002
}
1002
{
1000
REACTOR
1002
}
  0
LINE
  5
2A6B
  8
AM_0
 10
383.5643148733339
 20
910.00332682536941
 30
0.0
 11
393.5643148733339
 21
910.00332682536941
 31
0.0
  0
LINE
  5
2A6C
  8
AM_0
 10
395.5643148733339
 20
916.25000817632281
 30
0.0
 11
383.5643148733339
 21
916.25000817632281
 31
0.0
  0
ARC
  5
2A6D
  8
AM_0
 10
383.5643148733339
 20
918.25000817632304
 30
0.0
 40
2.0
 50
180.0
 51
270.0
  0
ARC
  5
2A6E
  8
AM_0
 10
376.5643148733339
 20
921.86325717632303
 30
0.0
 40
5.0
 50
0.0
 51
59.999999999999439
  0
LINE
  5
2A6F
  8
AM_0
 10
379.0643148733339
 20
926.19338417632298
 30
0.0
 11
322.845681873334
 21
958.65122717632289
 31
0.0
  0
LINE
  5
2A70
  8
AM_0
 10
379.0643148733339
 20
1078.3066321763231
 30
0.0
 11
322.845681873334
 21
1045.848789176323
 31
0.0
  0
ARC
  5
2A71
  8
AM_0
 10
267.0643148733339
 20
1002.250008176322
 30
0.0
 40
4.0
 50
270.0
 51
90.0
  0
LINE
  5
2A72
  8
AM_0
 10
275.06431487333401
 20
1014.750008176322
 30
0.0
 11
275.06431487333401
 21
989.75000817632292
 31
0.0
  0
LINE
  5
2A73
  8
AM_0
 10
280.06431487333401
 20
966.40470917632285
 30
0.0
 11
280.06431487333401
 21
1038.0953071763211
 31
0.0
  0
LINE
  5
2A74
  8
AM_0
 10
278.06431487333401
 20
977.25000817632292
 30
0.0
 11
278.06431487333401
 21
1027.2500081763219
 31
0.0
  0
LINE
  5
2A75
  8
AM_0
 10
267.0643148733339
 20
998.25000817632292
 30
0.0
 11
267.0643148733339
 21
1006.250008176323
 31
0.0
  0
LINE
  5
2A76
  8
AM_0
 10
239.06431487333401
 20
1014.250008176323
 30
0.0
 11
239.06431487333401
 21
990.25000817632281
 31
0.0
  0
LINE
  5
2A77
  8
AM_0
 10
321.05392687333398
 20
1042.2500081763219
 30
0.0
 11
321.05392687333398
 21
962.25000817632292
 31
0.0
  0
LINE
  5
2A78
  8
AM_0
 10
288.72456887333391
 20
1041.2500081763219
 30
0.0
 11
288.72456887333391
 21
963.25000817632292
 31
0.0
  0
LINE
  5
2A79
  8
AM_0
 10
239.06431487333401
 20
990.25000817632281
 30
0.0
 11
275.06431487333401
 21
990.25000817632281
 31
0.0
  0
LINE
  5
2A7A
  8
AM_0
 10
239.06431487333401
 20
998.25000817632292
 30
0.0
 11
267.0643148733339
 21
998.25000817632292
 31
0.0
  0
LINE
  5
2A7B
  8
AM_0
 10
290.79319487333402
 20
960.2139001763228
 30
0.0
 11
318.98530087333398
 21
959.72180517632285
 31
0.0
  0
LINE
  5
2A7C
  8
AM_0
 10
281.06431487333401
 20
964.67265817632278
 30
0.0
 11
286.932813873334
 21
961.28447817632286
 31
0.0
  0
ARC
  5
2A7D
  8
AM_0
 10
282.06431487333401
 20
966.40470917632285
 30
0.0
 40
2.0
 50
180.0
 51
239.99999999999949
  0
ARC
  5
2A7E
  8
AM_0
 10
290.93281387333383
 20
968.21268217632303
 30
0.0
 40
8.0
 50
239.99999999999949
 51
268.99999999999812
  0
ARC
  5
2A7F
  8
AM_0
 10
318.845681873334
 20
951.72302317632295
 30
0.0
 40
8.0
 50
59.999999999999439
 51
88.999999999998224
  0
LINE
  5
2A80
  8
AM_0
 10
278.06431487333401
 20
977.25000817632292
 30
0.0
 11
280.06431487333401
 21
975.25000817632281
 31
0.0
  0
LINE
  5
2A81
  8
AM_0
 10
275.06431487333401
 20
989.75000817632292
 30
0.0
 11
278.06431487333401
 21
989.75000817632292
 31
0.0
  0
LINE
  5
2A82
  8
AM_0
 10
239.06431487333401
 20
1014.250008176323
 30
0.0
 11
275.06431487333401
 21
1014.250008176323
 31
0.0
  0
LINE
  5
2A83
  8
AM_0
 10
239.06431487333401
 20
1006.250008176323
 30
0.0
 11
267.0643148733339
 21
1006.250008176323
 31
0.0
  0
LINE
  5
2A84
  8
AM_0
 10
281.06431487333401
 20
1039.827358176321
 30
0.0
 11
286.932813873334
 21
1043.215538176323
 31
0.0
  0
LINE
  5
2A85
  8
AM_0
 10
275.06431487333401
 20
1014.750008176322
 30
0.0
 11
278.06431487333401
 21
1014.750008176322
 31
0.0
  0
LINE
  5
2A86
  8
AM_0
 10
278.06431487333401
 20
1027.2500081763219
 30
0.0
 11
280.06431487333401
 21
1029.2500081763219
 31
0.0
  0
ARC
  5
2A87
  8
AM_0
 10
282.06431487333401
 20
1038.0953071763211
 30
0.0
 40
2.0
 50
120.0000000000005
 51
180.0
  0
LINE
  5
2A88
  8
AM_0
 10
290.79319487333402
 20
1044.286116176323
 30
0.0
 11
318.98530087333398
 21
1044.7782111763231
 31
0.0
  0
ARC
  5
2A89
  8
AM_0
 10
290.93281387333383
 20
1036.287334176322
 30
0.0
 40
8.0
 50
91.000000000001776
 51
120.0000000000005
  0
ARC
  5
2A8A
  8
AM_0
 10
318.845681873334
 20
1052.7769931763221
 30
0.0
 40
8.0
 50
271.00000000000171
 51
300.00000000000051
  0
LINE
  5
2A8B
  8
AM_0
 10
381.5643148733339
 20
983.51975845535526
 30
0.0
 11
395.5643148733339
 21
983.51975845535526
 31
0.0
  0
LINE
  5
2A8C
  8
AM_0
 10
381.5643148733339
 20
987.25000817632326
 30
0.0
 11
395.5643148733339
 21
987.25000817632326
 31
0.0
  0
LINE
  5
2A8D
  8
AM_0
 10
381.5643148733339
 20
1020.980257897289
 30
0.0
 11
395.5643148733339
 21
1020.980257897289
 31
0.0
  0
LINE
  5
2A8E
  8
AM_0
 10
381.5643148733339
 20
1017.250008176322
 30
0.0
 11
395.5643148733339
 21
1017.250008176322
 31
0.0
  0
LINE
  5
2A8F
  8
AM_0
 10
395.5643148733339
 20
1020.980257897289
 30
0.0
 11
395.5643148733339
 21
983.51975845535526
 31
0.0
  0
ARC
  5
2A90
  8
AM_0
 10
376.5643148733339
 20
1082.6367591763219
 30
0.0
 40
5.0
 50
300.00000000000051
 51
0.0
  0
ARC
  5
2A91
  8
AM_0
 10
383.5643148733339
 20
1092.496689527276
 30
0.0
 40
2.0
 50
90.0
 51
180.0
1001
GENIUS_GENOBJ-N-FIL_13
1002
{
1000
OWNER
1000
GEN
1002
}
1001
GENIUS_GENODEF_13
1002
{
1000
HIER
1070
     0
1002
}
1002
{
1000
MANEDIT
1070
     0
1002
}
1002
{
1000
NOSEL
1070
     0
1002
}
1002
{
1000
BEHIND
1070
     0
1002
}
1002
{
1000
OTHER
1070
     0
1002
}
1002
{
1000
REACTOR
1002
}
  0
LINE
  5
2A92
  8
AM_0
 10
395.5643148733339
 20
1088.2500081763219
 30
0.0
 11
383.5643148733339
 21
1088.2500081763219
 31
0.0
  0
LINE
  5
2A93
  8
AM_0
 10
383.5643148733339
 20
1094.496689527276
 30
0.0
 11
393.5643148733339
 21
1094.496689527276
 31
0.0
  0
ARC
  5
2A94
  8
AM_0
 10
383.5643148733339
 20
1086.2500081763219
 30
0.0
 40
2.0
 50
90.0
 51
180.0
  0
LINE
  5
2A95
  8
AM_0
 10
395.5643148733339
 20
1088.2500081763219
 30
0.0
 11
396.5643148733339
 21
1087.2500081763219
 31
0.0
  0
LINE
  5
2A96
  8
AM_0
 10
395.5643148733339
 20
1088.250008176323
 30
0.0
 11
395.5643148733339
 21
1092.496689527276
 31
0.0
  0
ARC
  5
2A97
  8
AM_0
 10
393.5643148733339
 20
1092.496689527276
 30
0.0
 40
2.0
 50
0.0
 51
90.0
1001
GENIUS_GENODEF_13
1002
{
1000
HIER
1070
     0
1002
}
1002
{
1000
MANEDIT
1070
     0
1002
}
1002
{
1000
NOSEL
1070
     0
1002
}
1002
{
1000
BEHIND
1070
     0
1002
}
1002
{
1000
OTHER
1070
     0
1002
}
1002
{
1000
REACTOR
1002
}
1001
GENIUS_GENOBJ-N-FIL_13
1002
{
1000
OWNER
1000
GEN
1002
}
  0
ARC
  5
2A98
  8
AM_0
 10
393.5643148733339
 20
912.00332682536953
 30
0.0
 40
2.0
 50
270.0
 51
0.0
1001
GENIUS_GENODEF_13
1002
{
1000
HIER
1070
     0
1002
}
1002
{
1000
MANEDIT
1070
     0
1002
}
1002
{
1000
NOSEL
1070
     0
1002
}
1002
{
1000
BEHIND
1070
     0
1002
}
1002
{
1000
OTHER
1070
     0
1002
}
1002
{
1000
REACTOR
1002
}
1001
GENIUS_GENOBJ-N-FIL_13
1002
{
1000
OWNER
1000
GEN
1002
}
  0
LINE
  5
2A99
  8
AM_0
 10
395.5643148733339
 20
916.25000817632281
 30
0.0
 11
395.5643148733339
 21
912.00332682536953
 31
0.0
  0
LINE
  5
2A9A
  8
AM_0
 10
395.5643148733339
 20
916.25000817632281
 30
0.0
 11
396.5643148733339
 21
917.25000817632304
 31
0.0
  0
ARC
  5
2A9C
  8
ﾁｭｳｼﾝｾﾝ1
 10
1204.4450879479459
 20
511.7143319214872
 30
0.0
 40
225.00000499999999
 50
129.522986
 51
141.30384699999991
  0
LINE
  5
2A9D
  8
ﾁｭｳｼﾝｾﾝ1
 10
1030.143312947946
 20
686.01615192148734
 30
0.0
 11
1061.799046042433
 21
654.36047584552523
 31
0.0
  0
ARC
  5
2A9E
  8
ﾁｭｳｼﾝｾﾝ1
 10
1204.4450879479459
 20
511.7143319214872
 30
0.0
 40
225.00000499999999
 50
309.52297999999979
 51
320.47701999999998
  0
LINE
  5
2A9F
  8
ﾁｭｳｼﾝｾﾝ1
 10
1378.7469379479451
 20
337.41254192148722
 30
0.0
 11
1348.3413579479461
 21
367.81811692148727
 31
0.0
  0
LINE
  5
2AA0
  8
ﾁｭｳｼﾝｾﾝ
 10
1118.927024381205
 20
403.2143619214873
 30
0.0
 11
1289.9631515146871
 21
403.2143619214873
 31
0.0
  0
LINE
  5
2AA1
  8
AM_0
 10
784.06427487333394
 20
993.25000817632304
 30
0.0
 11
865.06427487333394
 21
993.25000817632304
 31
0.0
  0
LINE
  5
2AA2
  8
AM_0
 10
784.06427487333394
 20
1011.250008176322
 30
0.0
 11
865.06427487333394
 21
1011.250008176322
 31
0.0
  0
LINE
  5
2AA3
  8
AM_0
 10
760.06427487333394
 20
1032.2500081763219
 30
0.0
 11
865.06427487333394
 21
1032.2500081763219
 31
0.0
  0
LINE
  5
2AA4
  8
AM_0
 10
760.06427487333394
 20
972.25000817632269
 30
0.0
 11
865.06427487333394
 21
972.25000817632269
 31
0.0
  0
LINE
  5
2AA5
  8
ﾁｭｳｼﾝｾﾝ
 10
224.2556364095513
 20
1002.250008176323
 30
0.0
 11
875.34045487333424
 21
1002.250008176322
 31
0.0
  0
POLYLINE
  5
2AA6
  8
AM_0
 66
     1
 10
0.0
 20
0.0
 30
0.0
  0
VERTEX
  5
2AA7
  8
AM_0
 10
704.44777487333386
 20
1096.8391681763219
 30
0.0
 42
0.034282229
  0
VERTEX
  5
2AA8
  8
AM_0
 10
695.40347487333418
 20
1033.9929181763221
 30
0.0
 42
0.072426646
  0
VERTEX
  5
2AA9
  8
AM_0
 10
704.44777487333386
 20
907.66082817632287
 30
0.0
  0
SEQEND
  5
2AAA
  8
AM_0
  0
LINE
  5
2AAB
  8
AM_0
 10
755.06427487333394
 20
847.25000817632269
 30
0.0
 11
755.06427487333394
 21
1157.249968176322
 31
0.0
  0
LINE
  5
2AAC
  8
AM_0
 10
725.06427487333394
 20
1184.249968176322
 30
0.0
 11
725.06427487333394
 21
820.25000817632269
 31
0.0
  0
LINE
  5
2AAD
  8
AM_0
 10
734.06427487333394
 20
1148.8088681763211
 30
0.0
 11
734.06427487333394
 21
855.68005817632252
 31
0.0
  0
LINE
  5
2AAE
  8
AM_0
 10
750.06427487333394
 20
1187.2499681763211
 30
0.0
 11
750.06427487333394
 21
817.25000817632281
 31
0.0
  0
LINE
  5
2AAF
  8
AM_0
 10
760.06427487333394
 20
1034.7500081763219
 30
0.0
 11
760.06427487333394
 21
969.75000817632281
 31
0.0
  0
LINE
  5
2AB0
  8
AM_0
 10
396.5643148733339
 20
917.25000817632304
 30
0.0
 11
396.5643148733339
 21
1087.2500081763219
 31
0.0
  0
LINE
  5
2AB1
  8
AM_0
 10
430.06431487333413
 20
1096.193868176322
 30
0.0
 11
430.06431487333413
 21
908.30615817632304
 31
0.0
  0
LINE
  5
2AB2
  8
AM_0
 10
459.06431487333413
 20
1120.249968176322
 30
0.0
 11
459.06431487333413
 21
884.25000817632304
 31
0.0
  0
LINE
  5
2AB3
  8
AM_0
 10
536.56421487333375
 20
877.31860817632275
 30
0.0
 11
536.56421487333375
 21
1127.1813681763219
 31
0.0
  0
LINE
  5
2AB4
  8
AM_0
 10
556.56421487333375
 20
850.05206817632279
 30
0.0
 11
556.56421487333375
 21
997.25000817632269
 31
0.0
  0
LINE
  5
2AB5
  8
AM_0
 10
477.06431487333401
 20
1122.249968176322
 30
0.0
 11
477.06431487333401
 21
882.25000817632281
 31
0.0
  0
LINE
  5
2AB6
  8
AM_0
 10
490.06421487333392
 20
1120.249968176322
 30
0.0
 11
490.06421487333392
 21
884.25000817632304
 31
0.0
  0
LINE
  5
2AB7
  8
AM_0
 10
611.56427487333394
 20
1161.1970681763221
 30
0.0
 11
611.56427487333394
 21
843.30298817632286
 31
0.0
  0
LINE
  5
2AB8
  8
AM_0
 10
611.56427487333394
 20
843.30298817632286
 30
0.0
 11
561.38971487333401
 21
845.05511817632271
 31
0.0
  0
LINE
  5
2AB9
  8
AM_0
 10
490.06421487333392
 20
915.57513817632287
 30
0.0
 11
536.56421487333375
 21
915.57513817632287
 31
0.0
  0
LINE
  5
2ABA
  8
AM_0
 10
490.06421487333392
 20
931.31720817632299
 30
0.0
 11
536.56421487333375
 21
931.31720817632299
 31
0.0
  0
LINE
  5
2ABB
  8
AM_0
 10
492.0643148733339
 20
890.25000817632281
 30
0.0
 11
531.56421487333375
 21
890.25000817632281
 31
0.0
  0
LINE
  5
2ABC
  8
AM_0
 10
433.35421487333377
 20
903.60773817632287
 30
0.0
 11
455.77431487333388
 21
895.44745817632281
 31
0.0
  0
LINE
  5
2ABD
  8
AM_0
 10
425.23871487333372
 20
914.8885581763227
 30
0.0
 11
398.56441487333399
 21
915.82001817632295
 31
0.0
  0
LINE
  5
2ABE
  8
AM_0
 10
425.23871487333372
 20
917.24866817632301
 30
0.0
 11
396.5643148733339
 21
918.25000817632304
 31
0.0
  0
LINE
  5
2ABF
  8
AM_0
 10
398.56441487333399
 20
918.18017817632278
 30
0.0
 11
398.56441487333399
 21
915.82007817632234
 31
0.0
  0
ARC
  5
2AC0
  8
AM_0
 10
435.06431487333413
 20
908.30615817632304
 30
0.0
 40
5.0
 50
179.9999899999988
 51
250.00000000000239
  0
ARC
  5
2AC1
  8
AM_0
 10
425.06431487333379
 20
912.25171817632281
 30
0.0
 40
5.0
 50
0.0
 51
88.000000000002785
  0
ARC
  5
2AC2
  8
AM_0
 10
425.06431487333379
 20
909.89160817632285
 30
0.0
 40
5.0
 50
0.0
 51
88.000000000002785
  0
LINE
  5
2AC3
  8
AM_0
 10
461.0643148733339
 20
882.25000817632281
 30
0.0
 11
488.0643148733339
 21
882.25000817632281
 31
0.0
  0
ARC
  5
2AC4
  8
AM_0
 10
454.06431487333379
 20
890.74896817632282
 30
0.0
 40
5.0
 50
0.0
 51
70.000000000002416
  0
ARC
  5
2AC5
  8
AM_0
 10
461.0643148733339
 20
884.25000817632304
 30
0.0
 40
2.0
 50
179.9999899999988
 51
270.0
  0
LINE
  5
2AC6
  8
AM_0
 10
477.06431487333401
 20
902.52276817632287
 30
0.0
 11
490.06421487333392
 21
902.52276817632287
 31
0.0
  0
ARC
  5
2AC7
  8
AM_0
 10
492.0643148733339
 20
888.25000817632269
 30
0.0
 40
2.0
 50
90.00000299999769
 51
180.00001000000091
  0
ARC
  5
2AC8
  8
AM_0
 10
488.0643148733339
 20
884.25000817632304
 30
0.0
 40
2.0
 50
270.0
 51
0.0
  0
LINE
  5
2AC9
  8
AM_0
 10
477.06431487333401
 20
918.07910817632296
 30
0.0
 11
490.06421487333392
 21
918.07910817632296
 31
0.0
  0
LINE
  5
2ACA
  8
AM_0
 10
477.06431487333401
 20
926.25329817632291
 30
0.0
 11
490.06421487333392
 21
926.25329817632291
 31
0.0
  0
ARC
  5
2ACB
  8
AM_0
 10
551.56421487333398
 20
866.62659817632277
 30
0.0
 40
5.0
 50
0.0
 51
86.16916099999878
  0
ARC
  5
2ACC
  8
AM_0
 10
541.56421487333375
 20
877.31860817632275
 30
0.0
 40
5.0
 50
180.00001000000091
 51
266.16915999999719
  0
LINE
  5
2ACD
  8
AM_0
 10
551.89825487333405
 20
871.61542817632221
 30
0.0
 11
541.23023487333398
 21
872.32977817632275
 31
0.0
  0
LINE
  5
2ACE
  8
AM_0
 10
561.56421487333375
 20
855.15997817632274
 30
0.0
 11
587.56427487333394
 21
855.15997817632274
 31
0.0
  0
LINE
  5
2ACF
  8
AM_0
 10
561.56421487333375
 20
865.9503881763228
 30
0.0
 11
587.56427487333394
 21
865.9503881763228
 31
0.0
  0
ARC
  5
2AD0
  8
AM_0
 10
561.56421487333375
 20
850.15997817632274
 30
0.0
 40
5.0
 50
90.00000299999769
 51
180.00001000000091
  0
ARC
  5
2AD1
  8
AM_0
 10
561.56421487333375
 20
850.05206817632279
 30
0.0
 40
5.0
 50
180.00001000000091
 51
268.00000999999861
  0
ARC
  5
2AD2
  8
AM_0
 10
561.56421487333375
 20
870.95038817632269
 30
0.0
 40
5.0
 50
180.00001000000091
 51
270.0
  0
LINE
  5
2AD3
  8
AM_0
 10
589.56427487333394
 20
857.15997817632274
 30
0.0
 11
589.56427487333394
 21
863.95038817632292
 31
0.0
  0
ARC
  5
2AD4
  8
AM_0
 10
587.56427487333394
 20
857.15997817632274
 30
0.0
 40
2.0
 50
270.0
 51
0.0
  0
ARC
  5
2AD5
  8
AM_0
 10
587.56427487333394
 20
863.95038817632292
 30
0.0
 40
2.0
 50
0.0
 51
90.00000299999769
  0
ARC
  5
2AD6
  8
AM_0
 10
531.56421487333375
 20
885.25000817632292
 30
0.0
 40
5.0
 50
0.0
 51
90.00000299999769
  0
LINE
  5
2AD7
  8
AM_0
 10
589.56427487333394
 20
909.30585817632277
 30
0.0
 11
589.56427487333394
 21
951.22143817632286
 31
0.0
  0
LINE
  5
2AD8
  8
AM_0
 10
561.56421487333375
 20
907.30585817632289
 30
0.0
 11
587.56427487333394
 21
907.30585817632289
 31
0.0
  0
ARC
  5
2AD9
  8
AM_0
 10
561.56421487333375
 20
902.30585817632277
 30
0.0
 40
5.0
 50
90.00000299999769
 51
180.00001000000091
  0
ARC
  5
2ADA
  8
AM_0
 10
587.56427487333394
 20
909.30585817632277
 30
0.0
 40
2.0
 50
270.0
 51
0.0
  0
LINE
  5
2ADB
  8
AM_0
 10
561.56421487333375
 20
953.22143817632229
 30
0.0
 11
587.56427487333394
 21
953.22143817632229
 31
0.0
  0
ARC
  5
2ADC
  8
AM_0
 10
561.56421487333375
 20
958.22143817632286
 30
0.0
 40
5.0
 50
180.00001000000091
 51
270.0
  0
ARC
  5
2ADD
  8
AM_0
 10
587.56427487333394
 20
951.22143817632286
 30
0.0
 40
2.0
 50
0.0
 51
90.00000299999769
  0
POLYLINE
  5
2ADE
  8
AM_0
 66
     1
 10
0.0
 20
0.0
 30
0.0
  0
VERTEX
  5
2ADF
  8
AM_0
 10
715.23758487333396
 20
866.15569817632274
 30
0.0
 42
0.0050438079
  0
VERTEX
  5
2AE0
  8
AM_0
 10
718.31959487333415
 20
856.45530817632289
 30
0.0
 42
0.0050105797
  0
VERTEX
  5
2AE1
  8
AM_0
 10
721.59601487333418
 20
846.81884817632294
 30
0.0
 42
0.0049830203
  0
VERTEX
  5
2AE2
  8
AM_0
 10
725.06427487333394
 20
837.25000817632269
 30
0.0
  0
SEQEND
  5
2AE3
  8
AM_0
  0
LINE
  5
2AE4
  8
AM_0
 10
725.06433487333425
 20
892.34320817632295
 30
0.0
 11
702.88648487333398
 21
908.82086817632296
 31
0.0
  0
LINE
  5
2AE5
  8
AM_0
 10
722.69641487333422
 20
873.50287817632295
 30
0.0
 11
667.75940487333401
 21
907.51935817632295
 31
0.0
  0
LINE
  5
2AE6
  8
AM_0
 10
722.69647487333373
 20
861.53735817632287
 30
0.0
 11
666.43207487333393
 21
896.37573817632233
 31
0.0
  0
LINE
  5
2AE7
  8
AM_0
 10
720.23877487333402
 20
839.5079381763228
 30
0.0
 11
611.56427487333394
 21
843.3029281763221
 31
0.0
  0
LINE
  5
2AE8
  8
AM_0
 10
669.06427487333394
 20
909.80737817632269
 30
0.0
 11
699.90454487333398
 21
909.80737817632269
 31
0.0
  0
LINE
  5
2AE9
  8
AM_0
 10
664.06427487333394
 20
900.62683817632274
 30
0.0
 11
664.06427487333394
 21
904.8073781763228
 31
0.0
  0
ARC
  5
2AEA
  8
AM_0
 10
669.06427487333394
 20
900.62683817632274
 30
0.0
 40
5.0
 50
179.9999899999988
 51
238.2346499999997
  0
ARC
  5
2AEB
  8
AM_0
 10
669.06427487333394
 20
904.8073781763228
 30
0.0
 40
5.0
 50
90.00000299999769
 51
180.00001000000091
  0
ARC
  5
2AEC
  8
AM_0
 10
699.90454487333398
 20
904.8073781763228
 30
0.0
 40
5.0
 50
53.388504999997892
 51
90.00000299999769
  0
ARC
  5
2AED
  8
AM_0
 10
720.06427487333394
 20
834.51105817632288
 30
0.0
 40
5.0
 50
0.0
 51
88.000000000002785
  0
LINE
  5
2AEE
  8
AM_0
 10
728.06427487333394
 20
817.2499481763225
 30
0.0
 11
750.06427487333394
 21
817.2499481763225
 31
0.0
  0
ARC
  5
2AEF
  8
AM_0
 10
728.06427487333394
 20
820.25000817632269
 30
0.0
 40
3.0
 50
179.9999899999988
 51
270.0
  0
ARC
  5
2AF0
  8
AM_0
 10
720.06427487333394
 20
857.2863881763227
 30
0.0
 40
5.0
 50
0.0
 51
58.234630000004231
  0
LINE
  5
2AF1
  8
AM_0
 10
727.06427487333394
 20
853.69110817632281
 30
0.0
 11
732.06427487333394
 21
853.69110817632281
 31
0.0
  0
ARC
  5
2AF2
  8
AM_0
 10
727.06427487333394
 20
851.6911081763227
 30
0.0
 40
2.0
 50
90.00000299999769
 51
180.00001000000091
  0
ARC
  5
2AF3
  8
AM_0
 10
732.06427487333394
 20
855.69110817632304
 30
0.0
 40
2.0
 50
270.0
 51
0.0
  0
LINE
  5
2AF4
  8
AM_0
 10
750.06427487333394
 20
847.25000817632269
 30
0.0
 11
755.06427487333394
 21
847.25000817632269
 31
0.0
  0
LINE
  5
2AF5
  8
AM_0
 10
725.06427487333394
 20
915.97864817632296
 30
0.0
 11
732.06427487333394
 21
915.97864817632296
 31
0.0
  0
ARC
  5
2AF6
  8
AM_0
 10
732.06427487333394
 20
917.97864817632296
 30
0.0
 40
2.0
 50
270.0
 51
0.0
  0
LINE
  5
2AF7
  8
AM_0
 10
755.06427487333394
 20
969.75000817632281
 30
0.0
 11
760.06427487333394
 21
969.75000817632281
 31
0.0
  0
LINE
  5
2AF8
  8
AM_0
 10
611.56427487333394
 20
1161.1970681763221
 30
0.0
 11
561.38971487333401
 21
1159.444968176321
 31
0.0
  0
ARC
  5
2AF9
  8
AM_0
 10
561.56421487333375
 20
1154.3399681763219
 30
0.0
 40
5.0
 50
180.00001000000091
 51
270.0
  0
LINE
  5
2AFA
  8
AM_0
 10
556.56421487333375
 20
1007.250008176322
 30
0.0
 11
556.56421487333375
 21
1154.4478681763219
 31
0.0
  0
LINE
  5
2AFB
  8
AM_0
 10
490.06421487333392
 20
1088.924968176321
 30
0.0
 11
536.56421487333375
 21
1088.924968176321
 31
0.0
  0
LINE
  5
2AFC
  8
AM_0
 10
490.06421487333392
 20
1073.182768176323
 30
0.0
 11
536.56421487333375
 21
1073.182768176323
 31
0.0
  0
LINE
  5
2AFD
  8
AM_0
 10
492.0643148733339
 20
1114.249968176322
 30
0.0
 11
531.56421487333375
 21
1114.249968176322
 31
0.0
  0
ARC
  5
2AFE
  8
AM_0
 10
425.06431487333379
 20
1019.144228176322
 30
0.0
 40
5.0
 50
271.9999999999971
 51
0.0
  0
LINE
  5
2AFF
  8
AM_0
 10
425.23871487333372
 20
1010.683478176322
 30
0.0
 11
398.56441487333399
 21
1009.752018176323
 31
0.0
  0
LINE
  5
2B00
  8
AM_0
 10
425.23871487333372
 20
1014.147288176322
 30
0.0
 11
398.5643148733339
 21
1013.2157681763219
 31
0.0
  0
LINE
  5
2B01
  8
AM_0
 10
425.23871487333372
 20
990.35278817632286
 30
0.0
 11
398.5643148733339
 21
991.28424817632265
 31
0.0
  0
LINE
  5
2B02
  8
AM_0
 10
425.23881487333398
 20
993.81647817632279
 30
0.0
 11
398.56441487333399
 21
994.74798817632234
 31
0.0
  0
LINE
  5
2B03
  8
AM_0
 10
398.56441487333399
 20
991.28424817632265
 30
0.0
 11
398.56441487333399
 21
1013.2157681763219
 31
0.0
  0
ARC
  5
2B04
  8
AM_0
 10
425.06431487333379
 20
988.81952817632293
 30
0.0
 40
5.0
 50
0.0
 51
88.000000000002785
  0
ARC
  5
2B05
  8
AM_0
 10
425.06431487333379
 20
985.35583817632278
 30
0.0
 40
5.0
 50
0.0
 51
88.000000000002785
  0
ARC
  5
2B06
  8
AM_0
 10
425.06431487333379
 20
1015.680488176321
 30
0.0
 40
5.0
 50
271.9999999999971
 51
0.0
  0
LINE
  5
2B07
  8
AM_0
 10
433.35411487333391
 20
1100.892368176322
 30
0.0
 11
455.77431487333388
 21
1109.052668176322
 31
0.0
  0
LINE
  5
2B08
  8
AM_0
 10
425.23871487333372
 20
1089.611468176322
 30
0.0
 11
398.5643148733339
 21
1088.6799681763209
 31
0.0
  0
LINE
  5
2B09
  8
AM_0
 10
425.23871487333372
 20
1087.251368176323
 30
0.0
 11
396.5643148733339
 21
1086.249968176322
 31
0.0
  0
LINE
  5
2B0A
  8
AM_0
 10
398.56441487333399
 20
1086.3198681763231
 30
0.0
 11
398.56441487333399
 21
1088.6799681763209
 31
0.0
  0
ARC
  5
2B0B
  8
AM_0
 10
425.06431487333379
 20
1092.248268176322
 30
0.0
 40
5.0
 50
271.9999999999971
 51
0.0
  0
ARC
  5
2B0C
  8
AM_0
 10
425.06431487333379
 20
1094.608368176323
 30
0.0
 40
5.0
 50
271.9999999999971
 51
0.0
  0
ARC
  5
2B0D
  8
AM_0
 10
435.06431487333413
 20
1096.193868176322
 30
0.0
 40
5.0
 50
109.9999999999974
 51
180.00001000000091
  0
LINE
  5
2B0E
  8
AM_0
 10
477.06431487333401
 20
1078.2465681763219
 30
0.0
 11
490.06421487333392
 21
1078.2465681763219
 31
0.0
  0
LINE
  5
2B0F
  8
AM_0
 10
477.06431487333401
 20
1086.4207681763221
 30
0.0
 11
490.06421487333392
 21
1086.4207681763221
 31
0.0
  0
LINE
  5
2B10
  8
AM_0
 10
477.06431487333401
 20
1101.977168176322
 30
0.0
 11
490.06421487333392
 21
1101.977168176322
 31
0.0
  0
LINE
  5
2B11
  8
AM_0
 10
461.0643148733339
 20
1122.249968176322
 30
0.0
 11
488.0643148733339
 21
1122.249968176322
 31
0.0
  0
ARC
  5
2B12
  8
AM_0
 10
454.06431487333379
 20
1113.751068176321
 30
0.0
 40
5.0
 50
289.99999999999761
 51
0.0
  0
ARC
  5
2B13
  8
AM_0
 10
461.0643148733339
 20
1120.249968176322
 30
0.0
 40
2.0
 50
90.00000299999769
 51
180.00001000000091
  0
ARC
  5
2B14
  8
AM_0
 10
492.0643148733339
 20
1116.249968176322
 30
0.0
 40
2.0
 50
179.9999899999988
 51
270.0
  0
ARC
  5
2B15
  8
AM_0
 10
488.0643148733339
 20
1120.249968176322
 30
0.0
 40
2.0
 50
0.0
 51
90.00000299999769
  0
LINE
  5
2B16
  8
AM_0
 10
589.56427487333394
 20
1095.1942681763221
 30
0.0
 11
589.56427487333394
 21
1053.2785681763221
 31
0.0
  0
LINE
  5
2B17
  8
AM_0
 10
551.56427487333394
 20
1007.250008176322
 30
0.0
 11
591.56427487333394
 21
1007.250008176322
 31
0.0
  0
LINE
  5
2B18
  8
AM_0
 10
551.56427487333394
 20
997.25000817632269
 30
0.0
 11
591.56427487333394
 21
997.25000817632269
 31
0.0
  0
ARC
  5
2B19
  8
AM_0
 10
551.56427487333394
 20
1002.250008176322
 30
0.0
 40
5.0
 50
90.00000299999769
 51
270.0
  0
ARC
  5
2B1A
  8
AM_0
 10
571.56427487333394
 20
1002.250008176322
 30
0.0
 40
12.5
 50
203.5781799999973
 51
336.42183000000068
  0
ARC
  5
2B1B
  8
AM_0
 10
571.56427487333394
 20
1002.250008176322
 30
0.0
 40
12.5
 50
23.578179999997531
 51
156.42182000000241
  0
ARC
  5
2B1C
  8
AM_0
 10
591.56427487333394
 20
1002.250008176322
 30
0.0
 40
5.0
 50
270.0
 51
90.00000299999769
  0
LINE
  5
2B1D
  8
AM_0
 10
561.56421487333375
 20
1051.2785681763221
 30
0.0
 11
587.56427487333394
 21
1051.2785681763221
 31
0.0
  0
ARC
  5
2B1E
  8
AM_0
 10
561.56421487333375
 20
1046.2785681763221
 30
0.0
 40
5.0
 50
90.00000299999769
 51
180.00001000000091
  0
ARC
  5
2B1F
  8
AM_0
 10
587.56427487333394
 20
1053.2785681763221
 30
0.0
 40
2.0
 50
270.0
 51
0.0
  0
ARC
  5
2B20
  8
AM_0
 10
551.56421487333398
 20
1137.8734681763219
 30
0.0
 40
5.0
 50
273.83084000000281
 51
0.0
  0
ARC
  5
2B21
  8
AM_0
 10
541.56421487333375
 20
1127.1813681763219
 30
0.0
 40
5.0
 50
93.830836999998056
 51
180.00001000000091
  0
ARC
  5
2B22
  8
AM_0
 10
531.56421487333375
 20
1119.2499681763211
 30
0.0
 40
5.0
 50
270.0
 51
0.0
  0
LINE
  5
2B23
  8
AM_0
 10
551.89832487333399
 20
1132.8845681763221
 30
0.0
 11
541.23016487333405
 21
1132.170168176322
 31
0.0
  0
LINE
  5
2B24
  8
AM_0
 10
561.56421487333375
 20
1097.194268176323
 30
0.0
 11
587.56427487333394
 21
1097.194268176323
 31
0.0
  0
ARC
  5
2B25
  8
AM_0
 10
561.56421487333375
 20
1102.194268176323
 30
0.0
 40
5.0
 50
180.00001000000091
 51
270.0
  0
ARC
  5
2B26
  8
AM_0
 10
587.56427487333394
 20
1095.1942681763221
 30
0.0
 40
2.0
 50
0.0
 51
90.00000299999769
  0
LINE
  5
2B27
  8
AM_0
 10
561.56421487333375
 20
1138.5495681763221
 30
0.0
 11
587.56427487333394
 21
1138.5495681763221
 31
0.0
  0
LINE
  5
2B28
  8
AM_0
 10
561.56421487333375
 20
1149.3399681763219
 30
0.0
 11
587.56427487333394
 21
1149.3399681763219
 31
0.0
  0
ARC
  5
2B29
  8
AM_0
 10
561.56421487333375
 20
1133.5495681763221
 30
0.0
 40
5.0
 50
90.00000299999769
 51
180.00001000000091
  0
ARC
  5
2B2A
  8
AM_0
 10
587.56427487333394
 20
1147.339968176321
 30
0.0
 40
2.0
 50
0.0
 51
90.00000299999769
  0
ARC
  5
2B2B
  8
AM_0
 10
587.56427487333394
 20
1140.5495681763221
 30
0.0
 40
2.0
 50
270.0
 51
0.0
  0
LINE
  5
2B2C
  8
AM_0
 10
589.56427487333394
 20
1147.339968176321
 30
0.0
 11
589.56427487333394
 21
1140.5495681763221
 31
0.0
  0
ARC
  5
2B2D
  8
AM_0
 10
561.56421487333375
 20
1154.4478681763219
 30
0.0
 40
5.0
 50
91.999998000000545
 51
180.00001000000091
  0
POLYLINE
  5
2B2E
  8
AM_0
 66
     1
 10
0.0
 20
0.0
 30
0.0
  0
VERTEX
  5
2B2F
  8
AM_0
 10
725.06427487333394
 20
1167.2499681763211
 30
0.0
  0
VERTEX
  5
2B30
  8
AM_0
 10
715.23763487333417
 20
1138.344468176321
 30
0.0
 42
-1.0
  0
SEQEND
  5
2B31
  8
AM_0
  0
ARC
  5
2B32
  8
AM_0
 10
727.06427487333394
 20
1152.8088681763211
 30
0.0
 40
2.0
 50
179.9999899999988
 51
270.0
  0
LINE
  5
2B33
  8
AM_0
 10
725.06433487333425
 20
1112.156768176322
 30
0.0
 11
702.88648487333398
 21
1095.6790681763221
 31
0.0
  0
LINE
  5
2B34
  8
AM_0
 10
722.69641487333422
 20
1130.997168176322
 30
0.0
 11
667.75940487333401
 21
1096.980768176322
 31
0.0
  0
LINE
  5
2B35
  8
AM_0
 10
722.69653487333414
 20
1142.9625681763221
 30
0.0
 11
666.43207487333393
 21
1108.124268176321
 31
0.0
  0
ARC
  5
2B36
  8
AM_0
 10
669.06427487333394
 20
1103.873168176322
 30
0.0
 40
5.0
 50
121.7653600000025
 51
180.00001000000091
  0
LINE
  5
2B37
  8
AM_0
 10
669.06427487333394
 20
1094.692668176323
 30
0.0
 11
699.90454487333398
 21
1094.692668176323
 31
0.0
  0
ARC
  5
2B38
  8
AM_0
 10
669.06427487333394
 20
1099.692668176323
 30
0.0
 40
5.0
 50
179.9999899999988
 51
270.0
  0
LINE
  5
2B39
  8
AM_0
 10
664.06427487333394
 20
1103.873168176322
 30
0.0
 11
664.06427487333394
 21
1099.692668176323
 31
0.0
  0
ARC
  5
2B3A
  8
AM_0
 10
699.90454487333398
 20
1099.692668176323
 30
0.0
 40
5.0
 50
270.0
 51
306.61150000000112
  0
LINE
  5
2B3B
  8
AM_0
 10
755.06427487333394
 20
1034.7500081763219
 30
0.0
 11
760.06427487333394
 21
1034.7500081763219
 31
0.0
  0
ARC
  5
2B3C
  8
AM_0
 10
784.06427487333394
 20
1002.250008176322
 30
0.0
 40
9.0
 50
90.00000299999769
 51
270.0
  0
LINE
  5
2B3D
  8
AM_0
 10
784.06427487333394
 20
1011.250008176322
 30
0.0
 11
784.06427487333394
 21
993.25000817632304
 31
0.0
  0
LINE
  5
2B3E
  8
AM_0
 10
725.06427487333394
 20
1088.521368176323
 30
0.0
 11
732.06427487333394
 21
1088.521368176323
 31
0.0
  0
ARC
  5
2B3F
  8
AM_0
 10
732.06427487333394
 20
1086.521368176323
 30
0.0
 40
2.0
 50
0.0
 51
90.00000299999769
  0
LINE
  5
2B40
  8
AM_0
 10
727.06427487333394
 20
1150.808868176322
 30
0.0
 11
732.06427487333394
 21
1150.808868176322
 31
0.0
  0
ARC
  5
2B41
  8
AM_0
 10
720.06427487333394
 20
1147.213668176322
 30
0.0
 40
5.0
 50
301.7653699999957
 51
0.0
  0
ARC
  5
2B42
  8
AM_0
 10
732.06427487333394
 20
1148.8088681763211
 30
0.0
 40
2.0
 50
0.0
 51
90.00000299999769
  0
LINE
  5
2B43
  8
AM_0
 10
720.23877487333402
 20
1164.992068176321
 30
0.0
 11
611.56427487333394
 21
1161.1970681763221
 31
0.0
  0
LINE
  5
2B44
  8
AM_0
 10
728.06427487333394
 20
1187.2499681763211
 30
0.0
 11
750.06427487333394
 21
1187.2499681763211
 31
0.0
  0
ARC
  5
2B45
  8
AM_0
 10
720.06427487333394
 20
1169.989068176322
 30
0.0
 40
5.0
 50
271.9999999999971
 51
0.0
  0
ARC
  5
2B46
  8
AM_0
 10
728.06427487333394
 20
1184.249968176322
 30
0.0
 40
3.0
 50
90.00000299999769
 51
180.00001000000091
  0
LINE
  5
2B47
  8
AM_0
 10
750.06427487333394
 20
1157.249968176322
 30
0.0
 11
755.06427487333394
 21
1157.249968176322
 31
0.0
  0
LINE
  5
2B48
  8
AM_0
 10
865.06427487333394
 20
1032.2500081763219
 30
0.0
 11
865.06427487333394
 21
972.25000817632269
 31
0.0
  0
TEXT
  5
2D28
  8
AM_0
 10
1016.874016904371
 20
1057.028272546687
 30
0.0
 40
20.0
  1
VX22-240GF~VX22-300GF
  0
ENDSEC
  0
EOF
