  0
SECTION
  2
HEADER
  9
$ACADVER
  1
AC1024
  9
$ACADMAINTVER
 70
   226
  9
$DWGCODEPAGE
  3
ANSI_932
  9
$LASTSAVEDBY
  1
y-sakai
  9
$INSBASE
 10
0.0
 20
0.0
 30
0.0
  9
$EXTMIN
 10
205.6174123038272
 20
230.8734659996428
 30
-0.0000000000000058
  9
$EXTMAX
 10
1165.657313498851
 20
946.620203999628
 30
0.0000000000000104
  9
$LIMMIN
 10
0.0
 20
0.0
  9
$LIMMAX
 10
1422.5
 20
925.0
  9
$ORTHOMODE
 70
     0
  9
$REGENMODE
 70
     1
  9
$FILLMODE
 70
     1
  9
$QTEXTMODE
 70
     0
  9
$MIRRTEXT
 70
     1
  9
$LTSCALE
 40
5.0
  9
$ATTMODE
 70
     1
  9
$TEXTSIZE
 40
2.5
  9
$TRACEWID
 40
1.0
  9
$TEXTSTYLE
  7
STANDARD
  9
$CLAYER
  8
AM_0
  9
$CELTYPE
  6
ByLayer
  9
$CECOLOR
 62
   256
  9
$CELTSCALE
 40
1.0
  9
$DISPSILH
 70
     0
  9
$DIMSCALE
 40
1.0
  9
$DIMASZ
 40
2.5
  9
$DIMEXO
 40
1.0
  9
$DIMDLI
 40
8.0
  9
$DIMRND
 40
0.0
  9
$DIMDLE
 40
0.0
  9
$DIMEXE
 40
0.6
  9
$DIMTP
 40
0.1
  9
$DIMTM
 40
0.1
  9
$DIMTXT
 40
2.5
  9
$DIMCEN
 40
0.0
  9
$DIMTSZ
 40
0.0
  9
$DIMTOL
 70
     0
  9
$DIMLIM
 70
     0
  9
$DIMTIH
 70
     0
  9
$DIMTOH
 70
     0
  9
$DIMSE1
 70
     0
  9
$DIMSE2
 70
     0
  9
$DIMTAD
 70
     1
  9
$DIMZIN
 70
     8
  9
$DIMBLK
  1

  9
$DIMASO
 70
     1
  9
$DIMSHO
 70
     1
  9
$DIMPOST
  1

  9
$DIMAPOST
  1
"
  9
$DIMALT
 70
     0
  9
$DIMALTD
 70
     2
  9
$DIMALTF
 40
0.0393701
  9
$DIMLFAC
 40
1.0
  9
$DIMTOFL
 70
     1
  9
$DIMTVP
 40
0.0
  9
$DIMTIX
 70
     0
  9
$DIMSOXD
 70
     0
  9
$DIMSAH
 70
     0
  9
$DIMBLK1
  1

  9
$DIMBLK2
  1

  9
$DIMSTYLE
  2
AM_ISO
  9
$DIMCLRD
 70
   256
  9
$DIMCLRE
 70
   256
  9
$DIMCLRT
 70
     4
  9
$DIMTFAC
 40
0.71
  9
$DIMGAP
 40
0.8
  9
$DIMJUST
 70
     0
  9
$DIMSD1
 70
     0
  9
$DIMSD2
 70
     0
  9
$DIMTOLJ
 70
     1
  9
$DIMTZIN
 70
     0
  9
$DIMALTZ
 70
     0
  9
$DIMALTTZ
 70
     0
  9
$DIMUPT
 70
     0
  9
$DIMDEC
 70
     4
  9
$DIMTDEC
 70
     4
  9
$DIMALTU
 70
     2
  9
$DIMALTTD
 70
     2
  9
$DIMTXSTY
  7
STANDARD
  9
$DIMAUNIT
 70
     0
  9
$DIMADEC
 70
     0
  9
$DIMALTRND
 40
0.0
  9
$DIMAZIN
 70
     0
  9
$DIMDSEP
 70
    46
  9
$DIMATFIT
 70
     3
  9
$DIMFRAC
 70
     0
  9
$DIMLDRBLK
  1

  9
$DIMLUNIT
 70
     2
  9
$DIMLWD
 70
    -2
  9
$DIMLWE
 70
    -2
  9
$DIMTMOVE
 70
     0
  9
$DIMFXL
 40
1.0
  9
$DIMFXLON
 70
     0
  9
$DIMJOGANG
 40
0.7853981633974483
  9
$DIMTFILL
 70
     0
  9
$DIMTFILLCLR
 70
     0
  9
$DIMARCSYM
 70
     0
  9
$DIMLTYPE
  6

  9
$DIMLTEX1
  6

  9
$DIMLTEX2
  6

  9
$DIMTXTDIRECTION
 70
     0
  9
$LUNITS
 70
     2
  9
$LUPREC
 70
     2
  9
$SKETCHINC
 40
1.0
  9
$FILLETRAD
 40
25.0
  9
$AUNITS
 70
     0
  9
$AUPREC
 70
     0
  9
$MENU
  1
.
  9
$ELEVATION
 40
0.0
  9
$PELEVATION
 40
0.0
  9
$THICKNESS
 40
0.0
  9
$LIMCHECK
 70
     0
  9
$CHAMFERA
 40
10.0
  9
$CHAMFERB
 40
5.0
  9
$CHAMFERC
 40
0.0
  9
$CHAMFERD
 40
0.0
  9
$SKPOLY
 70
     0
  9
$TDCREATE
 40
2452066.696493056
  9
$TDUCREATE
 40
2452066.321493056
  9
$TDUPDATE
 40
2460363.555162037
  9
$TDUUPDATE
 40
2460363.180162037
  9
$TDINDWG
 40
0.0588102315
  9
$TDUSRTIMER
 40
0.0588102083
  9
$USRTIMER
 70
     1
  9
$ANGBASE
 50
0.0
  9
$ANGDIR
 70
     0
  9
$PDMODE
 70
     0
  9
$PDSIZE
 40
0.0
  9
$PLINEWID
 40
0.0
  9
$SPLFRAME
 70
     0
  9
$SPLINETYPE
 70
     6
  9
$SPLINESEGS
 70
     8
  9
$HANDSEED
  5
326D
  9
$SURFTAB1
 70
     6
  9
$SURFTAB2
 70
     6
  9
$SURFTYPE
 70
     6
  9
$SURFU
 70
     6
  9
$SURFV
 70
     6
  9
$UCSBASE
  2

  9
$UCSNAME
  2

  9
$UCSORG
 10
0.0
 20
0.0
 30
0.0
  9
$UCSXDIR
 10
1.0
 20
0.0
 30
0.0
  9
$UCSYDIR
 10
0.0
 20
1.0
 30
0.0
  9
$UCSORTHOREF
  2

  9
$UCSORTHOVIEW
 70
     0
  9
$UCSORGTOP
 10
0.0
 20
0.0
 30
0.0
  9
$UCSORGBOTTOM
 10
0.0
 20
0.0
 30
0.0
  9
$UCSORGLEFT
 10
0.0
 20
0.0
 30
0.0
  9
$UCSORGRIGHT
 10
0.0
 20
0.0
 30
0.0
  9
$UCSORGFRONT
 10
0.0
 20
0.0
 30
0.0
  9
$UCSORGBACK
 10
0.0
 20
0.0
 30
0.0
  9
$PUCSBASE
  2

  9
$PUCSNAME
  2

  9
$PUCSORG
 10
0.0
 20
0.0
 30
0.0
  9
$PUCSXDIR
 10
1.0
 20
0.0
 30
0.0
  9
$PUCSYDIR
 10
0.0
 20
1.0
 30
0.0
  9
$PUCSORTHOREF
  2

  9
$PUCSORTHOVIEW
 70
     0
  9
$PUCSORGTOP
 10
0.0
 20
0.0
 30
0.0
  9
$PUCSORGBOTTOM
 10
0.0
 20
0.0
 30
0.0
  9
$PUCSORGLEFT
 10
0.0
 20
0.0
 30
0.0
  9
$PUCSORGRIGHT
 10
0.0
 20
0.0
 30
0.0
  9
$PUCSORGFRONT
 10
0.0
 20
0.0
 30
0.0
  9
$PUCSORGBACK
 10
0.0
 20
0.0
 30
0.0
  9
$USERI1
 70
     0
  9
$USERI2
 70
     0
  9
$USERI3
 70
     0
  9
$USERI4
 70
     0
  9
$USERI5
 70
     0
  9
$USERR1
 40
0.0
  9
$USERR2
 40
0.0
  9
$USERR3
 40
0.0
  9
$USERR4
 40
0.0
  9
$USERR5
 40
0.0
  9
$WORLDVIEW
 70
     1
  9
$SHADEDGE
 70
     3
  9
$SHADEDIF
 70
    70
  9
$TILEMODE
 70
     1
  9
$MAXACTVP
 70
    64
  9
$PINSBASE
 10
0.0
 20
0.0
 30
0.0
  9
$PLIMCHECK
 70
     0
  9
$PEXTMIN
 10
1.000000000000000E+20
 20
1.000000000000000E+20
 30
1.000000000000000E+20
  9
$PEXTMAX
 10
-1.000000000000000E+20
 20
-1.000000000000000E+20
 30
-1.000000000000000E+20
  9
$PLIMMIN
 10
0.0
 20
0.0
  9
$PLIMMAX
 10
420.0
 20
297.0
  9
$UNITMODE
 70
     0
  9
$VISRETAIN
 70
     1
  9
$PLINEGEN
 70
     0
  9
$PSLTSCALE
 70
     1
  9
$TREEDEPTH
 70
  3020
  9
$CMLSTYLE
  2
Standard
  9
$CMLJUST
 70
     0
  9
$CMLSCALE
 40
1.0
  9
$PROXYGRAPHICS
 70
     1
  9
$MEASUREMENT
 70
     0
  9
$CELWEIGHT
370
    -1
  9
$ENDCAPS
280
     0
  9
$JOINSTYLE
280
     0
  9
$LWDISPLAY
290
     0
  9
$INSUNITS
 70
     0
  9
$HYPERLINKBASE
  1

  9
$STYLESHEET
  1

  9
$XEDIT
290
     1
  9
$CEPSNTYPE
380
     0
  9
$PSTYLEMODE
290
     1
  9
$FINGERPRINTGUID
  2
{FC121DB0-5834-614E-93EB-F6B4FAEA316B}
  9
$VERSIONGUID
  2
{BE22BFF4-028D-0F43-BB4F-CE1E8072422E}
  9
$EXTNAMES
290
     1
  9
$PSVPSCALE
 40
0.0
  9
$OLESTARTUP
290
     0
  9
$SORTENTS
280
   127
  9
$INDEXCTL
280
     0
  9
$HIDETEXT
280
     0
  9
$XCLIPFRAME
280
     2
  9
$HALOGAP
280
     0
  9
$OBSCOLOR
 70
   257
  9
$OBSLTYPE
280
     0
  9
$INTERSECTIONDISPLAY
280
     0
  9
$INTERSECTIONCOLOR
 70
   257
  9
$DIMASSOC
280
     1
  9
$PROJECTNAME
  1

  9
$CAMERADISPLAY
290
     0
  9
$LENSLENGTH
 40
50.0
  9
$CAMERAHEIGHT
 40
0.0
  9
$STEPSPERSEC
 40
2.0
  9
$STEPSIZE
 40
6.0
  9
$3DDWFPREC
 40
2.0
  9
$PSOLWIDTH
 40
0.25
  9
$PSOLHEIGHT
 40
4.0
  9
$LOFTANG1
 40
1.570796326794896
  9
$LOFTANG2
 40
1.570796326794896
  9
$LOFTMAG1
 40
0.0
  9
$LOFTMAG2
 40
0.0
  9
$LOFTPARAM
 70
     7
  9
$LOFTNORMALS
280
     1
  9
$LATITUDE
 40
37.795
  9
$LONGITUDE
 40
-122.394
  9
$NORTHDIRECTION
 40
0.0
  9
$TIMEZONE
 70
 -8000
  9
$LIGHTGLYPHDISPLAY
280
     1
  9
$TILEMODELIGHTSYNCH
280
     1
  9
$CMATERIAL
347
2FE6
  9
$SOLIDHIST
280
     0
  9
$SHOWHIST
280
     1
  9
$DWFFRAME
280
     2
  9
$DGNFRAME
280
     0
  9
$REALWORLDSCALE
290
     1
  9
$INTERFERECOLOR
 62
     1
  9
$INTERFEREOBJVS
345
3008
  9
$INTERFEREVPVS
346
3005
  9
$CSHADOW
280
     0
  9
$SHADOWPLANELOCATION
 40
0.0
  0
ENDSEC
  0
SECTION
  2
CLASSES
  0
CLASS
  1
ACDBDICTIONARYWDFLT
  2
AcDbDictionaryWithDefault
  3
ObjectDBX Classes
 90
        0
 91
        1
280
     0
281
     0
  0
CLASS
  1
MATERIAL
  2
AcDbMaterial
  3
ObjectDBX Classes
 90
     1153
 91
        3
280
     0
281
     0
  0
CLASS
  1
VISUALSTYLE
  2
AcDbVisualStyle
  3
ObjectDBX Classes
 90
     4095
 91
       24
280
     0
281
     0
  0
CLASS
  1
SCALE
  2
AcDbScale
  3
ObjectDBX Classes
 90
     1153
 91
       17
280
     0
281
     0
  0
CLASS
  1
TABLESTYLE
  2
AcDbTableStyle
  3
ObjectDBX Classes
 90
     4095
 91
        1
280
     0
281
     0
  0
CLASS
  1
MLEADERSTYLE
  2
AcDbMLeaderStyle
  3
ACDB_MLEADERSTYLE_CLASS
 90
     4095
 91
        1
280
     0
281
     0
  0
CLASS
  1
ACDBSECTIONVIEWSTYLE
  2
AcDbSectionViewStyle
  3
ObjectDBX Classes
 90
     1025
 91
        2
280
     0
281
     0
  0
CLASS
  1
ACDBDETAILVIEWSTYLE
  2
AcDbDetailViewStyle
  3
ObjectDBX Classes
 90
     1025
 91
        2
280
     0
281
     0
  0
CLASS
  1
AMGSETTINGSOBJ
  2
AmgSettingsObj
  3
"AcadM|Product Description: AutoCAD Mechanical|Company: Autodesk, Inc."
 90
     1024
 91
        2
280
     0
281
     0
  0
CLASS
  1
ACME_DOCUMENT
  2
AcMeDbDoc
  3
AcMeServices
 90
     1024
 91
        1
280
     0
281
     0
  0
CLASS
  1
ACMESCOPE
  2
AcMeScope
  3
AcMeServices
 90
     1024
 91
        1
280
     0
281
     0
  0
CLASS
  1
ACMECOMMANDHISTORY
  2
AcMeCommandHistory
  3
AcMeServices
 90
     1024
 91
        1
280
     0
281
     0
  0
CLASS
  1
ACIMSYSVARMAN
  2
AcImSysVarManager
  3
AcMeServices
 90
     1024
 91
        3
280
     0
281
     0
  0
CLASS
  1
ACIMINTSYSVAR
  2
AcImIntSysVar
  3
AcMeServices
 90
     1024
 91
        4
280
     0
281
     0
  0
CLASS
  1
ACMESTATEMGR
  2
AcMeStateMgr
  3
AcMeServices
 90
     1024
 91
        1
280
     0
281
     0
  0
CLASS
  1
ACDBENTITYCACHE
  2
AcMeEntityCache
  3
AcMeServices
 90
     1024
 91
        1
280
     0
281
     0
  0
CLASS
  1
ACGREFMASTER
  2
AcGrefMaster
  3
AcAttribServices
 90
     1024
 91
        1
280
     0
281
     0
  0
CLASS
  1
ACME_DATABASE
  2
AcMeDbDatabase
  3
AcMeServices
 90
     1024
 91
        2
280
     0
281
     0
  0
CLASS
  1
ACRFINSADJUSTERMGR
  2
AcRfInsAdjusterMgr
  3
AcMeServices
 90
     1024
 91
        1
280
     0
281
     0
  0
CLASS
  1
ACGREFACADMASTER
  2
AcGrefacadMaster
  3
AcGrefServices
 90
     1024
 91
        1
280
     0
281
     0
  0
CLASS
  1
AMIMASTER
  2
AmiMaster
  3
AmiServices
 90
     1024
 91
        1
280
     0
281
     0
  0
CLASS
  1
AMDTMENUSTATEMGR
  2
AmdtMenuStateMgr
  3
McadcomServices
 90
     1024
 91
        1
280
     0
281
     0
  0
CLASS
  1
AMDTMCOMMENUSTATE
  2
AmdtMcomMenuState
  3
McadcomServices
 90
     1024
 91
        1
280
     0
281
     0
  0
CLASS
  1
MAPIAMMOUDLE
  2
MApiAmModule
  3
MApiAmServices
 90
     1024
 91
        1
280
     0
281
     0
  0
CLASS
  1
ACIMSTRSYSVAR
  2
AcImStrSysVar
  3
AcMeServices
 90
     1024
 91
        5
280
     0
281
     0
  0
CLASS
  1
AMDTAMMENUSTATE
  2
AmdtAmMenuState
  3
DesignerAssemblies_arx
 90
     1024
 91
        1
280
     0
281
     0
  0
CLASS
  1
ACAMPROJECT
  2
AcAmProject
  3
DesignerAssemblies
 90
     1024
 91
        1
280
     0
281
     0
  0
CLASS
  1
ACAMGRCOMPDEF
  2
AcAmGrCompDef
  3
DesignerAssemblies
 90
     1024
 91
        1
280
     0
281
     0
  0
CLASS
  1
ACAMCOMPDEF
  2
AcAmCompDef
  3
DesignerAssemblies
 90
     1024
 91
        1
280
     0
281
     0
  0
CLASS
  1
ACAMCOMPDEFMGR
  2
AcAmCompDefMgr
  3
DesignerAssemblies
 90
     1024
 91
        1
280
     0
281
     0
  0
CLASS
  1
AMCONTEXTMGR
  2
AcAmContextMgr
  3
DesignerAssemblies
 90
     1024
 91
        1
280
     0
281
     0
  0
CLASS
  1
ACAMCONTEXTMODELER
  2
AcAmContextModeler
  3
DesignerAssemblies
 90
     1024
 91
        1
280
     0
281
     0
  0
CLASS
  1
ACMDATADICTIONARY
  2
AcmDataDictionary
  3
"AcmSymBB|Product Description: AutoCAD Mechanical|Company: Autodesk, Inc."
 90
     1024
 91
        1
280
     0
281
     0
  0
CLASS
  1
ACAMGRCOMPDEFSET
  2
AcAmGrCompDefSet
  3
DesignerAssemblies
 90
     1024
 91
        1
280
     0
281
     0
  0
CLASS
  1
AMDTBROWSERDBTAB
  2
AmdtBrowserDbTab
  3
McadcomServices
 90
     1024
 91
        1
280
     0
281
     0
  0
CLASS
  1
CBROWSERAPPOBJECT
  2
CBrowserAppObject
  3
McadcomServices
 90
     1024
 91
        2
280
     0
281
     0
  0
CLASS
  1
DM_PLACEHOLDER
  2
AcDmSelsetPlaceholder
  3
McadcomServices
 90
     1024
 91
        1
280
     0
281
     0
  0
CLASS
  1
EXACXREFPANELOBJECT
  2
ExAcXREFPanelObject
  3
EXAC_ESW
 90
     1025
 91
        1
280
     0
281
     0
  0
CLASS
  1
NPOCOLLECTION
  2
AcDbImpNonPersistentObjectsCollection
  3
ObjectDBX Classes
 90
     1153
 91
        1
280
     0
281
     0
  0
CLASS
  1
ACMSTANDARDANSI
  2
AcmStandardANSI
  3
"Amdt_StdImp|Product Description: AutoCAD Mechanical|Company: Autodesk, Inc."
 90
     1024
 91
        1
280
     0
281
     0
  0
CLASS
  1
ACMSURFSTANDARDANSI
  2
AcmSurfTextStdANSI
  3
"Amdt_StdImp|Product Description: AutoCAD Mechanical|Company: Autodesk, Inc."
 90
     1024
 91
        1
280
     0
281
     0
  0
CLASS
  1
ACMFCFSTANDARDANSI
  2
AcmFCFStdANSI
  3
"Amdt_StdImp|Product Description: AutoCAD Mechanical|Company: Autodesk, Inc."
 90
     1024
 91
        1
280
     0
281
     0
  0
CLASS
  1
ACMWELDSTANDARDANSI
  2
AcmWeldingStdANSI
  3
"Amdt_StdImp|Product Description: AutoCAD Mechanical|Company: Autodesk, Inc."
 90
     1024
 91
        1
280
     0
281
     0
  0
CLASS
  1
ACMIDSTANDARDANSI
  2
AcmIdStdANSI
  3
"Amdt_StdImp|Product Description: AutoCAD Mechanical|Company: Autodesk, Inc."
 90
     1024
 91
        1
280
     0
281
     0
  0
CLASS
  1
ACMDATUMSTANDARDANSI
  2
AcmDatumStdANSI
  3
"Amdt_StdImp|Product Description: AutoCAD Mechanical|Company: Autodesk, Inc."
 90
     1024
 91
        1
280
     0
281
     0
  0
CLASS
  1
ACMBOMSTANDARDANSI
  2
AcmBOMStdANSI
  3
"Amdt_StdImp|Product Description: AutoCAD Mechanical|Company: Autodesk, Inc."
 90
     1024
 91
        1
280
     0
281
     0
  0
CLASS
  1
ACMDETAILSTANDARDANSI
  2
AmdtDetailSymStdANSI
  3
"Amdt_StdImp|Product Description: AutoCAD Mechanical|Company: Autodesk, Inc."
 90
     1024
 91
        1
280
     0
281
     0
  0
CLASS
  1
ACMSECTIONSTANDARDANSI
  2
AmdtSectionSymStdANSI
  3
"Amdt_StdImp|Product Description: AutoCAD Mechanical|Company: Autodesk, Inc."
 90
     1024
 91
        1
280
     0
281
     0
  0
CLASS
  1
ACMCENTERLINESTANDARDANSI
  2
AmdtCenterLineStdANSI
  3
"Amdt_StdImp|Product Description: AutoCAD Mechanical|Company: Autodesk, Inc."
 90
     1024
 91
        1
280
     0
281
     0
  0
CLASS
  1
ACMTHREADLINESTANDARDANSI
  2
AmdtThreadLineStdANSI
  3
"Amdt_StdImp|Product Description: AutoCAD Mechanical|Company: Autodesk, Inc."
 90
     1024
 91
        1
280
     0
281
     0
  0
CLASS
  1
ACMNOTESTANDARDANSI
  2
AmdtNoteStdANSI
  3
"Amdt_StdImp|Product Description: AutoCAD Mechanical|Company: Autodesk, Inc."
 90
     1024
 91
        1
280
     0
281
     0
  0
CLASS
  1
ACMTAPERSTANDARDANSI
  2
AcmTaperStdANSI
  3
"Amdt_StdImp|Product Description: AutoCAD Mechanical|Company: Autodesk, Inc."
 90
     1024
 91
        1
280
     0
281
     0
  0
CLASS
  1
ACMANOOTATIONVIEWSTANDARDANSI
  2
AmdtAnViewStdANSI
  3
"Amdt_StdImp|Product Description: AutoCAD Mechanical|Company: Autodesk, Inc."
 90
     1024
 91
        1
280
     0
281
     0
  0
CLASS
  1
ACAMGLAYSTD
  2
AcAmgLayStd
  3
"AmgLay|Product Description: AutoCAD Mechanical|Company: Autodesk, Inc."
 90
     1024
 91
        1
280
     0
281
     0
  0
CLASS
  1
ACAMGDIMSTD
  2
AcAmgDimStd
  3
"AmgDim|Product Description: AutoCAD Mechanical|Company: Autodesk, Inc."
 90
     1024
 91
        1
280
     0
281
     0
  0
CLASS
  1
ACAMGHOLECHARTSTDANSI
  2
AcAmgHoleChartStdANSI
  3
"AmgDim" "Product Description: AutoCAD Mechanical|Company: Autodesk, Inc."
 90
     1024
 91
        1
280
     0
281
     0
  0
CLASS
  1
AMGOBJPROPCFG
  2
AmgObjPropCfg
  3
"AmgLay|Product Description: AutoCAD Mechanical|Company: Autodesk, Inc."
 90
     1024
 91
        1
280
     0
281
     0
  0
CLASS
  1
ACAMGTITLESTD
  2
AcAmgTitleStd
  3
"AmgTitle|Product Description: AutoCAD Mechanical|Company: Autodesk, Inc."
 90
     1024
 91
        1
280
     0
281
     0
  0
CLASS
  1
ACMSECTIONSTANDARDCUSTOM
  2
AmdtSectionSymStdCustom
  3
"Amdt_StdImp|Product Description: AutoCAD Mechanical|Company: Autodesk, Inc."
 90
     1024
 91
        1
280
     0
281
     0
  0
CLASS
  1
ACMDETAILTANDARDCUSTOM
  2
AmdtDetailSymStdCustom
  3
"Amdt_StdImp|Product Description: AutoCAD Mechanical|Company: Autodesk, Inc."
 90
     1024
 91
        1
280
     0
281
     0
  0
CLASS
  1
FIELD
  2
AcDbField
  3
ObjectDBX Classes
 90
     1152
 91
        8
280
     0
281
     0
  0
CLASS
  1
FIELDLIST
  2
AcDbFieldList
  3
ObjectDBX Classes
 90
     1152
 91
        1
280
     0
281
     0
  0
CLASS
  1
AMDTNOTETEMPLATEDB
  2
AmdtNoteTemplateDB
  3
"AcmSymBB" "Product Description: AutoCAD Mechanical|Company: Autodesk, Inc."
 90
     1024
 91
        7
280
     0
281
     0
  0
CLASS
  1
ACAMGFILTERDAT
  2
AcAmgFilterDat
  3
"AcadM|Product Description: AutoCAD Mechanical|Company: Autodesk, Inc."
 90
     1024
 91
        6
280
     0
281
     0
  0
CLASS
  1
SORTENTSTABLE
  2
AcDbSortentsTable
  3
ObjectDBX Classes
 90
        0
 91
        1
280
     0
281
     0
  0
CLASS
  1
DICTIONARYVAR
  2
AcDbDictionaryVar
  3
ObjectDBX Classes
 90
        0
 91
       18
280
     0
281
     0
  0
CLASS
  1
CELLSTYLEMAP
  2
AcDbCellStyleMap
  3
ObjectDBX Classes
 90
     1152
 91
        2
280
     0
281
     0
  0
ENDSEC
  0
SECTION
  2
TABLES
  0
TABLE
  2
VPORT
  5
2FDD
330
0
100
AcDbSymbolTable
 70
     1
  0
VPORT
  5
3049
330
2FDD
100
AcDbSymbolTableRecord
100
AcDbViewportTableRecord
  2
*ACTIVE
 70
     0
 10
0.0
 20
0.0
 11
1.0
 21
1.0
 12
685.6373627970365
 22
590.7543764326804
 13
0.0
 23
0.0
 14
12.5
 24
12.5
 15
50.0
 25
50.0
 16
0.0
 26
0.0
 36
1.0
 17
0.0
 27
0.0
 37
0.0
 40
721.7112952265613
 41
2.197496522948539
 42
50.0
 43
0.0
 44
0.0
 50
0.0
 51
0.0
 71
     0
 72
   100
 73
     1
 74
     3
 75
     0
 76
     0
 77
     0
 78
     0
281
     0
 65
     0
110
0.0
120
0.0
130
0.0
111
1.0
121
0.0
131
0.0
112
0.0
122
1.0
132
0.0
 79
     0
146
0.0
348
3004
 60
     3
 61
     5
292
     1
282
     0
141
0.0
142
0.0
 63
   250
421
  3355443
1001
ACAD_NAV_VCDISPLAY
1070
     3
  0
ENDTAB
  0
TABLE
  2
LTYPE
  5
2FDA
330
0
100
AcDbSymbolTable
 70
    26
  0
LTYPE
  5
302F
330
2FDA
100
AcDbSymbolTableRecord
100
AcDbLinetypeTableRecord
  2
ByBlock
 70
     0
  3

 72
    65
 73
     0
 40
0.0
  0
LTYPE
  5
3030
330
2FDA
100
AcDbSymbolTableRecord
100
AcDbLinetypeTableRecord
  2
ByLayer
 70
     0
  3

 72
    65
 73
     0
 40
0.0
  0
LTYPE
  5
3031
330
2FDA
100
AcDbSymbolTableRecord
100
AcDbLinetypeTableRecord
  2
CONTINUOUS
 70
     0
  3
Solid line
 72
    65
 73
     0
 40
0.0
  0
LTYPE
  5
304A
330
2FDA
100
AcDbSymbolTableRecord
100
AcDbLinetypeTableRecord
  2
AM_ISO02W050
 70
     0
  3
__ __ __ __ __ __ __ __ __ __ __ __ __ __ __
 72
    65
 73
     2
 40
7.5
 49
6.0
 74
     0
 49
-1.5
 74
     0
  0
LTYPE
  5
304B
330
2FDA
100
AcDbSymbolTableRecord
100
AcDbLinetypeTableRecord
  2
AM_ISO08W050
 70
     0
  3
____ . ____ . ____ . ____ . ____ . ____ . ____
 72
    65
 73
     4
 40
18.0
 49
12.0
 74
     0
 49
-1.5
 74
     0
 49
3.0
 74
     0
 49
-1.5
 74
     0
  0
LTYPE
  5
304C
330
2FDA
100
AcDbSymbolTableRecord
100
AcDbLinetypeTableRecord
  2
AM_ISO09W050
 70
     0
  3
_____ . . _____ . . _____ . . ____ .. ____
 72
    65
 73
     6
 40
22.5
 49
12.0
 74
     0
 49
-1.5
 74
     0
 49
3.0
 74
     0
 49
-1.5
 74
     0
 49
3.0
 74
     0
 49
-1.5
 74
     0
  0
LTYPE
  5
304D
330
2FDA
100
AcDbSymbolTableRecord
100
AcDbLinetypeTableRecord
  2
AMCONSTR
 70
     0
  3
_______________________
 72
    65
 73
     2
 40
9999.0
 49
9999.0
 74
     0
 49
0.0
 74
     0
  0
LTYPE
  5
304E
330
2FDA
100
AcDbSymbolTableRecord
100
AcDbLinetypeTableRecord
  2
AM_ISO08W050X2
 70
     0
  3
__ . __ . __ . __ . __ . __
 72
    65
 73
     4
 40
9.0
 49
6.0
 74
     0
 49
-0.75
 74
     0
 49
1.5
 74
     0
 49
-0.75
 74
     0
  0
LTYPE
  5
304F
330
2FDA
100
AcDbSymbolTableRecord
100
AcDbLinetypeTableRecord
  2
AM_ISO02W050X2
 70
     0
  3
 _ _ _ _ _ _ _ _ _ _ _ _
 72
    65
 73
     2
 40
3.75
 49
3.0
 74
     0
 49
-0.75
 74
     0
  0
LTYPE
  5
3050
330
2FDA
100
AcDbSymbolTableRecord
100
AcDbLinetypeTableRecord
  2
AMZIGZAG
 70
     0
  3
/\/-/\/-/\/-/\/-/\/-/\/
 72
    65
 73
     2
 40
11.00009999999999
 49
0.0001
 74
     0
 49
-11.0
 74
     0
  0
LTYPE
  5
3055
330
2FDA
100
AcDbSymbolTableRecord
100
AcDbLinetypeTableRecord
  2
PHANTOM2
 70
     0
  3
Phantom (.5x) ___ _ _ ___ _ _ ___ _ _ ___ _ _
 72
    65
 73
     6
 40
31.75
 49
15.875
 74
     0
 49
-3.174999999999998
 74
     0
 49
3.174999999999998
 74
     0
 49
-3.174999999999998
 74
     0
 49
3.174999999999998
 74
     0
 49
-3.174999999999998
 74
     0
  0
LTYPE
  5
3058
330
2FDA
100
AcDbSymbolTableRecord
100
AcDbLinetypeTableRecord
  2
GEN7
 70
     0
  3
____ . ____ . ____ . ____ . ____ . ____ . ____
 72
    65
 73
     4
 40
14.25
 49
9.75
 74
     0
 49
-1.5
 74
     0
 49
1.5
 74
     0
 49
-1.5
 74
     0
  0
LTYPE
  5
3059
330
2FDA
100
AcDbSymbolTableRecord
100
AcDbLinetypeTableRecord
  2
GEN7A
 70
     0
  3
__ . __ . __
 72
    65
 73
     4
 40
7.375
 49
4.75
 74
     0
 49
-0.875
 74
     0
 49
0.875
 74
     0
 49
-0.875
 74
     0
  0
LTYPE
  5
3060
330
2FDA
100
AcDbSymbolTableRecord
100
AcDbLinetypeTableRecord
  2
ACANSTGB
 70
     0
  3
__ . . __ . .
 72
    65
 73
     6
 40
0.35433070866
 49
0.15748031496
 74
     0
 49
-0.03937007874
 74
     0
 49
0.03937007874
 74
     0
 49
-0.03937007874
 74
     0
 49
0.03937007874
 74
     0
 49
-0.03937007874
 74
     0
  0
LTYPE
  5
3061
330
2FDA
100
AcDbSymbolTableRecord
100
AcDbLinetypeTableRecord
  2
ACANSTGL
 70
     0
  3
_ _ _ _ _
 72
    65
 73
     2
 40
0.11811023622
 49
0.07874015748
 74
     0
 49
-0.03937007874
 74
     0
  0
ENDTAB
  0
TABLE
  2
LAYER
  5
2FD7
102
{ACAD_XDICTIONARY
360
321E
102
}
330
0
100
AcDbSymbolTable
 70
     6
  0
LAYER
  5
3029
102
{ACAD_XDICTIONARY
360
3211
102
}
330
2FD7
100
AcDbSymbolTableRecord
100
AcDbLayerTableRecord
  2
0
 70
     0
 62
     7
  6
CONTINUOUS
370
    -3
390
2FE4
347
2FF6
  0
LAYER
  5
3048
102
{ACAD_XDICTIONARY
360
3213
102
}
330
2FD7
100
AcDbSymbolTableRecord
100
AcDbLayerTableRecord
  2
AM_0
 70
     0
 62
     7
  6
CONTINUOUS
370
    -3
390
2FE4
347
2FF6
  0
LAYER
  5
3062
102
{ACAD_XDICTIONARY
360
3215
102
}
330
2FD7
100
AcDbSymbolTableRecord
100
AcDbLayerTableRecord
  2
AM_5
 70
     0
 62
     2
  6
CONTINUOUS
370
    -3
390
2FE4
347
2FF6
  0
LAYER
  5
3063
330
2FD7
100
AcDbSymbolTableRecord
100
AcDbLayerTableRecord
  2
DEFPOINTS
 70
     0
 62
     7
  6
CONTINUOUS
290
     0
370
    -3
390
2FE4
347
2FF6
  0
LAYER
  5
3064
102
{ACAD_XDICTIONARY
360
3217
102
}
330
2FD7
100
AcDbSymbolTableRecord
100
AcDbLayerTableRecord
  2
ﾁｭｳｼﾝｾﾝ
 70
     0
 62
     1
  6
GEN7
370
    -3
390
2FE4
347
2FF6
  0
LAYER
  5
3065
102
{ACAD_XDICTIONARY
360
3219
102
}
330
2FD7
100
AcDbSymbolTableRecord
100
AcDbLayerTableRecord
  2
ﾁｭｳｼﾝｾﾝ1
 70
     0
 62
     1
  6
GEN7A
370
    -3
390
2FE4
347
2FF6
  0
ENDTAB
  0
TABLE
  2
STYLE
  5
2FD8
330
0
100
AcDbSymbolTable
 70
     9
  0
STYLE
  5
302A
330
2FD8
100
AcDbSymbolTableRecord
100
AcDbTextStyleTableRecord
  2
STANDARD
 70
     0
 40
0.0
 41
0.8299999999999998
 50
0.0
 71
     0
 42
2.5
  3
txt.shx
  4
bigfont.shx
  0
STYLE
  5
306A
330
2FD8
100
AcDbSymbolTableRecord
100
AcDbTextStyleTableRecord
  2
ACANSGDT
 70
     0
 40
0.0
 41
1.0
 50
0.0
 71
     0
 42
2.5
  3
amgdt.shx
  4

  0
ENDTAB
  0
TABLE
  2
VIEW
  5
2FDB
330
0
100
AcDbSymbolTable
 70
     7
  0
VIEW
  5
306D
330
2FDB
100
AcDbSymbolTableRecord
100
AcDbViewTableRecord
  2
AM_VIEW1
 70
     0
 40
462.5
 10
416.0796500920808
 20
693.75
 41
832.1593001841621
 11
0.0
 21
0.0
 31
1.0
 12
0.0
 22
0.0
 32
0.0
 42
50.0
 43
0.0
 44
0.0
 50
0.0
 71
     0
281
     0
 72
     0
 73
     0
348
3004
  0
VIEW
  5
306E
330
2FDB
100
AcDbSymbolTableRecord
100
AcDbViewTableRecord
  2
AM_VIEW2
 70
     0
 40
462.5
 10
1006.420349907918
 20
693.75
 41
832.1593001841621
 11
0.0
 21
0.0
 31
1.0
 12
0.0
 22
0.0
 32
0.0
 42
50.0
 43
0.0
 44
0.0
 50
0.0
 71
     0
281
     0
 72
     0
 73
     0
348
3004
  0
VIEW
  5
306F
330
2FDB
100
AcDbSymbolTableRecord
100
AcDbViewTableRecord
  2
AM_VIEW3
 70
     0
 40
462.5
 10
416.0796500920808
 20
231.25
 41
832.1593001841621
 11
0.0
 21
0.0
 31
1.0
 12
0.0
 22
0.0
 32
0.0
 42
50.0
 43
0.0
 44
0.0
 50
0.0
 71
     0
281
     0
 72
     0
 73
     0
348
3004
  0
VIEW
  5
3070
330
2FDB
100
AcDbSymbolTableRecord
100
AcDbViewTableRecord
  2
AM_VIEW4
 70
     0
 40
462.5
 10
1006.420349907918
 20
231.25
 41
832.1593001841621
 11
0.0
 21
0.0
 31
1.0
 12
0.0
 22
0.0
 32
0.0
 42
50.0
 43
0.0
 44
0.0
 50
0.0
 71
     0
281
     0
 72
     0
 73
     0
348
3004
  0
VIEW
  5
3071
330
2FDB
100
AcDbSymbolTableRecord
100
AcDbViewTableRecord
  2
AM_VIEW5
 70
     0
 40
462.5
 10
711.2499999999997
 20
462.5
 41
832.1593001841618
 11
0.0
 21
0.0
 31
1.0
 12
0.0
 22
0.0
 32
0.0
 42
50.0
 43
0.0
 44
0.0
 50
0.0
 71
     0
281
     0
 72
     0
 73
     0
348
3004
  0
VIEW
  5
3072
330
2FDB
100
AcDbSymbolTableRecord
100
AcDbViewTableRecord
  2
AM_VIEW6
 70
     0
 40
924.99075
 10
711.2499999999997
 20
462.5
 41
1664.30195718232
 11
0.0
 21
0.0
 31
1.0
 12
0.0
 22
0.0
 32
0.0
 42
50.0
 43
0.0
 44
0.0
 50
0.0
 71
     0
281
     0
 72
     0
 73
     0
348
3004
  0
ENDTAB
  0
TABLE
  2
UCS
  5
2FDC
330
0
100
AcDbSymbolTable
 70
     0
  0
ENDTAB
  0
TABLE
  2
APPID
  5
2FDE
330
0
100
AcDbSymbolTable
 70
    95
  0
APPID
  5
302B
330
2FDE
100
AcDbSymbolTableRecord
100
AcDbRegAppTableRecord
  2
ACAD
 70
     0
  0
APPID
  5
3032
330
2FDE
100
AcDbSymbolTableRecord
100
AcDbRegAppTableRecord
  2
ACADANNOTATIVE
 70
     0
  0
APPID
  5
3073
330
2FDE
100
AcDbSymbolTableRecord
100
AcDbRegAppTableRecord
  2
MCAD_NO_VIS
 70
     0
  0
APPID
  5
3074
330
2FDE
100
AcDbSymbolTableRecord
100
AcDbRegAppTableRecord
  2
ACAD_TEMP_GRAPHIC
 70
     0
  0
APPID
  5
3075
330
2FDE
100
AcDbSymbolTableRecord
100
AcDbRegAppTableRecord
  2
ACATTRIBSERVICES
 70
     0
  0
APPID
  5
3076
330
2FDE
100
AcDbSymbolTableRecord
100
AcDbRegAppTableRecord
  2
GENIUS_GENREC_14
 70
     0
  0
APPID
  5
3077
330
2FDE
100
AcDbSymbolTableRecord
100
AcDbRegAppTableRecord
  2
GENIUS_GENOBJ-N-REC_13
 70
     0
  0
APPID
  5
3078
330
2FDE
100
AcDbSymbolTableRecord
100
AcDbRegAppTableRecord
  2
GENIUS_GENODEF_13
 70
     0
  0
APPID
  5
3079
330
2FDE
100
AcDbSymbolTableRecord
100
AcDbRegAppTableRecord
  2
GENIUS_GENOLIS_13
 70
     0
  0
APPID
  5
307A
330
2FDE
100
AcDbSymbolTableRecord
100
AcDbRegAppTableRecord
  2
GENIUS_GENOBJ-N-TIT_13
 70
     0
  0
APPID
  5
307B
330
2FDE
100
AcDbSymbolTableRecord
100
AcDbRegAppTableRecord
  2
GENIUS_GENOENT_13
 70
     0
  0
APPID
  5
307C
330
2FDE
100
AcDbSymbolTableRecord
100
AcDbRegAppTableRecord
  2
GENIUS_GENTITLE_13
 70
     0
  0
APPID
  5
307D
330
2FDE
100
AcDbSymbolTableRecord
100
AcDbRegAppTableRecord
  2
GENIUS_GENOREF_13
 70
     0
  0
APPID
  5
307E
330
2FDE
100
AcDbSymbolTableRecord
100
AcDbRegAppTableRecord
  2
GENIUS_GENSCREG_15
 70
     0
  0
APPID
  5
307F
330
2FDE
100
AcDbSymbolTableRecord
100
AcDbRegAppTableRecord
  2
GENIUS_GENOBJ-N-SDF_13
 70
     0
  0
APPID
  5
3080
330
2FDE
100
AcDbSymbolTableRecord
100
AcDbRegAppTableRecord
  2
GENIUS_GENFIL_13
 70
     0
  0
APPID
  5
3081
330
2FDE
100
AcDbSymbolTableRecord
100
AcDbRegAppTableRecord
  2
GENIUS_GENOBJ-N-CHA_13
 70
     0
  0
APPID
  5
3082
330
2FDE
100
AcDbSymbolTableRecord
100
AcDbRegAppTableRecord
  2
GENIUS_GENDTOL_13
 70
     0
  0
APPID
  5
3083
330
2FDE
100
AcDbSymbolTableRecord
100
AcDbRegAppTableRecord
  2
GENIUS_GENOBJ-N-FIL_13
 70
     0
  0
APPID
  5
3084
330
2FDE
100
AcDbSymbolTableRecord
100
AcDbRegAppTableRecord
  2
AD_DRAW
 70
     0
  0
APPID
  5
3085
330
2FDE
100
AcDbSymbolTableRecord
100
AcDbRegAppTableRecord
  2
DESIGNERASSEMBLIES
 70
     0
  0
APPID
  5
3086
330
2FDE
100
AcDbSymbolTableRecord
100
AcDbRegAppTableRecord
  2
ASURF_PCURVE_APPNAME
 70
     0
  0
APPID
  5
3087
330
2FDE
100
AcDbSymbolTableRecord
100
AcDbRegAppTableRecord
  2
GENIUS_GE3SECT_13
 70
     0
  0
APPID
  5
3088
330
2FDE
100
AcDbSymbolTableRecord
100
AcDbRegAppTableRecord
  2
GENIUS_GENCFG_13
 70
     0
  0
APPID
  5
3089
330
2FDE
100
AcDbSymbolTableRecord
100
AcDbRegAppTableRecord
  2
GENIUS_GE3CFG0_13
 70
     0
  0
APPID
  5
308A
330
2FDE
100
AcDbSymbolTableRecord
100
AcDbRegAppTableRecord
  2
GENIUS_GENCFG0_13
 70
     0
  0
APPID
  5
308B
330
2FDE
100
AcDbSymbolTableRecord
100
AcDbRegAppTableRecord
  2
GENIUS_GENCFG1_13
 70
     0
  0
APPID
  5
308C
330
2FDE
100
AcDbSymbolTableRecord
100
AcDbRegAppTableRecord
  2
GENIUS_GENCFG2_13
 70
     0
  0
APPID
  5
308D
330
2FDE
100
AcDbSymbolTableRecord
100
AcDbRegAppTableRecord
  2
GENIUS_GENCFG3_13
 70
     0
  0
APPID
  5
308E
330
2FDE
100
AcDbSymbolTableRecord
100
AcDbRegAppTableRecord
  2
GENIUS_GENCFG4_13
 70
     0
  0
APPID
  5
308F
330
2FDE
100
AcDbSymbolTableRecord
100
AcDbRegAppTableRecord
  2
GENIUS_GEVCFG0_13
 70
     0
  0
APPID
  5
3090
330
2FDE
100
AcDbSymbolTableRecord
100
AcDbRegAppTableRecord
  2
GENIUS_GENHINW_13
 70
     0
  0
APPID
  5
3091
330
2FDE
100
AcDbSymbolTableRecord
100
AcDbRegAppTableRecord
  2
GENIUS_FIRSTVISTXT_14
 70
     0
  0
APPID
  5
3092
330
2FDE
100
AcDbSymbolTableRecord
100
AcDbRegAppTableRecord
  2
GENIUS_GENOBJ-N-LEADER_13
 70
     0
  0
APPID
  5
3093
330
2FDE
100
AcDbSymbolTableRecord
100
AcDbRegAppTableRecord
  2
GEV_VCCNULL_SWITCH_OFF
 70
     0
  0
APPID
  5
3094
330
2FDE
100
AcDbSymbolTableRecord
100
AcDbRegAppTableRecord
  2
GENIUS_GEFCFG0_13
 70
     0
  0
APPID
  5
3095
330
2FDE
100
AcDbSymbolTableRecord
100
AcDbRegAppTableRecord
  2
GENIUS_GENZVEED_13
 70
     0
  0
APPID
  5
3096
330
2FDE
100
AcDbSymbolTableRecord
100
AcDbRegAppTableRecord
  2
GENIUS_GENSCREG_13
 70
     0
  0
APPID
  5
3097
330
2FDE
100
AcDbSymbolTableRecord
100
AcDbRegAppTableRecord
  2
GENIUS_DUMCFG0_13
 70
     0
  0
APPID
  5
3098
330
2FDE
100
AcDbSymbolTableRecord
100
AcDbRegAppTableRecord
  2
GEVID936201362
 70
     0
  0
APPID
  5
3099
330
2FDE
100
AcDbSymbolTableRecord
100
AcDbRegAppTableRecord
  2
GEVDC
 70
     0
  0
APPID
  5
309A
330
2FDE
100
AcDbSymbolTableRecord
100
AcDbRegAppTableRecord
  2
GEVCON
 70
     0
  0
APPID
  5
309B
330
2FDE
100
AcDbSymbolTableRecord
100
AcDbRegAppTableRecord
  2
VCC
 70
     0
  0
APPID
  5
309C
330
2FDE
100
AcDbSymbolTableRecord
100
AcDbRegAppTableRecord
  2
GEVPT
 70
     0
  0
APPID
  5
309D
330
2FDE
100
AcDbSymbolTableRecord
100
AcDbRegAppTableRecord
  2
GEVIT
 70
     0
  0
APPID
  5
309E
330
2FDE
100
AcDbSymbolTableRecord
100
AcDbRegAppTableRecord
  2
GENBH
 70
     0
  0
APPID
  5
309F
330
2FDE
100
AcDbSymbolTableRecord
100
AcDbRegAppTableRecord
  2
GEVMK
 70
     0
  0
APPID
  5
30A0
330
2FDE
100
AcDbSymbolTableRecord
100
AcDbRegAppTableRecord
  2
GENIUS_GENBH_13
 70
     0
  0
APPID
  5
30A1
330
2FDE
100
AcDbSymbolTableRecord
100
AcDbRegAppTableRecord
  2
GENIUS_GENOBJ-NBEHI-BHF_13
 70
     0
  0
APPID
  5
30A2
330
2FDE
100
AcDbSymbolTableRecord
100
AcDbRegAppTableRecord
  2
GENIUS_GENOBJ-NBEHI-BHB_13
 70
     0
  0
APPID
  5
30A3
330
2FDE
100
AcDbSymbolTableRecord
100
AcDbRegAppTableRecord
  2
GENIUS_GENOBJ-F-DESC_13
 70
     0
  0
APPID
  5
30A4
330
2FDE
100
AcDbSymbolTableRecord
100
AcDbRegAppTableRecord
  2
GENIUS_GEFDESC_14
 70
     0
  0
APPID
  5
30A5
330
2FDE
100
AcDbSymbolTableRecord
100
AcDbRegAppTableRecord
  2
GENIUS_GENOBJ-F-PART_13
 70
     0
  0
APPID
  5
30A6
330
2FDE
100
AcDbSymbolTableRecord
100
AcDbRegAppTableRecord
  2
GENIUS_GEFSTDP_13
 70
     0
  0
APPID
  5
30A7
330
2FDE
100
AcDbSymbolTableRecord
100
AcDbRegAppTableRecord
  2
GENIUS_GEFPARTINS_13
 70
     0
  0
APPID
  5
30A8
330
2FDE
100
AcDbSymbolTableRecord
100
AcDbRegAppTableRecord
  2
GENIUS_GENTRA_14
 70
     0
  0
APPID
  5
30A9
330
2FDE
100
AcDbSymbolTableRecord
100
AcDbRegAppTableRecord
  2
GENIUS_GENINF13_13
 70
     0
  0
APPID
  5
30AA
330
2FDE
100
AcDbSymbolTableRecord
100
AcDbRegAppTableRecord
  2
GENIUS_GENOBJ-N-INFOPT_13
 70
     0
  0
APPID
  5
30AB
330
2FDE
100
AcDbSymbolTableRecord
100
AcDbRegAppTableRecord
  2
GENIUS_GENOBJ-N-RSSYM_13
 70
     0
  0
APPID
  5
30AC
330
2FDE
100
AcDbSymbolTableRecord
100
AcDbRegAppTableRecord
  2
GENIUS_GENSYMENT_13
 70
     0
  0
APPID
  5
30AD
330
2FDE
100
AcDbSymbolTableRecord
100
AcDbRegAppTableRecord
  2
GENIUS_GENSCSYM_13
 70
     0
  0
APPID
  5
30AE
330
2FDE
100
AcDbSymbolTableRecord
100
AcDbRegAppTableRecord
  2
GENIUS_GEFINFNAM_13
 70
     0
  0
APPID
  5
30AF
330
2FDE
100
AcDbSymbolTableRecord
100
AcDbRegAppTableRecord
  2
GENIUS_GENOBJ-N-CEN_13
 70
     0
  0
APPID
  5
30B0
330
2FDE
100
AcDbSymbolTableRecord
100
AcDbRegAppTableRecord
  2
GENIUS_GENOBJ-N-CRS_13
 70
     0
  0
APPID
  5
30B1
330
2FDE
100
AcDbSymbolTableRecord
100
AcDbRegAppTableRecord
  2
GENIUS_GENOBJ-N-CRC_13
 70
     0
  0
APPID
  5
30B2
330
2FDE
100
AcDbSymbolTableRecord
100
AcDbRegAppTableRecord
  2
GENIUS_GENCRC_14
 70
     0
  0
APPID
  5
30B3
330
2FDE
100
AcDbSymbolTableRecord
100
AcDbRegAppTableRecord
  2
GEVID942827039
 70
     0
  0
APPID
  5
30B4
330
2FDE
100
AcDbSymbolTableRecord
100
AcDbRegAppTableRecord
  2
GEVID942827040
 70
     0
  0
APPID
  5
30B5
330
2FDE
100
AcDbSymbolTableRecord
100
AcDbRegAppTableRecord
  2
GEVID942827041
 70
     0
  0
APPID
  5
30B6
330
2FDE
100
AcDbSymbolTableRecord
100
AcDbRegAppTableRecord
  2
GENIUS_GENOBJ-F-SCPASSM_13
 70
     0
  0
APPID
  5
30B7
330
2FDE
100
AcDbSymbolTableRecord
100
AcDbRegAppTableRecord
  2
GENIUS_GENDIMSH_14
 70
     0
  0
APPID
  5
30B8
330
2FDE
100
AcDbSymbolTableRecord
100
AcDbRegAppTableRecord
  2
GEVID942827042
 70
     0
  0
APPID
  5
30B9
330
2FDE
100
AcDbSymbolTableRecord
100
AcDbRegAppTableRecord
  2
GEVID946020473
 70
     0
  0
APPID
  5
30BA
330
2FDE
100
AcDbSymbolTableRecord
100
AcDbRegAppTableRecord
  2
GEVID946020474
 70
     0
  0
APPID
  5
30BB
330
2FDE
100
AcDbSymbolTableRecord
100
AcDbRegAppTableRecord
  2
GEVID946020475
 70
     0
  0
APPID
  5
30BC
330
2FDE
100
AcDbSymbolTableRecord
100
AcDbRegAppTableRecord
  2
GENIUS_GENOBJ-N-HTC_13
 70
     0
  0
APPID
  5
30BD
330
2FDE
100
AcDbSymbolTableRecord
100
AcDbRegAppTableRecord
  2
GENIUS_GENHATCH_13
 70
     0
  0
APPID
  5
30BE
330
2FDE
100
AcDbSymbolTableRecord
100
AcDbRegAppTableRecord
  2
GEVID948854295
 70
     0
  0
APPID
  5
30BF
330
2FDE
100
AcDbSymbolTableRecord
100
AcDbRegAppTableRecord
  2
GEVID939402019
 70
     0
  0
APPID
  5
30C0
330
2FDE
100
AcDbSymbolTableRecord
100
AcDbRegAppTableRecord
  2
GEVID952919491
 70
     0
  0
APPID
  5
30C1
330
2FDE
100
AcDbSymbolTableRecord
100
AcDbRegAppTableRecord
  2
GEVID952919492
 70
     0
  0
APPID
  5
30C2
330
2FDE
100
AcDbSymbolTableRecord
100
AcDbRegAppTableRecord
  2
GENIUS_GEFWELD_13
 70
     0
  0
APPID
  5
30C3
330
2FDE
100
AcDbSymbolTableRecord
100
AcDbRegAppTableRecord
  2
GENIUS_GENOBJ-F-WELS_13
 70
     0
  0
APPID
  5
30C4
330
2FDE
100
AcDbSymbolTableRecord
100
AcDbRegAppTableRecord
  2
GEVID952919493
 70
     0
  0
APPID
  5
30C5
330
2FDE
100
AcDbSymbolTableRecord
100
AcDbRegAppTableRecord
  2
GENIUS_GENOBJ-N-RSBK_13
 70
     0
  0
APPID
  5
30C6
330
2FDE
100
AcDbSymbolTableRecord
100
AcDbRegAppTableRecord
  2
GENIUS_GENOBJ-N-LIB_13
 70
     0
  0
APPID
  5
30C7
330
2FDE
100
AcDbSymbolTableRecord
100
AcDbRegAppTableRecord
  2
GENIUS_GENSCALE_13
 70
     0
  0
APPID
  5
30C8
330
2FDE
100
AcDbSymbolTableRecord
100
AcDbRegAppTableRecord
  2
GEVID986376691
 70
     0
  0
APPID
  5
30C9
330
2FDE
100
AcDbSymbolTableRecord
100
AcDbRegAppTableRecord
  2
DCO15
 70
     0
  0
APPID
  5
30CA
330
2FDE
100
AcDbSymbolTableRecord
100
AcDbRegAppTableRecord
  2
ACAD_DSTYLE_DIMBREAK
 70
     0
  0
APPID
  5
30CB
330
2FDE
100
AcDbSymbolTableRecord
100
AcDbRegAppTableRecord
  2
ACAD_DSTYLE_DIMJAG
 70
     0
  0
APPID
  5
30CC
330
2FDE
100
AcDbSymbolTableRecord
100
AcDbRegAppTableRecord
  2
ACAD_NAV_VCDISPLAY
 70
     0
  0
APPID
  5
30CD
330
2FDE
100
AcDbSymbolTableRecord
100
AcDbRegAppTableRecord
  2
ACADANNOPO
 70
     0
  0
APPID
  5
30CE
330
2FDE
100
AcDbSymbolTableRecord
100
AcDbRegAppTableRecord
  2
ACAD_EXEMPT_FROM_CAD_STANDARDS
 70
     0
  0
APPID
  5
30CF
330
2FDE
100
AcDbSymbolTableRecord
100
AcDbRegAppTableRecord
  2
ACAD_MLEADERVER
 70
     0
  0
ENDTAB
  0
TABLE
  2
DIMSTYLE
  5
2FDF
330
0
100
AcDbSymbolTable
 70
    23
100
AcDbDimStyleTable
 71
     1
340
30D0
  0
DIMSTYLE
105
302C
330
2FDF
100
AcDbSymbolTableRecord
100
AcDbDimStyleTableRecord
  2
STANDARD
 70
     0
271
     2
272
     2
279
     2
284
     8
285
     8
286
     8
340
302A
  0
DIMSTYLE
105
30D0
330
2FDF
100
AcDbSymbolTableRecord
100
AcDbDimStyleTableRecord
  2
AM_ISO
 70
     0
  4
"
 41
2.5
 42
1.0
 43
8.0
 44
0.6
 47
0.1
 48
0.1
 73
     0
 74
     0
 77
     1
 78
     8
140
2.5
141
0.0
143
0.0393701
146
0.71
147
0.8
172
     1
176
   256
177
   256
178
     4
271
     2
272
     2
279
     2
284
     8
285
     8
286
     8
340
302A
  0
DIMSTYLE
105
30DE
102
{ACAD_REACTORS
330
312C
102
}
330
2FDF
100
AcDbSymbolTableRecord
100
AcDbDimStyleTableRecord
  2
AM_ANSI
 70
     0
  4
mm
 41
0.1
 42
0.05
 43
0.5
 44
0.1
 47
0.1
 48
0.1
 78
     7
140
0.12
141
0.0
146
0.71
147
0.06
176
   256
177
   256
178
     2
271
     2
272
     2
279
     2
284
     8
285
     8
286
     8
340
302A
  0
DIMSTYLE
105
30DF
330
2FDF
100
AcDbSymbolTableRecord
100
AcDbDimStyleTableRecord
  2
AM_ANSI$3
 70
     0
  4
mm
 41
0.1
 42
0.05
 43
0.5
 44
0.1
 47
0.1
 48
0.1
 78
     7
140
0.12
141
0.0
146
0.71
147
0.06
176
   256
177
   256
178
     2
271
     2
272
     2
279
     2
284
     8
285
     8
286
     8
340
302A
  0
DIMSTYLE
105
30E0
330
2FDF
100
AcDbSymbolTableRecord
100
AcDbDimStyleTableRecord
  2
AM_ANSI$4
 70
     0
  4
mm
 41
0.1
 42
0.05
 43
0.5
 44
0.1
 47
0.1
 48
0.1
 78
     7
140
0.12
141
0.0
146
0.71
147
0.06
176
   256
177
   256
178
     2
271
     2
272
     2
279
     2
284
     8
285
     8
286
     8
340
302A
  0
DIMSTYLE
105
30E1
330
2FDF
100
AcDbSymbolTableRecord
100
AcDbDimStyleTableRecord
  2
AM_ANSI$7
 70
     0
  4
mm
 41
0.1
 42
0.05
 43
0.5
 44
0.1
 47
0.1
 48
0.1
 78
     7
140
0.24
141
0.0
146
0.71
147
0.06
176
   256
177
   256
178
     2
271
     2
272
     2
279
     2
284
     8
285
     8
286
     8
340
302A
  0
DIMSTYLE
105
30E2
330
2FDF
100
AcDbSymbolTableRecord
100
AcDbDimStyleTableRecord
  2
AM_ANSI$SF
 70
     0
  4
mm
 41
0.1
 42
0.05
 43
0.5
 44
0.1
 47
0.1
 48
0.1
 75
     1
 76
     1
 78
     7
140
0.12
141
0.0
146
0.71
147
0.06
176
   256
177
   256
178
     2
271
     2
272
     2
279
     2
284
     8
285
     8
286
     8
340
302A
  0
DIMSTYLE
105
30E3
330
2FDF
100
AcDbSymbolTableRecord
100
AcDbDimStyleTableRecord
  2
AM_ANSI$SH
 70
     0
  4
mm
 41
0.1
 42
0.05
 43
0.5
 44
0.1
 47
0.1
 48
0.1
 75
     1
 76
     1
 78
     7
140
0.12
141
0.0
146
0.71
147
0.06
173
     1
176
   256
177
   256
178
     2
271
     2
272
     2
279
     2
284
     8
285
     8
286
     8
340
302A
  0
ENDTAB
  0
TABLE
  2
BLOCK_RECORD
  5
2FD6
330
0
100
AcDbSymbolTable
 70
    11
  0
BLOCK_RECORD
  5
3044
330
2FD6
100
AcDbSymbolTableRecord
100
AcDbBlockTableRecord
  2
*Model_Space
340
3047
 70
     0
280
     1
281
     0
  0
BLOCK_RECORD
  5
3040
330
2FD6
100
AcDbSymbolTableRecord
100
AcDbBlockTableRecord
  2
*Paper_Space
340
3043
 70
     0
280
     1
281
     0
  0
BLOCK_RECORD
  5
30F9
330
2FD6
100
AcDbSymbolTableRecord
100
AcDbBlockTableRecord
  2
_ACMFILLEDHALF
340
0
 70
     0
280
     1
281
     0
  0
ENDTAB
  0
ENDSEC
  0
SECTION
  2
BLOCKS
  0
BLOCK
  5
3045
330
3044
100
AcDbEntity
  8
0
100
AcDbBlockBegin
  2
*Model_Space
 70
     0
 10
0.0
 20
0.0
 30
0.0
  3
*Model_Space
  1

  0
ENDBLK
  5
3046
330
3044
100
AcDbEntity
  8
0
100
AcDbBlockEnd
  0
BLOCK
  5
3041
330
3040
100
AcDbEntity
 67
     1
  8
0
100
AcDbBlockBegin
  2
*Paper_Space
 70
     0
 10
0.0
 20
0.0
 30
0.0
  3
*Paper_Space
  1

  0
ENDBLK
  5
3042
330
3040
100
AcDbEntity
 67
     1
  8
0
100
AcDbBlockEnd
  0
BLOCK
  5
30FA
330
30F9
100
AcDbEntity
  8
0
100
AcDbBlockBegin
  2
_ACMFILLEDHALF
 70
     0
 10
0.0
 20
0.0
 30
0.0
  3
_ACMFILLEDHALF
  1

  0
TRACE
  5
2F40
330
30F9
100
AcDbEntity
  8
AM_0
 62
     0
100
AcDbTrace
 10
-0.8
 20
0.0
 30
0.0
 11
-1.0
 21
0.166666666
 31
0.0
 12
0.0
 22
0.0
 32
0.0
 13
0.0
 23
0.0
 33
0.0
  0
LINE
  5
2F41
330
30F9
100
AcDbEntity
  8
AM_0
 62
     0
100
AcDbLine
 10
-1.0
 20
0.0
 30
0.0
 11
-0.8
 21
0.0
 31
0.0
  0
ENDBLK
  5
2F3F
330
30F9
100
AcDbEntity
  8
0
100
AcDbBlockEnd
  0
ENDSEC
  0
SECTION
  2
ENTITIES
  0
ARC
  5
2BEA
330
3044
100
AcDbEntity
  8
AM_0
100
AcDbCircle
 10
374.2610097424304
 20
464.3742738344331
 30
0.0
 40
6.0
100
AcDbArc
 50
299.7448809999976
 51
0.0
  0
LINE
  5
2BEB
330
3044
100
AcDbEntity
  8
AM_0
100
AcDbLine
 10
577.7610097424305
 20
406.8923438344331
 30
0.0
 11
577.7610097424305
 21
526.892338834433
 31
0.0
  0
LINE
  5
2BEC
330
3044
100
AcDbEntity
  8
AM_0
100
AcDbLine
 10
563.7610097424307
 20
406.8923438344331
 30
0.0
 11
563.7610097424307
 21
517.8496388344329
 31
0.0
  0
LINE
  5
2BED
330
3044
100
AcDbEntity
  8
AM_0
100
AcDbLine
 10
554.6264597424306
 20
425.2453388344329
 30
0.0
 11
538.3735597424305
 21
474.3812938344331
 31
0.0
  0
LINE
  5
2BEE
330
3044
100
AcDbEntity
  8
AM_0
100
AcDbLine
 10
573.7610097424305
 20
264.392338834433
 30
0.0
 11
573.7610097424305
 21
549.3923388344329
 31
0.0
  0
LINE
  5
2BEF
330
3044
100
AcDbEntity
  8
AM_0
100
AcDbLine
 10
555.7610597424305
 20
428.3791888344331
 30
0.0
 11
555.7610597424305
 21
545.8666888344332
 31
0.0
  0
LINE
  5
2BF0
330
3044
100
AcDbEntity
  8
AM_0
100
AcDbLine
 10
457.7610097424308
 20
238.892338834433
 30
0.0
 11
457.7610097424308
 21
498.8923388344328
 31
0.0
  0
LINE
  5
2BF1
330
3044
100
AcDbEntity
  8
AM_0
100
AcDbLine
 10
397.2610097424306
 20
271.392338834433
 30
0.0
 11
397.2610097424306
 21
466.3923438344331
 31
0.0
  0
LINE
  5
2BF2
330
3044
100
AcDbEntity
  8
AM_0
100
AcDbLine
 10
444.7610097424308
 20
241.2776988344329
 30
0.0
 11
444.7610097424308
 21
496.5070388344331
 31
0.0
  0
LINE
  5
2BF3
330
3044
100
AcDbEntity
  8
AM_0
100
AcDbLine
 10
430.7610597424305
 20
254.7677988344331
 30
0.0
 11
430.7610597424305
 21
496.8923388344331
 31
0.0
  0
LINE
  5
2BF4
330
3044
100
AcDbEntity
  8
AM_0
100
AcDbLine
 10
380.2610097424306
 20
368.8923388344329
 30
0.0
 11
380.2610097424306
 21
477.8923388344328
 31
0.0
  0
LINE
  5
2BF5
330
3044
100
AcDbEntity
  8
ﾁｭｳｼﾝｾﾝ
100
AcDbLine
 10
205.7005494534645
 20
368.8923388344329
 30
0.0
 11
427.0971951046921
 21
368.8923388344329
 31
0.0
  0
LINE
  5
2BF6
330
3044
100
AcDbEntity
  8
AM_0
100
AcDbLine
 10
267.2610097424306
 20
353.8923388344331
 30
0.0
 11
264.2594097424304
 21
353.8923388344331
 31
0.0
  0
LINE
  5
2BF7
330
3044
100
AcDbEntity
  8
AM_0
100
AcDbLine
 10
267.2610097424306
 20
383.8923388344328
 30
0.0
 11
264.2594097424304
 21
383.8923388344328
 31
0.0
  0
LINE
  5
2BF8
330
3044
100
AcDbEntity
  8
AM_0
100
AcDbLine
 10
264.2594097424304
 20
353.8923388344331
 30
0.0
 11
264.2594097424304
 21
368.8923388344329
 31
0.0
  0
LINE
  5
2BF9
330
3044
100
AcDbEntity
  8
AM_0
100
AcDbLine
 10
264.2594097424304
 20
382.8923388344329
 30
0.0
 11
222.2594097424304
 21
382.8923388344329
 31
0.0
  0
LINE
  5
2BFB
330
3044
100
AcDbEntity
  8
AM_0
100
AcDbLine
 10
264.2594097424304
 20
354.8923388344331
 30
0.0
 11
222.2594097424304
 21
354.8923388344331
 31
0.0
  0
LINE
  5
2BFC
330
3044
100
AcDbEntity
  8
AM_0
100
AcDbLine
 10
222.2594097424304
 20
385.8923388344331
 30
0.0
 11
222.2594097424304
 21
354.8923388344331
 31
0.0
  0
LINE
  5
2BFD
330
3044
100
AcDbEntity
  8
AM_0
100
AcDbLine
 10
264.2594097424304
 20
383.8923388344328
 30
0.0
 11
264.2594097424304
 21
368.8923388344329
 31
0.0
  0
LINE
  5
2BFE
330
3044
100
AcDbEntity
  8
AM_0
100
AcDbLine
 10
254.2594097424304
 20
385.8923388344331
 30
0.0
 11
254.2594097424304
 21
382.8923388344329
 31
0.0
  0
LINE
  5
2BFF
330
3044
100
AcDbEntity
  8
AM_0
100
AcDbLine
 10
444.7610097424308
 20
378.8733588344328
 30
0.0
 11
563.7610097424307
 21
378.8733588344328
 31
0.0
  0
LINE
  5
2C00
330
3044
100
AcDbEntity
  8
AM_0
100
AcDbLine
 10
444.7610097424308
 20
358.9113538344331
 30
0.0
 11
563.7610097424307
 21
358.9113538344331
 31
0.0
  0
LINE
  5
2C01
330
3044
100
AcDbEntity
  8
AM_0
100
AcDbLine
 10
457.7610097424308
 20
238.8923538344329
 30
0.0
 11
517.4895097424305
 21
237.328313834433
 31
0.0
  0
LINE
  5
2C02
330
3044
100
AcDbEntity
  8
AM_0
100
AcDbLine
 10
485.7610597424304
 20
286.0880788344331
 30
0.0
 11
555.7610597424305
 21
286.0880788344331
 31
0.0
  0
LINE
  5
2C03
330
3044
100
AcDbEntity
  8
AM_0
100
AcDbLine
 10
485.7610597424304
 20
305.5303688344328
 30
0.0
 11
555.7610597424305
 21
305.5303688344328
 31
0.0
  0
LINE
  5
2C04
330
3044
100
AcDbEntity
  8
AM_0
100
AcDbLine
 10
444.7610097424308
 20
261.631873834433
 30
0.0
 11
559.5844597424306
 21
261.631873834433
 31
0.0
  0
LINE
  5
2C05
330
3044
100
AcDbEntity
  8
AM_0
100
AcDbLine
 10
444.7610097424308
 20
247.1750688344329
 30
0.0
 11
534.5446597424305
 21
247.1750688344329
 31
0.0
  0
LINE
  5
2C06
330
3044
100
AcDbEntity
  8
ﾁｭｳｼﾝｾﾝ
100
AcDbLine
 10
402.3412113581039
 20
406.8923438344331
 30
0.0
 11
657.7054097424307
 21
406.8923438344331
 31
0.0
  0
LINE
  5
2C07
330
3044
100
AcDbEntity
  8
AM_0
100
AcDbLine
 10
377.2378437424304
 20
278.6198618344331
 30
0.0
 11
305.1056057424304
 21
319.8382838344329
 31
0.0
  0
LINE
  5
2C08
330
3044
100
AcDbEntity
  8
AM_0
100
AcDbLine
 10
380.2610097424306
 20
272.3923388344331
 30
0.0
 11
380.2610097424306
 21
368.8923388344329
 31
0.0
  0
LINE
  5
2C09
330
3044
100
AcDbEntity
  8
AM_0
100
AcDbLine
 10
396.2610097424306
 20
342.3553388344329
 30
0.0
 11
396.2610097424306
 21
285.2795558344332
 31
0.0
  0
ARC
  5
2C0A
330
3044
100
AcDbEntity
  8
AM_0
100
AcDbCircle
 10
374.2610097424304
 20
273.4104028344331
 30
0.0
 40
6.0
100
AcDbArc
 50
0.0
 51
60.25511900000238
  0
LINE
  5
2C0B
330
3044
100
AcDbEntity
  8
AM_0
100
AcDbLine
 10
446.6911597424305
 20
239.2788738344329
 30
0.0
 11
457.7610097424308
 21
238.8923088344331
 31
0.0
  0
ARC
  5
2C0C
330
3044
100
AcDbEntity
  8
AM_0
100
AcDbCircle
 10
446.7610097424308
 20
241.2776988344329
 30
0.0
 40
2.00000005
100
AcDbArc
 50
179.9999899999999
 51
268.0000099999999
  0
LINE
  5
2C0D
330
3044
100
AcDbEntity
  8
AM_0
100
AcDbLine
 10
433.2400097424303
 20
251.8133888344332
 30
0.0
 11
442.2818597424305
 21
250.2190588344331
 31
0.0
  0
LINE
  5
2C0E
330
3044
100
AcDbEntity
  8
AM_0
100
AcDbLine
 10
397.2609097424305
 20
271.392338834433
 30
0.0
 11
425.9355097424307
 21
270.3909988344329
 31
0.0
  0
LINE
  5
2C0F
330
3044
100
AcDbEntity
  8
AM_0
100
AcDbLine
 10
397.2610097424306
 20
271.392338834433
 30
0.0
 11
381.2610097424304
 21
271.392338834433
 31
0.0
  0
ARC
  5
2C10
330
3044
100
AcDbEntity
  8
AM_0
100
AcDbCircle
 10
381.2610097424304
 20
272.3923388344331
 30
0.0
 40
1.0
100
AcDbArc
 50
180.0
 51
270.0
  0
ARC
  5
2C11
330
3044
100
AcDbEntity
  8
AM_0
100
AcDbCircle
 10
433.7610097424308
 20
254.7677988344331
 30
0.0
 40
3.00000005
100
AcDbArc
 50
179.9999899999999
 51
260.0
  0
ARC
  5
2C12
330
3044
100
AcDbEntity
  8
AM_0
100
AcDbCircle
 10
425.7610597424303
 20
265.3940788344331
 30
0.0
 40
5.0
100
AcDbArc
 50
0.0
 51
88.0
  0
LINE
  5
2C13
330
3044
100
AcDbEntity
  8
AM_0
100
AcDbLine
 10
399.2610097424304
 20
312.1165538344329
 30
0.0
 11
430.7610597424305
 21
312.1165538344329
 31
0.0
  0
LINE
  5
2C14
330
3044
100
AcDbEntity
  8
AM_0
100
AcDbLine
 10
399.2610097424304
 20
285.279548834433
 30
0.0
 11
430.7610597424305
 21
285.279548834433
 31
0.0
  0
LINE
  5
2C15
330
3044
100
AcDbEntity
  8
AM_0
100
AcDbLine
 10
399.2610097424304
 20
295.886173834433
 30
0.0
 11
430.7610597424305
 21
295.886173834433
 31
0.0
  0
LINE
  5
2C16
330
3044
100
AcDbEntity
  8
AM_0
100
AcDbLine
 10
399.2610097424304
 20
312.1165538344329
 30
0.0
 11
399.2610097424304
 21
285.279548834433
 31
0.0
  0
LINE
  5
2C17
330
3044
100
AcDbEntity
  8
AM_0
100
AcDbLine
 10
396.2610097424306
 20
285.2795558344332
 30
0.0
 11
382.2610097424306
 21
285.2795558344332
 31
0.0
  0
ARC
  5
2C18
330
3044
100
AcDbEntity
  8
AM_0
100
AcDbCircle
 10
382.2610097424306
 20
287.2795558344332
 30
0.0
 40
2.0
100
AcDbArc
 50
180.0
 51
270.0
  0
ARC
  5
2C19
330
3044
100
AcDbEntity
  8
AM_0
100
AcDbCircle
 10
441.7610097424308
 20
247.2646388344329
 30
0.0
 40
3.00000005
100
AcDbArc
 50
0.0
 51
79.99999800000001
  0
ARC
  5
2C1A
330
3044
100
AcDbEntity
  8
AM_0
100
AcDbCircle
 10
485.7610597424304
 20
295.8092388344331
 30
0.0
 40
9.721140999999999
100
AcDbArc
 50
90.00000300000001
 51
270.0
  0
LINE
  5
2C1B
330
3044
100
AcDbEntity
  8
AM_0
100
AcDbLine
 10
485.7610597424304
 20
287.9347288344328
 30
0.0
 11
485.7610597424304
 21
304.0347338344329
 31
0.0
  0
LINE
  5
2C1C
330
3044
100
AcDbEntity
  8
AM_0
100
AcDbLine
 10
279.2610097424304
 20
413.8006728344331
 30
0.0
 11
279.2610097424304
 21
368.8923388344329
 31
0.0
  0
LINE
  5
2C1D
330
3044
100
AcDbEntity
  8
AM_0
100
AcDbLine
 10
269.2610097424306
 20
408.8094348344329
 30
0.0
 11
269.2610097424306
 21
368.8923388344329
 31
0.0
  0
LINE
  5
2C1E
330
3044
100
AcDbEntity
  8
AM_0
100
AcDbLine
 10
267.2610097424306
 20
396.3923388344328
 30
0.0
 11
267.2610097424306
 21
368.8923388344329
 31
0.0
  0
LINE
  5
2C1F
330
3044
100
AcDbEntity
  8
AM_0
100
AcDbLine
 10
303.2610097424304
 20
416.8923388344329
 30
0.0
 11
303.2610097424304
 21
368.8923388344329
 31
0.0
  0
LINE
  5
2C20
330
3044
100
AcDbEntity
  8
AM_0
100
AcDbLine
 10
267.2610097424306
 20
341.3923388344331
 30
0.0
 11
267.2610097424306
 21
368.8923388344329
 31
0.0
  0
LINE
  5
2C21
330
3044
100
AcDbEntity
  8
AM_0
100
AcDbLine
 10
269.2610097424306
 20
328.9752418344331
 30
0.0
 11
269.2610097424306
 21
368.8923388344329
 31
0.0
  0
LINE
  5
2C22
330
3044
100
AcDbEntity
  8
AM_0
100
AcDbLine
 10
279.2610097424304
 20
323.9840048344331
 30
0.0
 11
279.2610097424304
 21
368.8923388344329
 31
0.0
  0
LINE
  5
2C23
330
3044
100
AcDbEntity
  8
AM_0
100
AcDbLine
 10
303.2610097424304
 20
320.8923388344331
 30
0.0
 11
303.2610097424304
 21
368.8923388344329
 31
0.0
  0
LINE
  5
2C24
330
3044
100
AcDbEntity
  8
AM_0
100
AcDbLine
 10
301.1364947424306
 20
320.8923388344331
 30
0.0
 11
281.4046037424304
 21
320.8923388344331
 31
0.0
  0
ARC
  5
2C25
330
3044
100
AcDbEntity
  8
AM_0
100
AcDbCircle
 10
281.4046037424304
 20
328.8923388344331
 30
0.0
 40
8.0
100
AcDbArc
 50
239.9999999999995
 51
270.0
  0
LINE
  5
2C26
330
3044
100
AcDbEntity
  8
AM_0
100
AcDbLine
 10
277.4046037424304
 20
321.9641348344331
 30
0.0
 11
271.2610097424306
 21
325.5111408344329
 31
0.0
  0
ARC
  5
2C27
330
3044
100
AcDbEntity
  8
AM_0
100
AcDbCircle
 10
273.2610097424304
 20
328.9752418344331
 30
0.0
 40
4.0
100
AcDbArc
 50
180.0
 51
239.9999999999995
  0
LINE
  5
2C28
330
3044
100
AcDbEntity
  8
AM_0
100
AcDbLine
 10
267.2610097424306
 20
341.3923388344331
 30
0.0
 11
269.2610097424306
 21
339.3923388344331
 31
0.0
  0
ARC
  5
2C29
330
3044
100
AcDbEntity
  8
AM_0
100
AcDbCircle
 10
301.1364947424306
 20
312.8923388344331
 30
0.0
 40
8.0
100
AcDbArc
 50
60.25511900000238
 51
90.0
  0
LINE
  5
2C2A
330
3044
100
AcDbEntity
  8
AM_0
100
AcDbLine
 10
377.2378437424304
 20
459.1648148344328
 30
0.0
 11
305.1056057424304
 21
417.9463928344331
 31
0.0
  0
LINE
  5
2C2B
330
3044
100
AcDbEntity
  8
AM_0
100
AcDbLine
 10
301.1364947424306
 20
416.8923388344329
 30
0.0
 11
281.4046037424304
 21
416.8923388344329
 31
0.0
  0
LINE
  5
2C2C
330
3044
100
AcDbEntity
  8
AM_0
100
AcDbLine
 10
267.2610097424306
 20
396.3923388344328
 30
0.0
 11
269.2610097424306
 21
398.3923388344329
 31
0.0
  0
ARC
  5
2C2D
330
3044
100
AcDbEntity
  8
AM_0
100
AcDbCircle
 10
281.4046037424304
 20
408.8923388344331
 30
0.0
 40
8.0
100
AcDbArc
 50
90.0
 51
120.0000000000005
  0
ARC
  5
2C2E
330
3044
100
AcDbEntity
  8
AM_0
100
AcDbCircle
 10
273.2610097424304
 20
408.8094348344329
 30
0.0
 40
4.0
100
AcDbArc
 50
120.0000000000005
 51
180.0
  0
LINE
  5
2C2F
330
3044
100
AcDbEntity
  8
AM_0
100
AcDbLine
 10
277.4046037424304
 20
415.8205418344328
 30
0.0
 11
271.2610097424306
 21
412.2735358344331
 31
0.0
  0
ARC
  5
2C30
330
3044
100
AcDbEntity
  8
AM_0
100
AcDbCircle
 10
301.1364947424306
 20
424.8923388344328
 30
0.0
 40
8.0
100
AcDbArc
 50
270.0
 51
299.7448809999976
  0
LINE
  5
2C31
330
3044
100
AcDbEntity
  8
AM_0
100
AcDbLine
 10
382.2610097424306
 20
326.8918108344331
 30
0.0
 11
396.2610097424306
 21
326.8918108344331
 31
0.0
  0
ARC
  5
2C32
330
3044
100
AcDbEntity
  8
AM_0
100
AcDbCircle
 10
382.2610097424306
 20
324.8918108344331
 30
0.0
 40
2.0
100
AcDbArc
 50
90.0
 51
180.0
  0
LINE
  5
2C33
330
3044
100
AcDbEntity
  8
AM_0
100
AcDbLine
 10
382.2610097424306
 20
342.3553388344329
 30
0.0
 11
396.2610097424306
 21
342.3553388344329
 31
0.0
  0
ARC
  5
2C34
330
3044
100
AcDbEntity
  8
AM_0
100
AcDbCircle
 10
382.2610097424306
 20
340.3553388344329
 30
0.0
 40
2.0
100
AcDbArc
 50
90.0
 51
180.0
  0
ARC
  5
2C35
330
3044
100
AcDbEntity
  8
AM_0
100
AcDbCircle
 10
382.2610097424306
 20
427.6681268344331
 30
0.0
 40
2.0
100
AcDbArc
 50
180.0
 51
270.0
  0
LINE
  5
2C36
330
3044
100
AcDbEntity
  8
AM_0
100
AcDbLine
 10
399.2610097424304
 20
452.5051338344328
 30
0.0
 11
399.2610097424304
 21
425.6681288344331
 31
0.0
  0
LINE
  5
2C37
330
3044
100
AcDbEntity
  8
AM_0
100
AcDbLine
 10
396.2610097424306
 20
452.5051218344328
 30
0.0
 11
396.2610097424306
 21
425.6681268344332
 31
0.0
  0
LINE
  5
2C38
330
3044
100
AcDbEntity
  8
AM_0
100
AcDbLine
 10
399.2610097424304
 20
425.6681288344331
 30
0.0
 11
430.7610597424305
 21
425.6681288344331
 31
0.0
  0
LINE
  5
2C39
330
3044
100
AcDbEntity
  8
AM_0
100
AcDbLine
 10
382.2610097424306
 20
425.6681268344332
 30
0.0
 11
396.2610097424306
 21
425.6681268344332
 31
0.0
  0
LINE
  5
2C3A
330
3044
100
AcDbEntity
  8
AM_0
100
AcDbLine
 10
399.2610097424304
 20
441.8985088344331
 30
0.0
 11
430.7610597424305
 21
441.8985088344331
 31
0.0
  0
LINE
  5
2C3B
330
3044
100
AcDbEntity
  8
AM_0
100
AcDbLine
 10
399.2610097424304
 20
452.5051338344328
 30
0.0
 11
430.7610597424305
 21
452.5051338344328
 31
0.0
  0
LINE
  5
2C3C
330
3044
100
AcDbEntity
  8
AM_0
100
AcDbLine
 10
396.2610097424306
 20
441.8985198344331
 30
0.0
 11
382.2610097424306
 21
441.8985198344331
 31
0.0
  0
ARC
  5
2C3D
330
3044
100
AcDbEntity
  8
AM_0
100
AcDbCircle
 10
382.2610097424306
 20
439.8985198344331
 30
0.0
 40
2.0
100
AcDbArc
 50
90.0
 51
180.0
  0
LINE
  5
2C3E
330
3044
100
AcDbEntity
  8
AM_0
100
AcDbLine
 10
396.2610097424306
 20
452.5051218344328
 30
0.0
 11
382.2610097424306
 21
452.5051218344328
 31
0.0
  0
ARC
  5
2C3F
330
3044
100
AcDbEntity
  8
AM_0
100
AcDbCircle
 10
382.2610097424306
 20
450.505121834433
 30
0.0
 40
2.0
100
AcDbArc
 50
90.0
 51
180.0
  0
ARC
  5
2C40
330
3044
100
AcDbEntity
  8
AM_0
100
AcDbCircle
 10
560.7610597424304
 20
315.385503834433
 30
0.0
 40
5.0
100
AcDbArc
 50
90.00000300000001
 51
180.00001
  0
LINE
  5
2C41
330
3044
100
AcDbEntity
  8
AM_0
100
AcDbLine
 10
563.7610097424307
 20
406.8923438344331
 30
0.0
 11
563.7610097424307
 21
295.9350338344331
 31
0.0
  0
LINE
  5
2C42
330
3044
100
AcDbEntity
  8
AM_0
100
AcDbLine
 10
577.7610097424305
 20
406.8923438344331
 30
0.0
 11
577.7610097424305
 21
286.8923388344331
 31
0.0
  0
LINE
  5
2C43
330
3044
100
AcDbEntity
  8
AM_0
100
AcDbLine
 10
517.4895597424306
 20
237.328283834433
 30
0.0
 11
563.7610097424307
 21
264.0431288344331
 31
0.0
  0
LINE
  5
2C44
330
3044
100
AcDbEntity
  8
AM_0
100
AcDbLine
 10
555.7610597424305
 20
266.870368834433
 30
0.0
 11
555.7610597424305
 21
315.385503834433
 31
0.0
  0
LINE
  5
2C45
330
3044
100
AcDbEntity
  8
AM_0
100
AcDbLine
 10
558.8656597424303
 20
263.8721988344332
 30
0.0
 11
573.7610097424305
 21
264.392338834433
 31
0.0
  0
ARC
  5
2C46
330
3044
100
AcDbEntity
  8
AM_0
100
AcDbCircle
 10
558.7610097424308
 20
266.870368834433
 30
0.0
 40
3.00000005
100
AcDbArc
 50
179.9999899999999
 51
271.9999899999999
  0
ARC
  5
2C47
330
3044
100
AcDbEntity
  8
AM_0
100
AcDbCircle
 10
558.7610097424308
 20
295.9350338344331
 30
0.0
 40
5.0
100
AcDbArc
 50
268.0
 51
0.0
  0
LINE
  5
2C48
330
3044
100
AcDbEntity
  8
AM_0
100
AcDbLine
 10
573.7610097424305
 20
286.8923388344331
 30
0.0
 11
577.7610097424305
 21
286.8923388344331
 31
0.0
  0
LINE
  5
2C49
330
3044
100
AcDbEntity
  8
AM_0
100
AcDbLine
 10
579.7610097424307
 20
427.8923738344329
 30
0.0
 11
649.7610097424304
 21
427.8923738344329
 31
0.0
  0
LINE
  5
2C4A
330
3044
100
AcDbEntity
  8
AM_0
100
AcDbLine
 10
579.7610097424307
 20
385.8923438344329
 30
0.0
 11
649.7610097424304
 21
385.8923438344329
 31
0.0
  0
LINE
  5
2C4B
330
3044
100
AcDbEntity
  8
AM_0
100
AcDbLine
 10
593.7610097424307
 20
430.8923438344328
 30
0.0
 11
649.7610097424304
 21
430.8923438344328
 31
0.0
  0
LINE
  5
2C4C
330
3044
100
AcDbEntity
  8
AM_0
100
AcDbLine
 10
579.7610097424307
 20
384.3923438344331
 30
0.0
 11
579.7610097424307
 21
429.3923438344329
 31
0.0
  0
LINE
  5
2C4D
330
3044
100
AcDbEntity
  8
AM_0
100
AcDbLine
 10
577.7610097424305
 20
384.3923438344331
 30
0.0
 11
579.7610097424307
 21
384.3923438344331
 31
0.0
  0
ARC
  5
2C4E
330
3044
100
AcDbEntity
  8
AM_0
100
AcDbCircle
 10
559.3735597424305
 20
426.8154988344329
 30
0.0
 40
5.0
100
AcDbArc
 50
198.30292
 51
270.0
  0
LINE
  5
2C4F
330
3044
100
AcDbEntity
  8
AM_0
100
AcDbLine
 10
559.3735597424305
 20
421.8154988344331
 30
0.0
 11
563.7610097424307
 21
421.8154988344331
 31
0.0
  0
LINE
  5
2C50
330
3044
100
AcDbEntity
  8
AM_0
100
AcDbLine
 10
577.7610097424305
 20
429.3923438344329
 30
0.0
 11
579.7610097424307
 21
429.3923438344329
 31
0.0
  0
LINE
  5
2C51
330
3044
100
AcDbEntity
  8
AM_0
100
AcDbLine
 10
593.7610097424307
 20
430.8923438344328
 30
0.0
 11
593.7610097424307
 21
427.8923738344329
 31
0.0
  0
LINE
  5
2C52
330
3044
100
AcDbEntity
  8
AM_0
100
AcDbLine
 10
649.7610097424304
 20
385.8923438344329
 30
0.0
 11
649.7610097424304
 21
430.8923438344328
 31
0.0
  0
LINE
  5
2C53
330
3044
100
AcDbEntity
  8
AM_0
100
AcDbLine
 10
444.7610097424308
 20
490.6096588344332
 30
0.0
 11
520.6715097424305
 21
490.6096588344332
 31
0.0
  0
LINE
  5
2C54
330
3044
100
AcDbEntity
  8
AM_0
100
AcDbLine
 10
444.7610097424308
 20
476.1528738344328
 30
0.0
 11
506.8225097424305
 21
476.1528738344328
 31
0.0
  0
LINE
  5
2C55
330
3044
100
AcDbEntity
  8
AM_0
100
AcDbLine
 10
457.7610597424303
 20
498.8923388344328
 30
0.0
 11
527.6491597424303
 21
500.7224388344329
 31
0.0
  0
ARC
  5
2C56
330
3044
100
AcDbEntity
  8
AM_0
100
AcDbCircle
 10
441.7610097424308
 20
519.3923388344329
 30
0.0
 40
20.50000049999999
100
AcDbArc
 50
304.6136399999999
 51
235.38635
  0
LINE
  5
2C57
330
3044
100
AcDbEntity
  8
AM_0
100
AcDbLine
 10
433.2401097424307
 20
485.9713238344331
 30
0.0
 11
442.2819597424306
 21
487.5656538344331
 31
0.0
  0
LINE
  5
2C58
330
3044
100
AcDbEntity
  8
AM_0
100
AcDbLine
 10
431.4381097424305
 20
498.3923388344329
 30
0.0
 11
446.0935597424309
 21
498.3923388344329
 31
0.0
  0
LINE
  5
2C59
330
3044
100
AcDbEntity
  8
AM_0
100
AcDbLine
 10
431.7610597424303
 20
498.3923388344329
 30
0.0
 11
433.4732597424308
 21
504.7824388344329
 31
0.0
  0
ARC
  5
2C5A
330
3044
100
AcDbEntity
  8
AM_0
100
AcDbCircle
 10
434.4391597424303
 20
504.5235888344331
 30
0.0
 40
1.0
100
AcDbArc
 50
100.4607199999999
 51
164.99999
  0
CIRCLE
  5
2C5B
330
3044
100
AcDbEntity
  8
AM_0
100
AcDbCircle
 10
441.7610097424308
 20
519.3923388344329
 30
0.0
 40
12.5
  0
ARC
  5
2C5C
330
3044
100
AcDbEntity
  8
AM_0
100
AcDbCircle
 10
427.8440097424303
 20
499.2288388344331
 30
0.0
 40
4.000000049999997
100
AcDbArc
 50
347.92933
 51
55.38635899999999
  0
LINE
  5
2C5D
330
3044
100
AcDbEntity
  8
AM_0
100
AcDbLine
 10
397.2610097424306
 20
466.3923738344331
 30
0.0
 11
425.9355597424304
 21
467.3936838344329
 31
0.0
  0
LINE
  5
2C5E
330
3044
100
AcDbEntity
  8
AM_0
100
AcDbLine
 10
396.2610097424306
 20
479.8923388344329
 30
0.0
 11
382.2610097424306
 21
479.8923388344329
 31
0.0
  0
LINE
  5
2C5F
330
3044
100
AcDbEntity
  8
AM_0
100
AcDbLine
 10
397.2610097424306
 20
466.3923388344332
 30
0.0
 11
381.2610097424304
 21
466.3923388344332
 31
0.0
  0
ARC
  5
2C60
330
3044
100
AcDbEntity
  8
AM_0
100
AcDbCircle
 10
381.2610097424304
 20
465.3923388344328
 30
0.0
 40
1.0
100
AcDbArc
 50
90.0
 51
180.0
  0
ARC
  5
2C61
330
3044
100
AcDbEntity
  8
AM_0
100
AcDbCircle
 10
382.2610097424306
 20
477.8923388344328
 30
0.0
 40
2.0
100
AcDbArc
 50
90.0
 51
180.0
  0
LINE
  5
2C62
330
3044
100
AcDbEntity
  8
AM_0
100
AcDbLine
 10
396.2610097424306
 20
466.3923388344332
 30
0.0
 11
396.2610097424306
 21
479.8923388344329
 31
0.0
  0
ARC
  5
2C63
330
3044
100
AcDbEntity
  8
AM_0
100
AcDbCircle
 10
425.7610597424303
 20
472.3906638344329
 30
0.0
 40
5.0
100
AcDbArc
 50
272.0
 51
0.0
  0
ARC
  5
2C64
330
3044
100
AcDbEntity
  8
AM_0
100
AcDbCircle
 10
432.7610097424308
 20
496.8923388344331
 30
0.0
 40
2.00000005
100
AcDbArc
 50
131.4096199999999
 51
180.00001
  0
ARC
  5
2C65
330
3044
100
AcDbEntity
  8
AM_0
100
AcDbCircle
 10
433.7610097424308
 20
483.0169138344331
 30
0.0
 40
3.00000005
100
AcDbArc
 50
100.0
 51
159.3455099999999
  0
ARC
  5
2C66
330
3044
100
AcDbEntity
  8
AM_0
100
AcDbCircle
 10
446.7610097424308
 20
496.5070388344331
 30
0.0
 40
2.00000005
100
AcDbArc
 50
91.99999799999995
 51
180.00001
  0
LINE
  5
2C67
330
3044
100
AcDbEntity
  8
AM_0
100
AcDbLine
 10
446.6912097424303
 20
498.5057888344329
 30
0.0
 11
457.7610097424308
 21
498.8923388344328
 31
0.0
  0
ARC
  5
2C68
330
3044
100
AcDbEntity
  8
AM_0
100
AcDbCircle
 10
441.7610097424308
 20
490.5200888344332
 30
0.0
 40
3.00000005
100
AcDbArc
 50
280.0
 51
0.0
  0
LINE
  5
2C69
330
3044
100
AcDbEntity
  8
AM_0
100
AcDbLine
 10
441.7610097424308
 20
506.8923388344328
 30
0.0
 11
449.2644097424308
 21
505.5069888344331
 31
0.0
  0
LINE
  5
2C6A
330
3044
100
AcDbEntity
  8
AM_0
100
AcDbLine
 10
433.9438597424309
 20
505.3923888344328
 30
0.0
 11
449.5780597424303
 21
505.3923888344328
 31
0.0
  0
LINE
  5
2C6B
330
3044
100
AcDbEntity
  8
AM_0
100
AcDbLine
 10
434.2575597424306
 20
505.5070388344331
 30
0.0
 11
441.7610097424308
 21
506.8923888344328
 31
0.0
  0
ARC
  5
2C6C
330
3044
100
AcDbEntity
  8
AM_0
100
AcDbCircle
 10
449.0829097424304
 20
504.5235888344331
 30
0.0
 40
1.0
100
AcDbArc
 50
15.0
 51
79.539281
  0
ARC
  5
2C6D
330
3044
100
AcDbEntity
  8
AM_0
100
AcDbCircle
 10
455.6779097424303
 20
499.2288388344331
 30
0.0
 40
4.000000049999997
100
AcDbArc
 50
124.61365
 51
187.86822
  0
LINE
  5
2C6E
330
3044
100
AcDbEntity
  8
AM_0
100
AcDbLine
 10
451.6838597424305
 20
498.6800888344329
 30
0.0
 11
450.0487097424303
 21
504.7824388344329
 31
0.0
  0
LINE
  5
2C6F
330
3044
100
AcDbEntity
  8
AM_0
100
AcDbLine
 10
553.6136597424306
 20
503.8959888344328
 30
0.0
 11
511.8556097424307
 21
478.9231338344331
 31
0.0
  0
LINE
  5
2C70
330
3044
100
AcDbEntity
  8
AM_0
100
AcDbLine
 10
553.3273097424308
 20
510.1389888344331
 30
0.0
 11
516.2684097424302
 21
487.9763888344331
 31
0.0
  0
LINE
  5
2C71
330
3044
100
AcDbEntity
  8
AM_0
100
AcDbLine
 10
539.7038097424306
 20
475.3736038344331
 30
0.0
 11
555.7610097424308
 21
487.3524238344328
 31
0.0
  0
LINE
  5
2C72
330
3044
100
AcDbEntity
  8
AM_0
100
AcDbLine
 10
531.0538097424305
 20
502.1851888344331
 30
0.0
 11
554.2965097424305
 21
525.4278888344331
 31
0.0
  0
LINE
  5
2C73
330
3044
100
AcDbEntity
  8
AM_0
100
AcDbLine
 10
530.9687097424307
 20
496.7677388344329
 30
0.0
 11
529.6433097424303
 21
500.7746388344329
 31
0.0
  0
LINE
  5
2C74
330
3044
100
AcDbEntity
  8
AM_0
100
AcDbLine
 10
509.2610097424308
 20
474.3812638344329
 30
0.0
 11
536.7140097424304
 21
474.3812638344329
 31
0.0
  0
ARC
  5
2C75
330
3044
100
AcDbEntity
  8
AM_0
100
AcDbCircle
 10
487.9608097424306
 20
500.6874888344331
 30
0.0
 40
30.9468845
100
AcDbArc
 50
307.5523099999999
 51
335.5961299999999
  0
ARC
  5
2C76
330
3044
100
AcDbEntity
  8
AM_0
100
AcDbCircle
 10
509.2610097424308
 20
479.3812638344331
 30
0.0
 40
5.0
100
AcDbArc
 50
229.7633299999999
 51
270.0
  0
ARC
  5
2C77
330
3044
100
AcDbEntity
  8
AM_0
100
AcDbCircle
 10
536.7140097424304
 20
479.3812638344331
 30
0.0
 40
5.0
100
AcDbArc
 50
270.0
 51
306.72321
  0
ARC
  5
2C78
330
3044
100
AcDbEntity
  8
AM_0
100
AcDbCircle
 10
527.5183097424306
 20
505.7207388344329
 30
0.0
 40
5.0
100
AcDbArc
 50
271.4999999999997
 51
315.0
  0
ARC
  5
2C79
330
3044
100
AcDbEntity
  8
AM_0
100
AcDbCircle
 10
550.7610597424303
 20
514.4301388344331
 30
0.0
 40
5.0
100
AcDbArc
 50
300.8809799999998
 51
0.0
  0
ARC
  5
2C7A
330
3044
100
AcDbEntity
  8
AM_0
100
AcDbCircle
 10
550.7610597424303
 20
528.9633888344329
 30
0.0
 40
5.0
100
AcDbArc
 50
315.0
 51
0.0
  0
ARC
  5
2C7B
330
3044
100
AcDbEntity
  8
AM_0
100
AcDbCircle
 10
558.7610097424308
 20
517.8496388344329
 30
0.0
 40
5.0
100
AcDbArc
 50
0.0
 51
91.99999799999995
  0
LINE
  5
2C7C
330
3044
100
AcDbEntity
  8
AM_0
100
AcDbLine
 10
573.7610097424305
 20
526.892338834433
 30
0.0
 11
577.7610097424305
 21
526.892338834433
 31
0.0
  0
LINE
  5
2C7D
330
3044
100
AcDbEntity
  8
AM_0
100
AcDbLine
 10
558.6563097424309
 20
548.8648888344332
 30
0.0
 11
573.7610597424303
 21
549.3923388344329
 31
0.0
  0
ARC
  5
2C7E
330
3044
100
AcDbEntity
  8
AM_0
100
AcDbCircle
 10
558.7610097424308
 20
545.8666888344332
 30
0.0
 40
3.00000005
100
AcDbArc
 50
91.99999799999995
 51
180.00001
  0
LINE
  5
2C7F
330
3044
100
AcDbEntity
  8
AM_0
100
AcDbLine
 10
1006.642197541657
 20
479.3962788344328
 30
0.0
 11
977.4482275416575
 21
450.2023088344331
 31
0.0
  0
LINE
  5
2C80
330
3044
100
AcDbEntity
  8
AM_0
100
AcDbLine
 10
999.5711525416576
 20
486.4673538344328
 30
0.0
 11
970.3771525416575
 21
457.2733838344329
 31
0.0
  0
LINE
  5
2C81
330
3044
100
AcDbEntity
  8
AM_0
100
AcDbLine
 10
854.5632775416576
 20
486.4673538344328
 30
0.0
 11
883.7572775416575
 21
457.2733538344331
 31
0.0
  0
LINE
  5
2C82
330
3044
100
AcDbEntity
  8
AM_0
100
AcDbLine
 10
847.4922025416583
 20
479.3962788344328
 30
0.0
 11
876.6862025416575
 21
450.2023088344331
 31
0.0
  0
ARC
  5
2C83
330
3044
100
AcDbEntity
  8
AM_0
100
AcDbCircle
 10
927.0672175416576
 20
406.8923438344331
 30
0.0
 40
61.999995
100
AcDbArc
 50
53.583681
 51
126.41632
  0
LINE
  5
2C84
330
3044
100
AcDbEntity
  8
AM_0
100
AcDbLine
 10
787.0700525416578
 20
528.5641388344329
 30
0.0
 11
784.5672125416581
 21
456.8923438344332
 31
0.0
  0
LINE
  5
2C85
330
3044
100
AcDbEntity
  8
AM_0
100
AcDbLine
 10
1067.064377541657
 20
528.5641388344329
 30
0.0
 11
1069.567217541658
 21
456.8923138344329
 31
0.0
  0
CIRCLE
  5
2C86
330
3044
100
AcDbEntity
  8
AM_0
100
AcDbCircle
 10
927.0672175416576
 20
406.8923438344332
 30
0.0
 40
120.0
  0
CIRCLE
  5
2C87
330
3044
100
AcDbEntity
  8
AM_0
100
AcDbCircle
 10
927.0672175416576
 20
406.8923438344331
 30
0.0
 40
113.0
  0
ARC
  5
2C88
330
3044
100
AcDbEntity
  8
AM_0
100
AcDbCircle
 10
927.0672175416576
 20
368.8923388344329
 30
0.0
 40
122.0
100
AcDbArc
 50
22.57198199999999
 51
55.32682000000001
  0
ARC
  5
2C89
330
3044
100
AcDbEntity
  8
AM_0
100
AcDbCircle
 10
927.0672175416576
 20
368.8923388344329
 30
0.0
 40
122.0
100
AcDbArc
 50
124.67318
 51
157.42802
  0
LINE
  5
2C8A
330
3044
100
AcDbEntity
  8
ﾁｭｳｼﾝｾﾝ
100
AcDbLine
 10
927.0672175416576
 20
555.1640857811141
 30
0.0
 11
927.0672175416576
 21
230.9227488344329
 31
0.0
  0
LINE
  5
2C8B
330
3044
100
AcDbEntity
  8
ﾁｭｳｼﾝｾﾝ
100
AcDbLine
 10
780.7558019275984
 20
406.8923438344332
 30
0.0
 11
1075.628491463588
 21
406.8923438344331
 31
0.0
  0
LINE
  5
2C8C
330
3044
100
AcDbEntity
  8
AM_0
100
AcDbLine
 10
1067.064397541658
 20
285.2205238344329
 30
0.0
 11
1069.567232541658
 21
356.8923388344331
 31
0.0
  0
ARC
  5
2C8D
330
3044
100
AcDbEntity
  8
AM_0
100
AcDbCircle
 10
1048.075962541658
 20
285.8836138344329
 30
0.0
 40
19.0000005
100
AcDbArc
 50
272.0
 51
358.0
  0
LINE
  5
2C8E
330
3044
100
AcDbEntity
  8
AM_0
100
AcDbLine
 10
805.3954025416578
 20
266.895178834433
 30
0.0
 11
877.0672175416578
 21
264.392338834433
 31
0.0
  0
LINE
  5
2C8F
330
3044
100
AcDbEntity
  8
AM_0
100
AcDbLine
 10
821.5447225416582
 20
378.8923438344331
 30
0.0
 11
857.0672125416583
 21
378.8923438344331
 31
0.0
  0
LINE
  5
2C90
330
3044
100
AcDbEntity
  8
AM_0
100
AcDbLine
 10
787.0700525416578
 20
285.2205238344329
 30
0.0
 11
784.5672125416581
 21
356.8923388344331
 31
0.0
  0
ARC
  5
2C91
330
3044
100
AcDbEntity
  8
AM_0
100
AcDbCircle
 10
806.0584575416577
 20
285.8836138344329
 30
0.0
 40
19.0000005
100
AcDbArc
 50
182.0
 51
268.0
  0
CIRCLE
  5
2C92
330
3044
100
AcDbEntity
  8
AM_0
100
AcDbCircle
 10
806.8590525416576
 20
286.6842088344329
 30
0.0
 40
9.5
  0
ARC
  5
2C93
330
3044
100
AcDbEntity
  8
ﾁｭｳｼﾝｾﾝ1
100
AcDbCircle
 10
927.0672175416562
 20
406.8923438344332
 30
0.0
 40
170.0000049999991
100
AcDbArc
 50
218.7511002556802
 51
231.0146100000002
  0
LINE
  5
2C94
330
3044
100
AcDbEntity
  8
ﾁｭｳｼﾝｾﾝ1
100
AcDbLine
 10
794.7191546682883
 20
274.5443054060239
 30
0.0
 11
820.4808724558368
 21
300.3060007988328
 31
0.0
  0
LINE
  5
2C95
330
3044
100
AcDbEntity
  8
AM_0
100
AcDbLine
 10
784.5672125416581
 20
356.8923388344331
 30
0.0
 11
784.5672125416581
 21
406.8923438344331
 31
0.0
  0
ARC
  5
2C96
330
3044
100
AcDbEntity
  8
AM_0
100
AcDbCircle
 10
821.5447225416582
 20
383.8923438344331
 30
0.0
 40
5.0
100
AcDbArc
 50
192.2960399999998
 51
270.0
  0
LINE
  5
2C97
330
3044
100
AcDbEntity
  8
AM_0
100
AcDbLine
 10
784.5672125416581
 20
456.8923438344332
 30
0.0
 11
784.5672125416581
 21
406.8923438344331
 31
0.0
  0
LINE
  5
2C98
330
3044
100
AcDbEntity
  8
AM_0
100
AcDbLine
 10
977.0672175416576
 20
264.392338834433
 30
0.0
 11
927.0672175416576
 21
264.392338834433
 31
0.0
  0
ARC
  5
2C99
330
3044
100
AcDbEntity
  8
AM_0
100
AcDbCircle
 10
927.0672175416576
 20
368.8923388344329
 30
0.0
 40
130.0
100
AcDbArc
 50
246.6310399999999
 51
293.36896
  0
ARC
  5
2C9A
330
3044
100
AcDbEntity
  8
AM_0
100
AcDbCircle
 10
862.0672175416579
 20
256.309028834433
 30
0.0
 40
10.0
100
AcDbArc
 50
195.00001
 51
285.0
  0
LINE
  5
2C9B
330
3044
100
AcDbEntity
  8
AM_0
100
AcDbLine
 10
877.0672175416578
 20
264.392338834433
 30
0.0
 11
927.0672175416576
 21
264.392338834433
 31
0.0
  0
LINE
  5
2C9C
330
3044
100
AcDbEntity
  8
AM_0
100
AcDbLine
 10
864.6554125416576
 20
246.6497988344332
 30
0.0
 11
875.5026425416581
 21
249.5563088344328
 31
0.0
  0
LINE
  5
2C9D
330
3044
100
AcDbEntity
  8
AM_0
100
AcDbLine
 10
852.4079425416577
 20
253.7208588344331
 30
0.0
 11
849.2885875416575
 21
265.3624338344329
 31
0.0
  0
ARC
  5
2C9E
330
3044
100
AcDbEntity
  8
AM_0
100
AcDbCircle
 10
992.0672175416575
 20
256.309028834433
 30
0.0
 40
10.0
100
AcDbArc
 50
255.0
 51
345.0
  0
LINE
  5
2C9F
330
3044
100
AcDbEntity
  8
AM_0
100
AcDbLine
 10
1048.739062541658
 20
266.895208834433
 30
0.0
 11
977.0672175416576
 21
264.392368834433
 31
0.0
  0
LINE
  5
2CA0
330
3044
100
AcDbEntity
  8
AM_0
100
AcDbLine
 10
989.4790525416579
 20
246.6497838344329
 30
0.0
 11
978.6317925416579
 21
249.5562938344328
 31
0.0
  0
LINE
  5
2CA1
330
3044
100
AcDbEntity
  8
AM_0
100
AcDbLine
 10
1001.726487541658
 20
253.7208588344331
 30
0.0
 11
1004.845842541657
 21
265.3624038344331
 31
0.0
  0
CIRCLE
  5
2CA2
330
3044
100
AcDbEntity
  8
AM_0
100
AcDbCircle
 10
1047.275377541658
 20
286.6842088344329
 30
0.0
 40
9.5
  0
LINE
  5
2CA3
330
3044
100
AcDbEntity
  8
ﾁｭｳｼﾝｾﾝ
100
AcDbLine
 10
865.0672175416579
 20
368.8923388344329
 30
0.0
 11
989.0672175416579
 21
368.8923388344329
 31
0.0
  0
CIRCLE
  5
2CA4
330
3044
100
AcDbEntity
  8
AM_0
100
AcDbCircle
 10
927.0672175416576
 20
406.8923438344331
 30
0.0
 40
41.00000049999999
  0
ARC
  5
2CA5
330
3044
100
AcDbEntity
  8
AM_0
100
AcDbCircle
 10
927.0672175416576
 20
406.8923438344331
 30
0.0
 40
20.9999985
100
AcDbArc
 50
106.60155
 51
73.398452
  0
LINE
  5
2CA6
330
3044
100
AcDbEntity
  8
AM_0
100
AcDbLine
 10
865.0672175416579
 20
406.8923438344331
 30
0.0
 11
865.0672175416579
 21
386.8923438344331
 31
0.0
  0
ARC
  5
2CA7
330
3044
100
AcDbEntity
  8
AM_0
100
AcDbCircle
 10
857.0672125416583
 20
386.8923438344331
 30
0.0
 40
8.0
100
AcDbArc
 50
270.0
 51
0.0
  0
ARC
  5
2CA8
330
3044
100
AcDbEntity
  8
AM_0
100
AcDbCircle
 10
927.0672175416576
 20
406.8923438344331
 30
0.0
 40
61.999995
100
AcDbArc
 50
142.1149899999998
 51
180.00001
  0
ARC
  5
2CA9
330
3044
100
AcDbEntity
  8
AM_0
100
AcDbCircle
 10
873.1506825416582
 20
446.6667888344328
 30
0.0
 40
5.0
100
AcDbArc
 50
323.5836799999999
 51
45.00000099999999
  0
ARC
  5
2CAA
330
3044
100
AcDbEntity
  8
AM_0
100
AcDbCircle
 10
887.2928025416582
 20
460.8089388344329
 30
0.0
 40
5.0
100
AcDbArc
 50
225.0
 51
306.4163199999999
  0
LINE
  5
2CAB
330
3044
100
AcDbEntity
  8
AM_0
100
AcDbLine
 10
933.0672175416575
 20
430.8923438344328
 30
0.0
 11
933.0672175416575
 21
422.8923738344329
 31
0.0
  0
LINE
  5
2CAC
330
3044
100
AcDbEntity
  8
AM_0
100
AcDbLine
 10
921.0672175416579
 20
430.8923438344328
 30
0.0
 11
921.0672175416579
 21
422.8923738344329
 31
0.0
  0
LINE
  5
2CAD
330
3044
100
AcDbEntity
  8
AM_0
100
AcDbLine
 10
921.0672175416579
 20
422.8923738344329
 30
0.0
 11
933.0672175416575
 21
422.8923738344329
 31
0.0
  0
CIRCLE
  5
2CAE
330
3044
100
AcDbEntity
  8
AM_5
100
AcDbCircle
 10
927.0672175416576
 20
406.8923438344331
 30
0.0
 40
5.0
  0
CIRCLE
  5
2CAF
330
3044
100
AcDbEntity
  8
AM_0
100
AcDbCircle
 10
927.0672175416576
 20
406.8923438344331
 30
0.0
 40
3.50000005
  0
POINT
  5
2CB0
330
3044
100
AcDbEntity
  8
AM_0
100
AcDbPoint
 10
927.0672175416576
 20
406.8923438344331
 30
0.0
  0
LINE
  5
2CB1
330
3044
100
AcDbEntity
  8
AM_0
100
AcDbLine
 10
921.0672175416579
 20
430.8923438344328
 30
0.0
 11
933.0672175416575
 21
430.8923438344328
 31
0.0
  0
LINE
  5
2CB2
330
3044
100
AcDbEntity
  8
AM_0
100
AcDbLine
 10
989.0672175416579
 20
406.8923438344331
 30
0.0
 11
989.0672175416579
 21
386.8923438344331
 31
0.0
  0
LINE
  5
2CB3
330
3044
100
AcDbEntity
  8
AM_0
100
AcDbLine
 10
1032.589722541658
 20
378.8923438344331
 30
0.0
 11
997.0672175416579
 21
378.8923438344331
 31
0.0
  0
ARC
  5
2CB4
330
3044
100
AcDbEntity
  8
AM_0
100
AcDbCircle
 10
997.0672175416579
 20
386.8923438344331
 30
0.0
 40
8.0
100
AcDbArc
 50
179.9999899999999
 51
270.0
  0
ARC
  5
2CB5
330
3044
100
AcDbEntity
  8
AM_0
100
AcDbCircle
 10
1032.589722541658
 20
383.8923438344331
 30
0.0
 40
5.0
100
AcDbArc
 50
270.0
 51
347.70395
  0
ARC
  5
2CB6
330
3044
100
AcDbEntity
  8
AM_0
100
AcDbCircle
 10
927.0672175416576
 20
406.8923438344331
 30
0.0
 40
61.999995
100
AcDbArc
 50
0.0
 51
36.41631799999998
  0
ARC
  5
2CB7
330
3044
100
AcDbEntity
  8
AM_0
100
AcDbCircle
 10
980.9837825416579
 20
446.6667888344328
 30
0.0
 40
5.0
100
AcDbArc
 50
135.0
 51
216.41632
  0
ARC
  5
2CB8
330
3044
100
AcDbEntity
  8
AM_0
100
AcDbCircle
 10
966.8416325416583
 20
460.8089388344329
 30
0.0
 40
5.0
100
AcDbArc
 50
233.5836799999999
 51
315.0
  0
LINE
  5
2CB9
330
3044
100
AcDbEntity
  8
AM_0
100
AcDbLine
 10
1069.567232541658
 20
356.8923388344331
 30
0.0
 11
1069.567232541658
 21
406.8923438344331
 31
0.0
  0
LINE
  5
2CBA
330
3044
100
AcDbEntity
  8
AM_0
100
AcDbLine
 10
1069.567232541658
 20
456.8923438344332
 30
0.0
 11
1069.567232541658
 21
406.8923438344331
 31
0.0
  0
ARC
  5
2CBB
330
3044
100
AcDbEntity
  8
AM_0
100
AcDbCircle
 10
1048.075962541658
 20
527.9010888344329
 30
0.0
 40
19.0000005
100
AcDbArc
 50
2.0
 51
88.0
  0
LINE
  5
2CBC
330
3044
100
AcDbEntity
  8
AM_0
100
AcDbLine
 10
805.3954025416578
 20
546.8894888344331
 30
0.0
 11
877.0672175416578
 21
549.3923388344329
 31
0.0
  0
ARC
  5
2CBD
330
3044
100
AcDbEntity
  8
AM_0
100
AcDbCircle
 10
843.9566825416575
 20
475.8607288344331
 30
0.0
 40
5.0
100
AcDbArc
 50
45.00000099999999
 51
140.31278
  0
CIRCLE
  5
2CBE
330
3044
100
AcDbEntity
  8
AM_0
100
AcDbCircle
 10
806.8590525416576
 20
527.1004888344329
 30
0.0
 40
9.5
  0
ARC
  5
2CBF
330
3044
100
AcDbEntity
  8
AM_0
100
AcDbCircle
 10
806.0584575416577
 20
527.9010888344329
 30
0.0
 40
19.0000005
100
AcDbArc
 50
91.99999799999995
 51
178.0
  0
LINE
  5
2CC0
330
3044
100
AcDbEntity
  8
AM_0
100
AcDbLine
 10
977.0672175416576
 20
549.3923388344329
 30
0.0
 11
927.0672175416576
 21
549.3923388344329
 31
0.0
  0
ARC
  5
2CC1
330
3044
100
AcDbEntity
  8
AM_0
100
AcDbCircle
 10
927.0672175416576
 20
368.8923388344329
 30
0.0
 40
122.0
100
AcDbArc
 50
60.14306
 51
86.16237199999996
  0
ARC
  5
2CC2
330
3044
100
AcDbEntity
  8
AM_0
100
AcDbCircle
 10
858.0988325416583
 20
490.0028788344329
 30
0.0
 40
5.0
100
AcDbArc
 50
129.6872199999999
 51
225.0
  0
LINE
  5
2CC3
330
3044
100
AcDbEntity
  8
AM_0
100
AcDbLine
 10
930.5672175416574
 20
514.5573388344332
 30
0.0
 11
930.5672175416574
 21
495.6075888344328
 31
0.0
  0
LINE
  5
2CC4
330
3044
100
AcDbEntity
  8
AM_0
100
AcDbLine
 10
923.567217541658
 20
514.5573388344332
 30
0.0
 11
923.567217541658
 21
495.6075888344328
 31
0.0
  0
ARC
  5
2CC5
330
3044
100
AcDbEntity
  8
AM_0
100
AcDbCircle
 10
935.5672175416579
 20
495.6075888344328
 30
0.0
 40
5.0
100
AcDbArc
 50
179.9999899999999
 51
266.1623599999999
  0
ARC
  5
2CC6
330
3044
100
AcDbEntity
  8
AM_0
100
AcDbCircle
 10
927.0672175416553
 20
368.8923438344576
 30
0.0
 40
121.9999999999761
100
AcDbArc
 50
93.83762600000357
 51
119.8569400000037
  0
ARC
  5
2CC7
330
3044
100
AcDbEntity
  8
AM_0
100
AcDbCircle
 10
918.5672175416579
 20
495.6075888344328
 30
0.0
 40
5.0
100
AcDbArc
 50
273.83763
 51
0.0
  0
ARC
  5
2CC8
330
3044
100
AcDbEntity
  8
AM_0
100
AcDbCircle
 10
935.5672175416579
 20
514.5573388344332
 30
0.0
 40
5.0
100
AcDbArc
 50
85.48594399999997
 51
180.00001
  0
ARC
  5
2CC9
330
3044
100
AcDbEntity
  8
AM_0
100
AcDbCircle
 10
918.5672175416579
 20
514.5573388344332
 30
0.0
 40
5.0
100
AcDbArc
 50
0.0
 51
94.51406099999998
  0
LINE
  5
2CCA
330
3044
100
AcDbEntity
  8
AM_0
100
AcDbLine
 10
877.0672175416578
 20
549.3923388344329
 30
0.0
 11
927.0672175416576
 21
549.3923388344329
 31
0.0
  0
CIRCLE
  5
2CCB
330
3044
100
AcDbEntity
  8
AM_0
100
AcDbCircle
 10
1047.275377541658
 20
527.1004888344329
 30
0.0
 40
9.5
  0
LINE
  5
2CCC
330
3044
100
AcDbEntity
  8
ﾁｭｳｼﾝｾﾝ1
100
AcDbLine
 10
1058.586973339552
 20
538.4121450508921
 30
0.0
 11
1034.700913970523
 21
514.5260630767011
 31
0.0
  0
ARC
  5
2CCD
330
3044
100
AcDbEntity
  8
ﾁｭｳｼﾝｾﾝ1
100
AcDbCircle
 10
927.067217541648
 20
406.892343834423
 30
0.0
 40
170.0000050000141
100
AcDbArc
 50
38.59885076757267
 51
51.0146039999995
  0
ARC
  5
2CCE
330
3044
100
AcDbEntity
  8
AM_0
100
AcDbCircle
 10
1010.177752541657
 20
475.8607288344331
 30
0.0
 40
5.0
100
AcDbArc
 50
39.687224
 51
135.0
  0
ARC
  5
2CCF
330
3044
100
AcDbEntity
  8
AM_0
100
AcDbCircle
 10
996.0356325416578
 20
490.0028788344329
 30
0.0
 40
5.0
100
AcDbArc
 50
315.0
 51
50.312775
  0
LINE
  5
2CD0
330
3044
100
AcDbEntity
  8
AM_0
100
AcDbLine
 10
1048.739062541658
 20
546.8894888344331
 30
0.0
 11
977.0672175416576
 21
549.3923388344329
 31
0.0
  0
ARC
  5
2CD1
330
3044
100
AcDbEntity
  8
ﾁｭｳｼﾝｾﾝ1
100
AcDbCircle
 10
927.0672175416679
 20
406.892343834423
 30
0.0
 40
170.0000050000141
100
AcDbArc
 50
128.9853960000004
 51
141.4011492324272
  0
LINE
  5
2CD2
330
3044
100
AcDbEntity
  8
ﾁｭｳｼﾝｾﾝ1
100
AcDbLine
 10
795.5474617437618
 20
538.4121450508921
 30
0.0
 11
819.4335211127928
 21
514.5260630767011
 31
0.0
  0
LINE
  5
2CD3
330
3044
100
AcDbEntity
  8
ﾁｭｳｼﾝｾﾝ1
100
AcDbLine
 10
1059.415280415026
 20
274.5443054060239
 30
0.0
 11
1033.653562627478
 21
300.3060007988328
 31
0.0
  0
ARC
  5
2CD4
330
3044
100
AcDbEntity
  8
ﾁｭｳｼﾝｾﾝ1
100
AcDbCircle
 10
927.0672175416592
 20
406.8923438344332
 30
0.0
 40
170.0000049999991
100
AcDbArc
 50
308.9853899999997
 51
321.2488997443197
  0
ARC
  5
2CD5
330
3044
100
AcDbEntity
  8
AM_0
100
AcDbCircle
 10
593.7610797424307
 20
804.0915355805621
 30
0.0
 40
6.000003999999997
100
AcDbArc
 50
90.00000299999769
 51
270.0
  0
LINE
  5
2CD6
330
3044
100
AcDbEntity
  8
AM_0
100
AcDbLine
 10
579.7610797424307
 20
783.0916555805621
 30
0.0
 11
649.7610097424304
 21
783.0916555805621
 31
0.0
  0
LINE
  5
2CD7
330
3044
100
AcDbEntity
  8
AM_0
100
AcDbLine
 10
579.7610797424307
 20
825.0916555805622
 30
0.0
 11
649.7610097424304
 21
825.0916555805622
 31
0.0
  0
LINE
  5
2CD8
330
3044
100
AcDbEntity
  8
ﾁｭｳｼﾝｾﾝ
100
AcDbLine
 10
205.7005494534645
 20
804.0916555805621
 30
0.0
 11
661.2750197424307
 21
804.0916555805621
 31
0.0
  0
POLYLINE
  5
2CD9
330
3044
100
AcDbEntity
  8
AM_0
100
AcDb2dPolyline
 66
     1
 10
0.0
 20
0.0
 30
0.0
  0
VERTEX
  5
2CDA
330
2CD9
100
AcDbEntity
  8
AM_0
100
AcDbVertex
100
AcDb2dVertex
 10
534.6252797424308
 20
855.6561255805622
 30
0.0
  0
VERTEX
  5
2CDB
330
2CD9
100
AcDbEntity
  8
AM_0
100
AcDbVertex
100
AcDb2dVertex
 10
532.6888917424306
 20
844.2915675805622
 30
0.0
  0
VERTEX
  5
2CDC
330
2CD9
100
AcDbEntity
  8
AM_0
100
AcDbVertex
100
AcDb2dVertex
 10
531.2182237424308
 20
832.8574115805619
 30
0.0
  0
VERTEX
  5
2CDD
330
2CD9
100
AcDbEntity
  8
AM_0
100
AcDbVertex
100
AcDb2dVertex
 10
530.2157297424306
 20
821.3727355805621
 30
0.0
  0
VERTEX
  5
2CDE
330
2CD9
100
AcDbEntity
  8
AM_0
100
AcDbVertex
100
AcDb2dVertex
 10
529.6683727424308
 20
807.5491875805621
 30
0.0
  0
VERTEX
  5
2CDF
330
2CD9
100
AcDbEntity
  8
AM_0
100
AcDbVertex
100
AcDb2dVertex
 10
529.8370597424308
 20
793.7158355805621
 30
0.0
  0
VERTEX
  5
2CE0
330
2CD9
100
AcDbEntity
  8
AM_0
100
AcDbVertex
100
AcDb2dVertex
 10
530.7213377424308
 20
779.9097445805622
 30
0.0
  0
VERTEX
  5
2CE1
330
2CD9
100
AcDbEntity
  8
AM_0
100
AcDbVertex
100
AcDb2dVertex
 10
532.3188377424306
 20
766.1679085805623
 30
0.0
  0
VERTEX
  5
2CE2
330
2CD9
100
AcDbEntity
  8
AM_0
100
AcDbVertex
100
AcDb2dVertex
 10
534.6252797424308
 20
752.5271455805623
 30
0.0
  0
SEQEND
  5
2CE3
330
2CD9
100
AcDbEntity
  8
AM_0
  0
ARC
  5
2CE4
330
3044
100
AcDbEntity
  8
AM_0
100
AcDbCircle
 10
441.7610797424307
 20
804.0916555805621
 30
0.0
 40
11.0
100
AcDbArc
 50
201.3237799999978
 51
262.8188000000004
  0
ARC
  5
2CE5
330
3044
100
AcDbEntity
  8
AM_0
100
AcDbCircle
 10
441.7610797424307
 20
804.0916555805621
 30
0.0
 40
10.0
100
AcDbArc
 50
203.5782699999985
 51
336.4217200000013
  0
LINE
  5
2CE6
330
3044
100
AcDbEntity
  8
AM_0
100
AcDbLine
 10
577.7609497424307
 20
684.0916555805621
 30
0.0
 11
577.7609497424307
 21
924.0915355805624
 31
0.0
  0
LINE
  5
2CE7
330
3044
100
AcDbEntity
  8
AM_0
100
AcDbLine
 10
563.7609497424307
 20
693.1342655805624
 30
0.0
 11
563.7609497424307
 21
915.0489355805616
 31
0.0
  0
LINE
  5
2CE8
330
3044
100
AcDbEntity
  8
AM_0
100
AcDbLine
 10
573.7609497424307
 20
661.5916555805621
 30
0.0
 11
573.7609497424307
 21
946.5915355805623
 31
0.0
  0
LINE
  5
2CE9
330
3044
100
AcDbEntity
  8
AM_0
100
AcDbLine
 10
555.7610797424307
 20
665.1005655805621
 30
0.0
 11
555.7610797424307
 21
943.0660255805618
 31
0.0
  0
LINE
  5
2CEA
330
3044
100
AcDbEntity
  8
AM_0
100
AcDbLine
 10
579.7610797424307
 20
781.5916555805621
 30
0.0
 11
579.7610797424307
 21
826.5916555805617
 31
0.0
  0
LINE
  5
2CEB
330
3044
100
AcDbEntity
  8
AM_0
100
AcDbLine
 10
397.2610797424307
 20
706.5916555805621
 30
0.0
 11
397.2610797424307
 21
901.5916555805617
 31
0.0
  0
LINE
  5
2CEC
330
3044
100
AcDbEntity
  8
AM_0
100
AcDbLine
 10
430.7610797424307
 20
689.9504855805621
 30
0.0
 11
430.7610797424307
 21
800.0915955805622
 31
0.0
  0
LINE
  5
2CED
330
3044
100
AcDbEntity
  8
AM_0
100
AcDbLine
 10
457.7610797424307
 20
664.3536255805621
 30
0.0
 11
457.7610797424307
 21
800.0915955805622
 31
0.0
  0
LINE
  5
2CEE
330
3044
100
AcDbEntity
  8
AM_0
100
AcDbLine
 10
433.2401397424304
 20
687.0126155805621
 30
0.0
 11
442.2819497424308
 21
685.4183155805618
 31
0.0
  0
LINE
  5
2CEF
330
3044
100
AcDbEntity
  8
AM_0
100
AcDbLine
 10
399.2610797424307
 20
747.3158455805621
 30
0.0
 11
399.2610797424307
 21
720.4788655805621
 31
0.0
  0
LINE
  5
2CF0
330
3044
100
AcDbEntity
  8
AM_0
100
AcDbLine
 10
397.2610797424307
 20
706.5915955805621
 30
0.0
 11
425.9354497424308
 21
705.5902555805621
 31
0.0
  0
ARC
  5
2CF1
330
3044
100
AcDbEntity
  8
AM_0
100
AcDbCircle
 10
433.7610797424307
 20
689.9670255805624
 30
0.0
 40
3.0
100
AcDbArc
 50
179.683070000001
 51
260.0000000000012
  0
LINE
  5
2CF2
330
3044
100
AcDbEntity
  8
AM_0
100
AcDbLine
 10
399.2610797424307
 20
720.4788655805621
 30
0.0
 11
430.7610797424307
 21
720.4788655805621
 31
0.0
  0
LINE
  5
2CF3
330
3044
100
AcDbEntity
  8
AM_0
100
AcDbLine
 10
399.2610797424307
 20
731.0854355805621
 30
0.0
 11
430.7610797424307
 21
731.0854355805621
 31
0.0
  0
ARC
  5
2CF4
330
3044
100
AcDbEntity
  8
AM_0
100
AcDbCircle
 10
425.7610797424307
 20
700.5933655805621
 30
0.0
 40
5.0
100
AcDbArc
 50
0.0
 51
87.99999999999625
  0
LINE
  5
2CF5
330
3044
100
AcDbEntity
  8
AM_0
100
AcDbLine
 10
399.2610797424307
 20
747.3158455805621
 30
0.0
 11
430.7610797424307
 21
747.3158455805621
 31
0.0
  0
LINE
  5
2CF6
330
3044
100
AcDbEntity
  8
AM_0
100
AcDbLine
 10
444.7609497424306
 20
667.8818155805621
 30
0.0
 11
444.7609497424306
 21
794.5522255805623
 31
0.0
  0
LINE
  5
2CF7
330
3044
100
AcDbEntity
  8
AM_0
100
AcDbLine
 10
457.7610097424308
 20
664.3536255805621
 30
0.0
 11
558.6945497424308
 21
662.1179655805621
 31
0.0
  0
LINE
  5
2CF8
330
3044
100
AcDbEntity
  8
AM_0
100
AcDbLine
 10
457.7610797424307
 20
664.3536255805621
 30
0.0
 11
447.6039697424305
 21
664.8859655805621
 31
0.0
  0
ARC
  5
2CF9
330
3044
100
AcDbEntity
  8
AM_0
100
AcDbCircle
 10
447.7609497424305
 20
667.8818155805621
 30
0.0
 40
3.0
100
AcDbArc
 50
180.0000100000009
 51
266.9999900000001
  0
LINE
  5
2CFA
330
3044
100
AcDbEntity
  8
AM_0
100
AcDbLine
 10
558.6562797424305
 20
662.119005580562
 30
0.0
 11
573.7610097424305
 21
661.5915355805623
 31
0.0
  0
ARC
  5
2CFB
330
3044
100
AcDbEntity
  8
AM_0
100
AcDbCircle
 10
558.7609497424307
 20
665.1171755805621
 30
0.0
 40
3.0
100
AcDbArc
 50
179.9999899999988
 51
268.0000099999986
  0
LINE
  5
2CFC
330
3044
100
AcDbEntity
  8
AM_0
100
AcDbLine
 10
457.7610797424307
 20
752.5270855805621
 30
0.0
 11
555.7610797424307
 21
752.5270855805621
 31
0.0
  0
LINE
  5
2CFD
330
3044
100
AcDbEntity
  8
AM_0
100
AcDbLine
 10
553.3272997424306
 20
700.8449555805624
 30
0.0
 11
511.9087197424307
 21
725.6147955805621
 31
0.0
  0
LINE
  5
2CFE
330
3044
100
AcDbEntity
  8
AM_0
100
AcDbLine
 10
457.7610797424307
 20
674.9612855805621
 30
0.0
 11
555.7610797424307
 21
671.5390455805621
 31
0.0
  0
LINE
  5
2CFF
330
3044
100
AcDbEntity
  8
AM_0
100
AcDbLine
 10
513.4485797424307
 20
731.1895555805623
 30
0.0
 11
555.7610797424307
 21
731.1895555805623
 31
0.0
  0
ARC
  5
2D00
330
3044
100
AcDbEntity
  8
AM_0
100
AcDbCircle
 10
513.4485797424307
 20
728.1895555805623
 30
0.0
 40
3.0
100
AcDbArc
 50
90.00000299999769
 51
239.1190199999998
  0
LINE
  5
2D01
330
3044
100
AcDbEntity
  8
AM_0
100
AcDbLine
 10
457.7610797424307
 20
726.5258655805621
 30
0.0
 11
509.5567297424308
 21
726.5258655805621
 31
0.0
  0
LINE
  5
2D02
330
3044
100
AcDbEntity
  8
AM_0
100
AcDbLine
 10
446.6912497424307
 20
675.3478255805621
 30
0.0
 11
457.7610797424307
 21
674.9612855805621
 31
0.0
  0
ARC
  5
2D03
330
3044
100
AcDbEntity
  8
AM_0
100
AcDbCircle
 10
441.7610797424307
 20
682.4639155805623
 30
0.0
 40
3.0
100
AcDbArc
 50
0.0
 51
79.9999980000011
  0
ARC
  5
2D04
330
3044
100
AcDbEntity
  8
AM_0
100
AcDbCircle
 10
446.7610797424307
 20
677.3466655805623
 30
0.0
 40
2.0
100
AcDbArc
 50
179.9999899999988
 51
268.0000099999986
  0
LINE
  5
2D05
330
3044
100
AcDbEntity
  8
AM_0
100
AcDbLine
 10
444.7609497424306
 20
726.5258655805621
 30
0.0
 11
457.7610797424307
 21
726.5258655805621
 31
0.0
  0
ARC
  5
2D06
330
3044
100
AcDbEntity
  8
AM_0
100
AcDbCircle
 10
509.5567297424308
 20
723.5258655805621
 30
0.0
 40
3.0
100
AcDbArc
 50
59.11902300000196
 51
90.00000299999769
  0
LINE
  5
2D07
330
3044
100
AcDbEntity
  8
AM_0
100
AcDbLine
 10
444.7609497424306
 20
752.5270855805621
 30
0.0
 11
457.7610797424307
 21
752.5270855805621
 31
0.0
  0
ARC
  5
2D08
330
3044
100
AcDbEntity
  8
AM_0
100
AcDbCircle
 10
439.7609497424305
 20
788.2171455805621
 30
0.0
 40
5.0
100
AcDbArc
 50
0.0
 51
82.81880299999594
  0
POLYLINE
  5
2D09
330
3044
100
AcDbEntity
  8
AM_0
100
AcDb2dPolyline
 66
     1
 10
0.0
 20
0.0
 30
0.0
  0
VERTEX
  5
2D0A
330
2D09
100
AcDbEntity
  8
AM_0
100
AcDbVertex
100
AcDb2dVertex
 10
548.1021797424308
 20
703.9696755805622
 30
0.0
  0
VERTEX
  5
2D0B
330
2D09
100
AcDbEntity
  8
AM_0
100
AcDbVertex
100
AcDb2dVertex
 10
549.2954747424306
 20
700.7584115805624
 30
0.0
  0
VERTEX
  5
2D0C
330
2D09
100
AcDbEntity
  8
AM_0
100
AcDbVertex
100
AcDb2dVertex
 10
550.5223997424308
 20
697.5598455805622
 30
0.0
  0
VERTEX
  5
2D0D
330
2D09
100
AcDbEntity
  8
AM_0
100
AcDbVertex
100
AcDb2dVertex
 10
551.7826837424308
 20
694.3742825805621
 30
0.0
  0
VERTEX
  5
2D0E
330
2D09
100
AcDbEntity
  8
AM_0
100
AcDbVertex
100
AcDb2dVertex
 10
553.0760697424308
 20
691.2020155805621
 30
0.0
  0
VERTEX
  5
2D0F
330
2D09
100
AcDbEntity
  8
AM_0
100
AcDbVertex
100
AcDb2dVertex
 10
554.4022677424305
 20
688.0434545805622
 30
0.0
  0
VERTEX
  5
2D10
330
2D09
100
AcDbEntity
  8
AM_0
100
AcDbVertex
100
AcDb2dVertex
 10
555.7610797424307
 20
684.8987855805622
 30
0.0
  0
SEQEND
  5
2D11
330
2D09
100
AcDbEntity
  8
AM_0
  0
LINE
  5
2D12
330
3044
100
AcDbEntity
  8
AM_0
100
AcDbLine
 10
553.6136097424307
 20
707.0879355805621
 30
0.0
 11
521.1108697424307
 21
726.5258055805617
 31
0.0
  0
LINE
  5
2D13
330
3044
100
AcDbEntity
  8
AM_0
100
AcDbLine
 10
545.6296097424308
 20
731.1894955805621
 30
0.0
 11
555.7610097424308
 21
723.6313955805623
 31
0.0
  0
ARC
  5
2D14
330
3044
100
AcDbEntity
  8
AM_0
100
AcDbCircle
 10
550.7610797424307
 20
696.5538155805622
 30
0.0
 40
5.0
100
AcDbArc
 50
0.0
 51
59.11901699999779
  0
ARC
  5
2D15
330
3044
100
AcDbEntity
  8
AM_0
100
AcDbCircle
 10
558.7609497424307
 20
693.1342655805624
 30
0.0
 40
5.0
100
AcDbArc
 50
267.9999999999963
 51
0.0
  0
LINE
  5
2D16
330
3044
100
AcDbEntity
  8
AM_0
100
AcDbLine
 10
573.7609497424307
 20
684.0916555805621
 30
0.0
 11
577.7609497424307
 21
684.0916555805621
 31
0.0
  0
ARC
  5
2D17
330
3044
100
AcDbEntity
  8
AM_0
100
AcDbCircle
 10
560.7610797424307
 20
737.9571355805617
 30
0.0
 40
5.0
100
AcDbArc
 50
90.00000299999769
 51
180.0000100000009
  0
LINE
  5
2D18
330
3044
100
AcDbEntity
  8
AM_0
100
AcDbLine
 10
577.7609497424307
 20
781.5916555805621
 30
0.0
 11
579.7610797424307
 21
781.5916555805621
 31
0.0
  0
ARC
  5
2D19
330
3044
100
AcDbEntity
  8
AM_0
100
AcDbCircle
 10
441.7610797424307
 20
804.0916555805621
 30
0.0
 40
11.0
100
AcDbArc
 50
97.18119500000412
 51
158.6764799999984
  0
ARC
  5
2D1A
330
3044
100
AcDbEntity
  8
AM_0
100
AcDbCircle
 10
441.7610797424307
 20
804.0916555805621
 30
0.0
 40
10.0
100
AcDbArc
 50
23.57803699999776
 51
156.4219600000008
  0
LINE
  5
2D1B
330
3044
100
AcDbEntity
  8
AM_0
100
AcDbLine
 10
433.2400797424305
 20
921.1705755805619
 30
0.0
 11
442.2819497424308
 21
922.7649355805622
 31
0.0
  0
LINE
  5
2D1C
330
3044
100
AcDbEntity
  8
AM_0
100
AcDbLine
 10
425.2610797424307
 20
808.0915955805622
 30
0.0
 11
458.2610797424307
 21
808.0915955805622
 31
0.0
  0
LINE
  5
2D1D
330
3044
100
AcDbEntity
  8
AM_0
100
AcDbLine
 10
425.2610797424307
 20
800.0915955805622
 30
0.0
 11
458.2610797424307
 21
800.0915955805622
 31
0.0
  0
ARC
  5
2D1E
330
3044
100
AcDbEntity
  8
AM_0
100
AcDbCircle
 10
433.7610797424307
 20
918.2161655805622
 30
0.0
 40
3.0
100
AcDbArc
 50
99.99999999999859
 51
180.3169299999988
  0
LINE
  5
2D1F
330
3044
100
AcDbEntity
  8
AM_0
100
AcDbLine
 10
430.7610797424307
 20
808.0915955805622
 30
0.0
 11
430.7610797424307
 21
918.2327755805616
 31
0.0
  0
ARC
  5
2D20
330
3044
100
AcDbEntity
  8
AM_0
100
AcDbCircle
 10
425.2610797424307
 20
804.0915955805617
 30
0.0
 40
3.999995999999999
100
AcDbArc
 50
90.00000299999769
 51
270.0
  0
LINE
  5
2D21
330
3044
100
AcDbEntity
  8
AM_0
100
AcDbLine
 10
397.2610797424307
 20
901.5916555805617
 30
0.0
 11
425.9354497424308
 21
902.5930055805622
 31
0.0
  0
LINE
  5
2D22
330
3044
100
AcDbEntity
  8
AM_0
100
AcDbLine
 10
399.2610797424307
 20
860.8674155805623
 30
0.0
 11
430.7610797424307
 21
860.8674155805623
 31
0.0
  0
LINE
  5
2D23
330
3044
100
AcDbEntity
  8
AM_0
100
AcDbLine
 10
399.2610797424307
 20
887.7043855805622
 30
0.0
 11
430.7610797424307
 21
887.7043855805622
 31
0.0
  0
LINE
  5
2D24
330
3044
100
AcDbEntity
  8
AM_0
100
AcDbLine
 10
399.2610797424307
 20
877.0977655805618
 30
0.0
 11
430.7610797424307
 21
877.0977655805618
 31
0.0
  0
LINE
  5
2D25
330
3044
100
AcDbEntity
  8
AM_0
100
AcDbLine
 10
399.2610797424307
 20
887.7043855805622
 30
0.0
 11
399.2610797424307
 21
860.8674155805623
 31
0.0
  0
ARC
  5
2D26
330
3044
100
AcDbEntity
  8
AM_0
100
AcDbCircle
 10
425.7610797424307
 20
907.5899455805622
 30
0.0
 40
5.0
100
AcDbArc
 50
272.0000000000037
 51
0.0
  0
LINE
  5
2D27
330
3044
100
AcDbEntity
  8
AM_0
100
AcDbLine
 10
555.7610797424307
 20
923.2844055805617
 30
0.0
 11
548.1022497424308
 21
904.2137255805622
 31
0.0
  0
LINE
  5
2D28
330
3044
100
AcDbEntity
  8
AM_0
100
AcDbLine
 10
444.7609497424306
 20
813.6310255805621
 30
0.0
 11
444.7609497424306
 21
940.3013755805616
 31
0.0
  0
LINE
  5
2D29
330
3044
100
AcDbEntity
  8
AM_0
100
AcDbLine
 10
457.7610797424307
 20
808.0915955805622
 30
0.0
 11
457.7610797424307
 21
943.8295755805619
 31
0.0
  0
LINE
  5
2D2A
330
3044
100
AcDbEntity
  8
AM_0
100
AcDbLine
 10
553.3272997424306
 20
907.3381755805616
 30
0.0
 11
511.9087797424305
 21
882.5684055805622
 31
0.0
  0
LINE
  5
2D2B
330
3044
100
AcDbEntity
  8
AM_0
100
AcDbLine
 10
457.7610797424307
 20
855.6561155805622
 30
0.0
 11
555.7610797424307
 21
855.6561155805622
 31
0.0
  0
LINE
  5
2D2C
330
3044
100
AcDbEntity
  8
AM_0
100
AcDbLine
 10
513.4485797424307
 20
876.9936355805624
 30
0.0
 11
555.7610797424307
 21
876.9936355805624
 31
0.0
  0
ARC
  5
2D2D
330
3044
100
AcDbEntity
  8
AM_0
100
AcDbCircle
 10
458.2610797424307
 20
804.0915955805617
 30
0.0
 40
3.999995999999999
100
AcDbArc
 50
270.0
 51
90.00000299999769
  0
ARC
  5
2D2E
330
3044
100
AcDbEntity
  8
AM_0
100
AcDbCircle
 10
439.7609497424305
 20
819.9661055805622
 30
0.0
 40
5.0
100
AcDbArc
 50
277.1811999999994
 51
0.0
  0
LINE
  5
2D2F
330
3044
100
AcDbEntity
  8
AM_0
100
AcDbLine
 10
444.7609497424306
 20
855.6561755805621
 30
0.0
 11
457.7610797424307
 21
855.6561755805621
 31
0.0
  0
LINE
  5
2D30
330
3044
100
AcDbEntity
  8
AM_0
100
AcDbLine
 10
457.7610797424307
 20
881.6573355805617
 30
0.0
 11
509.5567297424308
 21
881.6573355805617
 31
0.0
  0
LINE
  5
2D31
330
3044
100
AcDbEntity
  8
AM_0
100
AcDbLine
 10
444.7609497424306
 20
881.6573955805621
 30
0.0
 11
457.7610797424307
 21
881.6573955805621
 31
0.0
  0
ARC
  5
2D32
330
3044
100
AcDbEntity
  8
AM_0
100
AcDbCircle
 10
509.5567297424308
 20
884.6573355805622
 30
0.0
 40
3.0
100
AcDbArc
 50
270.0
 51
300.88098
  0
ARC
  5
2D33
330
3044
100
AcDbEntity
  8
AM_0
100
AcDbCircle
 10
513.4485797424307
 20
879.9936355805623
 30
0.0
 40
3.0
100
AcDbArc
 50
120.8809700000043
 51
270.0
  0
LINE
  5
2D34
330
3044
100
AcDbEntity
  8
AM_0
100
AcDbLine
 10
577.7609497424307
 20
826.5916555805617
 30
0.0
 11
579.7610797424307
 21
826.5916555805617
 31
0.0
  0
LINE
  5
2D35
330
3044
100
AcDbEntity
  8
AM_0
100
AcDbLine
 10
545.6296097424308
 20
876.9936955805622
 30
0.0
 11
555.7610097424308
 21
884.5517455805618
 31
0.0
  0
LINE
  5
2D36
330
3044
100
AcDbEntity
  8
AM_0
100
AcDbLine
 10
553.6136097424307
 20
901.0952555805616
 30
0.0
 11
521.1108697424307
 21
881.6573955805621
 31
0.0
  0
ARC
  5
2D37
330
3044
100
AcDbEntity
  8
AM_0
100
AcDbCircle
 10
560.7610797424307
 20
870.2260555805619
 30
0.0
 40
5.0
100
AcDbArc
 50
179.9999899999988
 51
270.0
  0
ARC
  5
2D38
330
3044
100
AcDbEntity
  8
AM_0
100
AcDbCircle
 10
558.7609497424307
 20
915.0489355805616
 30
0.0
 40
5.0
100
AcDbArc
 50
0.0
 51
91.99999800000055
  0
ARC
  5
2D39
330
3044
100
AcDbEntity
  8
AM_0
100
AcDbCircle
 10
550.7610797424307
 20
911.6293755805617
 30
0.0
 40
5.0
100
AcDbArc
 50
300.88098
 51
0.0
  0
LINE
  5
2D3A
330
3044
100
AcDbEntity
  8
AM_0
100
AcDbLine
 10
457.7610097424308
 20
933.2219655805616
 30
0.0
 11
555.7610097424308
 21
936.6442055805617
 31
0.0
  0
LINE
  5
2D3B
330
3044
100
AcDbEntity
  8
AM_0
100
AcDbLine
 10
457.7610097424308
 20
943.8295755805619
 30
0.0
 11
558.6945497424308
 21
946.0652255805616
 31
0.0
  0
LINE
  5
2D3C
330
3044
100
AcDbEntity
  8
AM_0
100
AcDbLine
 10
457.7610797424307
 20
943.8295755805619
 30
0.0
 11
447.6039697424305
 21
943.2972855805617
 31
0.0
  0
LINE
  5
2D3D
330
3044
100
AcDbEntity
  8
AM_0
100
AcDbLine
 10
446.6912497424307
 20
932.8354355805617
 30
0.0
 11
457.7610097424308
 21
933.2219655805616
 31
0.0
  0
ARC
  5
2D3E
330
3044
100
AcDbEntity
  8
AM_0
100
AcDbCircle
 10
446.7610797424307
 20
930.8365955805617
 30
0.0
 40
2.0
100
AcDbArc
 50
91.99999800000055
 51
180.0000100000009
  0
ARC
  5
2D3F
330
3044
100
AcDbEntity
  8
AM_0
100
AcDbCircle
 10
441.7610797424307
 20
925.7193455805618
 30
0.0
 40
3.0
100
AcDbArc
 50
280.0000100000013
 51
0.0
  0
ARC
  5
2D40
330
3044
100
AcDbEntity
  8
AM_0
100
AcDbCircle
 10
447.7609497424305
 20
940.3013755805616
 30
0.0
 40
3.0
100
AcDbArc
 50
92.99999900000168
 51
180.0000100000009
  0
LINE
  5
2D41
330
3044
100
AcDbEntity
  8
AM_0
100
AcDbLine
 10
558.6562797424305
 20
946.0641955805625
 30
0.0
 11
573.7609497424307
 21
946.5916555805616
 31
0.0
  0
ARC
  5
2D42
330
3044
100
AcDbEntity
  8
AM_0
100
AcDbCircle
 10
558.7609497424307
 20
943.0660255805618
 30
0.0
 40
3.0
100
AcDbArc
 50
91.99999800000055
 51
180.0000100000009
  0
LINE
  5
2D43
330
3044
100
AcDbEntity
  8
AM_0
100
AcDbLine
 10
573.7609497424307
 20
924.0915355805624
 30
0.0
 11
577.7609497424307
 21
924.0915355805624
 31
0.0
  0
LINE
  5
2D44
330
3044
100
AcDbEntity
  8
AM_0
100
AcDbLine
 10
649.7610097424304
 20
783.0916555805621
 30
0.0
 11
649.7610097424304
 21
825.0916555805622
 31
0.0
  0
LINE
  5
2D45
330
3044
100
AcDbEntity
  8
AM_0
100
AcDbLine
 10
593.7610797424307
 20
798.0915355805616
 30
0.0
 11
649.7610097424304
 21
798.0915355805616
 31
0.0
  0
LINE
  5
2D46
330
3044
100
AcDbEntity
  8
AM_0
100
AcDbLine
 10
593.7610797424307
 20
810.0915355805621
 30
0.0
 11
649.7610097424304
 21
810.0915355805621
 31
0.0
  0
LINE
  5
2D47
330
3044
100
AcDbEntity
  8
AM_0
100
AcDbLine
 10
593.7610797424307
 20
810.0915355805621
 30
0.0
 11
593.7610797424307
 21
798.0915355805616
 31
0.0
  0
LINE
  5
2D48
330
3044
100
AcDbEntity
  8
AM_0
100
AcDbLine
 10
396.2610797424308
 20
828.0195274758821
 30
0.0
 11
396.2610797424304
 21
780.1637836852417
 31
0.0
  0
LINE
  5
2D49
330
3044
100
AcDbEntity
  8
AM_0
100
AcDbLine
 10
396.2610797424308
 20
828.0195274758822
 30
0.0
 11
380.2610797424307
 21
828.0195274758821
 31
0.0
  0
LINE
  5
2D4A
330
3044
100
AcDbEntity
  8
AM_0
100
AcDbLine
 10
380.2610797424307
 20
819.0916555805621
 30
0.0
 11
396.2610797424304
 21
819.0916555805621
 31
0.0
  0
LINE
  5
2D4B
330
3044
100
AcDbEntity
  8
AM_0
100
AcDbLine
 10
396.2610797424308
 20
887.7044385805616
 30
0.0
 11
396.2610797424308
 21
860.8674435805617
 31
0.0
  0
LINE
  5
2D4C
330
3044
100
AcDbEntity
  8
AM_0
100
AcDbLine
 10
382.2610797424307
 20
860.8674435805617
 30
0.0
 11
396.2610797424308
 21
860.8674435805617
 31
0.0
  0
LINE
  5
2D4D
330
3044
100
AcDbEntity
  8
AM_0
100
AcDbLine
 10
396.2610797424308
 20
877.0978365805621
 30
0.0
 11
382.2610797424307
 21
877.0978365805621
 31
0.0
  0
LINE
  5
2D4E
330
3044
100
AcDbEntity
  8
AM_0
100
AcDbLine
 10
396.2610797424308
 20
887.7044385805616
 30
0.0
 11
382.2610797424307
 21
887.7044385805616
 31
0.0
  0
LINE
  5
2D4F
330
3044
100
AcDbEntity
  8
AM_0
100
AcDbLine
 10
397.2610797424307
 20
901.5916555805617
 30
0.0
 11
381.2610797424305
 21
901.5916555805617
 31
0.0
  0
LINE
  5
2D50
330
3044
100
AcDbEntity
  8
AM_0
100
AcDbLine
 10
397.2610797424307
 20
706.5916555805621
 30
0.0
 11
381.2610797424305
 21
706.5916555805621
 31
0.0
  0
ARC
  5
2D51
330
3044
100
AcDbEntity
  8
AM_0
100
AcDbCircle
 10
381.2610797424305
 20
707.5916555805621
 30
0.0
 40
1.0
100
AcDbArc
 50
180.0
 51
270.0
  0
LINE
  5
2D52
330
3044
100
AcDbEntity
  8
AM_0
100
AcDbLine
 10
396.2610797424308
 20
720.4788725805624
 30
0.0
 11
382.2610797424307
 21
720.4788725805624
 31
0.0
  0
LINE
  5
2D53
330
3044
100
AcDbEntity
  8
AM_0
100
AcDbLine
 10
396.2610797424308
 20
731.0854745805617
 30
0.0
 11
382.2610797424307
 21
731.0854745805617
 31
0.0
  0
ARC
  5
2D54
330
3044
100
AcDbEntity
  8
AM_0
100
AcDbCircle
 10
382.2610797424307
 20
722.4788725805623
 30
0.0
 40
2.0
100
AcDbArc
 50
180.0
 51
270.0
  0
ARC
  5
2D55
330
3044
100
AcDbEntity
  8
AM_0
100
AcDbCircle
 10
382.2610797424307
 20
733.0854745805616
 30
0.0
 40
2.0
100
AcDbArc
 50
180.0
 51
270.0
  0
LINE
  5
2D56
330
3044
100
AcDbEntity
  8
AM_0
100
AcDbLine
 10
396.2610797424308
 20
720.4788725805624
 30
0.0
 11
396.2610797424308
 21
747.315867580562
 31
0.0
  0
ARC
  5
2D57
330
3044
100
AcDbEntity
  8
AM_0
100
AcDbCircle
 10
254.2594797424306
 20
804.0916555805621
 30
0.0
 40
3.999999999999884
100
AcDbArc
 50
270.0
 51
90.0
  0
LINE
  5
2D58
330
3044
100
AcDbEntity
  8
AM_0
100
AcDbLine
 10
264.2594797424306
 20
790.0916555805621
 30
0.0
 11
222.2594797424306
 21
790.0916555805621
 31
0.0
  0
LINE
  5
2D59
330
3044
100
AcDbEntity
  8
AM_0
100
AcDbLine
 10
264.2594797424306
 20
818.0916555805618
 30
0.0
 11
222.2594797424306
 21
818.0916555805618
 31
0.0
  0
LINE
  5
2D5A
330
3044
100
AcDbEntity
  8
AM_0
100
AcDbLine
 10
222.2594797424306
 20
818.0916555805618
 30
0.0
 11
222.2594797424306
 21
790.0916555805621
 31
0.0
  0
LINE
  5
2D5B
330
3044
100
AcDbEntity
  8
AM_0
100
AcDbLine
 10
222.2594797424306
 20
800.0916555805622
 30
0.0
 11
254.2594797424306
 21
800.0916555805622
 31
0.0
  0
LINE
  5
2D5C
330
3044
100
AcDbEntity
  8
AM_0
100
AcDbLine
 10
222.2594797424306
 20
808.0916555805618
 30
0.0
 11
254.2594797424306
 21
808.0916555805618
 31
0.0
  0
LINE
  5
2D5D
330
3044
100
AcDbEntity
  8
AM_0
100
AcDbLine
 10
254.2594797424306
 20
808.0916555805622
 30
0.0
 11
254.2594797424306
 21
800.0916555805622
 31
0.0
  0
ARC
  5
2D5E
330
3044
100
AcDbEntity
  8
AM_0
100
AcDbCircle
 10
301.1365647424308
 20
748.0916555805621
 30
0.0
 40
8.0
100
AcDbArc
 50
60.25511900000076
 51
90.0
  0
LINE
  5
2D5F
330
3044
100
AcDbEntity
  8
AM_0
100
AcDbLine
 10
380.2610797424307
 20
707.5916555805621
 30
0.0
 11
380.2610797424307
 21
900.5916555805621
 31
0.0
  0
LINE
  5
2D60
330
3044
100
AcDbEntity
  8
AM_0
100
AcDbLine
 10
377.2379137424305
 20
713.8191785805621
 30
0.0
 11
305.1056757424308
 21
755.0376005805617
 31
0.0
  0
ARC
  5
2D61
330
3044
100
AcDbEntity
  8
AM_0
100
AcDbCircle
 10
374.2610797424307
 20
708.6097195805621
 30
0.0
 40
6.0
100
AcDbArc
 50
0.0
 51
60.25511900000076
  0
LINE
  5
2D62
330
3044
100
AcDbEntity
  8
AM_0
100
AcDbLine
 10
382.2610797424307
 20
747.315867580562
 30
0.0
 11
396.2610797424308
 21
747.315867580562
 31
0.0
  0
ARC
  5
2D63
330
3044
100
AcDbEntity
  8
AM_0
100
AcDbCircle
 10
382.2610797424307
 20
745.3158675805621
 30
0.0
 40
2.0
100
AcDbArc
 50
90.0
 51
180.0
  0
LINE
  5
2D64
330
3044
100
AcDbEntity
  8
AM_0
100
AcDbLine
 10
377.2379137424305
 20
894.3641315805621
 30
0.0
 11
305.1056757424308
 21
853.1457095805617
 31
0.0
  0
LINE
  5
2D65
330
3044
100
AcDbEntity
  8
AM_0
100
AcDbLine
 10
269.2610797424307
 20
844.0087515805622
 30
0.0
 11
269.2610797424307
 21
804.0916555805621
 31
0.0
  0
LINE
  5
2D66
330
3044
100
AcDbEntity
  8
AM_0
100
AcDbLine
 10
303.2610797424307
 20
852.0916555805618
 30
0.0
 11
303.2610797424307
 21
804.0916555805621
 31
0.0
  0
LINE
  5
2D67
330
3044
100
AcDbEntity
  8
AM_0
100
AcDbLine
 10
279.2610797424306
 20
848.9999895805622
 30
0.0
 11
279.2610797424306
 21
804.0916555805621
 31
0.0
  0
LINE
  5
2D68
330
3044
100
AcDbEntity
  8
AM_0
100
AcDbLine
 10
264.2594797424306
 20
789.0916555805621
 30
0.0
 11
264.2594797424306
 21
804.0916555805621
 31
0.0
  0
LINE
  5
2D69
330
3044
100
AcDbEntity
  8
AM_0
100
AcDbLine
 10
303.2610797424307
 20
756.0916555805621
 30
0.0
 11
303.2610797424307
 21
804.0916555805621
 31
0.0
  0
LINE
  5
2D6A
330
3044
100
AcDbEntity
  8
AM_0
100
AcDbLine
 10
279.2610797424306
 20
759.1833215805617
 30
0.0
 11
279.2610797424306
 21
804.0916555805621
 31
0.0
  0
LINE
  5
2D6B
330
3044
100
AcDbEntity
  8
AM_0
100
AcDbLine
 10
269.2610797424307
 20
764.1745585805621
 30
0.0
 11
269.2610797424307
 21
804.0916555805621
 31
0.0
  0
LINE
  5
2D6C
330
3044
100
AcDbEntity
  8
AM_0
100
AcDbLine
 10
267.2610797424307
 20
776.5916555805621
 30
0.0
 11
267.2610797424307
 21
804.0916555805621
 31
0.0
  0
LINE
  5
2D6D
330
3044
100
AcDbEntity
  8
AM_0
100
AcDbLine
 10
301.1365647424308
 20
756.0916555805621
 30
0.0
 11
281.4046737424305
 21
756.0916555805621
 31
0.0
  0
LINE
  5
2D6E
330
3044
100
AcDbEntity
  8
AM_0
100
AcDbLine
 10
267.2610797424307
 20
776.5916555805621
 30
0.0
 11
269.2610797424307
 21
774.5916555805621
 31
0.0
  0
ARC
  5
2D6F
330
3044
100
AcDbEntity
  8
AM_0
100
AcDbCircle
 10
273.2610797424306
 20
764.1745585805621
 30
0.0
 40
4.0
100
AcDbArc
 50
180.0
 51
239.9999999999995
  0
ARC
  5
2D70
330
3044
100
AcDbEntity
  8
AM_0
100
AcDbCircle
 10
281.4046737424305
 20
764.0916555805621
 30
0.0
 40
8.0
100
AcDbArc
 50
239.9999999999995
 51
270.0
  0
LINE
  5
2D71
330
3044
100
AcDbEntity
  8
AM_0
100
AcDbLine
 10
277.4046737424305
 20
757.1634515805616
 30
0.0
 11
271.2610797424307
 21
760.7104575805621
 31
0.0
  0
LINE
  5
2D72
330
3044
100
AcDbEntity
  8
AM_0
100
AcDbLine
 10
267.2610797424307
 20
789.0916555805621
 30
0.0
 11
264.2594797424306
 21
789.0916555805621
 31
0.0
  0
LINE
  5
2D73
330
3044
100
AcDbEntity
  8
AM_0
100
AcDbLine
 10
264.2594797424306
 20
819.0916555805618
 30
0.0
 11
264.2594797424306
 21
804.0916555805621
 31
0.0
  0
LINE
  5
2D74
330
3044
100
AcDbEntity
  8
AM_0
100
AcDbLine
 10
267.2610797424307
 20
831.5916555805618
 30
0.0
 11
267.2610797424307
 21
804.0916555805621
 31
0.0
  0
LINE
  5
2D75
330
3044
100
AcDbEntity
  8
AM_0
100
AcDbLine
 10
267.2610797424307
 20
831.5916555805618
 30
0.0
 11
269.2610797424307
 21
833.5916555805621
 31
0.0
  0
LINE
  5
2D76
330
3044
100
AcDbEntity
  8
AM_0
100
AcDbLine
 10
267.2610797424307
 20
819.0916555805618
 30
0.0
 11
264.2594797424306
 21
819.0916555805618
 31
0.0
  0
LINE
  5
2D77
330
3044
100
AcDbEntity
  8
AM_0
100
AcDbLine
 10
301.1365647424308
 20
852.0916555805618
 30
0.0
 11
281.4046737424305
 21
852.0916555805618
 31
0.0
  0
ARC
  5
2D78
330
3044
100
AcDbEntity
  8
AM_0
100
AcDbCircle
 10
273.2610797424306
 20
844.0087515805622
 30
0.0
 40
4.0
100
AcDbArc
 50
120.0000000000005
 51
180.0
  0
LINE
  5
2D79
330
3044
100
AcDbEntity
  8
AM_0
100
AcDbLine
 10
277.4046737424305
 20
851.0198585805618
 30
0.0
 11
271.2610797424307
 21
847.4728525805616
 31
0.0
  0
ARC
  5
2D7A
330
3044
100
AcDbEntity
  8
AM_0
100
AcDbCircle
 10
281.4046737424305
 20
844.0916555805618
 30
0.0
 40
8.0
100
AcDbArc
 50
90.0
 51
120.0000000000005
  0
ARC
  5
2D7B
330
3044
100
AcDbEntity
  8
AM_0
100
AcDbCircle
 10
301.1365647424308
 20
860.0916555805621
 30
0.0
 40
8.0
100
AcDbArc
 50
270.0
 51
299.7448809999992
  0
LINE
  5
2D7C
330
3044
100
AcDbEntity
  8
AM_0
100
AcDbLine
 10
396.2610797424308
 20
780.1637836852417
 30
0.0
 11
380.2610797424307
 21
780.1637836852421
 31
0.0
  0
LINE
  5
2D7D
330
3044
100
AcDbEntity
  8
AM_0
100
AcDbLine
 10
380.2610797424307
 20
789.0916555805622
 30
0.0
 11
396.2610797424304
 21
789.0916555805621
 31
0.0
  0
ARC
  5
2D7E
330
3044
100
AcDbEntity
  8
AM_0
100
AcDbCircle
 10
382.2610797424307
 20
862.8674435805619
 30
0.0
 40
2.0
100
AcDbArc
 50
180.0
 51
270.0
  0
ARC
  5
2D7F
330
3044
100
AcDbEntity
  8
AM_0
100
AcDbCircle
 10
382.2610797424307
 20
875.0978365805623
 30
0.0
 40
2.0
100
AcDbArc
 50
90.0
 51
180.0
  0
ARC
  5
2D80
330
3044
100
AcDbEntity
  8
AM_0
100
AcDbCircle
 10
382.2610797424307
 20
885.7044385805616
 30
0.0
 40
2.0
100
AcDbArc
 50
90.0
 51
180.0
  0
ARC
  5
2D81
330
3044
100
AcDbEntity
  8
AM_0
100
AcDbCircle
 10
374.2610797424307
 20
899.5735905805622
 30
0.0
 40
6.0
100
AcDbArc
 50
299.7448809999992
 51
0.0
  0
ARC
  5
2D82
330
3044
100
AcDbEntity
  8
AM_0
100
AcDbCircle
 10
381.2610797424305
 20
900.5916555805621
 30
0.0
 40
1.0
100
AcDbArc
 50
90.0
 51
180.0
  0
TEXT
  5
2F67
330
3044
100
AcDbEntity
  8
AM_0
100
AcDbText
 10
752.2951279703361
 20
837.5831893730598
 30
0.0
 40
20.0
  1
VX37-003GF~VX37-030GF
100
AcDbText
  0
LINE
  5
3166
330
3044
100
AcDbEntity
  8
AM_0
100
AcDbLine
 10
254.2594097424302
 20
385.8923388344331
 30
0.0
 11
222.2594097424304
 21
385.8923388344331
 31
0.0
  0
ENDSEC
  0
SECTION
  2
OBJECTS
  0
DICTIONARY
  5
2FE1
330
0
100
AcDbDictionary
281
     1
  3
ACAD_CIP_PREVIOUS_PRODUCT_INFO
350
30FC
  3
ACAD_COLOR
350
3037
  3
ACAD_DETAILVIEWSTYLE
350
303E
  3
ACAD_FIELDLIST
350
3146
  3
ACAD_GROUP
350
2FE2
  3
ACAD_LAYOUT
350
3036
  3
ACAD_MATERIAL
350
2FE5
  3
ACAD_MLEADERSTYLE
350
303A
  3
ACAD_MLINESTYLE
350
3033
  3
ACAD_PLOTSETTINGS
350
3035
  3
ACAD_PLOTSTYLENAME
350
2FE3
  3
ACAD_SCALELIST
350
3017
  3
ACAD_SECTIONVIEWSTYLE
350
303C
  3
ACAD_TABLESTYLE
350
3038
  3
ACAD_VISUALSTYLE
350
2FFE
  3
ACDB_RECOMPOSE_DATA
350
3230
  3
AcDbVariableDictionary
350
3224
  3
AcDsDecomposeData
350
3236
  3
AcmDictionary
350
3122
  3
AMG
350
30FD
  3
AMGSNAPSETTINGS
350
3157
  0
DICTIONARY
  5
321E
330
2FD7
100
AcDbDictionary
280
     1
281
     1
  3
ACAD_LAYERSTATES
360
321F
  0
DICTIONARY
  5
3211
330
3029
100
AcDbDictionary
280
     1
281
     1
  3
ADSK_XREC_LAYER_RECONCILED
360
3212
  0
DICTIONARY
  5
3213
330
3048
100
AcDbDictionary
280
     1
281
     1
  3
ADSK_XREC_LAYER_RECONCILED
360
3214
  0
DICTIONARY
  5
3215
330
3062
100
AcDbDictionary
280
     1
281
     1
  3
ADSK_XREC_LAYER_RECONCILED
360
3216
  0
DICTIONARY
  5
3217
330
3064
100
AcDbDictionary
280
     1
281
     1
  3
ADSK_XREC_LAYER_RECONCILED
360
3218
  0
DICTIONARY
  5
3219
330
3065
100
AcDbDictionary
280
     1
281
     1
  3
ADSK_XREC_LAYER_RECONCILED
360
321A
  0
XRECORD
  5
30FC
102
{ACAD_REACTORS
330
2FE1
102
}
330
2FE1
100
AcDbXrecord
280
     1
300
AMECH_PP
300
2019
300

  0
DICTIONARY
  5
3037
102
{ACAD_REACTORS
330
2FE1
102
}
330
2FE1
100
AcDbDictionary
281
     1
  0
DICTIONARY
  5
303E
102
{ACAD_REACTORS
330
2FE1
102
}
330
2FE1
100
AcDbDictionary
281
     1
  3
Imperial24
350
303F
  0
FIELDLIST
  5
3146
102
{ACAD_REACTORS
330
2FE1
102
}
330
2FE1
100
AcDbIdSet
 90
        8
330
3144
330
3145
330
3147
330
3148
330
314C
330
314D
330
314E
330
314F
100
AcDbFieldList
  0
DICTIONARY
  5
2FE2
102
{ACAD_REACTORS
330
2FE1
102
}
330
2FE1
100
AcDbDictionary
281
     1
  0
DICTIONARY
  5
3036
102
{ACAD_REACTORS
330
2FE1
102
}
330
2FE1
100
AcDbDictionary
281
     1
  3
Model
350
3047
  3
レイアウト1
350
3043
  0
DICTIONARY
  5
2FE5
102
{ACAD_REACTORS
330
2FE1
102
}
330
2FE1
100
AcDbDictionary
281
     1
  3
ByBlock
350
2FEE
  3
ByLayer
350
2FE6
  3
Global
350
2FF6
  0
DICTIONARY
  5
303A
102
{ACAD_REACTORS
330
2FE1
102
}
330
2FE1
100
AcDbDictionary
281
     1
  3
Standard
350
303B
  0
DICTIONARY
  5
3033
102
{ACAD_REACTORS
330
2FE1
102
}
330
2FE1
100
AcDbDictionary
281
     1
  3
Standard
350
3034
  0
DICTIONARY
  5
3035
102
{ACAD_REACTORS
330
2FE1
102
}
330
2FE1
100
AcDbDictionary
281
     1
  0
ACDBDICTIONARYWDFLT
  5
2FE3
102
{ACAD_REACTORS
330
2FE1
102
}
330
2FE1
100
AcDbDictionary
281
     1
  3
Normal
350
2FE4
100
AcDbDictionaryWithDefault
340
2FE4
  0
DICTIONARY
  5
3017
102
{ACAD_REACTORS
330
2FE1
102
}
330
2FE1
100
AcDbDictionary
281
     1
  3
A0
350
3018
  3
A1
350
3019
  3
A2
350
301A
  3
A3
350
301B
  3
A4
350
301C
  3
A5
350
301D
  3
A6
350
301E
  3
A7
350
301F
  3
A8
350
3020
  3
A9
350
3021
  3
B0
350
3022
  3
B1
350
3023
  3
B2
350
3024
  3
B3
350
3025
  3
B4
350
3026
  3
B5
350
3027
  3
B6
350
3028
  0
DICTIONARY
  5
303C
102
{ACAD_REACTORS
330
2FE1
102
}
330
2FE1
100
AcDbDictionary
281
     1
  3
Imperial24
350
303D
  0
DICTIONARY
  5
3038
102
{ACAD_REACTORS
330
2FE1
102
}
330
2FE1
100
AcDbDictionary
281
     1
  3
Standard
350
3039
  0
DICTIONARY
  5
2FFE
102
{ACAD_REACTORS
330
2FE1
102
}
330
2FE1
100
AcDbDictionary
281
     1
  3
2dWireframe
350
3004
  3
Basic
350
3003
  3
Brighten
350
300A
  3
ColorChange
350
300E
  3
Conceptual
350
3007
  3
Dim
350
3009
  3
EdgeColorOff
350
3016
  3
Facepattern
350
300D
  3
Flat
350
2FFF
  3
FlatWithEdges
350
3000
  3
Gouraud
350
3001
  3
GouraudWithEdges
350
3002
  3
Hidden
350
3006
  3
JitterOff
350
3014
  3
Linepattern
350
300C
  3
OverhangOff
350
3015
  3
Realistic
350
3008
  3
Shaded
350
3013
  3
Shaded with edges
350
3012
  3
Shades of Gray
350
300F
  3
Sketchy
350
3010
  3
Thicken
350
300B
  3
Wireframe
350
3005
  3
X-Ray
350
3011
  0
XRECORD
  5
3230
102
{ACAD_REACTORS
330
2FE1
102
}
330
2FE1
100
AcDbXrecord
280
     1
 90
        1
330
3039
  0
DICTIONARY
  5
3224
102
{ACAD_REACTORS
330
2FE1
102
}
330
2FE1
100
AcDbDictionary
281
     1
  3
CANNOSCALE
350
322A
  3
CMLEADERSTYLE
350
3226
  3
CTABLESTYLE
350
3225
  3
CVIEWDETAILSTYLE
350
3227
  3
CVIEWSECTIONSTYLE
350
3228
  3
LAYEREVAL
350
322C
  3
LAYERNOTIFY
350
322D
  3
LIGHTINGUNITS
350
322B
  3
MSLTSCALE
350
3229
  0
DICTIONARY
  5
3236
102
{ACAD_REACTORS
330
2FE1
102
}
330
2FE1
100
AcDbDictionary
281
     1
  3
AcDsRecords
350
3238
  3
AcDsSchemas
350
3237
1001
ACAD
1070
     2
  0
DICTIONARY
  5
3122
102
{ACAD_REACTORS
330
2FE1
102
}
330
2FE1
100
AcDbDictionary
281
     1
  3
AcmStdDictionary
350
312B
  0
DICTIONARY
  5
30FD
102
{ACAD_REACTORS
330
2FE1
102
}
330
2FE1
100
AcDbDictionary
281
     1
  0
DICTIONARY
  5
3157
102
{ACAD_REACTORS
330
2FE1
102
}
330
2FE1
100
AcDbDictionary
281
     1
  0
DICTIONARY
  5
321F
102
{ACAD_REACTORS
330
321E
102
}
330
321E
100
AcDbDictionary
281
     1
  0
XRECORD
  5
3212
102
{ACAD_REACTORS
330
3211
102
}
330
3211
100
AcDbXrecord
280
     1
290
     1
  0
XRECORD
  5
3214
102
{ACAD_REACTORS
330
3213
102
}
330
3213
100
AcDbXrecord
280
     1
290
     1
  0
XRECORD
  5
3216
102
{ACAD_REACTORS
330
3215
102
}
330
3215
100
AcDbXrecord
280
     1
290
     1
  0
XRECORD
  5
3218
102
{ACAD_REACTORS
330
3217
102
}
330
3217
100
AcDbXrecord
280
     1
290
     1
  0
XRECORD
  5
321A
102
{ACAD_REACTORS
330
3219
102
}
330
3219
100
AcDbXrecord
280
     1
290
     1
  0
ACDBDETAILVIEWSTYLE
  5
303F
102
{ACAD_XDICTIONARY
360
326B
102
}
102
{ACAD_REACTORS
330
303E
330
3140
102
}
330
303E
100
AcDbModelDocViewStyle
 70
     0
  3
Imperial24
290
     0
100
AcDbDetailViewStyle
 70
     0
 71
     0
 90
        3
 71
     1
340
302A
 62
   256
 40
0.24
340
0
 62
   256
 40
0.24
300

 40
0.36
280
     3
 71
     2
340
3031
 90
       25
 62
   256
 71
     3
340
302A
 62
   256
 40
0.24
 90
        1
 40
0.75
 90
        1
300
%<\AcVar ViewType \f "%tc1">% %<\AcVar ViewDetailId>%\PSCALE %<\AcVar ViewScale \f "%sn">%
 71
     4
340
3031
 90
       25
 62
   256
340
3031
 90
       25
 62
   256
280
     0
  0
LAYOUT
  5
3047
102
{ACAD_REACTORS
330
3036
102
}
330
3036
100
AcDbPlotSettings
  1

  2
JUST PDF 3
  4

  6

 40
0.0
 41
0.0
 42
0.0
 43
0.0
 44
0.0
 45
0.0
 46
0.0
 47
0.0
 48
0.0
 49
0.0
140
0.0
141
0.0
142
1.0
143
1.0
 70
  1712
 72
     0
 73
     0
 74
     0
  7

 75
     0
147
1.0
 76
     0
 77
     2
 78
   300
148
0.0
149
0.0
100
AcDbLayout
  1
Model
 70
     1
 71
     0
 10
0.0
 20
0.0
 11
12.0
 21
9.0
 12
0.0
 22
0.0
 32
0.0
 14
0.0
 24
0.0
 34
0.0
 15
0.0
 25
0.0
 35
0.0
146
0.0
 13
0.0
 23
0.0
 33
0.0
 16
1.0
 26
0.0
 36
0.0
 17
0.0
 27
1.0
 37
0.0
 76
     0
330
3044
331
3049
  0
LAYOUT
  5
3043
102
{ACAD_REACTORS
330
3036
102
}
330
3036
100
AcDbPlotSettings
  1

  2
JUST PDF 3
  4

  6

 40
0.0
 41
0.0
 42
0.0
 43
0.0
 44
0.0
 45
0.0
 46
0.0
 47
0.0
 48
0.0
 49
0.0
140
0.0
141
0.0
142
1.0
143
1.0
 70
   688
 72
     0
 73
     0
 74
     5
  7

 75
    16
147
1.0
 76
     0
 77
     2
 78
   300
148
0.0
149
0.0
100
AcDbLayout
  1
レイアウト1
 70
     1
 71
     1
 10
0.0
 20
0.0
 11
420.0
 21
297.0
 12
0.0
 22
0.0
 32
0.0
 14
1.000000000000000E+20
 24
1.000000000000000E+20
 34
1.000000000000000E+20
 15
-1.000000000000000E+20
 25
-1.000000000000000E+20
 35
-1.000000000000000E+20
146
0.0
 13
0.0
 23
0.0
 33
0.0
 16
1.0
 26
0.0
 36
0.0
 17
0.0
 27
1.0
 37
0.0
 76
     0
330
3040
  0
MATERIAL
  5
2FEE
102
{ACAD_XDICTIONARY
360
2FEF
102
}
102
{ACAD_REACTORS
330
2FE5
102
}
330
2FE5
100
AcDbMaterial
  1
ByBlock
 72
     0
 43
0.0208333333333333
 43
0.0
 43
0.0
 43
0.0
 43
0.0
 43
0.0208333333333333
 43
0.0
 43
0.0
 43
0.0
 43
0.0
 43
1.0
 43
0.0
 43
0.0
 43
0.0
 43
0.0
 43
1.0
 77
     0
 47
0.0208333333333333
 47
0.0
 47
0.0
 47
0.0
 47
0.0
 47
0.0208333333333333
 47
0.0
 47
0.0
 47
0.0
 47
0.0
 47
1.0
 47
0.0
 47
0.0
 47
0.0
 47
0.0
 47
1.0
171
     0
 49
0.0208333333333333
 49
0.0
 49
0.0
 49
0.0
 49
0.0
 49
0.0208333333333333
 49
0.0
 49
0.0
 49
0.0
 49
0.0
 49
1.0
 49
0.0
 49
0.0
 49
0.0
 49
0.0
 49
1.0
175
     0
142
0.0208333333333333
142
0.0
142
0.0
142
0.0
142
0.0
142
0.0208333333333333
142
0.0
142
0.0
142
0.0
142
0.0
142
1.0
142
0.0
142
0.0
142
0.0
142
0.0
142
1.0
179
     0
144
0.0208333333333333
144
0.0
144
0.0
144
0.0
144
0.0
144
0.0208333333333333
144
0.0
144
0.0
144
0.0
144
0.0
144
1.0
144
0.0
144
0.0
144
0.0
144
0.0
144
1.0
147
0.0208333333333333
147
0.0
147
0.0
147
0.0
147
0.0
147
0.0208333333333333
147
0.0
147
0.0
147
0.0
147
0.0
147
1.0
147
0.0
147
0.0
147
0.0
147
0.0
147
1.0
  0
MATERIAL
  5
2FE6
102
{ACAD_XDICTIONARY
360
2FE7
102
}
102
{ACAD_REACTORS
330
2FE5
102
}
330
2FE5
100
AcDbMaterial
  1
ByLayer
 72
     0
 43
0.0208333333333333
 43
0.0
 43
0.0
 43
0.0
 43
0.0
 43
0.0208333333333333
 43
0.0
 43
0.0
 43
0.0
 43
0.0
 43
1.0
 43
0.0
 43
0.0
 43
0.0
 43
0.0
 43
1.0
 77
     0
 47
0.0208333333333333
 47
0.0
 47
0.0
 47
0.0
 47
0.0
 47
0.0208333333333333
 47
0.0
 47
0.0
 47
0.0
 47
0.0
 47
1.0
 47
0.0
 47
0.0
 47
0.0
 47
0.0
 47
1.0
171
     0
 49
0.0208333333333333
 49
0.0
 49
0.0
 49
0.0
 49
0.0
 49
0.0208333333333333
 49
0.0
 49
0.0
 49
0.0
 49
0.0
 49
1.0
 49
0.0
 49
0.0
 49
0.0
 49
0.0
 49
1.0
175
     0
142
0.0208333333333333
142
0.0
142
0.0
142
0.0
142
0.0
142
0.0208333333333333
142
0.0
142
0.0
142
0.0
142
0.0
142
1.0
142
0.0
142
0.0
142
0.0
142
0.0
142
1.0
179
     0
144
0.0208333333333333
144
0.0
144
0.0
144
0.0
144
0.0
144
0.0208333333333333
144
0.0
144
0.0
144
0.0
144
0.0
144
1.0
144
0.0
144
0.0
144
0.0
144
0.0
144
1.0
147
0.0208333333333333
147
0.0
147
0.0
147
0.0
147
0.0
147
0.0208333333333333
147
0.0
147
0.0
147
0.0
147
0.0
147
1.0
147
0.0
147
0.0
147
0.0
147
0.0
147
1.0
  0
MATERIAL
  5
2FF6
102
{ACAD_XDICTIONARY
360
2FF7
102
}
102
{ACAD_REACTORS
330
2FE5
102
}
330
2FE5
100
AcDbMaterial
  1
Global
 72
     0
 43
0.0208333333333333
 43
0.0
 43
0.0
 43
0.0
 43
0.0
 43
0.0208333333333333
 43
0.0
 43
0.0
 43
0.0
 43
0.0
 43
1.0
 43
0.0
 43
0.0
 43
0.0
 43
0.0
 43
1.0
 77
     0
 47
0.0208333333333333
 47
0.0
 47
0.0
 47
0.0
 47
0.0
 47
0.0208333333333333
 47
0.0
 47
0.0
 47
0.0
 47
0.0
 47
1.0
 47
0.0
 47
0.0
 47
0.0
 47
0.0
 47
1.0
171
     0
 49
0.0208333333333333
 49
0.0
 49
0.0
 49
0.0
 49
0.0
 49
0.0208333333333333
 49
0.0
 49
0.0
 49
0.0
 49
0.0
 49
1.0
 49
0.0
 49
0.0
 49
0.0
 49
0.0
 49
1.0
175
     0
142
0.0208333333333333
142
0.0
142
0.0
142
0.0
142
0.0
142
0.0208333333333333
142
0.0
142
0.0
142
0.0
142
0.0
142
1.0
142
0.0
142
0.0
142
0.0
142
0.0
142
1.0
179
     0
144
0.0208333333333333
144
0.0
144
0.0
144
0.0
144
0.0
144
0.0208333333333333
144
0.0
144
0.0
144
0.0
144
0.0
144
1.0
144
0.0
144
0.0
144
0.0
144
0.0
144
1.0
147
0.0208333333333333
147
0.0
147
0.0
147
0.0
147
0.0
147
0.0208333333333333
147
0.0
147
0.0
147
0.0
147
0.0
147
1.0
147
0.0
147
0.0
147
0.0
147
0.0
147
1.0
  0
MLEADERSTYLE
  5
303B
102
{ACAD_REACTORS
330
303A
102
}
330
303A
100
AcDbMLeaderStyle
179
     2
170
     2
171
     1
172
     0
 90
        2
 40
0.0
 41
0.0
173
     1
 91
-1056964608
340
302F
 92
       -2
290
     1
 42
0.09
291
     1
 43
0.36
  3
Standard
 44
0.18
300

342
302A
174
     1
178
     6
175
     1
176
     0
 93
-1056964608
 45
0.18
292
     0
297
     0
 46
0.18
 94
-1056964608
 47
1.0
 49
1.0
140
1.0
293
     1
141
0.0
294
     1
177
     0
142
1.0
295
     0
296
     0
143
0.125
271
     0
272
     9
273
     9
  0
MLINESTYLE
  5
3034
102
{ACAD_REACTORS
330
3033
102
}
330
3033
100
AcDbMlineStyle
  2
STANDARD
 70
     0
  3

 62
   256
 51
90.0
 52
90.0
 71
     2
 49
0.5
 62
   256
  6
BYLAYER
 49
-0.5
 62
   256
  6
BYLAYER
  0
ACDBPLACEHOLDER
  5
2FE4
102
{ACAD_REACTORS
330
2FE3
102
}
330
2FE3
  0
SCALE
  5
3018
102
{ACAD_REACTORS
330
3017
102
}
330
3017
100
AcDbScale
 70
     0
300
1:1
140
1.0
141
1.0
290
     1
  0
SCALE
  5
3019
102
{ACAD_REACTORS
330
3017
102
}
330
3017
100
AcDbScale
 70
     0
300
1/128" = 1'-0"
140
0.0078125
141
12.0
290
     0
  0
SCALE
  5
301A
102
{ACAD_REACTORS
330
3017
102
}
330
3017
100
AcDbScale
 70
     0
300
1/64" = 1'-0"
140
0.015625
141
12.0
290
     0
  0
SCALE
  5
301B
102
{ACAD_REACTORS
330
3017
102
}
330
3017
100
AcDbScale
 70
     0
300
1/32" = 1'-0"
140
0.03125
141
12.0
290
     0
  0
SCALE
  5
301C
102
{ACAD_REACTORS
330
3017
102
}
330
3017
100
AcDbScale
 70
     0
300
1/16" = 1'-0"
140
0.0625
141
12.0
290
     0
  0
SCALE
  5
301D
102
{ACAD_REACTORS
330
3017
102
}
330
3017
100
AcDbScale
 70
     0
300
3/32" = 1'-0"
140
0.09375
141
12.0
290
     0
  0
SCALE
  5
301E
102
{ACAD_REACTORS
330
3017
102
}
330
3017
100
AcDbScale
 70
     0
300
1/8" = 1'-0"
140
0.125
141
12.0
290
     0
  0
SCALE
  5
301F
102
{ACAD_REACTORS
330
3017
102
}
330
3017
100
AcDbScale
 70
     0
300
3/16" = 1'-0"
140
0.1875
141
12.0
290
     0
  0
SCALE
  5
3020
102
{ACAD_REACTORS
330
3017
102
}
330
3017
100
AcDbScale
 70
     0
300
1/4" = 1'-0"
140
0.25
141
12.0
290
     0
  0
SCALE
  5
3021
102
{ACAD_REACTORS
330
3017
102
}
330
3017
100
AcDbScale
 70
     0
300
3/8" = 1'-0"
140
0.375
141
12.0
290
     0
  0
SCALE
  5
3022
102
{ACAD_REACTORS
330
3017
102
}
330
3017
100
AcDbScale
 70
     0
300
1/2" = 1'-0"
140
0.5
141
12.0
290
     0
  0
SCALE
  5
3023
102
{ACAD_REACTORS
330
3017
102
}
330
3017
100
AcDbScale
 70
     0
300
3/4" = 1'-0"
140
0.75
141
12.0
290
     0
  0
SCALE
  5
3024
102
{ACAD_REACTORS
330
3017
102
}
330
3017
100
AcDbScale
 70
     0
300
1" = 1'-0"
140
1.0
141
12.0
290
     0
  0
SCALE
  5
3025
102
{ACAD_REACTORS
330
3017
102
}
330
3017
100
AcDbScale
 70
     0
300
1-1/2" = 1'-0"
140
1.5
141
12.0
290
     0
  0
SCALE
  5
3026
102
{ACAD_REACTORS
330
3017
102
}
330
3017
100
AcDbScale
 70
     0
300
3" = 1'-0"
140
3.0
141
12.0
290
     0
  0
SCALE
  5
3027
102
{ACAD_REACTORS
330
3017
102
}
330
3017
100
AcDbScale
 70
     0
300
6" = 1'-0"
140
6.0
141
12.0
290
     0
  0
SCALE
  5
3028
102
{ACAD_REACTORS
330
3017
102
}
330
3017
100
AcDbScale
 70
     0
300
1'-0" = 1'-0"
140
12.0
141
12.0
290
     0
  0
ACDBSECTIONVIEWSTYLE
  5
303D
102
{ACAD_XDICTIONARY
360
3269
102
}
102
{ACAD_REACTORS
330
303C
330
313F
102
}
330
303C
100
AcDbModelDocViewStyle
 70
     0
  3
Imperial24
290
     0
100
AcDbSectionViewStyle
 70
     0
 71
     0
 90
       78
 71
     1
340
302A
 62
   256
 40
0.24
340
0
340
0
 62
   256
 40
0.24
300
I, O, Q, S, X, Z
 40
0.48
 90
        3
 40
0.18
 90
        1
 71
     2
340
3031
 90
       25
 62
   256
340
3031
 90
       50
 62
   256
 40
0.24
 40
0.0
 40
0.24
 71
     3
340
302A
 62
   256
 40
0.24
 90
        1
 40
0.75
 90
        1
300
%<\AcVar ViewType \f "%tc1">% %<\AcVar ViewSectionStartId>%-%<\AcVar ViewSectionEndId>%\PSCALE %<\AcVar ViewScale \f "%sn">%
 71
     4
 62
   256
 62
   257
300
ANSI31
 40
1.0
 90
        0
290
     0
290
     0
 90
        6
 40
0.0
 40
1.570796326794896
 40
0.2617993877991494
 40
1.308996938995747
 40
-0.2617993877991494
 40
1.832595714594046
  0
TABLESTYLE
  5
3039
102
{ACAD_XDICTIONARY
360
322E
102
}
102
{ACAD_REACTORS
330
3038
102
}
330
3038
100
AcDbTableStyle
280
     0
  3
Standard
 70
     0
 71
     0
 40
0.06
 41
0.06
280
     0
281
     0
  7
STANDARD
140
0.18
170
     2
 62
     0
 63
     7
283
     0
 90
      512
 91
        0
  1

274
    -2
284
     1
 64
     0
275
    -2
285
     1
 65
     0
276
    -2
286
     1
 66
     0
277
    -2
287
     1
 67
     0
278
    -2
288
     1
 68
     0
279
    -2
289
     1
 69
     0
  7
STANDARD
140
0.25
170
     5
 62
     0
 63
     7
283
     0
 90
      512
 91
        0
  1

274
    -2
284
     1
 64
     0
275
    -2
285
     1
 65
     0
276
    -2
286
     1
 66
     0
277
    -2
287
     1
 67
     0
278
    -2
288
     1
 68
     0
279
    -2
289
     1
 69
     0
  7
STANDARD
140
0.18
170
     5
 62
     0
 63
     7
283
     0
 90
      512
 91
        0
  1

274
    -2
284
     1
 64
     0
275
    -2
285
     1
 65
     0
276
    -2
286
     1
 66
     0
277
    -2
287
     1
 67
     0
278
    -2
288
     1
 68
     0
279
    -2
289
     1
 69
     0
  0
VISUALSTYLE
  5
3004
102
{ACAD_XDICTIONARY
360
3243
102
}
102
{ACAD_REACTORS
330
2FFE
102
}
330
2FFE
100
AcDbVisualStyle
  2
2dWireframe
 70
     4
177
     2
291
     0
 71
     0
176
     1
 72
     2
176
     1
 73
     0
176
     1
 90
        0
176
     1
 40
0.6
176
     1
 41
30.0
176
     1
 63
     7
421
 16777215
176
     1
 74
     1
176
     1
 91
        4
176
     1
 64
     7
176
     1
 65
   257
176
     1
 75
     1
176
     1
175
     1
176
     1
 42
1.0
176
     1
 92
        0
176
     1
 66
   257
176
     1
 43
1.0
176
     1
 76
     1
176
     1
 77
     6
176
     1
 78
     2
176
     1
 67
     7
176
     1
 79
     5
176
     1
170
     0
176
     1
171
     0
176
     1
290
     0
176
     1
 93
        1
176
     1
 44
0.0
176
     1
173
     0
176
     1
1001
ACAD
1000
AcDbSavedByObjectVersion
1070
     0
  0
VISUALSTYLE
  5
3003
102
{ACAD_XDICTIONARY
360
3241
102
}
102
{ACAD_REACTORS
330
2FFE
102
}
330
2FFE
100
AcDbVisualStyle
  2
Basic
 70
     7
177
     2
291
     1
 71
     1
176
     1
 72
     0
176
     1
 73
     1
176
     1
 90
        0
176
     1
 40
0.6
176
     1
 41
30.0
176
     1
 63
     7
421
 16777215
176
     1
 74
     0
176
     1
 91
        4
176
     1
 64
     7
176
     1
 65
   257
176
     1
 75
     1
176
     1
175
     1
176
     1
 42
1.0
176
     1
 92
        8
176
     1
 66
     7
176
     1
 43
1.0
176
     1
 76
     1
176
     1
 77
     6
176
     1
 78
     2
176
     1
 67
     7
176
     1
 79
     5
176
     1
170
     0
176
     1
171
     0
176
     1
290
     0
176
     1
 93
        1
176
     1
 44
0.0
176
     1
173
     0
176
     1
1001
ACAD
1000
AcDbSavedByObjectVersion
1070
     0
  0
VISUALSTYLE
  5
300A
102
{ACAD_XDICTIONARY
360
324F
102
}
102
{ACAD_REACTORS
330
2FFE
102
}
330
2FFE
100
AcDbVisualStyle
  2
Brighten
 70
    12
177
     2
291
     1
 71
     2
176
     1
 72
     2
176
     1
 73
     0
176
     1
 90
        0
176
     1
 40
0.6
176
     1
 41
30.0
176
     1
 63
     7
421
 16777215
176
     1
 74
     1
176
     1
 91
        4
176
     1
 64
     7
176
     1
 65
   257
176
     1
 75
     1
176
     1
175
     1
176
     1
 42
1.0
176
     1
 92
        8
176
     1
 66
     7
176
     1
 43
1.0
176
     1
 76
     1
176
     1
 77
     6
176
     1
 78
     2
176
     1
 67
     7
176
     1
 79
     5
176
     1
170
     0
176
     1
171
     0
176
     1
290
     0
176
     1
 93
        1
176
     1
 44
50.0
176
     1
173
     0
176
     1
1001
ACAD
1000
AcDbSavedByObjectVersion
1070
     0
  0
VISUALSTYLE
  5
300E
102
{ACAD_XDICTIONARY
360
3257
102
}
102
{ACAD_REACTORS
330
2FFE
102
}
330
2FFE
100
AcDbVisualStyle
  2
ColorChange
 70
    16
177
     2
291
     1
 71
     2
176
     1
 72
     2
176
     1
 73
     3
176
     1
 90
        0
176
     1
 40
0.6
176
     1
 41
30.0
176
     1
 63
     8
421
  8421504
176
     1
 74
     1
176
     1
 91
        4
176
     1
 64
     7
176
     1
 65
   257
176
     1
 75
     1
176
     1
175
     1
176
     1
 42
1.0
176
     1
 92
        8
176
     1
 66
     8
424
  8421504
176
     1
 43
1.0
176
     1
 76
     1
176
     1
 77
     6
176
     1
 78
     2
176
     1
 67
     7
176
     1
 79
     5
176
     1
170
     0
176
     1
171
     0
176
     1
290
     0
176
     1
 93
        1
176
     1
 44
0.0
176
     1
173
     0
176
     1
1001
ACAD
1000
AcDbSavedByObjectVersion
1070
     0
  0
VISUALSTYLE
  5
3007
102
{ACAD_XDICTIONARY
360
3249
102
}
102
{ACAD_REACTORS
330
2FFE
102
}
330
2FFE
100
AcDbVisualStyle
  2
Conceptual
 70
     9
177
     2
291
     0
 71
     3
176
     1
 72
     2
176
     1
 73
     0
176
     1
 90
        0
176
     1
 40
0.6
176
     1
 41
30.0
176
     1
 63
     7
421
 16777215
176
     1
 74
     2
176
     1
 91
        2
176
     1
 64
     7
176
     1
 65
   257
176
     1
 75
     1
176
     1
175
     1
176
     1
 42
179.0
176
     1
 92
        8
176
     1
 66
     7
176
     1
 43
1.0
176
     1
 76
     1
176
     1
 77
     6
176
     1
 78
     2
176
     1
 67
     7
176
     1
 79
     3
176
     1
170
     0
176
     1
171
     0
176
     1
290
     0
176
     1
 93
        1
176
     1
 44
0.0
176
     1
173
     0
176
     1
1001
ACAD
1000
AcDbSavedByObjectVersion
1070
     0
  0
VISUALSTYLE
  5
3009
102
{ACAD_XDICTIONARY
360
324D
102
}
102
{ACAD_REACTORS
330
2FFE
102
}
330
2FFE
100
AcDbVisualStyle
  2
Dim
 70
    11
177
     2
291
     1
 71
     2
176
     1
 72
     2
176
     1
 73
     0
176
     1
 90
        0
176
     1
 40
0.6
176
     1
 41
30.0
176
     1
 63
     7
421
 16777215
176
     1
 74
     1
176
     1
 91
        4
176
     1
 64
     7
176
     1
 65
   257
176
     1
 75
     1
176
     1
175
     1
176
     1
 42
1.0
176
     1
 92
        8
176
     1
 66
     7
176
     1
 43
1.0
176
     1
 76
     1
176
     1
 77
     6
176
     1
 78
     2
176
     1
 67
     7
176
     1
 79
     5
176
     1
170
     0
176
     1
171
     0
176
     1
290
     0
176
     1
 93
        1
176
     1
 44
-50.0
176
     1
173
     0
176
     1
1001
ACAD
1000
AcDbSavedByObjectVersion
1070
     0
  0
VISUALSTYLE
  5
3016
102
{ACAD_XDICTIONARY
360
3267
102
}
102
{ACAD_REACTORS
330
2FFE
102
}
330
2FFE
100
AcDbVisualStyle
  2
EdgeColorOff
 70
    22
177
     2
291
     1
 71
     2
176
     0
 72
     2
176
     0
 73
     0
176
     0
 90
        0
176
     0
 40
0.6
176
     0
 41
30.0
176
     0
 63
     7
421
 16777215
176
     0
 74
     1
176
     0
 91
        4
176
     0
 64
     7
176
     0
 65
   257
176
     0
 75
     1
176
     0
175
     1
176
     0
 42
1.0
176
     0
 92
        8
176
     2
 66
     7
176
     0
 43
1.0
176
     0
 76
     1
176
     0
 77
     6
176
     0
 78
     2
176
     0
 67
     7
176
     0
 79
     5
176
     0
170
     0
176
     0
171
     0
176
     0
290
     0
176
     0
 93
        1
176
     0
 44
0.0
176
     0
173
     0
176
     0
1001
ACAD
1000
AcDbSavedByObjectVersion
1070
     0
  0
VISUALSTYLE
  5
300D
102
{ACAD_XDICTIONARY
360
3255
102
}
102
{ACAD_REACTORS
330
2FFE
102
}
330
2FFE
100
AcDbVisualStyle
  2
Facepattern
 70
    15
177
     2
291
     1
 71
     2
176
     1
 72
     2
176
     1
 73
     0
176
     1
 90
        0
176
     1
 40
0.6
176
     1
 41
30.0
176
     1
 63
     7
421
 16777215
176
     1
 74
     1
176
     1
 91
        4
176
     1
 64
     7
176
     1
 65
   257
176
     1
 75
     1
176
     1
175
     1
176
     1
 42
1.0
176
     1
 92
        8
176
     1
 66
     7
176
     1
 43
1.0
176
     1
 76
     1
176
     1
 77
     6
176
     1
 78
     2
176
     1
 67
     7
176
     1
 79
     5
176
     1
170
     0
176
     1
171
     0
176
     1
290
     0
176
     1
 93
        1
176
     1
 44
0.0
176
     1
173
     0
176
     1
1001
ACAD
1000
AcDbSavedByObjectVersion
1070
     0
  0
VISUALSTYLE
  5
2FFF
102
{ACAD_XDICTIONARY
360
3239
102
}
102
{ACAD_REACTORS
330
2FFE
102
}
330
2FFE
100
AcDbVisualStyle
  2
Flat
 70
     0
177
     2
291
     1
 71
     2
176
     1
 72
     1
176
     1
 73
     1
176
     1
 90
        2
176
     1
 40
0.6
176
     1
 41
30.0
176
     1
 63
     7
421
 16777215
176
     1
 74
     0
176
     1
 91
        0
176
     1
 64
     7
176
     1
 65
   257
176
     1
 75
     1
176
     1
175
     1
176
     1
 42
1.0
176
     1
 92
        8
176
     1
 66
     7
176
     1
 43
1.0
176
     1
 76
     1
176
     1
 77
     6
176
     1
 78
     2
176
     1
 67
     7
176
     1
 79
     5
176
     1
170
     0
176
     1
171
     0
176
     1
290
     0
176
     1
 93
       13
176
     1
 44
0.0
176
     1
173
     0
176
     1
1001
ACAD
1000
AcDbSavedByObjectVersion
1070
     0
  0
VISUALSTYLE
  5
3000
102
{ACAD_XDICTIONARY
360
323B
102
}
102
{ACAD_REACTORS
330
2FFE
102
}
330
2FFE
100
AcDbVisualStyle
  2
FlatWithEdges
 70
     1
177
     2
291
     1
 71
     2
176
     1
 72
     1
176
     1
 73
     1
176
     1
 90
        2
176
     1
 40
0.6
176
     1
 41
30.0
176
     1
 63
     7
421
 16777215
176
     1
 74
     1
176
     1
 91
        0
176
     1
 64
     7
176
     1
 65
   257
176
     1
 75
     1
176
     1
175
     1
176
     1
 42
1.0
176
     1
 92
        0
176
     1
 66
   257
176
     1
 43
1.0
176
     1
 76
     1
176
     1
 77
     6
176
     1
 78
     2
176
     1
 67
     7
176
     1
 79
     5
176
     1
170
     0
176
     1
171
     0
176
     1
290
     0
176
     1
 93
       13
176
     1
 44
0.0
176
     1
173
     0
176
     1
1001
ACAD
1000
AcDbSavedByObjectVersion
1070
     0
  0
VISUALSTYLE
  5
3001
102
{ACAD_XDICTIONARY
360
323D
102
}
102
{ACAD_REACTORS
330
2FFE
102
}
330
2FFE
100
AcDbVisualStyle
  2
Gouraud
 70
     2
177
     2
291
     1
 71
     2
176
     1
 72
     2
176
     1
 73
     1
176
     1
 90
        2
176
     1
 40
0.6
176
     1
 41
30.0
176
     1
 63
     7
421
 16777215
176
     1
 74
     0
176
     1
 91
        0
176
     1
 64
     7
176
     1
 65
   257
176
     1
 75
     1
176
     1
175
     1
176
     1
 42
1.0
176
     1
 92
        0
176
     1
 66
     7
176
     1
 43
1.0
176
     1
 76
     1
176
     1
 77
     6
176
     1
 78
     2
176
     1
 67
     7
176
     1
 79
     5
176
     1
170
     0
176
     1
171
     0
176
     1
290
     0
176
     1
 93
       13
176
     1
 44
0.0
176
     1
173
     0
176
     1
1001
ACAD
1000
AcDbSavedByObjectVersion
1070
     0
  0
VISUALSTYLE
  5
3002
102
{ACAD_XDICTIONARY
360
323F
102
}
102
{ACAD_REACTORS
330
2FFE
102
}
330
2FFE
100
AcDbVisualStyle
  2
GouraudWithEdges
 70
     3
177
     2
291
     1
 71
     2
176
     1
 72
     2
176
     1
 73
     1
176
     1
 90
        2
176
     1
 40
0.6
176
     1
 41
30.0
176
     1
 63
     7
421
 16777215
176
     1
 74
     1
176
     1
 91
        0
176
     1
 64
     7
176
     1
 65
   257
176
     1
 75
     1
176
     1
175
     1
176
     1
 42
1.0
176
     1
 92
        0
176
     1
 66
   257
176
     1
 43
1.0
176
     1
 76
     1
176
     1
 77
     6
176
     1
 78
     2
176
     1
 67
     7
176
     1
 79
     5
176
     1
170
     0
176
     1
171
     0
176
     1
290
     0
176
     1
 93
       13
176
     1
 44
0.0
176
     1
173
     0
176
     1
1001
ACAD
1000
AcDbSavedByObjectVersion
1070
     0
  0
VISUALSTYLE
  5
3006
102
{ACAD_XDICTIONARY
360
3247
102
}
102
{ACAD_REACTORS
330
2FFE
102
}
330
2FFE
100
AcDbVisualStyle
  2
Hidden
 70
     6
177
     2
291
     0
 71
     1
176
     1
 72
     2
176
     1
 73
     2
176
     1
 90
        0
176
     1
 40
0.6
176
     1
 41
30.0
176
     1
 63
     7
421
 16777215
176
     1
 74
     2
176
     1
 91
        2
176
     1
 64
     7
176
     1
 65
   257
176
     1
 75
     2
176
     1
175
     1
176
     1
 42
40.0
176
     1
 92
        0
176
     1
 66
   257
176
     1
 43
1.0
176
     1
 76
     1
176
     1
 77
     6
176
     1
 78
     2
176
     1
 67
     7
176
     1
 79
     3
176
     1
170
     0
176
     1
171
     0
176
     1
290
     0
176
     1
 93
        1
176
     1
 44
0.0
176
     1
173
     0
176
     1
1001
ACAD
1000
AcDbSavedByObjectVersion
1070
     0
  0
VISUALSTYLE
  5
3014
102
{ACAD_XDICTIONARY
360
3263
102
}
102
{ACAD_REACTORS
330
2FFE
102
}
330
2FFE
100
AcDbVisualStyle
  2
JitterOff
 70
    20
177
     2
291
     1
 71
     2
176
     0
 72
     2
176
     0
 73
     0
176
     0
 90
        0
176
     0
 40
0.6
176
     0
 41
30.0
176
     0
 63
     7
421
 16777215
176
     0
 74
     1
176
     0
 91
        4
176
     0
 64
     7
176
     0
 65
   257
176
     0
 75
     1
176
     0
175
     1
176
     0
 42
1.0
176
     0
 92
       10
176
     2
 66
     7
176
     0
 43
1.0
176
     0
 76
     1
176
     0
 77
     6
176
     0
 78
     2
176
     0
 67
     7
176
     0
 79
     5
176
     0
170
     0
176
     0
171
     0
176
     0
290
     0
176
     0
 93
        1
176
     0
 44
0.0
176
     0
173
     0
176
     0
1001
ACAD
1000
AcDbSavedByObjectVersion
1070
     0
  0
VISUALSTYLE
  5
300C
102
{ACAD_XDICTIONARY
360
3253
102
}
102
{ACAD_REACTORS
330
2FFE
102
}
330
2FFE
100
AcDbVisualStyle
  2
Linepattern
 70
    14
177
     2
291
     1
 71
     2
176
     1
 72
     2
176
     1
 73
     0
176
     1
 90
        0
176
     1
 40
0.6
176
     1
 41
30.0
176
     1
 63
     7
421
 16777215
176
     1
 74
     1
176
     1
 91
        4
176
     1
 64
     7
176
     1
 65
   257
176
     1
 75
     7
176
     1
175
     7
176
     1
 42
1.0
176
     1
 92
        8
176
     1
 66
     7
176
     1
 43
1.0
176
     1
 76
     1
176
     1
 77
     6
176
     1
 78
     2
176
     1
 67
     7
176
     1
 79
     5
176
     1
170
     0
176
     1
171
     0
176
     1
290
     0
176
     1
 93
        1
176
     1
 44
0.0
176
     1
173
     0
176
     1
1001
ACAD
1000
AcDbSavedByObjectVersion
1070
     0
  0
VISUALSTYLE
  5
3015
102
{ACAD_XDICTIONARY
360
3265
102
}
102
{ACAD_REACTORS
330
2FFE
102
}
330
2FFE
100
AcDbVisualStyle
  2
OverhangOff
 70
    21
177
     2
291
     1
 71
     2
176
     0
 72
     2
176
     0
 73
     0
176
     0
 90
        0
176
     0
 40
0.6
176
     0
 41
30.0
176
     0
 63
     7
421
 16777215
176
     0
 74
     1
176
     0
 91
        4
176
     0
 64
     7
176
     0
 65
   257
176
     0
 75
     1
176
     0
175
     1
176
     0
 42
1.0
176
     0
 92
        9
176
     2
 66
     7
176
     0
 43
1.0
176
     0
 76
     1
176
     0
 77
     6
176
     0
 78
     2
176
     0
 67
     7
176
     0
 79
     5
176
     0
170
     0
176
     0
171
     0
176
     0
290
     0
176
     0
 93
        1
176
     0
 44
0.0
176
     0
173
     0
176
     0
1001
ACAD
1000
AcDbSavedByObjectVersion
1070
     0
  0
VISUALSTYLE
  5
3008
102
{ACAD_XDICTIONARY
360
324B
102
}
102
{ACAD_REACTORS
330
2FFE
102
}
330
2FFE
100
AcDbVisualStyle
  2
Realistic
 70
     8
177
     2
291
     0
 71
     2
176
     1
 72
     3
176
     1
 73
     0
176
     1
 90
        2
176
     1
 40
0.6
176
     1
 41
30.0
176
     1
 63
     7
421
 16777215
176
     1
 74
     0
176
     1
 91
        0
176
     1
 64
     7
176
     1
 65
   257
176
     1
 75
     1
176
     1
175
     1
176
     1
 42
1.0
176
     1
 92
        8
176
     1
 66
   257
176
     1
 43
1.0
176
     1
 76
     1
176
     1
 77
     6
176
     1
 78
     2
176
     1
 67
     7
176
     1
 79
     3
176
     1
170
     0
176
     1
171
     0
176
     1
290
     0
176
     1
 93
       13
176
     1
 44
0.0
176
     1
173
     0
176
     1
1001
ACAD
1000
AcDbSavedByObjectVersion
1070
     0
  0
VISUALSTYLE
  5
3013
102
{ACAD_XDICTIONARY
360
3261
102
}
102
{ACAD_REACTORS
330
2FFE
102
}
330
2FFE
100
AcDbVisualStyle
  2
Shaded
 70
    27
177
     2
291
     0
 71
     2
176
     1
 72
     2
176
     1
 73
     1
176
     1
 90
        2
176
     1
 40
0.6
176
     1
 41
30.0
176
     1
 63
     7
421
 16777215
176
     1
 74
     0
176
     1
 91
        4
176
     1
 64
     7
176
     1
 65
   257
176
     1
 75
     1
176
     1
175
     1
176
     1
 42
1.0
176
     1
 92
        8
176
     1
 66
   257
176
     1
 43
1.0
176
     1
 76
     1
176
     1
 77
     6
176
     1
 78
     2
176
     1
 67
     8
425
  7895160
176
     1
 79
     3
176
     1
170
     0
176
     1
171
     0
176
     1
290
     0
176
     1
 93
        5
176
     1
 44
0.0
176
     1
173
     0
176
     1
1001
ACAD
1000
AcDbSavedByObjectVersion
1070
     0
  0
VISUALSTYLE
  5
3012
102
{ACAD_XDICTIONARY
360
325F
102
}
102
{ACAD_REACTORS
330
2FFE
102
}
330
2FFE
100
AcDbVisualStyle
  2
Shaded with edges
 70
    26
177
     2
291
     0
 71
     2
176
     1
 72
     2
176
     1
 73
     1
176
     1
 90
        2
176
     1
 40
0.6
176
     1
 41
30.0
176
     1
 63
     7
421
 16777215
176
     1
 74
     1
176
     1
 91
        2
176
     1
 64
     7
176
     1
 65
   257
176
     1
 75
     2
176
     1
175
     1
176
     1
 42
1.0
176
     1
 92
        8
176
     1
 66
   257
176
     1
 43
1.0
176
     1
 76
     1
176
     1
 77
     6
176
     1
 78
     2
176
     1
 67
     7
176
     1
 79
     3
176
     1
170
     0
176
     1
171
     0
176
     1
290
     0
176
     1
 93
        5
176
     1
 44
0.0
176
     1
173
     0
176
     1
1001
ACAD
1000
AcDbSavedByObjectVersion
1070
     0
  0
VISUALSTYLE
  5
300F
102
{ACAD_XDICTIONARY
360
3259
102
}
102
{ACAD_REACTORS
330
2FFE
102
}
330
2FFE
100
AcDbVisualStyle
  2
Shades of Gray
 70
    23
177
     2
291
     0
 71
     2
176
     1
 72
     2
176
     1
 73
     3
176
     1
 90
        0
176
     1
 40
0.6
176
     1
 41
30.0
176
     1
 63
     7
421
 16777215
176
     1
 74
     2
176
     1
 91
        2
176
     1
 64
     7
176
     1
 65
     7
176
     1
 75
     1
176
     1
175
     1
176
     1
 42
40.0
176
     1
 92
        8
176
     1
 66
     7
176
     1
 43
1.0
176
     1
 76
     1
176
     1
 77
     6
176
     1
 78
     2
176
     1
 67
     7
176
     1
 79
     3
176
     1
170
     0
176
     1
171
     0
176
     1
290
     0
176
     1
 93
        1
176
     1
 44
0.0
176
     1
173
     0
176
     1
1001
ACAD
1000
AcDbSavedByObjectVersion
1070
     0
  0
VISUALSTYLE
  5
3010
102
{ACAD_XDICTIONARY
360
325B
102
}
102
{ACAD_REACTORS
330
2FFE
102
}
330
2FFE
100
AcDbVisualStyle
  2
Sketchy
 70
    24
177
     2
291
     0
 71
     1
176
     1
 72
     2
176
     1
 73
     2
176
     1
 90
        0
176
     1
 40
0.6
176
     1
 41
30.0
176
     1
 63
     7
421
 16777215
176
     1
 74
     2
176
     1
 91
        2
176
     1
 64
     7
176
     1
 65
     7
176
     1
 75
     1
176
     1
175
     1
176
     1
 42
40.0
176
     1
 92
       11
176
     1
 66
     7
176
     1
 43
1.0
176
     1
 76
     1
176
     1
 77
     6
176
     1
 78
     2
176
     1
 67
     7
176
     1
 79
     6
176
     1
170
     0
176
     1
171
     0
176
     1
290
     0
176
     1
 93
        1
176
     1
 44
0.0
176
     1
173
     0
176
     1
1001
ACAD
1000
AcDbSavedByObjectVersion
1070
     0
  0
VISUALSTYLE
  5
300B
102
{ACAD_XDICTIONARY
360
3251
102
}
102
{ACAD_REACTORS
330
2FFE
102
}
330
2FFE
100
AcDbVisualStyle
  2
Thicken
 70
    13
177
     2
291
     1
 71
     2
176
     1
 72
     2
176
     1
 73
     0
176
     1
 90
        0
176
     1
 40
0.6
176
     1
 41
30.0
176
     1
 63
     7
421
 16777215
176
     1
 74
     1
176
     1
 91
        4
176
     1
 64
     7
176
     1
 65
   257
176
     1
 75
     1
176
     1
175
     1
176
     1
 42
1.0
176
     1
 92
       12
176
     1
 66
     7
176
     1
 43
1.0
176
     1
 76
     1
176
     1
 77
     6
176
     1
 78
     2
176
     1
 67
     7
176
     1
 79
     5
176
     1
170
     0
176
     1
171
     0
176
     1
290
     0
176
     1
 93
        1
176
     1
 44
0.0
176
     1
173
     0
176
     1
1001
ACAD
1000
AcDbSavedByObjectVersion
1070
     0
  0
VISUALSTYLE
  5
3005
102
{ACAD_XDICTIONARY
360
3245
102
}
102
{ACAD_REACTORS
330
2FFE
102
}
330
2FFE
100
AcDbVisualStyle
  2
Wireframe
 70
     5
177
     2
291
     0
 71
     0
176
     1
 72
     2
176
     1
 73
     0
176
     1
 90
        0
176
     1
 40
0.6
176
     1
 41
30.0
176
     1
 63
     7
421
 16777215
176
     1
 74
     1
176
     1
 91
        4
176
     1
 64
     7
176
     1
 65
   257
176
     1
 75
     1
176
     1
175
     1
176
     1
 42
1.0
176
     1
 92
        0
176
     1
 66
   257
176
     1
 43
1.0
176
     1
 76
     1
176
     1
 77
     6
176
     1
 78
     2
176
     1
 67
     7
176
     1
 79
     3
176
     1
170
     0
176
     1
171
     0
176
     1
290
     0
176
     1
 93
        1
176
     1
 44
0.0
176
     1
173
     0
176
     1
1001
ACAD
1000
AcDbSavedByObjectVersion
1070
     0
  0
VISUALSTYLE
  5
3011
102
{ACAD_XDICTIONARY
360
325D
102
}
102
{ACAD_REACTORS
330
2FFE
102
}
330
2FFE
100
AcDbVisualStyle
  2
X-Ray
 70
    25
177
     2
291
     0
 71
     2
176
     1
 72
     2
176
     1
 73
     1
176
     1
 90
        1
176
     1
 40
0.5
176
     1
 41
30.0
176
     1
 63
     7
421
 16777215
176
     1
 74
     1
176
     1
 91
        0
176
     1
 64
     7
176
     1
 65
   257
176
     1
 75
     1
176
     1
175
     1
176
     1
 42
1.0
176
     1
 92
        8
176
     1
 66
     7
176
     1
 43
1.0
176
     1
 76
     1
176
     1
 77
     6
176
     1
 78
     2
176
     1
 67
     7
176
     1
 79
     3
176
     1
170
     0
176
     1
171
     0
176
     1
290
     0
176
     1
 93
       13
176
     1
 44
0.0
176
     1
173
     0
176
     1
1001
ACAD
1000
AcDbSavedByObjectVersion
1070
     0
  0
DICTIONARYVAR
  5
322A
102
{ACAD_REACTORS
330
3224
102
}
330
3224
100
DictionaryVariables
280
     0
  1
1:1
  0
DICTIONARYVAR
  5
3226
102
{ACAD_REACTORS
330
3224
102
}
330
3224
100
DictionaryVariables
280
     0
  1
STANDARD
  0
DICTIONARYVAR
  5
3225
102
{ACAD_REACTORS
330
3224
102
}
330
3224
100
DictionaryVariables
280
     0
  1
STANDARD
  0
DICTIONARYVAR
  5
3227
102
{ACAD_REACTORS
330
3224
102
}
330
3224
100
DictionaryVariables
280
     0
  1
Imperial24
  0
DICTIONARYVAR
  5
3228
102
{ACAD_REACTORS
330
3224
102
}
330
3224
100
DictionaryVariables
280
     0
  1
Imperial24
  0
DICTIONARYVAR
  5
322C
102
{ACAD_REACTORS
330
3224
102
}
330
3224
100
DictionaryVariables
280
     0
  1
1
  0
DICTIONARYVAR
  5
322D
102
{ACAD_REACTORS
330
3224
102
}
330
3224
100
DictionaryVariables
280
     0
  1
15
  0
DICTIONARYVAR
  5
322B
102
{ACAD_REACTORS
330
3224
102
}
330
3224
100
DictionaryVariables
280
     0
  1
0
  0
DICTIONARYVAR
  5
3229
102
{ACAD_REACTORS
330
3224
102
}
330
3224
100
DictionaryVariables
280
     0
  1
0
  0
DICTIONARY
  5
3238
102
{ACAD_REACTORS
330
3236
102
}
330
3236
100
AcDbDictionary
281
     1
  0
DICTIONARY
  5
3237
102
{ACAD_REACTORS
330
3236
102
}
330
3236
100
AcDbDictionary
281
     1
  3
2128375711760
350
3231
  3
2128375711776
350
3232
  3
2128375711792
350
3233
  3
2128375711808
350
3234
  3
2128375711824
350
3235
  0
DICTIONARY
  5
312B
102
{ACAD_REACTORS
330
3122
102
}
330
3122
100
AcDbDictionary
281
     1
  0
DICTIONARY
  5
326B
330
303F
100
AcDbDictionary
280
     1
281
     1
  3
ACAD_XREC_ROUNDTRIP
360
326C
  0
DICTIONARY
  5
2FEF
330
2FEE
100
AcDbDictionary
280
     1
281
     1
  3
BUMPTILE
360
2FF1
  3
DIFFUSETILE
360
2FF0
  3
OPACITYTILE
360
2FF4
  3
REFLECTIONTILE
360
2FF3
  3
REFRACTIONTILE
360
2FF5
  3
SPECULARTILE
360
2FF2
  0
DICTIONARY
  5
2FE7
330
2FE6
100
AcDbDictionary
280
     1
281
     1
  3
BUMPTILE
360
2FE9
  3
DIFFUSETILE
360
2FE8
  3
OPACITYTILE
360
2FEC
  3
REFLECTIONTILE
360
2FEB
  3
REFRACTIONTILE
360
2FED
  3
SPECULARTILE
360
2FEA
  0
DICTIONARY
  5
2FF7
330
2FF6
100
AcDbDictionary
280
     1
281
     1
  3
BUMPTILE
360
2FF9
  3
DIFFUSETILE
360
2FF8
  3
OPACITYTILE
360
2FFC
  3
REFLECTIONTILE
360
2FFB
  3
REFRACTIONTILE
360
2FFD
  3
SPECULARTILE
360
2FFA
  0
DICTIONARY
  5
3269
330
303D
100
AcDbDictionary
280
     1
281
     1
  3
ACAD_XREC_ROUNDTRIP
360
326A
  0
DICTIONARY
  5
322E
330
3039
100
AcDbDictionary
280
     1
281
     1
  3
ACAD_ROUNDTRIP_2008_TABLESTYLE_CELLSTYLEMAP
360
322F
  0
DICTIONARY
  5
3243
330
3004
100
AcDbDictionary
280
     1
281
     1
  3
ACAD_XREC_ROUNDTRIP
360
3244
  0
DICTIONARY
  5
3241
330
3003
100
AcDbDictionary
280
     1
281
     1
  3
ACAD_XREC_ROUNDTRIP
360
3242
  0
DICTIONARY
  5
324F
330
300A
100
AcDbDictionary
280
     1
281
     1
  3
ACAD_XREC_ROUNDTRIP
360
3250
  0
DICTIONARY
  5
3257
330
300E
100
AcDbDictionary
280
     1
281
     1
  3
ACAD_XREC_ROUNDTRIP
360
3258
  0
DICTIONARY
  5
3249
330
3007
100
AcDbDictionary
280
     1
281
     1
  3
ACAD_XREC_ROUNDTRIP
360
324A
  0
DICTIONARY
  5
324D
330
3009
100
AcDbDictionary
280
     1
281
     1
  3
ACAD_XREC_ROUNDTRIP
360
324E
  0
DICTIONARY
  5
3267
330
3016
100
AcDbDictionary
280
     1
281
     1
  3
ACAD_XREC_ROUNDTRIP
360
3268
  0
DICTIONARY
  5
3255
330
300D
100
AcDbDictionary
280
     1
281
     1
  3
ACAD_XREC_ROUNDTRIP
360
3256
  0
DICTIONARY
  5
3239
330
2FFF
100
AcDbDictionary
280
     1
281
     1
  3
ACAD_XREC_ROUNDTRIP
360
323A
  0
DICTIONARY
  5
323B
330
3000
100
AcDbDictionary
280
     1
281
     1
  3
ACAD_XREC_ROUNDTRIP
360
323C
  0
DICTIONARY
  5
323D
330
3001
100
AcDbDictionary
280
     1
281
     1
  3
ACAD_XREC_ROUNDTRIP
360
323E
  0
DICTIONARY
  5
323F
330
3002
100
AcDbDictionary
280
     1
281
     1
  3
ACAD_XREC_ROUNDTRIP
360
3240
  0
DICTIONARY
  5
3247
330
3006
100
AcDbDictionary
280
     1
281
     1
  3
ACAD_XREC_ROUNDTRIP
360
3248
  0
DICTIONARY
  5
3263
330
3014
100
AcDbDictionary
280
     1
281
     1
  3
ACAD_XREC_ROUNDTRIP
360
3264
  0
DICTIONARY
  5
3253
330
300C
100
AcDbDictionary
280
     1
281
     1
  3
ACAD_XREC_ROUNDTRIP
360
3254
  0
DICTIONARY
  5
3265
330
3015
100
AcDbDictionary
280
     1
281
     1
  3
ACAD_XREC_ROUNDTRIP
360
3266
  0
DICTIONARY
  5
324B
330
3008
100
AcDbDictionary
280
     1
281
     1
  3
ACAD_XREC_ROUNDTRIP
360
324C
  0
DICTIONARY
  5
3261
330
3013
100
AcDbDictionary
280
     1
281
     1
  3
ACAD_XREC_ROUNDTRIP
360
3262
  0
DICTIONARY
  5
325F
330
3012
100
AcDbDictionary
280
     1
281
     1
  3
ACAD_XREC_ROUNDTRIP
360
3260
  0
DICTIONARY
  5
3259
330
300F
100
AcDbDictionary
280
     1
281
     1
  3
ACAD_XREC_ROUNDTRIP
360
325A
  0
DICTIONARY
  5
325B
330
3010
100
AcDbDictionary
280
     1
281
     1
  3
ACAD_XREC_ROUNDTRIP
360
325C
  0
DICTIONARY
  5
3251
330
300B
100
AcDbDictionary
280
     1
281
     1
  3
ACAD_XREC_ROUNDTRIP
360
3252
  0
DICTIONARY
  5
3245
330
3005
100
AcDbDictionary
280
     1
281
     1
  3
ACAD_XREC_ROUNDTRIP
360
3246
  0
DICTIONARY
  5
325D
330
3011
100
AcDbDictionary
280
     1
281
     1
  3
ACAD_XREC_ROUNDTRIP
360
325E
  0
XRECORD
  5
3231
102
{ACAD_REACTORS
330
3237
102
}
330
3237
100
AcDbXrecord
280
     1
  1
AcDb_Thumbnail_Schema
102
{ATTRRECORD
341
3232
  2
AcDbDs::TreatedAsObjectData
280
     1
291
     1
102
ATTRRECORD}
102
{ATTRRECORD
341
3233
  2
AcDbDs::Legacy
280
     1
291
     1
102
ATTRRECORD}
  2
AcDbDs::ID
280
    10
 91
        8
102
{ATTRRECORD
341
3234
  2
AcDs:Indexable
280
     1
291
     1
102
ATTRRECORD}
102
{ATTRRECORD
341
3235
  2
AcDbDs::HandleAttribute
280
     7
282
     1
102
ATTRRECORD}
  2
Thumbnail_Data
280
    15
 91
        0
  0
XRECORD
  5
3232
102
{ACAD_REACTORS
330
3237
102
}
330
3237
100
AcDbXrecord
280
     1
  1
AcDbDs::TreatedAsObjectDataSchema
  2
AcDbDs::TreatedAsObjectData
280
     1
 91
        0
  0
XRECORD
  5
3233
102
{ACAD_REACTORS
330
3237
102
}
330
3237
100
AcDbXrecord
280
     1
  1
AcDbDs::LegacySchema
  2
AcDbDs::Legacy
280
     1
 91
        0
  0
XRECORD
  5
3234
102
{ACAD_REACTORS
330
3237
102
}
330
3237
100
AcDbXrecord
280
     1
  1
AcDbDs::IndexedPropertySchema
  2
AcDs:Indexable
280
     1
 91
        0
  0
XRECORD
  5
3235
102
{ACAD_REACTORS
330
3237
102
}
330
3237
100
AcDbXrecord
280
     1
  1
AcDbDs::HandleAttributeSchema
  2
AcDbDs::HandleAttribute
280
     7
 91
        1
284
     1
  0
XRECORD
  5
326C
102
{ACAD_REACTORS
330
326B
102
}
330
326B
100
AcDbXrecord
280
     1
102
DISPLAYNAME
  1
Imperial24
102
FLAGS
 90
        0
  0
XRECORD
  5
2FF1
102
{ACAD_REACTORS
330
2FEF
102
}
330
2FEF
100
AcDbXrecord
280
     1
270
     1
271
     1
  0
XRECORD
  5
2FF0
102
{ACAD_REACTORS
330
2FEF
102
}
330
2FEF
100
AcDbXrecord
280
     1
270
     1
271
     1
  0
XRECORD
  5
2FF4
102
{ACAD_REACTORS
330
2FEF
102
}
330
2FEF
100
AcDbXrecord
280
     1
270
     1
271
     1
  0
XRECORD
  5
2FF3
102
{ACAD_REACTORS
330
2FEF
102
}
330
2FEF
100
AcDbXrecord
280
     1
270
     1
271
     1
  0
XRECORD
  5
2FF5
102
{ACAD_REACTORS
330
2FEF
102
}
330
2FEF
100
AcDbXrecord
280
     1
270
     1
271
     1
  0
XRECORD
  5
2FF2
102
{ACAD_REACTORS
330
2FEF
102
}
330
2FEF
100
AcDbXrecord
280
     1
270
     1
271
     1
  0
XRECORD
  5
2FE9
102
{ACAD_REACTORS
330
2FE7
102
}
330
2FE7
100
AcDbXrecord
280
     1
270
     1
271
     1
  0
XRECORD
  5
2FE8
102
{ACAD_REACTORS
330
2FE7
102
}
330
2FE7
100
AcDbXrecord
280
     1
270
     1
271
     1
  0
XRECORD
  5
2FEC
102
{ACAD_REACTORS
330
2FE7
102
}
330
2FE7
100
AcDbXrecord
280
     1
270
     1
271
     1
  0
XRECORD
  5
2FEB
102
{ACAD_REACTORS
330
2FE7
102
}
330
2FE7
100
AcDbXrecord
280
     1
270
     1
271
     1
  0
XRECORD
  5
2FED
102
{ACAD_REACTORS
330
2FE7
102
}
330
2FE7
100
AcDbXrecord
280
     1
270
     1
271
     1
  0
XRECORD
  5
2FEA
102
{ACAD_REACTORS
330
2FE7
102
}
330
2FE7
100
AcDbXrecord
280
     1
270
     1
271
     1
  0
XRECORD
  5
2FF9
102
{ACAD_REACTORS
330
2FF7
102
}
330
2FF7
100
AcDbXrecord
280
     1
270
     1
271
     1
  0
XRECORD
  5
2FF8
102
{ACAD_REACTORS
330
2FF7
102
}
330
2FF7
100
AcDbXrecord
280
     1
270
     1
271
     1
  0
XRECORD
  5
2FFC
102
{ACAD_REACTORS
330
2FF7
102
}
330
2FF7
100
AcDbXrecord
280
     1
270
     1
271
     1
  0
XRECORD
  5
2FFB
102
{ACAD_REACTORS
330
2FF7
102
}
330
2FF7
100
AcDbXrecord
280
     1
270
     1
271
     1
  0
XRECORD
  5
2FFD
102
{ACAD_REACTORS
330
2FF7
102
}
330
2FF7
100
AcDbXrecord
280
     1
270
     1
271
     1
  0
XRECORD
  5
2FFA
102
{ACAD_REACTORS
330
2FF7
102
}
330
2FF7
100
AcDbXrecord
280
     1
270
     1
271
     1
  0
XRECORD
  5
326A
102
{ACAD_REACTORS
330
3269
102
}
330
3269
100
AcDbXrecord
280
     1
102
DISPLAYNAME
  1
Imperial24
102
FLAGS
 90
        0
  0
CELLSTYLEMAP
  5
322F
102
{ACAD_REACTORS
330
322E
102
}
330
322E
100
AcDbCellStyleMap
 90
        3
300
CELLSTYLE
  1
TABLEFORMAT_BEGIN
 90
        5
170
     1
 91
        0
 92
    32768
 62
   257
 93
        1
300
CONTENTFORMAT
  1
CONTENTFORMAT_BEGIN
 90
        0
 91
        0
 92
      512
 93
        0
300

 40
0.0
140
1.0
 94
        5
 62
     0
340
302A
144
0.25
309
CONTENTFORMAT_END
171
     0
 94
        0
309
TABLEFORMAT_END
  1
CELLSTYLE_BEGIN
 90
        1
 91
        1
300
_TITLE
309
CELLSTYLE_END
300
CELLSTYLE
  1
TABLEFORMAT_BEGIN
 90
        5
170
     1
 91
        0
 92
        0
 62
   257
 93
        1
300
CONTENTFORMAT
  1
CONTENTFORMAT_BEGIN
 90
        0
 91
        0
 92
      512
 93
        0
300

 40
0.0
140
1.0
 94
        5
 62
     0
340
302A
144
0.18
309
CONTENTFORMAT_END
171
     0
 94
        0
309
TABLEFORMAT_END
  1
CELLSTYLE_BEGIN
 90
        2
 91
        1
300
_HEADER
309
CELLSTYLE_END
300
CELLSTYLE
  1
TABLEFORMAT_BEGIN
 90
        5
170
     1
 91
        0
 92
        0
 62
   257
 93
        1
300
CONTENTFORMAT
  1
CONTENTFORMAT_BEGIN
 90
        0
 91
        0
 92
      512
 93
        0
300

 40
0.0
140
1.0
 94
        2
 62
     0
340
302A
144
0.18
309
CONTENTFORMAT_END
171
     0
 94
        0
309
TABLEFORMAT_END
  1
CELLSTYLE_BEGIN
 90
        3
 91
        2
300
_DATA
309
CELLSTYLE_END
  0
XRECORD
  5
3244
102
{ACAD_REACTORS
330
3243
102
}
330
3243
100
AcDbXrecord
280
     1
102
RTVSPost2010Prop28
280
     1
102
RTVSPost2010PropOp28
 70
     1
102
RTVSPost2010Prop29
280
     1
102
RTVSPost2010PropOp29
 70
     1
102
RTVSPost2010Prop30
280
     0
102
RTVSPost2010PropOp30
 70
     1
102
RTVSPost2010Prop31
280
     0
102
RTVSPost2010PropOp31
 70
     1
102
RTVSPost2010Prop32
280
     0
102
RTVSPost2010PropOp32
 70
     1
102
RTVSPost2010Prop33
280
     0
102
RTVSPost2010PropOp33
 70
     1
102
RTVSPost2010Prop34
280
     0
102
RTVSPost2010PropOp34
 70
     1
102
RTVSPost2010Prop35
280
     0
102
RTVSPost2010PropOp35
 70
     1
102
RTVSPost2010Prop36
280
     0
102
RTVSPost2010PropOp36
 70
     1
102
RTVSPost2010Prop37
 90
       50
102
RTVSPost2010PropOp37
 70
     1
102
RTVSPost2010Prop38
140
0.0
102
RTVSPost2010PropOp38
 70
     1
102
RTVSPost2010Prop39
140
1.0
102
RTVSPost2010PropOp39
 70
     1
102
RTVSPost2010Prop40
 90
        0
102
RTVSPost2010PropOp40
 70
     1
102
RTVSPost2010Prop41ColorIndex
 90
       18
102
RTVSPost2010Prop41ColorRGB
 90
        0
102
RTVSPost2010PropOp41
 70
     1
102
RTVSPost2010Prop42
 90
       50
102
RTVSPost2010PropOp42
 70
     1
102
RTVSPost2010Prop43
 90
        3
102
RTVSPost2010PropOp43
 70
     1
102
RTVSPost2010Prop44ColorIndex
 90
        5
102
RTVSPost2010Prop44ColorRGB
 90
      255
102
RTVSPost2010PropOp44
 70
     1
102
RTVSPost2010Prop45
280
     0
102
RTVSPost2010PropOp45
 70
     1
102
RTVSPost2010Prop46
 90
       50
102
RTVSPost2010PropOp46
 70
     1
102
RTVSPost2010Prop47
 90
       50
102
RTVSPost2010PropOp47
 70
     1
102
RTVSPost2010Prop48
 90
       50
102
RTVSPost2010PropOp48
 70
     1
102
RTVSPost2010Prop49
280
     0
102
RTVSPost2010PropOp49
 70
     1
102
RTVSPost2010Prop50
 90
       50
102
RTVSPost2010PropOp50
 70
     1
102
RTVSPost2010Prop51ColorIndex
 90
      256
102
RTVSPost2010Prop51ColorRGB
 90
-16777216
102
RTVSPost2010PropOp51
 70
     0
102
RTVSPost2010Prop52
140
1.0
102
RTVSPost2010PropOp52
 70
     0
102
RTVSPost2010Prop53
 90
        2
102
RTVSPost2010PropOp53
 70
     1
102
RTVSPost2010Prop54
  1
strokes_ogs.tif
102
RTVSPost2010PropOp54
 70
     1
102
RTVSPost2010Prop55
280
     0
102
RTVSPost2010PropOp55
 70
     1
102
RTVSPost2010Prop56
140
1.0
102
RTVSPost2010PropOp56
 70
     1
102
RTVSPost2010Prop57
140
1.0
102
RTVSPost2010PropOp57
 70
     1
  0
XRECORD
  5
3242
102
{ACAD_REACTORS
330
3241
102
}
330
3241
100
AcDbXrecord
280
     1
102
RTVSPost2010Prop28
280
     0
102
RTVSPost2010PropOp28
 70
     1
102
RTVSPost2010Prop29
280
     1
102
RTVSPost2010PropOp29
 70
     1
102
RTVSPost2010Prop30
280
     1
102
RTVSPost2010PropOp30
 70
     1
102
RTVSPost2010Prop31
280
     0
102
RTVSPost2010PropOp31
 70
     1
102
RTVSPost2010Prop32
280
     0
102
RTVSPost2010PropOp32
 70
     1
102
RTVSPost2010Prop33
280
     0
102
RTVSPost2010PropOp33
 70
     1
102
RTVSPost2010Prop34
280
     0
102
RTVSPost2010PropOp34
 70
     1
102
RTVSPost2010Prop35
280
     0
102
RTVSPost2010PropOp35
 70
     1
102
RTVSPost2010Prop36
280
     0
102
RTVSPost2010PropOp36
 70
     1
102
RTVSPost2010Prop37
 90
       50
102
RTVSPost2010PropOp37
 70
     1
102
RTVSPost2010Prop38
140
0.0
102
RTVSPost2010PropOp38
 70
     1
102
RTVSPost2010Prop39
140
1.0
102
RTVSPost2010PropOp39
 70
     1
102
RTVSPost2010Prop40
 90
        0
102
RTVSPost2010PropOp40
 70
     1
102
RTVSPost2010Prop41ColorIndex
 90
       18
102
RTVSPost2010Prop41ColorRGB
 90
        0
102
RTVSPost2010PropOp41
 70
     1
102
RTVSPost2010Prop42
 90
       50
102
RTVSPost2010PropOp42
 70
     1
102
RTVSPost2010Prop43
 90
        3
102
RTVSPost2010PropOp43
 70
     1
102
RTVSPost2010Prop44ColorIndex
 90
        5
102
RTVSPost2010Prop44ColorRGB
 90
      255
102
RTVSPost2010PropOp44
 70
     1
102
RTVSPost2010Prop45
280
     0
102
RTVSPost2010PropOp45
 70
     1
102
RTVSPost2010Prop46
 90
       50
102
RTVSPost2010PropOp46
 70
     1
102
RTVSPost2010Prop47
 90
       50
102
RTVSPost2010PropOp47
 70
     1
102
RTVSPost2010Prop48
 90
       50
102
RTVSPost2010PropOp48
 70
     1
102
RTVSPost2010Prop49
280
     0
102
RTVSPost2010PropOp49
 70
     1
102
RTVSPost2010Prop50
 90
       50
102
RTVSPost2010PropOp50
 70
     1
102
RTVSPost2010Prop51ColorIndex
 90
      256
102
RTVSPost2010Prop51ColorRGB
 90
-16777216
102
RTVSPost2010PropOp51
 70
     0
102
RTVSPost2010Prop52
140
1.0
102
RTVSPost2010PropOp52
 70
     0
102
RTVSPost2010Prop53
 90
        2
102
RTVSPost2010PropOp53
 70
     1
102
RTVSPost2010Prop54
  1
strokes_ogs.tif
102
RTVSPost2010PropOp54
 70
     1
102
RTVSPost2010Prop55
280
     0
102
RTVSPost2010PropOp55
 70
     1
102
RTVSPost2010Prop56
140
1.0
102
RTVSPost2010PropOp56
 70
     1
102
RTVSPost2010Prop57
140
1.0
102
RTVSPost2010PropOp57
 70
     1
  0
XRECORD
  5
3250
102
{ACAD_REACTORS
330
324F
102
}
330
324F
100
AcDbXrecord
280
     1
102
RTVSPost2010Prop28
280
     0
102
RTVSPost2010PropOp28
 70
     1
102
RTVSPost2010Prop29
280
     1
102
RTVSPost2010PropOp29
 70
     1
102
RTVSPost2010Prop30
280
     1
102
RTVSPost2010PropOp30
 70
     1
102
RTVSPost2010Prop31
280
     0
102
RTVSPost2010PropOp31
 70
     1
102
RTVSPost2010Prop32
280
     0
102
RTVSPost2010PropOp32
 70
     1
102
RTVSPost2010Prop33
280
     0
102
RTVSPost2010PropOp33
 70
     1
102
RTVSPost2010Prop34
280
     0
102
RTVSPost2010PropOp34
 70
     1
102
RTVSPost2010Prop35
280
     0
102
RTVSPost2010PropOp35
 70
     1
102
RTVSPost2010Prop36
280
     0
102
RTVSPost2010PropOp36
 70
     1
102
RTVSPost2010Prop37
 90
       50
102
RTVSPost2010PropOp37
 70
     1
102
RTVSPost2010Prop38
140
0.0
102
RTVSPost2010PropOp38
 70
     1
102
RTVSPost2010Prop39
140
1.0
102
RTVSPost2010PropOp39
 70
     1
102
RTVSPost2010Prop40
 90
        0
102
RTVSPost2010PropOp40
 70
     1
102
RTVSPost2010Prop41ColorIndex
 90
       18
102
RTVSPost2010Prop41ColorRGB
 90
        0
102
RTVSPost2010PropOp41
 70
     1
102
RTVSPost2010Prop42
 90
       50
102
RTVSPost2010PropOp42
 70
     1
102
RTVSPost2010Prop43
 90
        3
102
RTVSPost2010PropOp43
 70
     1
102
RTVSPost2010Prop44ColorIndex
 90
        5
102
RTVSPost2010Prop44ColorRGB
 90
      255
102
RTVSPost2010PropOp44
 70
     1
102
RTVSPost2010Prop45
280
     0
102
RTVSPost2010PropOp45
 70
     1
102
RTVSPost2010Prop46
 90
       50
102
RTVSPost2010PropOp46
 70
     1
102
RTVSPost2010Prop47
 90
       50
102
RTVSPost2010PropOp47
 70
     1
102
RTVSPost2010Prop48
 90
       50
102
RTVSPost2010PropOp48
 70
     1
102
RTVSPost2010Prop49
280
     0
102
RTVSPost2010PropOp49
 70
     1
102
RTVSPost2010Prop50
 90
       50
102
RTVSPost2010PropOp50
 70
     1
102
RTVSPost2010Prop51ColorIndex
 90
      256
102
RTVSPost2010Prop51ColorRGB
 90
-16777216
102
RTVSPost2010PropOp51
 70
     0
102
RTVSPost2010Prop52
140
1.0
102
RTVSPost2010PropOp52
 70
     0
102
RTVSPost2010Prop53
 90
        2
102
RTVSPost2010PropOp53
 70
     1
102
RTVSPost2010Prop54
  1
strokes_ogs.tif
102
RTVSPost2010PropOp54
 70
     1
102
RTVSPost2010Prop55
280
     0
102
RTVSPost2010PropOp55
 70
     1
102
RTVSPost2010Prop56
140
1.0
102
RTVSPost2010PropOp56
 70
     1
102
RTVSPost2010Prop57
140
1.0
102
RTVSPost2010PropOp57
 70
     1
  0
XRECORD
  5
3258
102
{ACAD_REACTORS
330
3257
102
}
330
3257
100
AcDbXrecord
280
     1
102
RTVSPost2010Prop28
280
     0
102
RTVSPost2010PropOp28
 70
     1
102
RTVSPost2010Prop29
280
     1
102
RTVSPost2010PropOp29
 70
     1
102
RTVSPost2010Prop30
280
     1
102
RTVSPost2010PropOp30
 70
     1
102
RTVSPost2010Prop31
280
     0
102
RTVSPost2010PropOp31
 70
     1
102
RTVSPost2010Prop32
280
     0
102
RTVSPost2010PropOp32
 70
     1
102
RTVSPost2010Prop33
280
     0
102
RTVSPost2010PropOp33
 70
     1
102
RTVSPost2010Prop34
280
     0
102
RTVSPost2010PropOp34
 70
     1
102
RTVSPost2010Prop35
280
     0
102
RTVSPost2010PropOp35
 70
     1
102
RTVSPost2010Prop36
280
     0
102
RTVSPost2010PropOp36
 70
     1
102
RTVSPost2010Prop37
 90
       50
102
RTVSPost2010PropOp37
 70
     1
102
RTVSPost2010Prop38
140
0.0
102
RTVSPost2010PropOp38
 70
     1
102
RTVSPost2010Prop39
140
1.0
102
RTVSPost2010PropOp39
 70
     1
102
RTVSPost2010Prop40
 90
        0
102
RTVSPost2010PropOp40
 70
     1
102
RTVSPost2010Prop41ColorIndex
 90
       18
102
RTVSPost2010Prop41ColorRGB
 90
        0
102
RTVSPost2010PropOp41
 70
     1
102
RTVSPost2010Prop42
 90
       50
102
RTVSPost2010PropOp42
 70
     1
102
RTVSPost2010Prop43
 90
        3
102
RTVSPost2010PropOp43
 70
     1
102
RTVSPost2010Prop44ColorIndex
 90
        5
102
RTVSPost2010Prop44ColorRGB
 90
      255
102
RTVSPost2010PropOp44
 70
     1
102
RTVSPost2010Prop45
280
     0
102
RTVSPost2010PropOp45
 70
     1
102
RTVSPost2010Prop46
 90
       50
102
RTVSPost2010PropOp46
 70
     1
102
RTVSPost2010Prop47
 90
       50
102
RTVSPost2010PropOp47
 70
     1
102
RTVSPost2010Prop48
 90
       50
102
RTVSPost2010PropOp48
 70
     1
102
RTVSPost2010Prop49
280
     0
102
RTVSPost2010PropOp49
 70
     1
102
RTVSPost2010Prop50
 90
       50
102
RTVSPost2010PropOp50
 70
     1
102
RTVSPost2010Prop51ColorIndex
 90
      256
102
RTVSPost2010Prop51ColorRGB
 90
-16777216
102
RTVSPost2010PropOp51
 70
     0
102
RTVSPost2010Prop52
140
1.0
102
RTVSPost2010PropOp52
 70
     0
102
RTVSPost2010Prop53
 90
        2
102
RTVSPost2010PropOp53
 70
     1
102
RTVSPost2010Prop54
  1
strokes_ogs.tif
102
RTVSPost2010PropOp54
 70
     1
102
RTVSPost2010Prop55
280
     0
102
RTVSPost2010PropOp55
 70
     1
102
RTVSPost2010Prop56
140
1.0
102
RTVSPost2010PropOp56
 70
     1
102
RTVSPost2010Prop57
140
1.0
102
RTVSPost2010PropOp57
 70
     1
  0
XRECORD
  5
324A
102
{ACAD_REACTORS
330
3249
102
}
330
3249
100
AcDbXrecord
280
     1
102
RTVSPost2010Prop28
280
     0
102
RTVSPost2010PropOp28
 70
     1
102
RTVSPost2010Prop29
280
     1
102
RTVSPost2010PropOp29
 70
     1
102
RTVSPost2010Prop30
280
     1
102
RTVSPost2010PropOp30
 70
     1
102
RTVSPost2010Prop31
280
     0
102
RTVSPost2010PropOp31
 70
     1
102
RTVSPost2010Prop32
280
     0
102
RTVSPost2010PropOp32
 70
     1
102
RTVSPost2010Prop33
280
     0
102
RTVSPost2010PropOp33
 70
     1
102
RTVSPost2010Prop34
280
     0
102
RTVSPost2010PropOp34
 70
     1
102
RTVSPost2010Prop35
280
     0
102
RTVSPost2010PropOp35
 70
     1
102
RTVSPost2010Prop36
280
     0
102
RTVSPost2010PropOp36
 70
     1
102
RTVSPost2010Prop37
 90
       50
102
RTVSPost2010PropOp37
 70
     1
102
RTVSPost2010Prop38
140
0.0
102
RTVSPost2010PropOp38
 70
     1
102
RTVSPost2010Prop39
140
1.0
102
RTVSPost2010PropOp39
 70
     1
102
RTVSPost2010Prop40
 90
        0
102
RTVSPost2010PropOp40
 70
     1
102
RTVSPost2010Prop41ColorIndex
 90
       18
102
RTVSPost2010Prop41ColorRGB
 90
        0
102
RTVSPost2010PropOp41
 70
     1
102
RTVSPost2010Prop42
 90
       50
102
RTVSPost2010PropOp42
 70
     1
102
RTVSPost2010Prop43
 90
        3
102
RTVSPost2010PropOp43
 70
     1
102
RTVSPost2010Prop44ColorIndex
 90
        5
102
RTVSPost2010Prop44ColorRGB
 90
      255
102
RTVSPost2010PropOp44
 70
     1
102
RTVSPost2010Prop45
280
     0
102
RTVSPost2010PropOp45
 70
     1
102
RTVSPost2010Prop46
 90
       50
102
RTVSPost2010PropOp46
 70
     1
102
RTVSPost2010Prop47
 90
       50
102
RTVSPost2010PropOp47
 70
     1
102
RTVSPost2010Prop48
 90
       50
102
RTVSPost2010PropOp48
 70
     1
102
RTVSPost2010Prop49
280
     0
102
RTVSPost2010PropOp49
 70
     1
102
RTVSPost2010Prop50
 90
       50
102
RTVSPost2010PropOp50
 70
     1
102
RTVSPost2010Prop51ColorIndex
 90
      256
102
RTVSPost2010Prop51ColorRGB
 90
-16777216
102
RTVSPost2010PropOp51
 70
     0
102
RTVSPost2010Prop52
140
1.0
102
RTVSPost2010PropOp52
 70
     0
102
RTVSPost2010Prop53
 90
        2
102
RTVSPost2010PropOp53
 70
     1
102
RTVSPost2010Prop54
  1
strokes_ogs.tif
102
RTVSPost2010PropOp54
 70
     1
102
RTVSPost2010Prop55
280
     0
102
RTVSPost2010PropOp55
 70
     1
102
RTVSPost2010Prop56
140
1.0
102
RTVSPost2010PropOp56
 70
     1
102
RTVSPost2010Prop57
140
1.0
102
RTVSPost2010PropOp57
 70
     1
  0
XRECORD
  5
324E
102
{ACAD_REACTORS
330
324D
102
}
330
324D
100
AcDbXrecord
280
     1
102
RTVSPost2010Prop28
280
     0
102
RTVSPost2010PropOp28
 70
     1
102
RTVSPost2010Prop29
280
     1
102
RTVSPost2010PropOp29
 70
     1
102
RTVSPost2010Prop30
280
     1
102
RTVSPost2010PropOp30
 70
     1
102
RTVSPost2010Prop31
280
     0
102
RTVSPost2010PropOp31
 70
     1
102
RTVSPost2010Prop32
280
     0
102
RTVSPost2010PropOp32
 70
     1
102
RTVSPost2010Prop33
280
     0
102
RTVSPost2010PropOp33
 70
     1
102
RTVSPost2010Prop34
280
     0
102
RTVSPost2010PropOp34
 70
     1
102
RTVSPost2010Prop35
280
     0
102
RTVSPost2010PropOp35
 70
     1
102
RTVSPost2010Prop36
280
     0
102
RTVSPost2010PropOp36
 70
     1
102
RTVSPost2010Prop37
 90
       50
102
RTVSPost2010PropOp37
 70
     1
102
RTVSPost2010Prop38
140
0.0
102
RTVSPost2010PropOp38
 70
     1
102
RTVSPost2010Prop39
140
1.0
102
RTVSPost2010PropOp39
 70
     1
102
RTVSPost2010Prop40
 90
        0
102
RTVSPost2010PropOp40
 70
     1
102
RTVSPost2010Prop41ColorIndex
 90
       18
102
RTVSPost2010Prop41ColorRGB
 90
        0
102
RTVSPost2010PropOp41
 70
     1
102
RTVSPost2010Prop42
 90
       50
102
RTVSPost2010PropOp42
 70
     1
102
RTVSPost2010Prop43
 90
        3
102
RTVSPost2010PropOp43
 70
     1
102
RTVSPost2010Prop44ColorIndex
 90
        5
102
RTVSPost2010Prop44ColorRGB
 90
      255
102
RTVSPost2010PropOp44
 70
     1
102
RTVSPost2010Prop45
280
     0
102
RTVSPost2010PropOp45
 70
     1
102
RTVSPost2010Prop46
 90
       50
102
RTVSPost2010PropOp46
 70
     1
102
RTVSPost2010Prop47
 90
       50
102
RTVSPost2010PropOp47
 70
     1
102
RTVSPost2010Prop48
 90
       50
102
RTVSPost2010PropOp48
 70
     1
102
RTVSPost2010Prop49
280
     0
102
RTVSPost2010PropOp49
 70
     1
102
RTVSPost2010Prop50
 90
       50
102
RTVSPost2010PropOp50
 70
     1
102
RTVSPost2010Prop51ColorIndex
 90
      256
102
RTVSPost2010Prop51ColorRGB
 90
-16777216
102
RTVSPost2010PropOp51
 70
     0
102
RTVSPost2010Prop52
140
1.0
102
RTVSPost2010PropOp52
 70
     0
102
RTVSPost2010Prop53
 90
        2
102
RTVSPost2010PropOp53
 70
     1
102
RTVSPost2010Prop54
  1
strokes_ogs.tif
102
RTVSPost2010PropOp54
 70
     1
102
RTVSPost2010Prop55
280
     0
102
RTVSPost2010PropOp55
 70
     1
102
RTVSPost2010Prop56
140
1.0
102
RTVSPost2010PropOp56
 70
     1
102
RTVSPost2010Prop57
140
1.0
102
RTVSPost2010PropOp57
 70
     1
  0
XRECORD
  5
3268
102
{ACAD_REACTORS
330
3267
102
}
330
3267
100
AcDbXrecord
280
     1
102
RTVSPost2010Prop28
280
     0
102
RTVSPost2010PropOp28
 70
     1
102
RTVSPost2010Prop29
280
     1
102
RTVSPost2010PropOp29
 70
     1
102
RTVSPost2010Prop30
280
     1
102
RTVSPost2010PropOp30
 70
     1
102
RTVSPost2010Prop31
280
     0
102
RTVSPost2010PropOp31
 70
     1
102
RTVSPost2010Prop32
280
     0
102
RTVSPost2010PropOp32
 70
     1
102
RTVSPost2010Prop33
280
     0
102
RTVSPost2010PropOp33
 70
     1
102
RTVSPost2010Prop34
280
     0
102
RTVSPost2010PropOp34
 70
     1
102
RTVSPost2010Prop35
280
     0
102
RTVSPost2010PropOp35
 70
     1
102
RTVSPost2010Prop36
280
     0
102
RTVSPost2010PropOp36
 70
     1
102
RTVSPost2010Prop37
 90
       50
102
RTVSPost2010PropOp37
 70
     0
102
RTVSPost2010Prop38
140
0.0
102
RTVSPost2010PropOp38
 70
     0
102
RTVSPost2010Prop39
140
1.0
102
RTVSPost2010PropOp39
 70
     0
102
RTVSPost2010Prop40
 90
        0
102
RTVSPost2010PropOp40
 70
     0
102
RTVSPost2010Prop41ColorIndex
 90
       18
102
RTVSPost2010Prop41ColorRGB
 90
        0
102
RTVSPost2010PropOp41
 70
     0
102
RTVSPost2010Prop42
 90
       50
102
RTVSPost2010PropOp42
 70
     0
102
RTVSPost2010Prop43
 90
        3
102
RTVSPost2010PropOp43
 70
     0
102
RTVSPost2010Prop44ColorIndex
 90
        5
102
RTVSPost2010Prop44ColorRGB
 90
      255
102
RTVSPost2010PropOp44
 70
     0
102
RTVSPost2010Prop45
280
     0
102
RTVSPost2010PropOp45
 70
     1
102
RTVSPost2010Prop46
 90
       50
102
RTVSPost2010PropOp46
 70
     0
102
RTVSPost2010Prop47
 90
       50
102
RTVSPost2010PropOp47
 70
     0
102
RTVSPost2010Prop48
 90
       50
102
RTVSPost2010PropOp48
 70
     0
102
RTVSPost2010Prop49
280
     0
102
RTVSPost2010PropOp49
 70
     1
102
RTVSPost2010Prop50
 90
       50
102
RTVSPost2010PropOp50
 70
     0
102
RTVSPost2010Prop51ColorIndex
 90
      256
102
RTVSPost2010Prop51ColorRGB
 90
-16777216
102
RTVSPost2010PropOp51
 70
     0
102
RTVSPost2010Prop52
140
1.0
102
RTVSPost2010PropOp52
 70
     0
102
RTVSPost2010Prop53
 90
        2
102
RTVSPost2010PropOp53
 70
     0
102
RTVSPost2010Prop54
  1
strokes_ogs.tif
102
RTVSPost2010PropOp54
 70
     0
102
RTVSPost2010Prop55
280
     0
102
RTVSPost2010PropOp55
 70
     1
102
RTVSPost2010Prop56
140
1.0
102
RTVSPost2010PropOp56
 70
     0
102
RTVSPost2010Prop57
140
1.0
102
RTVSPost2010PropOp57
 70
     0
  0
XRECORD
  5
3256
102
{ACAD_REACTORS
330
3255
102
}
330
3255
100
AcDbXrecord
280
     1
102
RTVSPost2010Prop28
280
     0
102
RTVSPost2010PropOp28
 70
     1
102
RTVSPost2010Prop29
280
     1
102
RTVSPost2010PropOp29
 70
     1
102
RTVSPost2010Prop30
280
     1
102
RTVSPost2010PropOp30
 70
     1
102
RTVSPost2010Prop31
280
     0
102
RTVSPost2010PropOp31
 70
     1
102
RTVSPost2010Prop32
280
     0
102
RTVSPost2010PropOp32
 70
     1
102
RTVSPost2010Prop33
280
     0
102
RTVSPost2010PropOp33
 70
     1
102
RTVSPost2010Prop34
280
     0
102
RTVSPost2010PropOp34
 70
     1
102
RTVSPost2010Prop35
280
     0
102
RTVSPost2010PropOp35
 70
     1
102
RTVSPost2010Prop36
280
     0
102
RTVSPost2010PropOp36
 70
     1
102
RTVSPost2010Prop37
 90
       50
102
RTVSPost2010PropOp37
 70
     1
102
RTVSPost2010Prop38
140
0.0
102
RTVSPost2010PropOp38
 70
     1
102
RTVSPost2010Prop39
140
1.0
102
RTVSPost2010PropOp39
 70
     1
102
RTVSPost2010Prop40
 90
        0
102
RTVSPost2010PropOp40
 70
     1
102
RTVSPost2010Prop41ColorIndex
 90
       18
102
RTVSPost2010Prop41ColorRGB
 90
        0
102
RTVSPost2010PropOp41
 70
     1
102
RTVSPost2010Prop42
 90
       50
102
RTVSPost2010PropOp42
 70
     1
102
RTVSPost2010Prop43
 90
        3
102
RTVSPost2010PropOp43
 70
     1
102
RTVSPost2010Prop44ColorIndex
 90
        5
102
RTVSPost2010Prop44ColorRGB
 90
      255
102
RTVSPost2010PropOp44
 70
     1
102
RTVSPost2010Prop45
280
     0
102
RTVSPost2010PropOp45
 70
     1
102
RTVSPost2010Prop46
 90
       50
102
RTVSPost2010PropOp46
 70
     1
102
RTVSPost2010Prop47
 90
       50
102
RTVSPost2010PropOp47
 70
     1
102
RTVSPost2010Prop48
 90
       50
102
RTVSPost2010PropOp48
 70
     1
102
RTVSPost2010Prop49
280
     0
102
RTVSPost2010PropOp49
 70
     1
102
RTVSPost2010Prop50
 90
       50
102
RTVSPost2010PropOp50
 70
     1
102
RTVSPost2010Prop51ColorIndex
 90
      256
102
RTVSPost2010Prop51ColorRGB
 90
-16777216
102
RTVSPost2010PropOp51
 70
     0
102
RTVSPost2010Prop52
140
1.0
102
RTVSPost2010PropOp52
 70
     0
102
RTVSPost2010Prop53
 90
        2
102
RTVSPost2010PropOp53
 70
     1
102
RTVSPost2010Prop54
  1
strokes_ogs.tif
102
RTVSPost2010PropOp54
 70
     1
102
RTVSPost2010Prop55
280
     0
102
RTVSPost2010PropOp55
 70
     1
102
RTVSPost2010Prop56
140
1.0
102
RTVSPost2010PropOp56
 70
     1
102
RTVSPost2010Prop57
140
1.0
102
RTVSPost2010PropOp57
 70
     1
  0
XRECORD
  5
323A
102
{ACAD_REACTORS
330
3239
102
}
330
3239
100
AcDbXrecord
280
     1
102
RTVSPost2010Prop28
280
     0
102
RTVSPost2010PropOp28
 70
     1
102
RTVSPost2010Prop29
280
     1
102
RTVSPost2010PropOp29
 70
     1
102
RTVSPost2010Prop30
280
     1
102
RTVSPost2010PropOp30
 70
     1
102
RTVSPost2010Prop31
280
     0
102
RTVSPost2010PropOp31
 70
     1
102
RTVSPost2010Prop32
280
     0
102
RTVSPost2010PropOp32
 70
     1
102
RTVSPost2010Prop33
280
     0
102
RTVSPost2010PropOp33
 70
     1
102
RTVSPost2010Prop34
280
     0
102
RTVSPost2010PropOp34
 70
     1
102
RTVSPost2010Prop35
280
     0
102
RTVSPost2010PropOp35
 70
     1
102
RTVSPost2010Prop36
280
     0
102
RTVSPost2010PropOp36
 70
     1
102
RTVSPost2010Prop37
 90
       50
102
RTVSPost2010PropOp37
 70
     1
102
RTVSPost2010Prop38
140
0.0
102
RTVSPost2010PropOp38
 70
     1
102
RTVSPost2010Prop39
140
1.0
102
RTVSPost2010PropOp39
 70
     1
102
RTVSPost2010Prop40
 90
        0
102
RTVSPost2010PropOp40
 70
     1
102
RTVSPost2010Prop41ColorIndex
 90
       18
102
RTVSPost2010Prop41ColorRGB
 90
        0
102
RTVSPost2010PropOp41
 70
     1
102
RTVSPost2010Prop42
 90
       50
102
RTVSPost2010PropOp42
 70
     1
102
RTVSPost2010Prop43
 90
        3
102
RTVSPost2010PropOp43
 70
     1
102
RTVSPost2010Prop44ColorIndex
 90
        5
102
RTVSPost2010Prop44ColorRGB
 90
      255
102
RTVSPost2010PropOp44
 70
     1
102
RTVSPost2010Prop45
280
     0
102
RTVSPost2010PropOp45
 70
     1
102
RTVSPost2010Prop46
 90
       50
102
RTVSPost2010PropOp46
 70
     1
102
RTVSPost2010Prop47
 90
       50
102
RTVSPost2010PropOp47
 70
     1
102
RTVSPost2010Prop48
 90
       50
102
RTVSPost2010PropOp48
 70
     1
102
RTVSPost2010Prop49
280
     0
102
RTVSPost2010PropOp49
 70
     1
102
RTVSPost2010Prop50
 90
       50
102
RTVSPost2010PropOp50
 70
     1
102
RTVSPost2010Prop51ColorIndex
 90
      256
102
RTVSPost2010Prop51ColorRGB
 90
-16777216
102
RTVSPost2010PropOp51
 70
     0
102
RTVSPost2010Prop52
140
1.0
102
RTVSPost2010PropOp52
 70
     0
102
RTVSPost2010Prop53
 90
        2
102
RTVSPost2010PropOp53
 70
     1
102
RTVSPost2010Prop54
  1
strokes_ogs.tif
102
RTVSPost2010PropOp54
 70
     1
102
RTVSPost2010Prop55
280
     0
102
RTVSPost2010PropOp55
 70
     1
102
RTVSPost2010Prop56
140
1.0
102
RTVSPost2010PropOp56
 70
     1
102
RTVSPost2010Prop57
140
1.0
102
RTVSPost2010PropOp57
 70
     1
  0
XRECORD
  5
323C
102
{ACAD_REACTORS
330
323B
102
}
330
323B
100
AcDbXrecord
280
     1
102
RTVSPost2010Prop28
280
     0
102
RTVSPost2010PropOp28
 70
     1
102
RTVSPost2010Prop29
280
     1
102
RTVSPost2010PropOp29
 70
     1
102
RTVSPost2010Prop30
280
     1
102
RTVSPost2010PropOp30
 70
     1
102
RTVSPost2010Prop31
280
     0
102
RTVSPost2010PropOp31
 70
     1
102
RTVSPost2010Prop32
280
     0
102
RTVSPost2010PropOp32
 70
     1
102
RTVSPost2010Prop33
280
     0
102
RTVSPost2010PropOp33
 70
     1
102
RTVSPost2010Prop34
280
     0
102
RTVSPost2010PropOp34
 70
     1
102
RTVSPost2010Prop35
280
     0
102
RTVSPost2010PropOp35
 70
     1
102
RTVSPost2010Prop36
280
     0
102
RTVSPost2010PropOp36
 70
     1
102
RTVSPost2010Prop37
 90
       50
102
RTVSPost2010PropOp37
 70
     1
102
RTVSPost2010Prop38
140
0.0
102
RTVSPost2010PropOp38
 70
     1
102
RTVSPost2010Prop39
140
1.0
102
RTVSPost2010PropOp39
 70
     1
102
RTVSPost2010Prop40
 90
        0
102
RTVSPost2010PropOp40
 70
     1
102
RTVSPost2010Prop41ColorIndex
 90
       18
102
RTVSPost2010Prop41ColorRGB
 90
        0
102
RTVSPost2010PropOp41
 70
     1
102
RTVSPost2010Prop42
 90
       50
102
RTVSPost2010PropOp42
 70
     1
102
RTVSPost2010Prop43
 90
        3
102
RTVSPost2010PropOp43
 70
     1
102
RTVSPost2010Prop44ColorIndex
 90
        5
102
RTVSPost2010Prop44ColorRGB
 90
      255
102
RTVSPost2010PropOp44
 70
     1
102
RTVSPost2010Prop45
280
     0
102
RTVSPost2010PropOp45
 70
     1
102
RTVSPost2010Prop46
 90
       50
102
RTVSPost2010PropOp46
 70
     1
102
RTVSPost2010Prop47
 90
       50
102
RTVSPost2010PropOp47
 70
     1
102
RTVSPost2010Prop48
 90
       50
102
RTVSPost2010PropOp48
 70
     1
102
RTVSPost2010Prop49
280
     0
102
RTVSPost2010PropOp49
 70
     1
102
RTVSPost2010Prop50
 90
       50
102
RTVSPost2010PropOp50
 70
     1
102
RTVSPost2010Prop51ColorIndex
 90
      256
102
RTVSPost2010Prop51ColorRGB
 90
-16777216
102
RTVSPost2010PropOp51
 70
     0
102
RTVSPost2010Prop52
140
1.0
102
RTVSPost2010PropOp52
 70
     0
102
RTVSPost2010Prop53
 90
        2
102
RTVSPost2010PropOp53
 70
     1
102
RTVSPost2010Prop54
  1
strokes_ogs.tif
102
RTVSPost2010PropOp54
 70
     1
102
RTVSPost2010Prop55
280
     0
102
RTVSPost2010PropOp55
 70
     1
102
RTVSPost2010Prop56
140
1.0
102
RTVSPost2010PropOp56
 70
     1
102
RTVSPost2010Prop57
140
1.0
102
RTVSPost2010PropOp57
 70
     1
  0
XRECORD
  5
323E
102
{ACAD_REACTORS
330
323D
102
}
330
323D
100
AcDbXrecord
280
     1
102
RTVSPost2010Prop28
280
     0
102
RTVSPost2010PropOp28
 70
     1
102
RTVSPost2010Prop29
280
     1
102
RTVSPost2010PropOp29
 70
     1
102
RTVSPost2010Prop30
280
     1
102
RTVSPost2010PropOp30
 70
     1
102
RTVSPost2010Prop31
280
     0
102
RTVSPost2010PropOp31
 70
     1
102
RTVSPost2010Prop32
280
     0
102
RTVSPost2010PropOp32
 70
     1
102
RTVSPost2010Prop33
280
     0
102
RTVSPost2010PropOp33
 70
     1
102
RTVSPost2010Prop34
280
     0
102
RTVSPost2010PropOp34
 70
     1
102
RTVSPost2010Prop35
280
     0
102
RTVSPost2010PropOp35
 70
     1
102
RTVSPost2010Prop36
280
     0
102
RTVSPost2010PropOp36
 70
     1
102
RTVSPost2010Prop37
 90
       50
102
RTVSPost2010PropOp37
 70
     1
102
RTVSPost2010Prop38
140
0.0
102
RTVSPost2010PropOp38
 70
     1
102
RTVSPost2010Prop39
140
1.0
102
RTVSPost2010PropOp39
 70
     1
102
RTVSPost2010Prop40
 90
        0
102
RTVSPost2010PropOp40
 70
     1
102
RTVSPost2010Prop41ColorIndex
 90
       18
102
RTVSPost2010Prop41ColorRGB
 90
        0
102
RTVSPost2010PropOp41
 70
     1
102
RTVSPost2010Prop42
 90
       50
102
RTVSPost2010PropOp42
 70
     1
102
RTVSPost2010Prop43
 90
        3
102
RTVSPost2010PropOp43
 70
     1
102
RTVSPost2010Prop44ColorIndex
 90
        5
102
RTVSPost2010Prop44ColorRGB
 90
      255
102
RTVSPost2010PropOp44
 70
     1
102
RTVSPost2010Prop45
280
     0
102
RTVSPost2010PropOp45
 70
     1
102
RTVSPost2010Prop46
 90
       50
102
RTVSPost2010PropOp46
 70
     1
102
RTVSPost2010Prop47
 90
       50
102
RTVSPost2010PropOp47
 70
     1
102
RTVSPost2010Prop48
 90
       50
102
RTVSPost2010PropOp48
 70
     1
102
RTVSPost2010Prop49
280
     0
102
RTVSPost2010PropOp49
 70
     1
102
RTVSPost2010Prop50
 90
       50
102
RTVSPost2010PropOp50
 70
     1
102
RTVSPost2010Prop51ColorIndex
 90
      256
102
RTVSPost2010Prop51ColorRGB
 90
-16777216
102
RTVSPost2010PropOp51
 70
     0
102
RTVSPost2010Prop52
140
1.0
102
RTVSPost2010PropOp52
 70
     0
102
RTVSPost2010Prop53
 90
        2
102
RTVSPost2010PropOp53
 70
     1
102
RTVSPost2010Prop54
  1
strokes_ogs.tif
102
RTVSPost2010PropOp54
 70
     1
102
RTVSPost2010Prop55
280
     0
102
RTVSPost2010PropOp55
 70
     1
102
RTVSPost2010Prop56
140
1.0
102
RTVSPost2010PropOp56
 70
     1
102
RTVSPost2010Prop57
140
1.0
102
RTVSPost2010PropOp57
 70
     1
  0
XRECORD
  5
3240
102
{ACAD_REACTORS
330
323F
102
}
330
323F
100
AcDbXrecord
280
     1
102
RTVSPost2010Prop28
280
     0
102
RTVSPost2010PropOp28
 70
     1
102
RTVSPost2010Prop29
280
     1
102
RTVSPost2010PropOp29
 70
     1
102
RTVSPost2010Prop30
280
     1
102
RTVSPost2010PropOp30
 70
     1
102
RTVSPost2010Prop31
280
     0
102
RTVSPost2010PropOp31
 70
     1
102
RTVSPost2010Prop32
280
     0
102
RTVSPost2010PropOp32
 70
     1
102
RTVSPost2010Prop33
280
     0
102
RTVSPost2010PropOp33
 70
     1
102
RTVSPost2010Prop34
280
     0
102
RTVSPost2010PropOp34
 70
     1
102
RTVSPost2010Prop35
280
     0
102
RTVSPost2010PropOp35
 70
     1
102
RTVSPost2010Prop36
280
     0
102
RTVSPost2010PropOp36
 70
     1
102
RTVSPost2010Prop37
 90
       50
102
RTVSPost2010PropOp37
 70
     1
102
RTVSPost2010Prop38
140
0.0
102
RTVSPost2010PropOp38
 70
     1
102
RTVSPost2010Prop39
140
1.0
102
RTVSPost2010PropOp39
 70
     1
102
RTVSPost2010Prop40
 90
        0
102
RTVSPost2010PropOp40
 70
     1
102
RTVSPost2010Prop41ColorIndex
 90
       18
102
RTVSPost2010Prop41ColorRGB
 90
        0
102
RTVSPost2010PropOp41
 70
     1
102
RTVSPost2010Prop42
 90
       50
102
RTVSPost2010PropOp42
 70
     1
102
RTVSPost2010Prop43
 90
        3
102
RTVSPost2010PropOp43
 70
     1
102
RTVSPost2010Prop44ColorIndex
 90
        5
102
RTVSPost2010Prop44ColorRGB
 90
      255
102
RTVSPost2010PropOp44
 70
     1
102
RTVSPost2010Prop45
280
     0
102
RTVSPost2010PropOp45
 70
     1
102
RTVSPost2010Prop46
 90
       50
102
RTVSPost2010PropOp46
 70
     1
102
RTVSPost2010Prop47
 90
       50
102
RTVSPost2010PropOp47
 70
     1
102
RTVSPost2010Prop48
 90
       50
102
RTVSPost2010PropOp48
 70
     1
102
RTVSPost2010Prop49
280
     0
102
RTVSPost2010PropOp49
 70
     1
102
RTVSPost2010Prop50
 90
       50
102
RTVSPost2010PropOp50
 70
     1
102
RTVSPost2010Prop51ColorIndex
 90
      256
102
RTVSPost2010Prop51ColorRGB
 90
-16777216
102
RTVSPost2010PropOp51
 70
     0
102
RTVSPost2010Prop52
140
1.0
102
RTVSPost2010PropOp52
 70
     0
102
RTVSPost2010Prop53
 90
        2
102
RTVSPost2010PropOp53
 70
     1
102
RTVSPost2010Prop54
  1
strokes_ogs.tif
102
RTVSPost2010PropOp54
 70
     1
102
RTVSPost2010Prop55
280
     0
102
RTVSPost2010PropOp55
 70
     1
102
RTVSPost2010Prop56
140
1.0
102
RTVSPost2010PropOp56
 70
     1
102
RTVSPost2010Prop57
140
1.0
102
RTVSPost2010PropOp57
 70
     1
  0
XRECORD
  5
3248
102
{ACAD_REACTORS
330
3247
102
}
330
3247
100
AcDbXrecord
280
     1
102
RTVSPost2010Prop28
280
     0
102
RTVSPost2010PropOp28
 70
     1
102
RTVSPost2010Prop29
280
     1
102
RTVSPost2010PropOp29
 70
     1
102
RTVSPost2010Prop30
280
     1
102
RTVSPost2010PropOp30
 70
     1
102
RTVSPost2010Prop31
280
     0
102
RTVSPost2010PropOp31
 70
     1
102
RTVSPost2010Prop32
280
     0
102
RTVSPost2010PropOp32
 70
     1
102
RTVSPost2010Prop33
280
     0
102
RTVSPost2010PropOp33
 70
     1
102
RTVSPost2010Prop34
280
     0
102
RTVSPost2010PropOp34
 70
     1
102
RTVSPost2010Prop35
280
     0
102
RTVSPost2010PropOp35
 70
     1
102
RTVSPost2010Prop36
280
     0
102
RTVSPost2010PropOp36
 70
     1
102
RTVSPost2010Prop37
 90
       50
102
RTVSPost2010PropOp37
 70
     1
102
RTVSPost2010Prop38
140
0.0
102
RTVSPost2010PropOp38
 70
     1
102
RTVSPost2010Prop39
140
1.0
102
RTVSPost2010PropOp39
 70
     1
102
RTVSPost2010Prop40
 90
        0
102
RTVSPost2010PropOp40
 70
     1
102
RTVSPost2010Prop41ColorIndex
 90
       18
102
RTVSPost2010Prop41ColorRGB
 90
        0
102
RTVSPost2010PropOp41
 70
     1
102
RTVSPost2010Prop42
 90
       50
102
RTVSPost2010PropOp42
 70
     1
102
RTVSPost2010Prop43
 90
        3
102
RTVSPost2010PropOp43
 70
     1
102
RTVSPost2010Prop44ColorIndex
 90
        5
102
RTVSPost2010Prop44ColorRGB
 90
      255
102
RTVSPost2010PropOp44
 70
     1
102
RTVSPost2010Prop45
280
     0
102
RTVSPost2010PropOp45
 70
     1
102
RTVSPost2010Prop46
 90
       50
102
RTVSPost2010PropOp46
 70
     1
102
RTVSPost2010Prop47
 90
       50
102
RTVSPost2010PropOp47
 70
     1
102
RTVSPost2010Prop48
 90
       50
102
RTVSPost2010PropOp48
 70
     1
102
RTVSPost2010Prop49
280
     0
102
RTVSPost2010PropOp49
 70
     1
102
RTVSPost2010Prop50
 90
       50
102
RTVSPost2010PropOp50
 70
     1
102
RTVSPost2010Prop51ColorIndex
 90
      256
102
RTVSPost2010Prop51ColorRGB
 90
-16777216
102
RTVSPost2010PropOp51
 70
     0
102
RTVSPost2010Prop52
140
1.0
102
RTVSPost2010PropOp52
 70
     0
102
RTVSPost2010Prop53
 90
        2
102
RTVSPost2010PropOp53
 70
     1
102
RTVSPost2010Prop54
  1
strokes_ogs.tif
102
RTVSPost2010PropOp54
 70
     1
102
RTVSPost2010Prop55
280
     0
102
RTVSPost2010PropOp55
 70
     1
102
RTVSPost2010Prop56
140
1.0
102
RTVSPost2010PropOp56
 70
     1
102
RTVSPost2010Prop57
140
1.0
102
RTVSPost2010PropOp57
 70
     1
  0
XRECORD
  5
3264
102
{ACAD_REACTORS
330
3263
102
}
330
3263
100
AcDbXrecord
280
     1
102
RTVSPost2010Prop28
280
     0
102
RTVSPost2010PropOp28
 70
     1
102
RTVSPost2010Prop29
280
     1
102
RTVSPost2010PropOp29
 70
     1
102
RTVSPost2010Prop30
280
     1
102
RTVSPost2010PropOp30
 70
     1
102
RTVSPost2010Prop31
280
     0
102
RTVSPost2010PropOp31
 70
     1
102
RTVSPost2010Prop32
280
     0
102
RTVSPost2010PropOp32
 70
     1
102
RTVSPost2010Prop33
280
     0
102
RTVSPost2010PropOp33
 70
     1
102
RTVSPost2010Prop34
280
     0
102
RTVSPost2010PropOp34
 70
     1
102
RTVSPost2010Prop35
280
     0
102
RTVSPost2010PropOp35
 70
     1
102
RTVSPost2010Prop36
280
     0
102
RTVSPost2010PropOp36
 70
     1
102
RTVSPost2010Prop37
 90
       50
102
RTVSPost2010PropOp37
 70
     0
102
RTVSPost2010Prop38
140
0.0
102
RTVSPost2010PropOp38
 70
     0
102
RTVSPost2010Prop39
140
1.0
102
RTVSPost2010PropOp39
 70
     0
102
RTVSPost2010Prop40
 90
        0
102
RTVSPost2010PropOp40
 70
     0
102
RTVSPost2010Prop41ColorIndex
 90
       18
102
RTVSPost2010Prop41ColorRGB
 90
        0
102
RTVSPost2010PropOp41
 70
     0
102
RTVSPost2010Prop42
 90
       50
102
RTVSPost2010PropOp42
 70
     0
102
RTVSPost2010Prop43
 90
        3
102
RTVSPost2010PropOp43
 70
     0
102
RTVSPost2010Prop44ColorIndex
 90
        5
102
RTVSPost2010Prop44ColorRGB
 90
      255
102
RTVSPost2010PropOp44
 70
     0
102
RTVSPost2010Prop45
280
     0
102
RTVSPost2010PropOp45
 70
     1
102
RTVSPost2010Prop46
 90
       50
102
RTVSPost2010PropOp46
 70
     0
102
RTVSPost2010Prop47
 90
       50
102
RTVSPost2010PropOp47
 70
     0
102
RTVSPost2010Prop48
 90
       50
102
RTVSPost2010PropOp48
 70
     0
102
RTVSPost2010Prop49
280
     0
102
RTVSPost2010PropOp49
 70
     1
102
RTVSPost2010Prop50
 90
       50
102
RTVSPost2010PropOp50
 70
     0
102
RTVSPost2010Prop51ColorIndex
 90
      256
102
RTVSPost2010Prop51ColorRGB
 90
-16777216
102
RTVSPost2010PropOp51
 70
     0
102
RTVSPost2010Prop52
140
1.0
102
RTVSPost2010PropOp52
 70
     0
102
RTVSPost2010Prop53
 90
        2
102
RTVSPost2010PropOp53
 70
     0
102
RTVSPost2010Prop54
  1
strokes_ogs.tif
102
RTVSPost2010PropOp54
 70
     0
102
RTVSPost2010Prop55
280
     0
102
RTVSPost2010PropOp55
 70
     1
102
RTVSPost2010Prop56
140
1.0
102
RTVSPost2010PropOp56
 70
     0
102
RTVSPost2010Prop57
140
1.0
102
RTVSPost2010PropOp57
 70
     0
  0
XRECORD
  5
3254
102
{ACAD_REACTORS
330
3253
102
}
330
3253
100
AcDbXrecord
280
     1
102
RTVSPost2010Prop28
280
     0
102
RTVSPost2010PropOp28
 70
     1
102
RTVSPost2010Prop29
280
     1
102
RTVSPost2010PropOp29
 70
     1
102
RTVSPost2010Prop30
280
     1
102
RTVSPost2010PropOp30
 70
     1
102
RTVSPost2010Prop31
280
     0
102
RTVSPost2010PropOp31
 70
     1
102
RTVSPost2010Prop32
280
     0
102
RTVSPost2010PropOp32
 70
     1
102
RTVSPost2010Prop33
280
     0
102
RTVSPost2010PropOp33
 70
     1
102
RTVSPost2010Prop34
280
     0
102
RTVSPost2010PropOp34
 70
     1
102
RTVSPost2010Prop35
280
     0
102
RTVSPost2010PropOp35
 70
     1
102
RTVSPost2010Prop36
280
     0
102
RTVSPost2010PropOp36
 70
     1
102
RTVSPost2010Prop37
 90
       50
102
RTVSPost2010PropOp37
 70
     1
102
RTVSPost2010Prop38
140
0.0
102
RTVSPost2010PropOp38
 70
     1
102
RTVSPost2010Prop39
140
1.0
102
RTVSPost2010PropOp39
 70
     1
102
RTVSPost2010Prop40
 90
        0
102
RTVSPost2010PropOp40
 70
     1
102
RTVSPost2010Prop41ColorIndex
 90
       18
102
RTVSPost2010Prop41ColorRGB
 90
        0
102
RTVSPost2010PropOp41
 70
     1
102
RTVSPost2010Prop42
 90
       50
102
RTVSPost2010PropOp42
 70
     1
102
RTVSPost2010Prop43
 90
        3
102
RTVSPost2010PropOp43
 70
     1
102
RTVSPost2010Prop44ColorIndex
 90
        5
102
RTVSPost2010Prop44ColorRGB
 90
      255
102
RTVSPost2010PropOp44
 70
     1
102
RTVSPost2010Prop45
280
     0
102
RTVSPost2010PropOp45
 70
     1
102
RTVSPost2010Prop46
 90
       50
102
RTVSPost2010PropOp46
 70
     1
102
RTVSPost2010Prop47
 90
       50
102
RTVSPost2010PropOp47
 70
     1
102
RTVSPost2010Prop48
 90
       50
102
RTVSPost2010PropOp48
 70
     1
102
RTVSPost2010Prop49
280
     0
102
RTVSPost2010PropOp49
 70
     1
102
RTVSPost2010Prop50
 90
       50
102
RTVSPost2010PropOp50
 70
     1
102
RTVSPost2010Prop51ColorIndex
 90
      256
102
RTVSPost2010Prop51ColorRGB
 90
-16777216
102
RTVSPost2010PropOp51
 70
     0
102
RTVSPost2010Prop52
140
1.0
102
RTVSPost2010PropOp52
 70
     0
102
RTVSPost2010Prop53
 90
        2
102
RTVSPost2010PropOp53
 70
     1
102
RTVSPost2010Prop54
  1
strokes_ogs.tif
102
RTVSPost2010PropOp54
 70
     1
102
RTVSPost2010Prop55
280
     0
102
RTVSPost2010PropOp55
 70
     1
102
RTVSPost2010Prop56
140
1.0
102
RTVSPost2010PropOp56
 70
     1
102
RTVSPost2010Prop57
140
1.0
102
RTVSPost2010PropOp57
 70
     1
  0
XRECORD
  5
3266
102
{ACAD_REACTORS
330
3265
102
}
330
3265
100
AcDbXrecord
280
     1
102
RTVSPost2010Prop28
280
     0
102
RTVSPost2010PropOp28
 70
     1
102
RTVSPost2010Prop29
280
     1
102
RTVSPost2010PropOp29
 70
     1
102
RTVSPost2010Prop30
280
     1
102
RTVSPost2010PropOp30
 70
     1
102
RTVSPost2010Prop31
280
     0
102
RTVSPost2010PropOp31
 70
     1
102
RTVSPost2010Prop32
280
     0
102
RTVSPost2010PropOp32
 70
     1
102
RTVSPost2010Prop33
280
     0
102
RTVSPost2010PropOp33
 70
     1
102
RTVSPost2010Prop34
280
     0
102
RTVSPost2010PropOp34
 70
     1
102
RTVSPost2010Prop35
280
     0
102
RTVSPost2010PropOp35
 70
     1
102
RTVSPost2010Prop36
280
     0
102
RTVSPost2010PropOp36
 70
     1
102
RTVSPost2010Prop37
 90
       50
102
RTVSPost2010PropOp37
 70
     0
102
RTVSPost2010Prop38
140
0.0
102
RTVSPost2010PropOp38
 70
     0
102
RTVSPost2010Prop39
140
1.0
102
RTVSPost2010PropOp39
 70
     0
102
RTVSPost2010Prop40
 90
        0
102
RTVSPost2010PropOp40
 70
     0
102
RTVSPost2010Prop41ColorIndex
 90
       18
102
RTVSPost2010Prop41ColorRGB
 90
        0
102
RTVSPost2010PropOp41
 70
     0
102
RTVSPost2010Prop42
 90
       50
102
RTVSPost2010PropOp42
 70
     0
102
RTVSPost2010Prop43
 90
        3
102
RTVSPost2010PropOp43
 70
     0
102
RTVSPost2010Prop44ColorIndex
 90
        5
102
RTVSPost2010Prop44ColorRGB
 90
      255
102
RTVSPost2010PropOp44
 70
     0
102
RTVSPost2010Prop45
280
     0
102
RTVSPost2010PropOp45
 70
     1
102
RTVSPost2010Prop46
 90
       50
102
RTVSPost2010PropOp46
 70
     0
102
RTVSPost2010Prop47
 90
       50
102
RTVSPost2010PropOp47
 70
     0
102
RTVSPost2010Prop48
 90
       50
102
RTVSPost2010PropOp48
 70
     0
102
RTVSPost2010Prop49
280
     0
102
RTVSPost2010PropOp49
 70
     1
102
RTVSPost2010Prop50
 90
       50
102
RTVSPost2010PropOp50
 70
     0
102
RTVSPost2010Prop51ColorIndex
 90
      256
102
RTVSPost2010Prop51ColorRGB
 90
-16777216
102
RTVSPost2010PropOp51
 70
     0
102
RTVSPost2010Prop52
140
1.0
102
RTVSPost2010PropOp52
 70
     0
102
RTVSPost2010Prop53
 90
        2
102
RTVSPost2010PropOp53
 70
     0
102
RTVSPost2010Prop54
  1
strokes_ogs.tif
102
RTVSPost2010PropOp54
 70
     0
102
RTVSPost2010Prop55
280
     0
102
RTVSPost2010PropOp55
 70
     1
102
RTVSPost2010Prop56
140
1.0
102
RTVSPost2010PropOp56
 70
     0
102
RTVSPost2010Prop57
140
1.0
102
RTVSPost2010PropOp57
 70
     0
  0
XRECORD
  5
324C
102
{ACAD_REACTORS
330
324B
102
}
330
324B
100
AcDbXrecord
280
     1
102
RTVSPost2010Prop28
280
     0
102
RTVSPost2010PropOp28
 70
     1
102
RTVSPost2010Prop29
280
     1
102
RTVSPost2010PropOp29
 70
     1
102
RTVSPost2010Prop30
280
     1
102
RTVSPost2010PropOp30
 70
     1
102
RTVSPost2010Prop31
280
     0
102
RTVSPost2010PropOp31
 70
     1
102
RTVSPost2010Prop32
280
     0
102
RTVSPost2010PropOp32
 70
     1
102
RTVSPost2010Prop33
280
     0
102
RTVSPost2010PropOp33
 70
     1
102
RTVSPost2010Prop34
280
     0
102
RTVSPost2010PropOp34
 70
     1
102
RTVSPost2010Prop35
280
     0
102
RTVSPost2010PropOp35
 70
     1
102
RTVSPost2010Prop36
280
     0
102
RTVSPost2010PropOp36
 70
     1
102
RTVSPost2010Prop37
 90
       50
102
RTVSPost2010PropOp37
 70
     1
102
RTVSPost2010Prop38
140
0.0
102
RTVSPost2010PropOp38
 70
     1
102
RTVSPost2010Prop39
140
1.0
102
RTVSPost2010PropOp39
 70
     1
102
RTVSPost2010Prop40
 90
        0
102
RTVSPost2010PropOp40
 70
     1
102
RTVSPost2010Prop41ColorIndex
 90
       18
102
RTVSPost2010Prop41ColorRGB
 90
        0
102
RTVSPost2010PropOp41
 70
     1
102
RTVSPost2010Prop42
 90
       50
102
RTVSPost2010PropOp42
 70
     1
102
RTVSPost2010Prop43
 90
        3
102
RTVSPost2010PropOp43
 70
     1
102
RTVSPost2010Prop44ColorIndex
 90
        5
102
RTVSPost2010Prop44ColorRGB
 90
      255
102
RTVSPost2010PropOp44
 70
     1
102
RTVSPost2010Prop45
280
     0
102
RTVSPost2010PropOp45
 70
     1
102
RTVSPost2010Prop46
 90
       50
102
RTVSPost2010PropOp46
 70
     1
102
RTVSPost2010Prop47
 90
       50
102
RTVSPost2010PropOp47
 70
     1
102
RTVSPost2010Prop48
 90
       50
102
RTVSPost2010PropOp48
 70
     1
102
RTVSPost2010Prop49
280
     0
102
RTVSPost2010PropOp49
 70
     1
102
RTVSPost2010Prop50
 90
       50
102
RTVSPost2010PropOp50
 70
     1
102
RTVSPost2010Prop51ColorIndex
 90
      256
102
RTVSPost2010Prop51ColorRGB
 90
-16777216
102
RTVSPost2010PropOp51
 70
     0
102
RTVSPost2010Prop52
140
1.0
102
RTVSPost2010PropOp52
 70
     0
102
RTVSPost2010Prop53
 90
        2
102
RTVSPost2010PropOp53
 70
     1
102
RTVSPost2010Prop54
  1
strokes_ogs.tif
102
RTVSPost2010PropOp54
 70
     1
102
RTVSPost2010Prop55
280
     0
102
RTVSPost2010PropOp55
 70
     1
102
RTVSPost2010Prop56
140
1.0
102
RTVSPost2010PropOp56
 70
     1
102
RTVSPost2010Prop57
140
1.0
102
RTVSPost2010PropOp57
 70
     1
  0
XRECORD
  5
3262
102
{ACAD_REACTORS
330
3261
102
}
330
3261
100
AcDbXrecord
280
     1
102
RTVSPost2010Prop28
280
     0
102
RTVSPost2010PropOp28
 70
     1
102
RTVSPost2010Prop29
280
     1
102
RTVSPost2010PropOp29
 70
     1
102
RTVSPost2010Prop30
280
     1
102
RTVSPost2010PropOp30
 70
     1
102
RTVSPost2010Prop31
280
     0
102
RTVSPost2010PropOp31
 70
     1
102
RTVSPost2010Prop32
280
     0
102
RTVSPost2010PropOp32
 70
     1
102
RTVSPost2010Prop33
280
     0
102
RTVSPost2010PropOp33
 70
     1
102
RTVSPost2010Prop34
280
     0
102
RTVSPost2010PropOp34
 70
     1
102
RTVSPost2010Prop35
280
     0
102
RTVSPost2010PropOp35
 70
     1
102
RTVSPost2010Prop36
280
     0
102
RTVSPost2010PropOp36
 70
     1
102
RTVSPost2010Prop37
 90
       50
102
RTVSPost2010PropOp37
 70
     1
102
RTVSPost2010Prop38
140
0.0
102
RTVSPost2010PropOp38
 70
     1
102
RTVSPost2010Prop39
140
1.0
102
RTVSPost2010PropOp39
 70
     1
102
RTVSPost2010Prop40
 90
        0
102
RTVSPost2010PropOp40
 70
     1
102
RTVSPost2010Prop41ColorIndex
 90
       18
102
RTVSPost2010Prop41ColorRGB
 90
        0
102
RTVSPost2010PropOp41
 70
     1
102
RTVSPost2010Prop42
 90
       50
102
RTVSPost2010PropOp42
 70
     1
102
RTVSPost2010Prop43
 90
        3
102
RTVSPost2010PropOp43
 70
     1
102
RTVSPost2010Prop44ColorIndex
 90
        5
102
RTVSPost2010Prop44ColorRGB
 90
      255
102
RTVSPost2010PropOp44
 70
     1
102
RTVSPost2010Prop45
280
     0
102
RTVSPost2010PropOp45
 70
     1
102
RTVSPost2010Prop46
 90
       50
102
RTVSPost2010PropOp46
 70
     1
102
RTVSPost2010Prop47
 90
       50
102
RTVSPost2010PropOp47
 70
     1
102
RTVSPost2010Prop48
 90
       50
102
RTVSPost2010PropOp48
 70
     1
102
RTVSPost2010Prop49
280
     0
102
RTVSPost2010PropOp49
 70
     1
102
RTVSPost2010Prop50
 90
       50
102
RTVSPost2010PropOp50
 70
     1
102
RTVSPost2010Prop51ColorIndex
 90
      256
102
RTVSPost2010Prop51ColorRGB
 90
-16777216
102
RTVSPost2010PropOp51
 70
     0
102
RTVSPost2010Prop52
140
1.0
102
RTVSPost2010PropOp52
 70
     0
102
RTVSPost2010Prop53
 90
        2
102
RTVSPost2010PropOp53
 70
     1
102
RTVSPost2010Prop54
  1
strokes_ogs.tif
102
RTVSPost2010PropOp54
 70
     1
102
RTVSPost2010Prop55
280
     0
102
RTVSPost2010PropOp55
 70
     1
102
RTVSPost2010Prop56
140
1.0
102
RTVSPost2010PropOp56
 70
     1
102
RTVSPost2010Prop57
140
1.0
102
RTVSPost2010PropOp57
 70
     1
  0
XRECORD
  5
3260
102
{ACAD_REACTORS
330
325F
102
}
330
325F
100
AcDbXrecord
280
     1
102
RTVSPost2010Prop28
280
     0
102
RTVSPost2010PropOp28
 70
     1
102
RTVSPost2010Prop29
280
     1
102
RTVSPost2010PropOp29
 70
     1
102
RTVSPost2010Prop30
280
     1
102
RTVSPost2010PropOp30
 70
     1
102
RTVSPost2010Prop31
280
     0
102
RTVSPost2010PropOp31
 70
     1
102
RTVSPost2010Prop32
280
     0
102
RTVSPost2010PropOp32
 70
     1
102
RTVSPost2010Prop33
280
     0
102
RTVSPost2010PropOp33
 70
     1
102
RTVSPost2010Prop34
280
     0
102
RTVSPost2010PropOp34
 70
     1
102
RTVSPost2010Prop35
280
     0
102
RTVSPost2010PropOp35
 70
     1
102
RTVSPost2010Prop36
280
     0
102
RTVSPost2010PropOp36
 70
     1
102
RTVSPost2010Prop37
 90
       50
102
RTVSPost2010PropOp37
 70
     1
102
RTVSPost2010Prop38
140
0.0
102
RTVSPost2010PropOp38
 70
     1
102
RTVSPost2010Prop39
140
1.0
102
RTVSPost2010PropOp39
 70
     1
102
RTVSPost2010Prop40
 90
        0
102
RTVSPost2010PropOp40
 70
     1
102
RTVSPost2010Prop41ColorIndex
 90
       18
102
RTVSPost2010Prop41ColorRGB
 90
        0
102
RTVSPost2010PropOp41
 70
     1
102
RTVSPost2010Prop42
 90
       50
102
RTVSPost2010PropOp42
 70
     1
102
RTVSPost2010Prop43
 90
        3
102
RTVSPost2010PropOp43
 70
     1
102
RTVSPost2010Prop44ColorIndex
 90
        5
102
RTVSPost2010Prop44ColorRGB
 90
      255
102
RTVSPost2010PropOp44
 70
     1
102
RTVSPost2010Prop45
280
     0
102
RTVSPost2010PropOp45
 70
     1
102
RTVSPost2010Prop46
 90
       50
102
RTVSPost2010PropOp46
 70
     1
102
RTVSPost2010Prop47
 90
       50
102
RTVSPost2010PropOp47
 70
     1
102
RTVSPost2010Prop48
 90
       50
102
RTVSPost2010PropOp48
 70
     1
102
RTVSPost2010Prop49
280
     0
102
RTVSPost2010PropOp49
 70
     1
102
RTVSPost2010Prop50
 90
       50
102
RTVSPost2010PropOp50
 70
     1
102
RTVSPost2010Prop51ColorIndex
 90
      256
102
RTVSPost2010Prop51ColorRGB
 90
-16777216
102
RTVSPost2010PropOp51
 70
     0
102
RTVSPost2010Prop52
140
1.0
102
RTVSPost2010PropOp52
 70
     0
102
RTVSPost2010Prop53
 90
        2
102
RTVSPost2010PropOp53
 70
     1
102
RTVSPost2010Prop54
  1
strokes_ogs.tif
102
RTVSPost2010PropOp54
 70
     1
102
RTVSPost2010Prop55
280
     0
102
RTVSPost2010PropOp55
 70
     1
102
RTVSPost2010Prop56
140
1.0
102
RTVSPost2010PropOp56
 70
     1
102
RTVSPost2010Prop57
140
1.0
102
RTVSPost2010PropOp57
 70
     1
  0
XRECORD
  5
325A
102
{ACAD_REACTORS
330
3259
102
}
330
3259
100
AcDbXrecord
280
     1
102
RTVSPost2010Prop28
280
     0
102
RTVSPost2010PropOp28
 70
     1
102
RTVSPost2010Prop29
280
     1
102
RTVSPost2010PropOp29
 70
     1
102
RTVSPost2010Prop30
280
     1
102
RTVSPost2010PropOp30
 70
     1
102
RTVSPost2010Prop31
280
     0
102
RTVSPost2010PropOp31
 70
     1
102
RTVSPost2010Prop32
280
     0
102
RTVSPost2010PropOp32
 70
     1
102
RTVSPost2010Prop33
280
     0
102
RTVSPost2010PropOp33
 70
     1
102
RTVSPost2010Prop34
280
     0
102
RTVSPost2010PropOp34
 70
     1
102
RTVSPost2010Prop35
280
     0
102
RTVSPost2010PropOp35
 70
     1
102
RTVSPost2010Prop36
280
     0
102
RTVSPost2010PropOp36
 70
     1
102
RTVSPost2010Prop37
 90
       50
102
RTVSPost2010PropOp37
 70
     1
102
RTVSPost2010Prop38
140
0.0
102
RTVSPost2010PropOp38
 70
     1
102
RTVSPost2010Prop39
140
1.0
102
RTVSPost2010PropOp39
 70
     1
102
RTVSPost2010Prop40
 90
        0
102
RTVSPost2010PropOp40
 70
     1
102
RTVSPost2010Prop41ColorIndex
 90
       18
102
RTVSPost2010Prop41ColorRGB
 90
        0
102
RTVSPost2010PropOp41
 70
     1
102
RTVSPost2010Prop42
 90
       50
102
RTVSPost2010PropOp42
 70
     1
102
RTVSPost2010Prop43
 90
        3
102
RTVSPost2010PropOp43
 70
     1
102
RTVSPost2010Prop44ColorIndex
 90
        5
102
RTVSPost2010Prop44ColorRGB
 90
      255
102
RTVSPost2010PropOp44
 70
     1
102
RTVSPost2010Prop45
280
     0
102
RTVSPost2010PropOp45
 70
     1
102
RTVSPost2010Prop46
 90
       50
102
RTVSPost2010PropOp46
 70
     1
102
RTVSPost2010Prop47
 90
       50
102
RTVSPost2010PropOp47
 70
     1
102
RTVSPost2010Prop48
 90
       50
102
RTVSPost2010PropOp48
 70
     1
102
RTVSPost2010Prop49
280
     0
102
RTVSPost2010PropOp49
 70
     1
102
RTVSPost2010Prop50
 90
       50
102
RTVSPost2010PropOp50
 70
     1
102
RTVSPost2010Prop51ColorIndex
 90
      256
102
RTVSPost2010Prop51ColorRGB
 90
-16777216
102
RTVSPost2010PropOp51
 70
     0
102
RTVSPost2010Prop52
140
1.0
102
RTVSPost2010PropOp52
 70
     0
102
RTVSPost2010Prop53
 90
        2
102
RTVSPost2010PropOp53
 70
     1
102
RTVSPost2010Prop54
  1
strokes_ogs.tif
102
RTVSPost2010PropOp54
 70
     1
102
RTVSPost2010Prop55
280
     0
102
RTVSPost2010PropOp55
 70
     1
102
RTVSPost2010Prop56
140
1.0
102
RTVSPost2010PropOp56
 70
     1
102
RTVSPost2010Prop57
140
1.0
102
RTVSPost2010PropOp57
 70
     1
  0
XRECORD
  5
325C
102
{ACAD_REACTORS
330
325B
102
}
330
325B
100
AcDbXrecord
280
     1
102
RTVSPost2010Prop28
280
     0
102
RTVSPost2010PropOp28
 70
     1
102
RTVSPost2010Prop29
280
     1
102
RTVSPost2010PropOp29
 70
     1
102
RTVSPost2010Prop30
280
     1
102
RTVSPost2010PropOp30
 70
     1
102
RTVSPost2010Prop31
280
     0
102
RTVSPost2010PropOp31
 70
     1
102
RTVSPost2010Prop32
280
     0
102
RTVSPost2010PropOp32
 70
     1
102
RTVSPost2010Prop33
280
     0
102
RTVSPost2010PropOp33
 70
     1
102
RTVSPost2010Prop34
280
     0
102
RTVSPost2010PropOp34
 70
     1
102
RTVSPost2010Prop35
280
     0
102
RTVSPost2010PropOp35
 70
     1
102
RTVSPost2010Prop36
280
     0
102
RTVSPost2010PropOp36
 70
     1
102
RTVSPost2010Prop37
 90
       50
102
RTVSPost2010PropOp37
 70
     1
102
RTVSPost2010Prop38
140
0.0
102
RTVSPost2010PropOp38
 70
     1
102
RTVSPost2010Prop39
140
1.0
102
RTVSPost2010PropOp39
 70
     1
102
RTVSPost2010Prop40
 90
        0
102
RTVSPost2010PropOp40
 70
     1
102
RTVSPost2010Prop41ColorIndex
 90
       18
102
RTVSPost2010Prop41ColorRGB
 90
        0
102
RTVSPost2010PropOp41
 70
     1
102
RTVSPost2010Prop42
 90
       50
102
RTVSPost2010PropOp42
 70
     1
102
RTVSPost2010Prop43
 90
        3
102
RTVSPost2010PropOp43
 70
     1
102
RTVSPost2010Prop44ColorIndex
 90
        5
102
RTVSPost2010Prop44ColorRGB
 90
      255
102
RTVSPost2010PropOp44
 70
     1
102
RTVSPost2010Prop45
280
     0
102
RTVSPost2010PropOp45
 70
     1
102
RTVSPost2010Prop46
 90
       50
102
RTVSPost2010PropOp46
 70
     1
102
RTVSPost2010Prop47
 90
       50
102
RTVSPost2010PropOp47
 70
     1
102
RTVSPost2010Prop48
 90
       50
102
RTVSPost2010PropOp48
 70
     1
102
RTVSPost2010Prop49
280
     0
102
RTVSPost2010PropOp49
 70
     1
102
RTVSPost2010Prop50
 90
       50
102
RTVSPost2010PropOp50
 70
     1
102
RTVSPost2010Prop51ColorIndex
 90
      256
102
RTVSPost2010Prop51ColorRGB
 90
-16777216
102
RTVSPost2010PropOp51
 70
     0
102
RTVSPost2010Prop52
140
1.0
102
RTVSPost2010PropOp52
 70
     0
102
RTVSPost2010Prop53
 90
        2
102
RTVSPost2010PropOp53
 70
     1
102
RTVSPost2010Prop54
  1
strokes_ogs.tif
102
RTVSPost2010PropOp54
 70
     1
102
RTVSPost2010Prop55
280
     0
102
RTVSPost2010PropOp55
 70
     1
102
RTVSPost2010Prop56
140
1.0
102
RTVSPost2010PropOp56
 70
     1
102
RTVSPost2010Prop57
140
1.0
102
RTVSPost2010PropOp57
 70
     1
  0
XRECORD
  5
3252
102
{ACAD_REACTORS
330
3251
102
}
330
3251
100
AcDbXrecord
280
     1
102
RTVSPost2010Prop28
280
     0
102
RTVSPost2010PropOp28
 70
     1
102
RTVSPost2010Prop29
280
     1
102
RTVSPost2010PropOp29
 70
     1
102
RTVSPost2010Prop30
280
     1
102
RTVSPost2010PropOp30
 70
     1
102
RTVSPost2010Prop31
280
     0
102
RTVSPost2010PropOp31
 70
     1
102
RTVSPost2010Prop32
280
     0
102
RTVSPost2010PropOp32
 70
     1
102
RTVSPost2010Prop33
280
     0
102
RTVSPost2010PropOp33
 70
     1
102
RTVSPost2010Prop34
280
     0
102
RTVSPost2010PropOp34
 70
     1
102
RTVSPost2010Prop35
280
     0
102
RTVSPost2010PropOp35
 70
     1
102
RTVSPost2010Prop36
280
     0
102
RTVSPost2010PropOp36
 70
     1
102
RTVSPost2010Prop37
 90
       50
102
RTVSPost2010PropOp37
 70
     1
102
RTVSPost2010Prop38
140
0.0
102
RTVSPost2010PropOp38
 70
     1
102
RTVSPost2010Prop39
140
1.0
102
RTVSPost2010PropOp39
 70
     1
102
RTVSPost2010Prop40
 90
        0
102
RTVSPost2010PropOp40
 70
     1
102
RTVSPost2010Prop41ColorIndex
 90
       18
102
RTVSPost2010Prop41ColorRGB
 90
        0
102
RTVSPost2010PropOp41
 70
     1
102
RTVSPost2010Prop42
 90
       50
102
RTVSPost2010PropOp42
 70
     1
102
RTVSPost2010Prop43
 90
        3
102
RTVSPost2010PropOp43
 70
     1
102
RTVSPost2010Prop44ColorIndex
 90
        5
102
RTVSPost2010Prop44ColorRGB
 90
      255
102
RTVSPost2010PropOp44
 70
     1
102
RTVSPost2010Prop45
280
     0
102
RTVSPost2010PropOp45
 70
     1
102
RTVSPost2010Prop46
 90
       50
102
RTVSPost2010PropOp46
 70
     1
102
RTVSPost2010Prop47
 90
       50
102
RTVSPost2010PropOp47
 70
     1
102
RTVSPost2010Prop48
 90
       50
102
RTVSPost2010PropOp48
 70
     1
102
RTVSPost2010Prop49
280
     0
102
RTVSPost2010PropOp49
 70
     1
102
RTVSPost2010Prop50
 90
       50
102
RTVSPost2010PropOp50
 70
     1
102
RTVSPost2010Prop51ColorIndex
 90
      256
102
RTVSPost2010Prop51ColorRGB
 90
-16777216
102
RTVSPost2010PropOp51
 70
     0
102
RTVSPost2010Prop52
140
1.0
102
RTVSPost2010PropOp52
 70
     0
102
RTVSPost2010Prop53
 90
        2
102
RTVSPost2010PropOp53
 70
     1
102
RTVSPost2010Prop54
  1
strokes_ogs.tif
102
RTVSPost2010PropOp54
 70
     1
102
RTVSPost2010Prop55
280
     0
102
RTVSPost2010PropOp55
 70
     1
102
RTVSPost2010Prop56
140
1.0
102
RTVSPost2010PropOp56
 70
     1
102
RTVSPost2010Prop57
140
1.0
102
RTVSPost2010PropOp57
 70
     1
  0
XRECORD
  5
3246
102
{ACAD_REACTORS
330
3245
102
}
330
3245
100
AcDbXrecord
280
     1
102
RTVSPost2010Prop28
280
     0
102
RTVSPost2010PropOp28
 70
     1
102
RTVSPost2010Prop29
280
     1
102
RTVSPost2010PropOp29
 70
     1
102
RTVSPost2010Prop30
280
     1
102
RTVSPost2010PropOp30
 70
     1
102
RTVSPost2010Prop31
280
     0
102
RTVSPost2010PropOp31
 70
     1
102
RTVSPost2010Prop32
280
     0
102
RTVSPost2010PropOp32
 70
     1
102
RTVSPost2010Prop33
280
     0
102
RTVSPost2010PropOp33
 70
     1
102
RTVSPost2010Prop34
280
     0
102
RTVSPost2010PropOp34
 70
     1
102
RTVSPost2010Prop35
280
     0
102
RTVSPost2010PropOp35
 70
     1
102
RTVSPost2010Prop36
280
     0
102
RTVSPost2010PropOp36
 70
     1
102
RTVSPost2010Prop37
 90
       50
102
RTVSPost2010PropOp37
 70
     1
102
RTVSPost2010Prop38
140
0.0
102
RTVSPost2010PropOp38
 70
     1
102
RTVSPost2010Prop39
140
1.0
102
RTVSPost2010PropOp39
 70
     1
102
RTVSPost2010Prop40
 90
        0
102
RTVSPost2010PropOp40
 70
     1
102
RTVSPost2010Prop41ColorIndex
 90
       18
102
RTVSPost2010Prop41ColorRGB
 90
        0
102
RTVSPost2010PropOp41
 70
     1
102
RTVSPost2010Prop42
 90
       50
102
RTVSPost2010PropOp42
 70
     1
102
RTVSPost2010Prop43
 90
        3
102
RTVSPost2010PropOp43
 70
     1
102
RTVSPost2010Prop44ColorIndex
 90
        5
102
RTVSPost2010Prop44ColorRGB
 90
      255
102
RTVSPost2010PropOp44
 70
     1
102
RTVSPost2010Prop45
280
     0
102
RTVSPost2010PropOp45
 70
     1
102
RTVSPost2010Prop46
 90
       50
102
RTVSPost2010PropOp46
 70
     1
102
RTVSPost2010Prop47
 90
       50
102
RTVSPost2010PropOp47
 70
     1
102
RTVSPost2010Prop48
 90
       50
102
RTVSPost2010PropOp48
 70
     1
102
RTVSPost2010Prop49
280
     0
102
RTVSPost2010PropOp49
 70
     1
102
RTVSPost2010Prop50
 90
       50
102
RTVSPost2010PropOp50
 70
     1
102
RTVSPost2010Prop51ColorIndex
 90
      256
102
RTVSPost2010Prop51ColorRGB
 90
-16777216
102
RTVSPost2010PropOp51
 70
     0
102
RTVSPost2010Prop52
140
1.0
102
RTVSPost2010PropOp52
 70
     0
102
RTVSPost2010Prop53
 90
        2
102
RTVSPost2010PropOp53
 70
     1
102
RTVSPost2010Prop54
  1
strokes_ogs.tif
102
RTVSPost2010PropOp54
 70
     1
102
RTVSPost2010Prop55
280
     0
102
RTVSPost2010PropOp55
 70
     1
102
RTVSPost2010Prop56
140
1.0
102
RTVSPost2010PropOp56
 70
     1
102
RTVSPost2010Prop57
140
1.0
102
RTVSPost2010PropOp57
 70
     1
  0
XRECORD
  5
325E
102
{ACAD_REACTORS
330
325D
102
}
330
325D
100
AcDbXrecord
280
     1
102
RTVSPost2010Prop28
280
     0
102
RTVSPost2010PropOp28
 70
     1
102
RTVSPost2010Prop29
280
     1
102
RTVSPost2010PropOp29
 70
     1
102
RTVSPost2010Prop30
280
     1
102
RTVSPost2010PropOp30
 70
     1
102
RTVSPost2010Prop31
280
     0
102
RTVSPost2010PropOp31
 70
     1
102
RTVSPost2010Prop32
280
     0
102
RTVSPost2010PropOp32
 70
     1
102
RTVSPost2010Prop33
280
     0
102
RTVSPost2010PropOp33
 70
     1
102
RTVSPost2010Prop34
280
     0
102
RTVSPost2010PropOp34
 70
     1
102
RTVSPost2010Prop35
280
     0
102
RTVSPost2010PropOp35
 70
     1
102
RTVSPost2010Prop36
280
     0
102
RTVSPost2010PropOp36
 70
     1
102
RTVSPost2010Prop37
 90
       50
102
RTVSPost2010PropOp37
 70
     1
102
RTVSPost2010Prop38
140
0.0
102
RTVSPost2010PropOp38
 70
     1
102
RTVSPost2010Prop39
140
1.0
102
RTVSPost2010PropOp39
 70
     1
102
RTVSPost2010Prop40
 90
        0
102
RTVSPost2010PropOp40
 70
     1
102
RTVSPost2010Prop41ColorIndex
 90
       18
102
RTVSPost2010Prop41ColorRGB
 90
        0
102
RTVSPost2010PropOp41
 70
     1
102
RTVSPost2010Prop42
 90
       50
102
RTVSPost2010PropOp42
 70
     1
102
RTVSPost2010Prop43
 90
        3
102
RTVSPost2010PropOp43
 70
     1
102
RTVSPost2010Prop44ColorIndex
 90
        5
102
RTVSPost2010Prop44ColorRGB
 90
      255
102
RTVSPost2010PropOp44
 70
     1
102
RTVSPost2010Prop45
280
     0
102
RTVSPost2010PropOp45
 70
     1
102
RTVSPost2010Prop46
 90
       50
102
RTVSPost2010PropOp46
 70
     1
102
RTVSPost2010Prop47
 90
       50
102
RTVSPost2010PropOp47
 70
     1
102
RTVSPost2010Prop48
 90
       50
102
RTVSPost2010PropOp48
 70
     1
102
RTVSPost2010Prop49
280
     0
102
RTVSPost2010PropOp49
 70
     1
102
RTVSPost2010Prop50
 90
       50
102
RTVSPost2010PropOp50
 70
     1
102
RTVSPost2010Prop51ColorIndex
 90
      256
102
RTVSPost2010Prop51ColorRGB
 90
-16777216
102
RTVSPost2010PropOp51
 70
     0
102
RTVSPost2010Prop52
140
1.0
102
RTVSPost2010PropOp52
 70
     0
102
RTVSPost2010Prop53
 90
        2
102
RTVSPost2010PropOp53
 70
     1
102
RTVSPost2010Prop54
  1
strokes_ogs.tif
102
RTVSPost2010PropOp54
 70
     1
102
RTVSPost2010Prop55
280
     0
102
RTVSPost2010PropOp55
 70
     1
102
RTVSPost2010Prop56
140
1.0
102
RTVSPost2010PropOp56
 70
     1
102
RTVSPost2010Prop57
140
1.0
102
RTVSPost2010PropOp57
 70
     1
  0
ENDSEC
  0
EOF
