  0
SECTION
  2
HEADER
  9
$ACADVER
  1
AC1024
  9
$ACADMAINTVER
 70
   226
  9
$DWGCODEPAGE
  3
ANSI_932
  9
$LASTSAVEDBY
  1
y-sakai
  9
$INSBASE
 10
0.0
 20
0.0
 30
0.0
  9
$EXTMIN
 10
195.5242955318235
 20
205.0395844472892
 30
-0.0000000000112498
  9
$EXTMAX
 10
1256.929476996219
 20
1053.703766985593
 30
0.0000000000002956
  9
$LIMMIN
 10
0.0
 20
0.0
  9
$LIMMAX
 10
1422.5
 20
925.0
  9
$ORTHOMODE
 70
     0
  9
$REGENMODE
 70
     1
  9
$FILLMODE
 70
     1
  9
$QTEXTMODE
 70
     0
  9
$MIRRTEXT
 70
     1
  9
$LTSCALE
 40
5.0
  9
$ATTMODE
 70
     1
  9
$TEXTSIZE
 40
2.5
  9
$TRACEWID
 40
1.0
  9
$TEXTSTYLE
  7
STANDARD
  9
$CLAYER
  8
AM_0
  9
$CELTYPE
  6
ByLayer
  9
$CECOLOR
 62
   256
  9
$CELTSCALE
 40
1.0
  9
$DISPSILH
 70
     0
  9
$DIMSCALE
 40
1.0
  9
$DIMASZ
 40
2.5
  9
$DIMEXO
 40
1.0
  9
$DIMDLI
 40
8.0
  9
$DIMRND
 40
0.0
  9
$DIMDLE
 40
0.0
  9
$DIMEXE
 40
0.6
  9
$DIMTP
 40
0.1
  9
$DIMTM
 40
0.1
  9
$DIMTXT
 40
2.5
  9
$DIMCEN
 40
0.0
  9
$DIMTSZ
 40
0.0
  9
$DIMTOL
 70
     0
  9
$DIMLIM
 70
     0
  9
$DIMTIH
 70
     0
  9
$DIMTOH
 70
     0
  9
$DIMSE1
 70
     0
  9
$DIMSE2
 70
     0
  9
$DIMTAD
 70
     1
  9
$DIMZIN
 70
     8
  9
$DIMBLK
  1

  9
$DIMASO
 70
     1
  9
$DIMSHO
 70
     1
  9
$DIMPOST
  1

  9
$DIMAPOST
  1
"
  9
$DIMALT
 70
     0
  9
$DIMALTD
 70
     2
  9
$DIMALTF
 40
0.0393701
  9
$DIMLFAC
 40
1.0
  9
$DIMTOFL
 70
     1
  9
$DIMTVP
 40
0.0
  9
$DIMTIX
 70
     0
  9
$DIMSOXD
 70
     0
  9
$DIMSAH
 70
     0
  9
$DIMBLK1
  1

  9
$DIMBLK2
  1

  9
$DIMSTYLE
  2
AM_ISO
  9
$DIMCLRD
 70
   256
  9
$DIMCLRE
 70
   256
  9
$DIMCLRT
 70
     4
  9
$DIMTFAC
 40
0.71
  9
$DIMGAP
 40
0.8
  9
$DIMJUST
 70
     0
  9
$DIMSD1
 70
     0
  9
$DIMSD2
 70
     0
  9
$DIMTOLJ
 70
     1
  9
$DIMTZIN
 70
     0
  9
$DIMALTZ
 70
     0
  9
$DIMALTTZ
 70
     0
  9
$DIMUPT
 70
     0
  9
$DIMDEC
 70
     4
  9
$DIMTDEC
 70
     4
  9
$DIMALTU
 70
     2
  9
$DIMALTTD
 70
     2
  9
$DIMTXSTY
  7
STANDARD
  9
$DIMAUNIT
 70
     0
  9
$DIMADEC
 70
     0
  9
$DIMALTRND
 40
0.0
  9
$DIMAZIN
 70
     0
  9
$DIMDSEP
 70
    46
  9
$DIMATFIT
 70
     3
  9
$DIMFRAC
 70
     0
  9
$DIMLDRBLK
  1

  9
$DIMLUNIT
 70
     2
  9
$DIMLWD
 70
    -2
  9
$DIMLWE
 70
    -2
  9
$DIMTMOVE
 70
     0
  9
$DIMFXL
 40
1.0
  9
$DIMFXLON
 70
     0
  9
$DIMJOGANG
 40
0.7853981633974483
  9
$DIMTFILL
 70
     0
  9
$DIMTFILLCLR
 70
     0
  9
$DIMARCSYM
 70
     0
  9
$DIMLTYPE
  6

  9
$DIMLTEX1
  6

  9
$DIMLTEX2
  6

  9
$DIMTXTDIRECTION
 70
     0
  9
$LUNITS
 70
     2
  9
$LUPREC
 70
     2
  9
$SKETCHINC
 40
1.0
  9
$FILLETRAD
 40
25.0
  9
$AUNITS
 70
     0
  9
$AUPREC
 70
     0
  9
$MENU
  1
.
  9
$ELEVATION
 40
0.0
  9
$PELEVATION
 40
0.0
  9
$THICKNESS
 40
0.0
  9
$LIMCHECK
 70
     0
  9
$CHAMFERA
 40
10.0
  9
$CHAMFERB
 40
5.0
  9
$CHAMFERC
 40
0.0
  9
$CHAMFERD
 40
0.0
  9
$SKPOLY
 70
     0
  9
$TDCREATE
 40
2452066.742199074
  9
$TDUCREATE
 40
2452066.367199074
  9
$TDUPDATE
 40
2460363.554525463
  9
$TDUUPDATE
 40
2460363.179525463
  9
$TDINDWG
 40
0.0729717361
  9
$TDUSRTIMER
 40
0.0729715394
  9
$USRTIMER
 70
     1
  9
$ANGBASE
 50
0.0
  9
$ANGDIR
 70
     0
  9
$PDMODE
 70
     0
  9
$PDSIZE
 40
0.0
  9
$PLINEWID
 40
0.0
  9
$SPLFRAME
 70
     0
  9
$SPLINETYPE
 70
     6
  9
$SPLINESEGS
 70
     8
  9
$HANDSEED
  5
36BB
  9
$SURFTAB1
 70
     6
  9
$SURFTAB2
 70
     6
  9
$SURFTYPE
 70
     6
  9
$SURFU
 70
     6
  9
$SURFV
 70
     6
  9
$UCSBASE
  2

  9
$UCSNAME
  2

  9
$UCSORG
 10
0.0
 20
0.0
 30
0.0
  9
$UCSXDIR
 10
1.0
 20
0.0
 30
0.0
  9
$UCSYDIR
 10
0.0
 20
1.0
 30
0.0
  9
$UCSORTHOREF
  2

  9
$UCSORTHOVIEW
 70
     0
  9
$UCSORGTOP
 10
0.0
 20
0.0
 30
0.0
  9
$UCSORGBOTTOM
 10
0.0
 20
0.0
 30
0.0
  9
$UCSORGLEFT
 10
0.0
 20
0.0
 30
0.0
  9
$UCSORGRIGHT
 10
0.0
 20
0.0
 30
0.0
  9
$UCSORGFRONT
 10
0.0
 20
0.0
 30
0.0
  9
$UCSORGBACK
 10
0.0
 20
0.0
 30
0.0
  9
$PUCSBASE
  2

  9
$PUCSNAME
  2

  9
$PUCSORG
 10
0.0
 20
0.0
 30
0.0
  9
$PUCSXDIR
 10
1.0
 20
0.0
 30
0.0
  9
$PUCSYDIR
 10
0.0
 20
1.0
 30
0.0
  9
$PUCSORTHOREF
  2

  9
$PUCSORTHOVIEW
 70
     0
  9
$PUCSORGTOP
 10
0.0
 20
0.0
 30
0.0
  9
$PUCSORGBOTTOM
 10
0.0
 20
0.0
 30
0.0
  9
$PUCSORGLEFT
 10
0.0
 20
0.0
 30
0.0
  9
$PUCSORGRIGHT
 10
0.0
 20
0.0
 30
0.0
  9
$PUCSORGFRONT
 10
0.0
 20
0.0
 30
0.0
  9
$PUCSORGBACK
 10
0.0
 20
0.0
 30
0.0
  9
$USERI1
 70
     0
  9
$USERI2
 70
     0
  9
$USERI3
 70
     0
  9
$USERI4
 70
     0
  9
$USERI5
 70
     0
  9
$USERR1
 40
0.0
  9
$USERR2
 40
0.0
  9
$USERR3
 40
0.0
  9
$USERR4
 40
0.0
  9
$USERR5
 40
0.0
  9
$WORLDVIEW
 70
     1
  9
$SHADEDGE
 70
     3
  9
$SHADEDIF
 70
    70
  9
$TILEMODE
 70
     1
  9
$MAXACTVP
 70
    64
  9
$PINSBASE
 10
0.0
 20
0.0
 30
0.0
  9
$PLIMCHECK
 70
     0
  9
$PEXTMIN
 10
1.000000000000000E+20
 20
1.000000000000000E+20
 30
1.000000000000000E+20
  9
$PEXTMAX
 10
-1.000000000000000E+20
 20
-1.000000000000000E+20
 30
-1.000000000000000E+20
  9
$PLIMMIN
 10
0.0
 20
0.0
  9
$PLIMMAX
 10
420.0
 20
297.0
  9
$UNITMODE
 70
     0
  9
$VISRETAIN
 70
     1
  9
$PLINEGEN
 70
     0
  9
$PSLTSCALE
 70
     1
  9
$TREEDEPTH
 70
  3020
  9
$CMLSTYLE
  2
Standard
  9
$CMLJUST
 70
     0
  9
$CMLSCALE
 40
1.0
  9
$PROXYGRAPHICS
 70
     1
  9
$MEASUREMENT
 70
     0
  9
$CELWEIGHT
370
    -1
  9
$ENDCAPS
280
     0
  9
$JOINSTYLE
280
     0
  9
$LWDISPLAY
290
     0
  9
$INSUNITS
 70
     0
  9
$HYPERLINKBASE
  1

  9
$STYLESHEET
  1

  9
$XEDIT
290
     1
  9
$CEPSNTYPE
380
     0
  9
$PSTYLEMODE
290
     1
  9
$FINGERPRINTGUID
  2
{B1E73AC9-506A-F846-9FB5-2D0AE0BA83CA}
  9
$VERSIONGUID
  2
{35FA5620-B271-E643-87EB-ADD45C26592E}
  9
$EXTNAMES
290
     1
  9
$PSVPSCALE
 40
0.0
  9
$OLESTARTUP
290
     0
  9
$SORTENTS
280
   127
  9
$INDEXCTL
280
     0
  9
$HIDETEXT
280
     0
  9
$XCLIPFRAME
280
     2
  9
$HALOGAP
280
     0
  9
$OBSCOLOR
 70
   257
  9
$OBSLTYPE
280
     0
  9
$INTERSECTIONDISPLAY
280
     0
  9
$INTERSECTIONCOLOR
 70
   257
  9
$DIMASSOC
280
     1
  9
$PROJECTNAME
  1

  9
$CAMERADISPLAY
290
     0
  9
$LENSLENGTH
 40
50.0
  9
$CAMERAHEIGHT
 40
0.0
  9
$STEPSPERSEC
 40
2.0
  9
$STEPSIZE
 40
6.0
  9
$3DDWFPREC
 40
2.0
  9
$PSOLWIDTH
 40
0.25
  9
$PSOLHEIGHT
 40
4.0
  9
$LOFTANG1
 40
1.570796326794896
  9
$LOFTANG2
 40
1.570796326794896
  9
$LOFTMAG1
 40
0.0
  9
$LOFTMAG2
 40
0.0
  9
$LOFTPARAM
 70
     7
  9
$LOFTNORMALS
280
     1
  9
$LATITUDE
 40
37.795
  9
$LONGITUDE
 40
-122.394
  9
$NORTHDIRECTION
 40
0.0
  9
$TIMEZONE
 70
 -8000
  9
$LIGHTGLYPHDISPLAY
280
     1
  9
$TILEMODELIGHTSYNCH
280
     1
  9
$CMATERIAL
347
3415
  9
$SOLIDHIST
280
     0
  9
$SHOWHIST
280
     1
  9
$DWFFRAME
280
     2
  9
$DGNFRAME
280
     0
  9
$REALWORLDSCALE
290
     1
  9
$INTERFERECOLOR
 62
     1
  9
$INTERFEREOBJVS
345
3437
  9
$INTERFEREVPVS
346
3434
  9
$CSHADOW
280
     0
  9
$SHADOWPLANELOCATION
 40
0.0
  0
ENDSEC
  0
SECTION
  2
CLASSES
  0
CLASS
  1
ACDBDICTIONARYWDFLT
  2
AcDbDictionaryWithDefault
  3
ObjectDBX Classes
 90
        0
 91
        1
280
     0
281
     0
  0
CLASS
  1
MATERIAL
  2
AcDbMaterial
  3
ObjectDBX Classes
 90
     1153
 91
        3
280
     0
281
     0
  0
CLASS
  1
VISUALSTYLE
  2
AcDbVisualStyle
  3
ObjectDBX Classes
 90
     4095
 91
       24
280
     0
281
     0
  0
CLASS
  1
SCALE
  2
AcDbScale
  3
ObjectDBX Classes
 90
     1153
 91
       17
280
     0
281
     0
  0
CLASS
  1
TABLESTYLE
  2
AcDbTableStyle
  3
ObjectDBX Classes
 90
     4095
 91
        1
280
     0
281
     0
  0
CLASS
  1
MLEADERSTYLE
  2
AcDbMLeaderStyle
  3
ACDB_MLEADERSTYLE_CLASS
 90
     4095
 91
        1
280
     0
281
     0
  0
CLASS
  1
ACDBSECTIONVIEWSTYLE
  2
AcDbSectionViewStyle
  3
ObjectDBX Classes
 90
     1025
 91
        2
280
     0
281
     0
  0
CLASS
  1
ACDBDETAILVIEWSTYLE
  2
AcDbDetailViewStyle
  3
ObjectDBX Classes
 90
     1025
 91
        2
280
     0
281
     0
  0
CLASS
  1
AMGSETTINGSOBJ
  2
AmgSettingsObj
  3
"AcadM|Product Description: AutoCAD Mechanical|Company: Autodesk, Inc."
 90
     1024
 91
        2
280
     0
281
     0
  0
CLASS
  1
ACME_DOCUMENT
  2
AcMeDbDoc
  3
AcMeServices
 90
     1024
 91
        1
280
     0
281
     0
  0
CLASS
  1
ACMESCOPE
  2
AcMeScope
  3
AcMeServices
 90
     1024
 91
        1
280
     0
281
     0
  0
CLASS
  1
ACMECOMMANDHISTORY
  2
AcMeCommandHistory
  3
AcMeServices
 90
     1024
 91
        1
280
     0
281
     0
  0
CLASS
  1
ACIMSYSVARMAN
  2
AcImSysVarManager
  3
AcMeServices
 90
     1024
 91
        3
280
     0
281
     0
  0
CLASS
  1
ACIMINTSYSVAR
  2
AcImIntSysVar
  3
AcMeServices
 90
     1024
 91
        4
280
     0
281
     0
  0
CLASS
  1
ACMESTATEMGR
  2
AcMeStateMgr
  3
AcMeServices
 90
     1024
 91
        1
280
     0
281
     0
  0
CLASS
  1
ACDBENTITYCACHE
  2
AcMeEntityCache
  3
AcMeServices
 90
     1024
 91
        1
280
     0
281
     0
  0
CLASS
  1
ACGREFMASTER
  2
AcGrefMaster
  3
AcAttribServices
 90
     1024
 91
        1
280
     0
281
     0
  0
CLASS
  1
ACME_DATABASE
  2
AcMeDbDatabase
  3
AcMeServices
 90
     1024
 91
        2
280
     0
281
     0
  0
CLASS
  1
ACRFINSADJUSTERMGR
  2
AcRfInsAdjusterMgr
  3
AcMeServices
 90
     1024
 91
        1
280
     0
281
     0
  0
CLASS
  1
ACGREFACADMASTER
  2
AcGrefacadMaster
  3
AcGrefServices
 90
     1024
 91
        1
280
     0
281
     0
  0
CLASS
  1
AMIMASTER
  2
AmiMaster
  3
AmiServices
 90
     1024
 91
        1
280
     0
281
     0
  0
CLASS
  1
AMDTMENUSTATEMGR
  2
AmdtMenuStateMgr
  3
McadcomServices
 90
     1024
 91
        1
280
     0
281
     0
  0
CLASS
  1
AMDTMCOMMENUSTATE
  2
AmdtMcomMenuState
  3
McadcomServices
 90
     1024
 91
        1
280
     0
281
     0
  0
CLASS
  1
MAPIAMMOUDLE
  2
MApiAmModule
  3
MApiAmServices
 90
     1024
 91
        1
280
     0
281
     0
  0
CLASS
  1
ACIMSTRSYSVAR
  2
AcImStrSysVar
  3
AcMeServices
 90
     1024
 91
        5
280
     0
281
     0
  0
CLASS
  1
AMDTAMMENUSTATE
  2
AmdtAmMenuState
  3
DesignerAssemblies_arx
 90
     1024
 91
        1
280
     0
281
     0
  0
CLASS
  1
ACAMPROJECT
  2
AcAmProject
  3
DesignerAssemblies
 90
     1024
 91
        1
280
     0
281
     0
  0
CLASS
  1
ACAMGRCOMPDEF
  2
AcAmGrCompDef
  3
DesignerAssemblies
 90
     1024
 91
        1
280
     0
281
     0
  0
CLASS
  1
ACAMCOMPDEF
  2
AcAmCompDef
  3
DesignerAssemblies
 90
     1024
 91
        1
280
     0
281
     0
  0
CLASS
  1
ACAMCOMPDEFMGR
  2
AcAmCompDefMgr
  3
DesignerAssemblies
 90
     1024
 91
        1
280
     0
281
     0
  0
CLASS
  1
AMCONTEXTMGR
  2
AcAmContextMgr
  3
DesignerAssemblies
 90
     1024
 91
        1
280
     0
281
     0
  0
CLASS
  1
ACAMCONTEXTMODELER
  2
AcAmContextModeler
  3
DesignerAssemblies
 90
     1024
 91
        1
280
     0
281
     0
  0
CLASS
  1
ACMDATADICTIONARY
  2
AcmDataDictionary
  3
"AcmSymBB|Product Description: AutoCAD Mechanical|Company: Autodesk, Inc."
 90
     1024
 91
        1
280
     0
281
     0
  0
CLASS
  1
ACAMGRCOMPDEFSET
  2
AcAmGrCompDefSet
  3
DesignerAssemblies
 90
     1024
 91
        1
280
     0
281
     0
  0
CLASS
  1
AMDTBROWSERDBTAB
  2
AmdtBrowserDbTab
  3
McadcomServices
 90
     1024
 91
        1
280
     0
281
     0
  0
CLASS
  1
CBROWSERAPPOBJECT
  2
CBrowserAppObject
  3
McadcomServices
 90
     1024
 91
        2
280
     0
281
     0
  0
CLASS
  1
DM_PLACEHOLDER
  2
AcDmSelsetPlaceholder
  3
McadcomServices
 90
     1024
 91
        1
280
     0
281
     0
  0
CLASS
  1
EXACXREFPANELOBJECT
  2
ExAcXREFPanelObject
  3
EXAC_ESW
 90
     1025
 91
        1
280
     0
281
     0
  0
CLASS
  1
NPOCOLLECTION
  2
AcDbImpNonPersistentObjectsCollection
  3
ObjectDBX Classes
 90
     1153
 91
        1
280
     0
281
     0
  0
CLASS
  1
ACMSTANDARDANSI
  2
AcmStandardANSI
  3
"Amdt_StdImp|Product Description: AutoCAD Mechanical|Company: Autodesk, Inc."
 90
     1024
 91
        1
280
     0
281
     0
  0
CLASS
  1
ACMSURFSTANDARDANSI
  2
AcmSurfTextStdANSI
  3
"Amdt_StdImp|Product Description: AutoCAD Mechanical|Company: Autodesk, Inc."
 90
     1024
 91
        1
280
     0
281
     0
  0
CLASS
  1
ACMFCFSTANDARDANSI
  2
AcmFCFStdANSI
  3
"Amdt_StdImp|Product Description: AutoCAD Mechanical|Company: Autodesk, Inc."
 90
     1024
 91
        1
280
     0
281
     0
  0
CLASS
  1
ACMWELDSTANDARDANSI
  2
AcmWeldingStdANSI
  3
"Amdt_StdImp|Product Description: AutoCAD Mechanical|Company: Autodesk, Inc."
 90
     1024
 91
        1
280
     0
281
     0
  0
CLASS
  1
ACMIDSTANDARDANSI
  2
AcmIdStdANSI
  3
"Amdt_StdImp|Product Description: AutoCAD Mechanical|Company: Autodesk, Inc."
 90
     1024
 91
        1
280
     0
281
     0
  0
CLASS
  1
ACMDATUMSTANDARDANSI
  2
AcmDatumStdANSI
  3
"Amdt_StdImp|Product Description: AutoCAD Mechanical|Company: Autodesk, Inc."
 90
     1024
 91
        1
280
     0
281
     0
  0
CLASS
  1
ACMBOMSTANDARDANSI
  2
AcmBOMStdANSI
  3
"Amdt_StdImp|Product Description: AutoCAD Mechanical|Company: Autodesk, Inc."
 90
     1024
 91
        1
280
     0
281
     0
  0
CLASS
  1
ACMDETAILSTANDARDANSI
  2
AmdtDetailSymStdANSI
  3
"Amdt_StdImp|Product Description: AutoCAD Mechanical|Company: Autodesk, Inc."
 90
     1024
 91
        1
280
     0
281
     0
  0
CLASS
  1
ACMSECTIONSTANDARDANSI
  2
AmdtSectionSymStdANSI
  3
"Amdt_StdImp|Product Description: AutoCAD Mechanical|Company: Autodesk, Inc."
 90
     1024
 91
        1
280
     0
281
     0
  0
CLASS
  1
ACMCENTERLINESTANDARDANSI
  2
AmdtCenterLineStdANSI
  3
"Amdt_StdImp|Product Description: AutoCAD Mechanical|Company: Autodesk, Inc."
 90
     1024
 91
        1
280
     0
281
     0
  0
CLASS
  1
ACMTHREADLINESTANDARDANSI
  2
AmdtThreadLineStdANSI
  3
"Amdt_StdImp|Product Description: AutoCAD Mechanical|Company: Autodesk, Inc."
 90
     1024
 91
        1
280
     0
281
     0
  0
CLASS
  1
ACMNOTESTANDARDANSI
  2
AmdtNoteStdANSI
  3
"Amdt_StdImp|Product Description: AutoCAD Mechanical|Company: Autodesk, Inc."
 90
     1024
 91
        1
280
     0
281
     0
  0
CLASS
  1
ACMTAPERSTANDARDANSI
  2
AcmTaperStdANSI
  3
"Amdt_StdImp|Product Description: AutoCAD Mechanical|Company: Autodesk, Inc."
 90
     1024
 91
        1
280
     0
281
     0
  0
CLASS
  1
ACMANOOTATIONVIEWSTANDARDANSI
  2
AmdtAnViewStdANSI
  3
"Amdt_StdImp|Product Description: AutoCAD Mechanical|Company: Autodesk, Inc."
 90
     1024
 91
        1
280
     0
281
     0
  0
CLASS
  1
ACAMGLAYSTD
  2
AcAmgLayStd
  3
"AmgLay|Product Description: AutoCAD Mechanical|Company: Autodesk, Inc."
 90
     1024
 91
        1
280
     0
281
     0
  0
CLASS
  1
ACAMGDIMSTD
  2
AcAmgDimStd
  3
"AmgDim|Product Description: AutoCAD Mechanical|Company: Autodesk, Inc."
 90
     1024
 91
        1
280
     0
281
     0
  0
CLASS
  1
ACAMGHOLECHARTSTDANSI
  2
AcAmgHoleChartStdANSI
  3
"AmgDim" "Product Description: AutoCAD Mechanical|Company: Autodesk, Inc."
 90
     1024
 91
        1
280
     0
281
     0
  0
CLASS
  1
AMGOBJPROPCFG
  2
AmgObjPropCfg
  3
"AmgLay|Product Description: AutoCAD Mechanical|Company: Autodesk, Inc."
 90
     1024
 91
        1
280
     0
281
     0
  0
CLASS
  1
ACAMGTITLESTD
  2
AcAmgTitleStd
  3
"AmgTitle|Product Description: AutoCAD Mechanical|Company: Autodesk, Inc."
 90
     1024
 91
        1
280
     0
281
     0
  0
CLASS
  1
ACMSECTIONSTANDARDCUSTOM
  2
AmdtSectionSymStdCustom
  3
"Amdt_StdImp|Product Description: AutoCAD Mechanical|Company: Autodesk, Inc."
 90
     1024
 91
        1
280
     0
281
     0
  0
CLASS
  1
ACMDETAILTANDARDCUSTOM
  2
AmdtDetailSymStdCustom
  3
"Amdt_StdImp|Product Description: AutoCAD Mechanical|Company: Autodesk, Inc."
 90
     1024
 91
        1
280
     0
281
     0
  0
CLASS
  1
FIELD
  2
AcDbField
  3
ObjectDBX Classes
 90
     1152
 91
        8
280
     0
281
     0
  0
CLASS
  1
FIELDLIST
  2
AcDbFieldList
  3
ObjectDBX Classes
 90
     1152
 91
        1
280
     0
281
     0
  0
CLASS
  1
AMDTNOTETEMPLATEDB
  2
AmdtNoteTemplateDB
  3
"AcmSymBB" "Product Description: AutoCAD Mechanical|Company: Autodesk, Inc."
 90
     1024
 91
        7
280
     0
281
     0
  0
CLASS
  1
SORTENTSTABLE
  2
AcDbSortentsTable
  3
ObjectDBX Classes
 90
        0
 91
        1
280
     0
281
     0
  0
CLASS
  1
ACAMGFILTERDAT
  2
AcAmgFilterDat
  3
"AcadM|Product Description: AutoCAD Mechanical|Company: Autodesk, Inc."
 90
     1024
 91
        6
280
     0
281
     0
  0
CLASS
  1
CAMSSTRUCTBTNSTATE
  2
StructBtnState
  3
DesignerAssemblies_arx
 90
     1024
 91
        1
280
     0
281
     0
  0
CLASS
  1
DICTIONARYVAR
  2
AcDbDictionaryVar
  3
ObjectDBX Classes
 90
        0
 91
       27
280
     0
281
     0
  0
CLASS
  1
CELLSTYLEMAP
  2
AcDbCellStyleMap
  3
ObjectDBX Classes
 90
     1152
 91
        2
280
     0
281
     0
  0
ENDSEC
  0
SECTION
  2
TABLES
  0
TABLE
  2
VPORT
  5
340C
330
0
100
AcDbSymbolTable
 70
     1
  0
VPORT
  5
3478
330
340C
100
AcDbSymbolTableRecord
100
AcDbViewportTableRecord
  2
*ACTIVE
 70
     0
 10
0.0
 20
0.0
 11
1.0
 21
1.0
 12
726.2268862640212
 22
629.3716757164413
 13
0.0
 23
0.0
 14
12.5
 24
12.5
 15
50.0
 25
50.0
 16
0.0
 26
0.0
 36
1.0
 17
0.0
 27
0.0
 37
0.0
 40
855.736384059457
 41
2.197496522948539
 42
50.0
 43
0.0
 44
0.0
 50
0.0
 51
0.0
 71
     0
 72
   100
 73
     1
 74
     3
 75
     0
 76
     0
 77
     0
 78
     0
281
     0
 65
     0
110
0.0
120
0.0
130
0.0
111
1.0
121
0.0
131
0.0
112
0.0
122
1.0
132
0.0
 79
     0
146
0.0
348
3433
 60
     3
 61
     5
292
     1
282
     0
141
0.0
142
0.0
 63
   250
421
  3355443
1001
ACAD_NAV_VCDISPLAY
1070
     3
  0
ENDTAB
  0
TABLE
  2
LTYPE
  5
3409
330
0
100
AcDbSymbolTable
 70
    26
  0
LTYPE
  5
345E
330
3409
100
AcDbSymbolTableRecord
100
AcDbLinetypeTableRecord
  2
ByBlock
 70
     0
  3

 72
    65
 73
     0
 40
0.0
  0
LTYPE
  5
345F
330
3409
100
AcDbSymbolTableRecord
100
AcDbLinetypeTableRecord
  2
ByLayer
 70
     0
  3

 72
    65
 73
     0
 40
0.0
  0
LTYPE
  5
3460
330
3409
100
AcDbSymbolTableRecord
100
AcDbLinetypeTableRecord
  2
CONTINUOUS
 70
     0
  3
Solid line
 72
    65
 73
     0
 40
0.0
  0
LTYPE
  5
3479
330
3409
100
AcDbSymbolTableRecord
100
AcDbLinetypeTableRecord
  2
AM_ISO02W050
 70
     0
  3
__ __ __ __ __ __ __ __ __ __ __ __ __ __ __
 72
    65
 73
     2
 40
7.5
 49
6.0
 74
     0
 49
-1.5
 74
     0
  0
LTYPE
  5
347A
330
3409
100
AcDbSymbolTableRecord
100
AcDbLinetypeTableRecord
  2
AM_ISO08W050
 70
     0
  3
____ . ____ . ____ . ____ . ____ . ____ . ____
 72
    65
 73
     4
 40
18.0
 49
12.0
 74
     0
 49
-1.5
 74
     0
 49
3.0
 74
     0
 49
-1.5
 74
     0
  0
LTYPE
  5
347B
330
3409
100
AcDbSymbolTableRecord
100
AcDbLinetypeTableRecord
  2
AM_ISO09W050
 70
     0
  3
_____ . . _____ . . _____ . . ____ .. ____
 72
    65
 73
     6
 40
22.5
 49
12.0
 74
     0
 49
-1.5
 74
     0
 49
3.0
 74
     0
 49
-1.5
 74
     0
 49
3.0
 74
     0
 49
-1.5
 74
     0
  0
LTYPE
  5
347C
330
3409
100
AcDbSymbolTableRecord
100
AcDbLinetypeTableRecord
  2
AMCONSTR
 70
     0
  3
_______________________
 72
    65
 73
     2
 40
9999.0
 49
9999.0
 74
     0
 49
0.0
 74
     0
  0
LTYPE
  5
347D
330
3409
100
AcDbSymbolTableRecord
100
AcDbLinetypeTableRecord
  2
AM_ISO08W050X2
 70
     0
  3
__ . __ . __ . __ . __ . __
 72
    65
 73
     4
 40
9.0
 49
6.0
 74
     0
 49
-0.75
 74
     0
 49
1.5
 74
     0
 49
-0.75
 74
     0
  0
LTYPE
  5
347E
330
3409
100
AcDbSymbolTableRecord
100
AcDbLinetypeTableRecord
  2
AM_ISO02W050X2
 70
     0
  3
 _ _ _ _ _ _ _ _ _ _ _ _
 72
    65
 73
     2
 40
3.75
 49
3.0
 74
     0
 49
-0.75
 74
     0
  0
LTYPE
  5
347F
330
3409
100
AcDbSymbolTableRecord
100
AcDbLinetypeTableRecord
  2
AMZIGZAG
 70
     0
  3
/\/-/\/-/\/-/\/-/\/-/\/
 72
    65
 73
     2
 40
11.00009999999999
 49
0.0001
 74
     0
 49
-11.0
 74
     0
  0
LTYPE
  5
3484
330
3409
100
AcDbSymbolTableRecord
100
AcDbLinetypeTableRecord
  2
PHANTOM2
 70
     0
  3
Phantom (.5x) ___ _ _ ___ _ _ ___ _ _ ___ _ _
 72
    65
 73
     6
 40
31.75
 49
15.875
 74
     0
 49
-3.174999999999998
 74
     0
 49
3.174999999999998
 74
     0
 49
-3.174999999999998
 74
     0
 49
3.174999999999998
 74
     0
 49
-3.174999999999998
 74
     0
  0
LTYPE
  5
3487
330
3409
100
AcDbSymbolTableRecord
100
AcDbLinetypeTableRecord
  2
GEN7
 70
     0
  3
____ . ____ . ____ . ____ . ____ . ____ . ____
 72
    65
 73
     4
 40
14.25
 49
9.75
 74
     0
 49
-1.5
 74
     0
 49
1.5
 74
     0
 49
-1.5
 74
     0
  0
LTYPE
  5
3488
330
3409
100
AcDbSymbolTableRecord
100
AcDbLinetypeTableRecord
  2
GEN7A
 70
     0
  3
__ . __ . __
 72
    65
 73
     4
 40
7.375
 49
4.75
 74
     0
 49
-0.875
 74
     0
 49
0.875
 74
     0
 49
-0.875
 74
     0
  0
LTYPE
  5
348F
330
3409
100
AcDbSymbolTableRecord
100
AcDbLinetypeTableRecord
  2
ACANSTGB
 70
     0
  3
__ . . __ . .
 72
    65
 73
     6
 40
0.35433070866
 49
0.15748031496
 74
     0
 49
-0.03937007874
 74
     0
 49
0.03937007874
 74
     0
 49
-0.03937007874
 74
     0
 49
0.03937007874
 74
     0
 49
-0.03937007874
 74
     0
  0
LTYPE
  5
3490
330
3409
100
AcDbSymbolTableRecord
100
AcDbLinetypeTableRecord
  2
ACANSTGL
 70
     0
  3
_ _ _ _ _
 72
    65
 73
     2
 40
0.11811023622
 49
0.07874015748
 74
     0
 49
-0.03937007874
 74
     0
  0
ENDTAB
  0
TABLE
  2
LAYER
  5
3406
102
{ACAD_XDICTIONARY
360
366C
102
}
330
0
100
AcDbSymbolTable
 70
     6
  0
LAYER
  5
3458
102
{ACAD_XDICTIONARY
360
365F
102
}
330
3406
100
AcDbSymbolTableRecord
100
AcDbLayerTableRecord
  2
0
 70
     0
 62
     7
  6
CONTINUOUS
370
    -3
390
3413
347
3425
  0
LAYER
  5
3477
102
{ACAD_XDICTIONARY
360
3661
102
}
330
3406
100
AcDbSymbolTableRecord
100
AcDbLayerTableRecord
  2
AM_0
 70
     0
 62
     7
  6
CONTINUOUS
370
    -3
390
3413
347
3425
  0
LAYER
  5
3491
102
{ACAD_XDICTIONARY
360
3663
102
}
330
3406
100
AcDbSymbolTableRecord
100
AcDbLayerTableRecord
  2
AM_5
 70
     0
 62
     2
  6
CONTINUOUS
370
    -3
390
3413
347
3425
  0
LAYER
  5
3492
330
3406
100
AcDbSymbolTableRecord
100
AcDbLayerTableRecord
  2
DEFPOINTS
 70
     0
 62
     7
  6
CONTINUOUS
290
     0
370
    -3
390
3413
347
3425
  0
LAYER
  5
3493
102
{ACAD_XDICTIONARY
360
3665
102
}
330
3406
100
AcDbSymbolTableRecord
100
AcDbLayerTableRecord
  2
ﾁｭｳｼﾝｾﾝ
 70
     0
 62
     1
  6
GEN7
370
    -3
390
3413
347
3425
  0
LAYER
  5
3494
102
{ACAD_XDICTIONARY
360
3667
102
}
330
3406
100
AcDbSymbolTableRecord
100
AcDbLayerTableRecord
  2
ﾁｭｳｼﾝｾﾝ1
 70
     0
 62
     1
  6
GEN7A
370
    -3
390
3413
347
3425
  0
ENDTAB
  0
TABLE
  2
STYLE
  5
3407
330
0
100
AcDbSymbolTable
 70
     9
  0
STYLE
  5
3459
330
3407
100
AcDbSymbolTableRecord
100
AcDbTextStyleTableRecord
  2
STANDARD
 70
     0
 40
0.0
 41
0.8299999999999998
 50
0.0
 71
     0
 42
2.5
  3
txt.shx
  4
bigfont.shx
  0
STYLE
  5
3499
330
3407
100
AcDbSymbolTableRecord
100
AcDbTextStyleTableRecord
  2
ACANSGDT
 70
     0
 40
0.0
 41
1.0
 50
0.0
 71
     0
 42
2.5
  3
amgdt.shx
  4

  0
ENDTAB
  0
TABLE
  2
VIEW
  5
340A
330
0
100
AcDbSymbolTable
 70
     7
  0
VIEW
  5
349C
330
340A
100
AcDbSymbolTableRecord
100
AcDbViewTableRecord
  2
AM_VIEW1
 70
     0
 40
462.5
 10
416.0796500920808
 20
693.75
 41
832.1593001841621
 11
0.0
 21
0.0
 31
1.0
 12
0.0
 22
0.0
 32
0.0
 42
50.0
 43
0.0
 44
0.0
 50
0.0
 71
     0
281
     0
 72
     0
 73
     0
348
3433
  0
VIEW
  5
349D
330
340A
100
AcDbSymbolTableRecord
100
AcDbViewTableRecord
  2
AM_VIEW2
 70
     0
 40
462.5
 10
1006.420349907918
 20
693.75
 41
832.1593001841621
 11
0.0
 21
0.0
 31
1.0
 12
0.0
 22
0.0
 32
0.0
 42
50.0
 43
0.0
 44
0.0
 50
0.0
 71
     0
281
     0
 72
     0
 73
     0
348
3433
  0
VIEW
  5
349E
330
340A
100
AcDbSymbolTableRecord
100
AcDbViewTableRecord
  2
AM_VIEW3
 70
     0
 40
462.5
 10
416.0796500920808
 20
231.25
 41
832.1593001841621
 11
0.0
 21
0.0
 31
1.0
 12
0.0
 22
0.0
 32
0.0
 42
50.0
 43
0.0
 44
0.0
 50
0.0
 71
     0
281
     0
 72
     0
 73
     0
348
3433
  0
VIEW
  5
349F
330
340A
100
AcDbSymbolTableRecord
100
AcDbViewTableRecord
  2
AM_VIEW4
 70
     0
 40
462.5
 10
1006.420349907918
 20
231.25
 41
832.1593001841621
 11
0.0
 21
0.0
 31
1.0
 12
0.0
 22
0.0
 32
0.0
 42
50.0
 43
0.0
 44
0.0
 50
0.0
 71
     0
281
     0
 72
     0
 73
     0
348
3433
  0
VIEW
  5
34A0
330
340A
100
AcDbSymbolTableRecord
100
AcDbViewTableRecord
  2
AM_VIEW5
 70
     0
 40
462.5
 10
711.2499999999997
 20
462.5
 41
832.1593001841618
 11
0.0
 21
0.0
 31
1.0
 12
0.0
 22
0.0
 32
0.0
 42
50.0
 43
0.0
 44
0.0
 50
0.0
 71
     0
281
     0
 72
     0
 73
     0
348
3433
  0
VIEW
  5
34A1
330
340A
100
AcDbSymbolTableRecord
100
AcDbViewTableRecord
  2
AM_VIEW6
 70
     0
 40
924.99075
 10
711.2499999999997
 20
462.5
 41
1664.30195718232
 11
0.0
 21
0.0
 31
1.0
 12
0.0
 22
0.0
 32
0.0
 42
50.0
 43
0.0
 44
0.0
 50
0.0
 71
     0
281
     0
 72
     0
 73
     0
348
3433
  0
ENDTAB
  0
TABLE
  2
UCS
  5
340B
330
0
100
AcDbSymbolTable
 70
     0
  0
ENDTAB
  0
TABLE
  2
APPID
  5
340D
330
0
100
AcDbSymbolTable
 70
    95
  0
APPID
  5
345A
330
340D
100
AcDbSymbolTableRecord
100
AcDbRegAppTableRecord
  2
ACAD
 70
     0
  0
APPID
  5
3461
330
340D
100
AcDbSymbolTableRecord
100
AcDbRegAppTableRecord
  2
ACADANNOTATIVE
 70
     0
  0
APPID
  5
34A2
330
340D
100
AcDbSymbolTableRecord
100
AcDbRegAppTableRecord
  2
MCAD_NO_VIS
 70
     0
  0
APPID
  5
34A3
330
340D
100
AcDbSymbolTableRecord
100
AcDbRegAppTableRecord
  2
ACAD_TEMP_GRAPHIC
 70
     0
  0
APPID
  5
34A4
330
340D
100
AcDbSymbolTableRecord
100
AcDbRegAppTableRecord
  2
ACATTRIBSERVICES
 70
     0
  0
APPID
  5
34A5
330
340D
100
AcDbSymbolTableRecord
100
AcDbRegAppTableRecord
  2
GENIUS_GENREC_14
 70
     0
  0
APPID
  5
34A6
330
340D
100
AcDbSymbolTableRecord
100
AcDbRegAppTableRecord
  2
GENIUS_GENOBJ-N-REC_13
 70
     0
  0
APPID
  5
34A7
330
340D
100
AcDbSymbolTableRecord
100
AcDbRegAppTableRecord
  2
GENIUS_GENODEF_13
 70
     0
  0
APPID
  5
34A8
330
340D
100
AcDbSymbolTableRecord
100
AcDbRegAppTableRecord
  2
GENIUS_GENOLIS_13
 70
     0
  0
APPID
  5
34A9
330
340D
100
AcDbSymbolTableRecord
100
AcDbRegAppTableRecord
  2
GENIUS_GENOBJ-N-TIT_13
 70
     0
  0
APPID
  5
34AA
330
340D
100
AcDbSymbolTableRecord
100
AcDbRegAppTableRecord
  2
GENIUS_GENOENT_13
 70
     0
  0
APPID
  5
34AB
330
340D
100
AcDbSymbolTableRecord
100
AcDbRegAppTableRecord
  2
GENIUS_GENTITLE_13
 70
     0
  0
APPID
  5
34AC
330
340D
100
AcDbSymbolTableRecord
100
AcDbRegAppTableRecord
  2
GENIUS_GENOREF_13
 70
     0
  0
APPID
  5
34AD
330
340D
100
AcDbSymbolTableRecord
100
AcDbRegAppTableRecord
  2
GENIUS_GENSCREG_15
 70
     0
  0
APPID
  5
34AE
330
340D
100
AcDbSymbolTableRecord
100
AcDbRegAppTableRecord
  2
GENIUS_GENOBJ-N-SDF_13
 70
     0
  0
APPID
  5
34AF
330
340D
100
AcDbSymbolTableRecord
100
AcDbRegAppTableRecord
  2
GENIUS_GENFIL_13
 70
     0
  0
APPID
  5
34B0
330
340D
100
AcDbSymbolTableRecord
100
AcDbRegAppTableRecord
  2
GENIUS_GENOBJ-N-CHA_13
 70
     0
  0
APPID
  5
34B1
330
340D
100
AcDbSymbolTableRecord
100
AcDbRegAppTableRecord
  2
GENIUS_GENDTOL_13
 70
     0
  0
APPID
  5
34B2
330
340D
100
AcDbSymbolTableRecord
100
AcDbRegAppTableRecord
  2
GENIUS_GENOBJ-N-FIL_13
 70
     0
  0
APPID
  5
34B3
330
340D
100
AcDbSymbolTableRecord
100
AcDbRegAppTableRecord
  2
AD_DRAW
 70
     0
  0
APPID
  5
34B4
330
340D
100
AcDbSymbolTableRecord
100
AcDbRegAppTableRecord
  2
DESIGNERASSEMBLIES
 70
     0
  0
APPID
  5
34B5
330
340D
100
AcDbSymbolTableRecord
100
AcDbRegAppTableRecord
  2
ASURF_PCURVE_APPNAME
 70
     0
  0
APPID
  5
34B6
330
340D
100
AcDbSymbolTableRecord
100
AcDbRegAppTableRecord
  2
GENIUS_GE3SECT_13
 70
     0
  0
APPID
  5
34B7
330
340D
100
AcDbSymbolTableRecord
100
AcDbRegAppTableRecord
  2
GENIUS_GENCFG_13
 70
     0
  0
APPID
  5
34B8
330
340D
100
AcDbSymbolTableRecord
100
AcDbRegAppTableRecord
  2
GENIUS_GE3CFG0_13
 70
     0
  0
APPID
  5
34B9
330
340D
100
AcDbSymbolTableRecord
100
AcDbRegAppTableRecord
  2
GENIUS_GENCFG0_13
 70
     0
  0
APPID
  5
34BA
330
340D
100
AcDbSymbolTableRecord
100
AcDbRegAppTableRecord
  2
GENIUS_GENCFG1_13
 70
     0
  0
APPID
  5
34BB
330
340D
100
AcDbSymbolTableRecord
100
AcDbRegAppTableRecord
  2
GENIUS_GENCFG2_13
 70
     0
  0
APPID
  5
34BC
330
340D
100
AcDbSymbolTableRecord
100
AcDbRegAppTableRecord
  2
GENIUS_GENCFG3_13
 70
     0
  0
APPID
  5
34BD
330
340D
100
AcDbSymbolTableRecord
100
AcDbRegAppTableRecord
  2
GENIUS_GENCFG4_13
 70
     0
  0
APPID
  5
34BE
330
340D
100
AcDbSymbolTableRecord
100
AcDbRegAppTableRecord
  2
GENIUS_GEVCFG0_13
 70
     0
  0
APPID
  5
34BF
330
340D
100
AcDbSymbolTableRecord
100
AcDbRegAppTableRecord
  2
GENIUS_GENHINW_13
 70
     0
  0
APPID
  5
34C0
330
340D
100
AcDbSymbolTableRecord
100
AcDbRegAppTableRecord
  2
GENIUS_FIRSTVISTXT_14
 70
     0
  0
APPID
  5
34C1
330
340D
100
AcDbSymbolTableRecord
100
AcDbRegAppTableRecord
  2
GENIUS_GENOBJ-N-LEADER_13
 70
     0
  0
APPID
  5
34C2
330
340D
100
AcDbSymbolTableRecord
100
AcDbRegAppTableRecord
  2
GEV_VCCNULL_SWITCH_OFF
 70
     0
  0
APPID
  5
34C3
330
340D
100
AcDbSymbolTableRecord
100
AcDbRegAppTableRecord
  2
GENIUS_GEFCFG0_13
 70
     0
  0
APPID
  5
34C4
330
340D
100
AcDbSymbolTableRecord
100
AcDbRegAppTableRecord
  2
GENIUS_GENZVEED_13
 70
     0
  0
APPID
  5
34C5
330
340D
100
AcDbSymbolTableRecord
100
AcDbRegAppTableRecord
  2
GENIUS_GENSCREG_13
 70
     0
  0
APPID
  5
34C6
330
340D
100
AcDbSymbolTableRecord
100
AcDbRegAppTableRecord
  2
GENIUS_DUMCFG0_13
 70
     0
  0
APPID
  5
34C7
330
340D
100
AcDbSymbolTableRecord
100
AcDbRegAppTableRecord
  2
GEVID936201362
 70
     0
  0
APPID
  5
34C8
330
340D
100
AcDbSymbolTableRecord
100
AcDbRegAppTableRecord
  2
GEVDC
 70
     0
  0
APPID
  5
34C9
330
340D
100
AcDbSymbolTableRecord
100
AcDbRegAppTableRecord
  2
GEVCON
 70
     0
  0
APPID
  5
34CA
330
340D
100
AcDbSymbolTableRecord
100
AcDbRegAppTableRecord
  2
VCC
 70
     0
  0
APPID
  5
34CB
330
340D
100
AcDbSymbolTableRecord
100
AcDbRegAppTableRecord
  2
GEVPT
 70
     0
  0
APPID
  5
34CC
330
340D
100
AcDbSymbolTableRecord
100
AcDbRegAppTableRecord
  2
GEVIT
 70
     0
  0
APPID
  5
34CD
330
340D
100
AcDbSymbolTableRecord
100
AcDbRegAppTableRecord
  2
GENBH
 70
     0
  0
APPID
  5
34CE
330
340D
100
AcDbSymbolTableRecord
100
AcDbRegAppTableRecord
  2
GEVMK
 70
     0
  0
APPID
  5
34CF
330
340D
100
AcDbSymbolTableRecord
100
AcDbRegAppTableRecord
  2
GENIUS_GENBH_13
 70
     0
  0
APPID
  5
34D0
330
340D
100
AcDbSymbolTableRecord
100
AcDbRegAppTableRecord
  2
GENIUS_GENOBJ-NBEHI-BHF_13
 70
     0
  0
APPID
  5
34D1
330
340D
100
AcDbSymbolTableRecord
100
AcDbRegAppTableRecord
  2
GENIUS_GENOBJ-NBEHI-BHB_13
 70
     0
  0
APPID
  5
34D2
330
340D
100
AcDbSymbolTableRecord
100
AcDbRegAppTableRecord
  2
GENIUS_GENOBJ-F-DESC_13
 70
     0
  0
APPID
  5
34D3
330
340D
100
AcDbSymbolTableRecord
100
AcDbRegAppTableRecord
  2
GENIUS_GEFDESC_14
 70
     0
  0
APPID
  5
34D4
330
340D
100
AcDbSymbolTableRecord
100
AcDbRegAppTableRecord
  2
GENIUS_GENOBJ-F-PART_13
 70
     0
  0
APPID
  5
34D5
330
340D
100
AcDbSymbolTableRecord
100
AcDbRegAppTableRecord
  2
GENIUS_GEFSTDP_13
 70
     0
  0
APPID
  5
34D6
330
340D
100
AcDbSymbolTableRecord
100
AcDbRegAppTableRecord
  2
GENIUS_GEFPARTINS_13
 70
     0
  0
APPID
  5
34D7
330
340D
100
AcDbSymbolTableRecord
100
AcDbRegAppTableRecord
  2
GENIUS_GENTRA_14
 70
     0
  0
APPID
  5
34D8
330
340D
100
AcDbSymbolTableRecord
100
AcDbRegAppTableRecord
  2
GENIUS_GENINF13_13
 70
     0
  0
APPID
  5
34D9
330
340D
100
AcDbSymbolTableRecord
100
AcDbRegAppTableRecord
  2
GENIUS_GENOBJ-N-INFOPT_13
 70
     0
  0
APPID
  5
34DA
330
340D
100
AcDbSymbolTableRecord
100
AcDbRegAppTableRecord
  2
GENIUS_GENOBJ-N-RSSYM_13
 70
     0
  0
APPID
  5
34DB
330
340D
100
AcDbSymbolTableRecord
100
AcDbRegAppTableRecord
  2
GENIUS_GENSYMENT_13
 70
     0
  0
APPID
  5
34DC
330
340D
100
AcDbSymbolTableRecord
100
AcDbRegAppTableRecord
  2
GENIUS_GENSCSYM_13
 70
     0
  0
APPID
  5
34DD
330
340D
100
AcDbSymbolTableRecord
100
AcDbRegAppTableRecord
  2
GENIUS_GEFINFNAM_13
 70
     0
  0
APPID
  5
34DE
330
340D
100
AcDbSymbolTableRecord
100
AcDbRegAppTableRecord
  2
GENIUS_GENOBJ-N-CEN_13
 70
     0
  0
APPID
  5
34DF
330
340D
100
AcDbSymbolTableRecord
100
AcDbRegAppTableRecord
  2
GENIUS_GENOBJ-N-CRS_13
 70
     0
  0
APPID
  5
34E0
330
340D
100
AcDbSymbolTableRecord
100
AcDbRegAppTableRecord
  2
GENIUS_GENOBJ-N-CRC_13
 70
     0
  0
APPID
  5
34E1
330
340D
100
AcDbSymbolTableRecord
100
AcDbRegAppTableRecord
  2
GENIUS_GENCRC_14
 70
     0
  0
APPID
  5
34E2
330
340D
100
AcDbSymbolTableRecord
100
AcDbRegAppTableRecord
  2
GEVID942827039
 70
     0
  0
APPID
  5
34E3
330
340D
100
AcDbSymbolTableRecord
100
AcDbRegAppTableRecord
  2
GEVID942827040
 70
     0
  0
APPID
  5
34E4
330
340D
100
AcDbSymbolTableRecord
100
AcDbRegAppTableRecord
  2
GEVID942827041
 70
     0
  0
APPID
  5
34E5
330
340D
100
AcDbSymbolTableRecord
100
AcDbRegAppTableRecord
  2
GENIUS_GENOBJ-F-SCPASSM_13
 70
     0
  0
APPID
  5
34E6
330
340D
100
AcDbSymbolTableRecord
100
AcDbRegAppTableRecord
  2
GENIUS_GENDIMSH_14
 70
     0
  0
APPID
  5
34E7
330
340D
100
AcDbSymbolTableRecord
100
AcDbRegAppTableRecord
  2
GEVID942827042
 70
     0
  0
APPID
  5
34E8
330
340D
100
AcDbSymbolTableRecord
100
AcDbRegAppTableRecord
  2
GEVID946020473
 70
     0
  0
APPID
  5
34E9
330
340D
100
AcDbSymbolTableRecord
100
AcDbRegAppTableRecord
  2
GEVID946020474
 70
     0
  0
APPID
  5
34EA
330
340D
100
AcDbSymbolTableRecord
100
AcDbRegAppTableRecord
  2
GEVID946020475
 70
     0
  0
APPID
  5
34EB
330
340D
100
AcDbSymbolTableRecord
100
AcDbRegAppTableRecord
  2
GENIUS_GENOBJ-N-HTC_13
 70
     0
  0
APPID
  5
34EC
330
340D
100
AcDbSymbolTableRecord
100
AcDbRegAppTableRecord
  2
GENIUS_GENHATCH_13
 70
     0
  0
APPID
  5
34ED
330
340D
100
AcDbSymbolTableRecord
100
AcDbRegAppTableRecord
  2
GEVID948854295
 70
     0
  0
APPID
  5
34EE
330
340D
100
AcDbSymbolTableRecord
100
AcDbRegAppTableRecord
  2
GEVID939402019
 70
     0
  0
APPID
  5
34EF
330
340D
100
AcDbSymbolTableRecord
100
AcDbRegAppTableRecord
  2
GEVID952919491
 70
     0
  0
APPID
  5
34F0
330
340D
100
AcDbSymbolTableRecord
100
AcDbRegAppTableRecord
  2
GEVID952919492
 70
     0
  0
APPID
  5
34F1
330
340D
100
AcDbSymbolTableRecord
100
AcDbRegAppTableRecord
  2
GENIUS_GEFWELD_13
 70
     0
  0
APPID
  5
34F2
330
340D
100
AcDbSymbolTableRecord
100
AcDbRegAppTableRecord
  2
GENIUS_GENOBJ-F-WELS_13
 70
     0
  0
APPID
  5
34F3
330
340D
100
AcDbSymbolTableRecord
100
AcDbRegAppTableRecord
  2
GEVID952919493
 70
     0
  0
APPID
  5
34F4
330
340D
100
AcDbSymbolTableRecord
100
AcDbRegAppTableRecord
  2
GENIUS_GENOBJ-N-RSBK_13
 70
     0
  0
APPID
  5
34F5
330
340D
100
AcDbSymbolTableRecord
100
AcDbRegAppTableRecord
  2
GENIUS_GENOBJ-N-LIB_13
 70
     0
  0
APPID
  5
34F6
330
340D
100
AcDbSymbolTableRecord
100
AcDbRegAppTableRecord
  2
GENIUS_GENSCALE_13
 70
     0
  0
APPID
  5
34F7
330
340D
100
AcDbSymbolTableRecord
100
AcDbRegAppTableRecord
  2
GEVID986376691
 70
     0
  0
APPID
  5
34F8
330
340D
100
AcDbSymbolTableRecord
100
AcDbRegAppTableRecord
  2
DCO15
 70
     0
  0
APPID
  5
34F9
330
340D
100
AcDbSymbolTableRecord
100
AcDbRegAppTableRecord
  2
ACAD_DSTYLE_DIMBREAK
 70
     0
  0
APPID
  5
34FA
330
340D
100
AcDbSymbolTableRecord
100
AcDbRegAppTableRecord
  2
ACAD_DSTYLE_DIMJAG
 70
     0
  0
APPID
  5
34FB
330
340D
100
AcDbSymbolTableRecord
100
AcDbRegAppTableRecord
  2
ACAD_NAV_VCDISPLAY
 70
     0
  0
APPID
  5
34FC
330
340D
100
AcDbSymbolTableRecord
100
AcDbRegAppTableRecord
  2
ACADANNOPO
 70
     0
  0
APPID
  5
34FD
330
340D
100
AcDbSymbolTableRecord
100
AcDbRegAppTableRecord
  2
ACAD_EXEMPT_FROM_CAD_STANDARDS
 70
     0
  0
APPID
  5
34FE
330
340D
100
AcDbSymbolTableRecord
100
AcDbRegAppTableRecord
  2
ACAD_MLEADERVER
 70
     0
  0
ENDTAB
  0
TABLE
  2
DIMSTYLE
  5
340E
330
0
100
AcDbSymbolTable
 70
    23
100
AcDbDimStyleTable
 71
     1
340
34FF
  0
DIMSTYLE
105
345B
330
340E
100
AcDbSymbolTableRecord
100
AcDbDimStyleTableRecord
  2
STANDARD
 70
     0
271
     2
272
     2
279
     2
284
     8
285
     8
286
     8
340
3459
  0
DIMSTYLE
105
34FF
330
340E
100
AcDbSymbolTableRecord
100
AcDbDimStyleTableRecord
  2
AM_ISO
 70
     0
  4
"
 41
2.5
 42
1.0
 43
8.0
 44
0.6
 47
0.1
 48
0.1
 73
     0
 74
     0
 77
     1
 78
     8
140
2.5
141
0.0
143
0.0393701
146
0.71
147
0.8
172
     1
176
   256
177
   256
178
     4
271
     2
272
     2
279
     2
284
     8
285
     8
286
     8
340
3459
  0
DIMSTYLE
105
350D
102
{ACAD_REACTORS
330
355F
102
}
330
340E
100
AcDbSymbolTableRecord
100
AcDbDimStyleTableRecord
  2
AM_ANSI
 70
     0
  4
mm
 41
0.1
 42
0.05
 43
0.5
 44
0.1
 47
0.1
 48
0.1
 78
     7
140
0.12
141
0.0
146
0.71
147
0.06
176
   256
177
   256
178
     2
271
     2
272
     2
279
     2
284
     8
285
     8
286
     8
340
3459
  0
DIMSTYLE
105
350E
330
340E
100
AcDbSymbolTableRecord
100
AcDbDimStyleTableRecord
  2
AM_ANSI$3
 70
     0
  4
mm
 41
0.1
 42
0.05
 43
0.5
 44
0.1
 47
0.1
 48
0.1
 78
     7
140
0.12
141
0.0
146
0.71
147
0.06
176
   256
177
   256
178
     2
271
     2
272
     2
279
     2
284
     8
285
     8
286
     8
340
3459
  0
DIMSTYLE
105
350F
330
340E
100
AcDbSymbolTableRecord
100
AcDbDimStyleTableRecord
  2
AM_ANSI$4
 70
     0
  4
mm
 41
0.1
 42
0.05
 43
0.5
 44
0.1
 47
0.1
 48
0.1
 78
     7
140
0.12
141
0.0
146
0.71
147
0.06
176
   256
177
   256
178
     2
271
     2
272
     2
279
     2
284
     8
285
     8
286
     8
340
3459
  0
DIMSTYLE
105
3510
330
340E
100
AcDbSymbolTableRecord
100
AcDbDimStyleTableRecord
  2
AM_ANSI$7
 70
     0
  4
mm
 41
0.1
 42
0.05
 43
0.5
 44
0.1
 47
0.1
 48
0.1
 78
     7
140
0.24
141
0.0
146
0.71
147
0.06
176
   256
177
   256
178
     2
271
     2
272
     2
279
     2
284
     8
285
     8
286
     8
340
3459
  0
DIMSTYLE
105
3511
330
340E
100
AcDbSymbolTableRecord
100
AcDbDimStyleTableRecord
  2
AM_ANSI$SF
 70
     0
  4
mm
 41
0.1
 42
0.05
 43
0.5
 44
0.1
 47
0.1
 48
0.1
 75
     1
 76
     1
 78
     7
140
0.12
141
0.0
146
0.71
147
0.06
176
   256
177
   256
178
     2
271
     2
272
     2
279
     2
284
     8
285
     8
286
     8
340
3459
  0
DIMSTYLE
105
3512
330
340E
100
AcDbSymbolTableRecord
100
AcDbDimStyleTableRecord
  2
AM_ANSI$SH
 70
     0
  4
mm
 41
0.1
 42
0.05
 43
0.5
 44
0.1
 47
0.1
 48
0.1
 75
     1
 76
     1
 78
     7
140
0.12
141
0.0
146
0.71
147
0.06
173
     1
176
   256
177
   256
178
     2
271
     2
272
     2
279
     2
284
     8
285
     8
286
     8
340
3459
  0
ENDTAB
  0
TABLE
  2
BLOCK_RECORD
  5
3405
330
0
100
AcDbSymbolTable
 70
    13
  0
BLOCK_RECORD
  5
3473
330
3405
100
AcDbSymbolTableRecord
100
AcDbBlockTableRecord
  2
*Model_Space
340
3476
 70
     0
280
     1
281
     0
  0
BLOCK_RECORD
  5
346F
330
3405
100
AcDbSymbolTableRecord
100
AcDbBlockTableRecord
  2
*Paper_Space
340
3472
 70
     0
280
     1
281
     0
  0
BLOCK_RECORD
  5
352C
330
3405
100
AcDbSymbolTableRecord
100
AcDbBlockTableRecord
  2
_ACMFILLEDHALF
340
0
 70
     0
280
     1
281
     0
  0
ENDTAB
  0
ENDSEC
  0
SECTION
  2
BLOCKS
  0
BLOCK
  5
3474
330
3473
100
AcDbEntity
  8
0
100
AcDbBlockBegin
  2
*Model_Space
 70
     0
 10
0.0
 20
0.0
 30
0.0
  3
*Model_Space
  1

  0
ENDBLK
  5
3475
330
3473
100
AcDbEntity
  8
0
100
AcDbBlockEnd
  0
BLOCK
  5
3470
330
346F
100
AcDbEntity
 67
     1
  8
0
100
AcDbBlockBegin
  2
*Paper_Space
 70
     0
 10
0.0
 20
0.0
 30
0.0
  3
*Paper_Space
  1

  0
ENDBLK
  5
3471
330
346F
100
AcDbEntity
 67
     1
  8
0
100
AcDbBlockEnd
  0
BLOCK
  5
352D
330
352C
100
AcDbEntity
  8
0
100
AcDbBlockBegin
  2
_ACMFILLEDHALF
 70
     0
 10
0.0
 20
0.0
 30
0.0
  3
_ACMFILLEDHALF
  1

  0
TRACE
  5
336F
330
352C
100
AcDbEntity
  8
AM_0
 62
     0
100
AcDbTrace
 10
-0.8
 20
0.0
 30
0.0
 11
-1.0
 21
0.166666666
 31
0.0
 12
0.0
 22
0.0
 32
0.0
 13
0.0
 23
0.0
 33
0.0
  0
LINE
  5
3370
330
352C
100
AcDbEntity
  8
AM_0
 62
     0
100
AcDbLine
 10
-1.0
 20
0.0
 30
0.0
 11
-0.8
 21
0.0
 31
0.0
  0
ENDBLK
  5
336E
330
352C
100
AcDbEntity
  8
0
100
AcDbBlockEnd
  0
ENDSEC
  0
SECTION
  2
ENTITIES
  0
LINE
  5
3033
330
3473
100
AcDbEntity
  8
AM_0
100
AcDbLine
 10
464.3094869027843
 20
534.1377259445703
 30
0.0
 11
464.3094869027843
 21
219.1377359445703
 31
0.0
  0
LINE
  5
3034
330
3473
100
AcDbEntity
  8
AM_0
100
AcDbLine
 10
587.3094869027839
 20
571.5410259445705
 30
0.0
 11
587.3094869027839
 21
377.8743709445703
 31
0.0
  0
LINE
  5
3035
330
3473
100
AcDbEntity
  8
AM_0
100
AcDbLine
 10
609.3094869027845
 20
577.1377759445704
 30
0.0
 11
609.3094869027845
 21
247.1377359445703
 31
0.0
  0
LINE
  5
3036
330
3473
100
AcDbEntity
  8
AM_0
100
AcDbLine
 10
614.3094869027845
 20
552.1377759445704
 30
0.0
 11
614.3094869027845
 21
272.1377359445704
 31
0.0
  0
LINE
  5
3037
330
3473
100
AcDbEntity
  8
AM_0
100
AcDbLine
 10
596.3094869027838
 20
536.4868759445703
 30
0.0
 11
596.3094869027838
 21
287.7886159445703
 31
0.0
  0
LINE
  5
3038
330
3473
100
AcDbEntity
  8
AM_0
100
AcDbLine
 10
586.6360869027842
 20
369.6496409445703
 30
0.0
 11
574.7322869027843
 21
498.0112759445701
 31
0.0
  0
LINE
  5
3039
330
3473
100
AcDbEntity
  8
AM_0
100
AcDbLine
 10
408.3094869027839
 20
480.1217159445704
 30
0.0
 11
408.3094869027839
 21
254.6952309445703
 31
0.0
  0
LINE
  5
303A
330
3473
100
AcDbEntity
  8
AM_0
100
AcDbLine
 10
434.3094869027845
 20
531.1587759445703
 30
0.0
 11
434.3094869027845
 21
222.1167259445703
 31
0.0
  0
LINE
  5
303B
330
3473
100
AcDbEntity
  8
AM_0
100
AcDbLine
 10
385.3095369027842
 20
464.6377409445704
 30
0.0
 11
385.3095369027842
 21
269.6377359445704
 31
0.0
  0
LINE
  5
303C
330
3473
100
AcDbEntity
  8
AM_0
100
AcDbLine
 10
368.3095369027842
 20
367.1377359445703
 30
0.0
 11
368.3095369027842
 21
476.1377359445702
 31
0.0
  0
ARC
  5
303D
330
3473
100
AcDbEntity
  8
AM_0
100
AcDbCircle
 10
362.3095369027842
 20
462.6196709445705
 30
0.0
 40
6.0
100
AcDbArc
 50
299.7448809999976
 51
0.0
  0
ARC
  5
303E
330
3473
100
AcDbEntity
  8
AM_0
100
AcDbCircle
 10
269.4531309027841
 20
407.1377359445704
 30
0.0
 40
8.0
100
AcDbArc
 50
90.0
 51
120.0000000000005
  0
ARC
  5
303F
330
3473
100
AcDbEntity
  8
AM_0
100
AcDbCircle
 10
269.4531309027841
 20
327.1377359445705
 30
0.0
 40
8.0
100
AcDbArc
 50
239.9999999999995
 51
270.0
  0
LINE
  5
3040
330
3473
100
AcDbEntity
  8
ﾁｭｳｼﾝｾﾝ
100
AcDbLine
 10
195.5644863631651
 20
367.1377359445703
 30
0.0
 11
449.4840703384176
 21
367.1377359445703
 31
0.0
  0
LINE
  5
3041
330
3473
100
AcDbEntity
  8
AM_0
100
AcDbLine
 10
255.3095369027841
 20
394.6377359445704
 30
0.0
 11
255.3095369027841
 21
367.1377359445703
 31
0.0
  0
LINE
  5
3042
330
3473
100
AcDbEntity
  8
AM_0
100
AcDbLine
 10
257.3095369027841
 20
407.0548319445705
 30
0.0
 11
257.3095369027841
 21
367.1377359445703
 31
0.0
  0
LINE
  5
3044
330
3473
100
AcDbEntity
  8
AM_0
100
AcDbLine
 10
252.3079369027839
 20
381.1377359445704
 30
0.0
 11
210.3079369027839
 21
381.1377359445704
 31
0.0
  0
LINE
  5
3045
330
3473
100
AcDbEntity
  8
AM_0
100
AcDbLine
 10
252.3079369027839
 20
353.1377359445704
 30
0.0
 11
210.3079369027839
 21
353.1377359445704
 31
0.0
  0
LINE
  5
3046
330
3473
100
AcDbEntity
  8
AM_0
100
AcDbLine
 10
210.3079369027839
 20
384.1377359445704
 30
0.0
 11
210.3079369027839
 21
353.1377359445704
 31
0.0
  0
LINE
  5
3047
330
3473
100
AcDbEntity
  8
AM_0
100
AcDbLine
 10
252.3079369027839
 20
352.1377359445704
 30
0.0
 11
252.3079369027839
 21
367.1377359445703
 31
0.0
  0
LINE
  5
3048
330
3473
100
AcDbEntity
  8
AM_0
100
AcDbLine
 10
257.3095369027841
 20
327.2206389445705
 30
0.0
 11
257.3095369027841
 21
367.1377359445703
 31
0.0
  0
LINE
  5
3049
330
3473
100
AcDbEntity
  8
AM_0
100
AcDbLine
 10
255.3095369027841
 20
339.6377359445705
 30
0.0
 11
255.3095369027841
 21
367.1377359445703
 31
0.0
  0
ARC
  5
304A
330
3473
100
AcDbEntity
  8
AM_0
100
AcDbCircle
 10
261.3095369027842
 20
327.2206389445705
 30
0.0
 40
4.0
100
AcDbArc
 50
180.0
 51
239.9999999999995
  0
LINE
  5
304B
330
3473
100
AcDbEntity
  8
AM_0
100
AcDbLine
 10
265.4531309027841
 20
320.2095319445705
 30
0.0
 11
259.3095369027841
 21
323.7565379445705
 31
0.0
  0
LINE
  5
304C
330
3473
100
AcDbEntity
  8
AM_0
100
AcDbLine
 10
255.3095369027841
 20
352.1377359445704
 30
0.0
 11
252.3079369027839
 21
352.1377359445704
 31
0.0
  0
LINE
  5
304D
330
3473
100
AcDbEntity
  8
AM_0
100
AcDbLine
 10
255.3095369027841
 20
339.6377359445705
 30
0.0
 11
257.3095369027841
 21
337.6377359445705
 31
0.0
  0
LINE
  5
304E
330
3473
100
AcDbEntity
  8
AM_0
100
AcDbLine
 10
252.3079369027839
 20
382.1377359445704
 30
0.0
 11
252.3079369027839
 21
367.1377359445703
 31
0.0
  0
LINE
  5
304F
330
3473
100
AcDbEntity
  8
AM_0
100
AcDbLine
 10
255.3095369027841
 20
382.1377359445704
 30
0.0
 11
252.3079369027839
 21
382.1377359445704
 31
0.0
  0
LINE
  5
3050
330
3473
100
AcDbEntity
  8
AM_0
100
AcDbLine
 10
242.3079369027837
 20
384.1377359445704
 30
0.0
 11
242.3079369027841
 21
381.1377359445704
 31
0.0
  0
ARC
  5
3051
330
3473
100
AcDbEntity
  8
AM_0
100
AcDbCircle
 10
261.3095369027842
 20
407.0548319445705
 30
0.0
 40
4.0
100
AcDbArc
 50
120.0000000000005
 51
180.0
  0
LINE
  5
3052
330
3473
100
AcDbEntity
  8
AM_0
100
AcDbLine
 10
255.3095369027841
 20
394.6377359445704
 30
0.0
 11
257.3095369027841
 21
396.6377359445704
 31
0.0
  0
LINE
  5
3053
330
3473
100
AcDbEntity
  8
AM_0
100
AcDbLine
 10
265.4531309027841
 20
414.0659389445704
 30
0.0
 11
259.3095369027841
 21
410.5189329445703
 31
0.0
  0
LINE
  5
3054
330
3473
100
AcDbEntity
  8
AM_0
100
AcDbLine
 10
436.3094869027841
 20
420.6041409445703
 30
0.0
 11
581.9107869027844
 21
420.6041409445703
 31
0.0
  0
LINE
  5
3055
330
3473
100
AcDbEntity
  8
AM_0
100
AcDbLine
 10
436.3094869027841
 20
318.8085459445705
 30
0.0
 11
587.3094869027839
 21
318.8085459445705
 31
0.0
  0
LINE
  5
3056
330
3473
100
AcDbEntity
  8
AM_0
100
AcDbLine
 10
464.309536902784
 20
219.1377209445704
 30
0.0
 11
546.1528869027842
 21
216.9945759445703
 31
0.0
  0
LINE
  5
3057
330
3473
100
AcDbEntity
  8
ﾁｭｳｼﾝｾﾝ
100
AcDbLine
 10
420.5177441443225
 20
412.1377359445705
 30
0.0
 11
704.7383369027844
 21
412.1377359445705
 31
0.0
  0
LINE
  5
3058
330
3473
100
AcDbEntity
  8
AM_0
100
AcDbLine
 10
384.309536902784
 20
340.6007359445703
 30
0.0
 11
384.309536902784
 21
283.5249529445703
 31
0.0
  0
LINE
  5
3059
330
3473
100
AcDbEntity
  8
AM_0
100
AcDbLine
 10
368.3095369027842
 20
270.6377359445704
 30
0.0
 11
368.3095369027842
 21
367.1377359445703
 31
0.0
  0
LINE
  5
305A
330
3473
100
AcDbEntity
  8
AM_0
100
AcDbLine
 10
365.286370902784
 20
276.8652589445705
 30
0.0
 11
293.154132902784
 21
318.0836809445705
 31
0.0
  0
LINE
  5
305B
330
3473
100
AcDbEntity
  8
AM_0
100
AcDbLine
 10
385.3095369027842
 20
269.6377359445704
 30
0.0
 11
369.3095369027842
 21
269.6377359445704
 31
0.0
  0
LINE
  5
305C
330
3473
100
AcDbEntity
  8
AM_0
100
AcDbLine
 10
384.309536902784
 20
283.5249529445703
 30
0.0
 11
370.3095369027842
 21
283.5249529445703
 31
0.0
  0
ARC
  5
305D
330
3473
100
AcDbEntity
  8
AM_0
100
AcDbCircle
 10
362.3095369027842
 20
271.6557999445705
 30
0.0
 40
6.0
100
AcDbArc
 50
0.0
 51
60.25511900000238
  0
ARC
  5
305E
330
3473
100
AcDbEntity
  8
AM_0
100
AcDbCircle
 10
369.3095369027842
 20
270.6377359445704
 30
0.0
 40
1.0
100
AcDbArc
 50
180.0
 51
270.0
  0
ARC
  5
305F
330
3473
100
AcDbEntity
  8
AM_0
100
AcDbCircle
 10
370.3095369027842
 20
285.5249529445703
 30
0.0
 40
2.0
100
AcDbArc
 50
180.0
 51
270.0
  0
LINE
  5
3060
330
3473
100
AcDbEntity
  8
AM_0
100
AcDbLine
 10
432.2357369027839
 20
234.8686159445704
 30
0.0
 11
410.3832869027842
 21
250.6409859445704
 31
0.0
  0
ARC
  5
3061
330
3473
100
AcDbEntity
  8
AM_0
100
AcDbCircle
 10
429.3094869027846
 20
230.8143409445702
 30
0.0
 40
5.0
100
AcDbArc
 50
0.0
 51
54.179554
  0
LINE
  5
3062
330
3473
100
AcDbEntity
  8
AM_0
100
AcDbLine
 10
436.2397369027839
 20
220.1179609445703
 30
0.0
 11
464.3094369027839
 21
219.1377359445703
 31
0.0
  0
ARC
  5
3063
330
3473
100
AcDbEntity
  8
AM_0
100
AcDbCircle
 10
436.3094869027841
 20
222.1167259445703
 30
0.0
 40
2.00000005
100
AcDbArc
 50
179.9999899999999
 51
268.0000099999999
  0
ARC
  5
3064
330
3473
100
AcDbEntity
  8
AM_0
100
AcDbCircle
 10
403.309486902784
 20
264.0061159445703
 30
0.0
 40
5.0
100
AcDbArc
 50
0.0
 51
88.0
  0
LINE
  5
3065
330
3473
100
AcDbEntity
  8
AM_0
100
AcDbLine
 10
385.3094869027841
 20
269.6377359445704
 30
0.0
 11
403.4839869027837
 21
269.0030609445702
 31
0.0
  0
ARC
  5
3066
330
3473
100
AcDbEntity
  8
AM_0
100
AcDbCircle
 10
413.3094869027841
 20
254.6952309445703
 30
0.0
 40
5.0
100
AcDbArc
 50
179.9999899999999
 51
234.17957
  0
LINE
  5
3067
330
3473
100
AcDbEntity
  8
AM_0
100
AcDbLine
 10
387.3094869027841
 20
283.9425459445704
 30
0.0
 11
408.3094869027839
 21
283.9425459445704
 31
0.0
  0
LINE
  5
3068
330
3473
100
AcDbEntity
  8
AM_0
100
AcDbLine
 10
387.3094869027841
 20
294.1315409445703
 30
0.0
 11
408.3094869027839
 21
294.1315409445703
 31
0.0
  0
LINE
  5
3069
330
3473
100
AcDbEntity
  8
AM_0
100
AcDbLine
 10
387.3094869027841
 20
310.3619209445704
 30
0.0
 11
408.3094869027839
 21
310.3619209445704
 31
0.0
  0
LINE
  5
306A
330
3473
100
AcDbEntity
  8
AM_0
100
AcDbLine
 10
387.3094869027841
 20
310.3619209445704
 30
0.0
 11
387.3094869027841
 21
283.9425459445704
 31
0.0
  0
LINE
  5
306B
330
3473
100
AcDbEntity
  8
AM_0
100
AcDbLine
 10
370.3095369027842
 20
423.9135239445706
 30
0.0
 11
384.309536902784
 21
423.9135239445706
 31
0.0
  0
LINE
  5
306C
330
3473
100
AcDbEntity
  8
AM_0
100
AcDbLine
 10
384.309536902784
 20
440.1439169445705
 30
0.0
 11
370.3095369027842
 21
440.1439169445705
 31
0.0
  0
LINE
  5
306D
330
3473
100
AcDbEntity
  8
AM_0
100
AcDbLine
 10
384.309536902784
 20
450.7505189445703
 30
0.0
 11
370.3095369027842
 21
450.7505189445703
 31
0.0
  0
LINE
  5
306E
330
3473
100
AcDbEntity
  8
AM_0
100
AcDbLine
 10
370.3095369027842
 20
325.1372079445705
 30
0.0
 11
384.309536902784
 21
325.1372079445705
 31
0.0
  0
LINE
  5
306F
330
3473
100
AcDbEntity
  8
AM_0
100
AcDbLine
 10
370.3095369027842
 20
340.6007359445703
 30
0.0
 11
384.309536902784
 21
340.6007359445703
 31
0.0
  0
LINE
  5
3070
330
3473
100
AcDbEntity
  8
AM_0
100
AcDbLine
 10
291.3095369027842
 20
415.1377359445704
 30
0.0
 11
291.3095369027842
 21
367.1377359445703
 31
0.0
  0
LINE
  5
3071
330
3473
100
AcDbEntity
  8
AM_0
100
AcDbLine
 10
267.3095369027842
 20
412.0460699445706
 30
0.0
 11
267.3095369027842
 21
367.1377359445703
 31
0.0
  0
LINE
  5
3072
330
3473
100
AcDbEntity
  8
AM_0
100
AcDbLine
 10
291.3095369027842
 20
319.1377359445705
 30
0.0
 11
291.3095369027842
 21
367.1377359445703
 31
0.0
  0
LINE
  5
3073
330
3473
100
AcDbEntity
  8
AM_0
100
AcDbLine
 10
267.3095369027842
 20
322.2294019445705
 30
0.0
 11
267.3095369027842
 21
367.1377359445703
 31
0.0
  0
LINE
  5
3074
330
3473
100
AcDbEntity
  8
AM_0
100
AcDbLine
 10
289.185021902784
 20
319.1377359445705
 30
0.0
 11
269.4531309027841
 21
319.1377359445705
 31
0.0
  0
ARC
  5
3075
330
3473
100
AcDbEntity
  8
AM_0
100
AcDbCircle
 10
289.185021902784
 20
311.1377359445705
 30
0.0
 40
8.0
100
AcDbArc
 50
60.25511900000238
 51
90.0
  0
ARC
  5
3076
330
3473
100
AcDbEntity
  8
AM_0
100
AcDbCircle
 10
370.3095369027842
 20
323.1372079445705
 30
0.0
 40
2.0
100
AcDbArc
 50
90.0
 51
180.0
  0
ARC
  5
3077
330
3473
100
AcDbEntity
  8
AM_0
100
AcDbCircle
 10
370.3095369027842
 20
338.6007359445703
 30
0.0
 40
2.0
100
AcDbArc
 50
90.0
 51
180.0
  0
LINE
  5
3078
330
3473
100
AcDbEntity
  8
AM_0
100
AcDbLine
 10
365.286370902784
 20
457.4102119445703
 30
0.0
 11
293.154132902784
 21
416.1917899445704
 31
0.0
  0
LINE
  5
3079
330
3473
100
AcDbEntity
  8
AM_0
100
AcDbLine
 10
289.185021902784
 20
415.1377359445704
 30
0.0
 11
269.4531309027841
 21
415.1377359445704
 31
0.0
  0
ARC
  5
307A
330
3473
100
AcDbEntity
  8
AM_0
100
AcDbCircle
 10
289.185021902784
 20
423.1377359445704
 30
0.0
 40
8.0
100
AcDbArc
 50
270.0
 51
299.7448809999976
  0
ARC
  5
307B
330
3473
100
AcDbEntity
  8
AM_0
100
AcDbCircle
 10
370.3095369027842
 20
425.9135239445702
 30
0.0
 40
2.0
100
AcDbArc
 50
180.0
 51
270.0
  0
ARC
  5
307C
330
3473
100
AcDbEntity
  8
AM_0
100
AcDbCircle
 10
370.3095369027842
 20
438.1439169445703
 30
0.0
 40
2.0
100
AcDbArc
 50
90.0
 51
180.0
  0
ARC
  5
307D
330
3473
100
AcDbEntity
  8
AM_0
100
AcDbCircle
 10
370.3095369027842
 20
448.7505189445704
 30
0.0
 40
2.0
100
AcDbArc
 50
90.0
 51
180.0
  0
LINE
  5
307E
330
3473
100
AcDbEntity
  8
AM_0
100
AcDbLine
 10
387.3094869027841
 20
450.3329009445703
 30
0.0
 11
387.3094869027841
 21
423.9135259445704
 31
0.0
  0
LINE
  5
307F
330
3473
100
AcDbEntity
  8
AM_0
100
AcDbLine
 10
384.309536902784
 20
450.7505189445703
 30
0.0
 11
384.309536902784
 21
423.9135239445706
 31
0.0
  0
LINE
  5
3080
330
3473
100
AcDbEntity
  8
AM_0
100
AcDbLine
 10
387.3094869027841
 20
423.9135259445704
 30
0.0
 11
408.3094869027839
 21
423.9135259445704
 31
0.0
  0
LINE
  5
3081
330
3473
100
AcDbEntity
  8
AM_0
100
AcDbLine
 10
387.3094869027841
 20
440.1439359445704
 30
0.0
 11
408.3094869027839
 21
440.1439359445704
 31
0.0
  0
LINE
  5
3082
330
3473
100
AcDbEntity
  8
AM_0
100
AcDbLine
 10
387.3094869027841
 20
450.3329009445703
 30
0.0
 11
408.3094869027839
 21
450.3329009445703
 31
0.0
  0
LINE
  5
3083
330
3473
100
AcDbEntity
  8
AM_0
100
AcDbLine
 10
587.3094869027839
 20
319.8638409445704
 30
0.0
 11
587.3094869027839
 21
252.1377359445704
 31
0.0
  0
LINE
  5
3084
330
3473
100
AcDbEntity
  8
AM_0
100
AcDbLine
 10
592.3094869027841
 20
247.1377359445703
 30
0.0
 11
609.3094869027845
 21
247.1377359445703
 31
0.0
  0
LINE
  5
3085
330
3473
100
AcDbEntity
  8
AM_0
100
AcDbLine
 10
551.4146369027843
 20
218.3308959445704
 30
0.0
 11
601.3094869027841
 21
247.1377059445703
 31
0.0
  0
ARC
  5
3086
330
3473
100
AcDbEntity
  8
AM_0
100
AcDbCircle
 10
546.4146369027843
 20
226.9911759445705
 30
0.0
 40
10.0
100
AcDbArc
 50
268.5
 51
300.0
  0
LINE
  5
3087
330
3473
100
AcDbEntity
  8
AM_0
100
AcDbLine
 10
509.3094869027845
 20
292.3836459445705
 30
0.0
 11
587.3094869027839
 21
292.3836459445705
 31
0.0
  0
LINE
  5
3088
330
3473
100
AcDbEntity
  8
AM_0
100
AcDbLine
 10
509.3094869027845
 20
267.7387809445704
 30
0.0
 11
587.3094869027839
 21
267.7387809445704
 31
0.0
  0
LINE
  5
3089
330
3473
100
AcDbEntity
  8
AM_0
100
AcDbLine
 10
504.3094869027846
 20
287.3836459445702
 30
0.0
 11
504.3094869027846
 21
272.7387809445704
 31
0.0
  0
ARC
  5
308A
330
3473
100
AcDbEntity
  8
AM_0
100
AcDbCircle
 10
509.3094869027845
 20
272.7387809445704
 30
0.0
 40
5.0
100
AcDbArc
 50
179.9999899999999
 51
270.0
  0
ARC
  5
308B
330
3473
100
AcDbEntity
  8
AM_0
100
AcDbCircle
 10
509.3094869027845
 20
287.3836459445702
 30
0.0
 40
5.0
100
AcDbArc
 50
90.00000300000001
 51
180.00001
  0
ARC
  5
308C
330
3473
100
AcDbEntity
  8
AM_0
100
AcDbCircle
 10
588.3094869027841
 20
287.7886159445703
 30
0.0
 40
8.0
100
AcDbArc
 50
270.0
 51
0.0
  0
ARC
  5
308D
330
3473
100
AcDbEntity
  8
AM_0
100
AcDbCircle
 10
592.3094869027841
 20
252.1377359445704
 30
0.0
 40
5.0
100
AcDbArc
 50
179.9999899999999
 51
270.0
  0
LINE
  5
308E
330
3473
100
AcDbEntity
  8
AM_0
100
AcDbLine
 10
609.3094869027845
 20
272.1377359445704
 30
0.0
 11
614.3094869027845
 21
272.1377359445704
 31
0.0
  0
ARC
  5
308F
330
3473
100
AcDbEntity
  8
AM_0
100
AcDbCircle
 10
588.3094869027841
 20
327.8010959445702
 30
0.0
 40
8.0
100
AcDbArc
 50
270.0
 51
0.0
  0
ARC
  5
3090
330
3473
100
AcDbEntity
  8
AM_0
100
AcDbCircle
 10
594.6018869027843
 20
370.3883809445703
 30
0.0
 40
8.0
100
AcDbArc
 50
185.2982399999999
 51
270.0
  0
LINE
  5
3091
330
3473
100
AcDbEntity
  8
AM_0
100
AcDbLine
 10
699.3094869027844
 20
443.6377409445704
 30
0.0
 11
699.3094869027844
 21
384.6377359445704
 31
0.0
  0
LINE
  5
3092
330
3473
100
AcDbEntity
  8
AM_0
100
AcDbLine
 10
617.3094869027841
 20
442.1377409445703
 30
0.0
 11
617.3094869027841
 21
382.1377359445704
 31
0.0
  0
LINE
  5
3093
330
3473
100
AcDbEntity
  8
AM_0
100
AcDbLine
 10
617.3094869027841
 20
384.6377359445704
 30
0.0
 11
699.3094869027844
 21
384.6377359445704
 31
0.0
  0
LINE
  5
3094
330
3473
100
AcDbEntity
  8
AM_0
100
AcDbLine
 10
614.3094869027845
 20
382.1377359445704
 30
0.0
 11
617.3094869027841
 21
382.1377359445704
 31
0.0
  0
LINE
  5
3095
330
3473
100
AcDbEntity
  8
AM_0
100
AcDbLine
 10
617.3094869027841
 20
439.6377409445704
 30
0.0
 11
699.3094869027844
 21
439.6377409445704
 31
0.0
  0
LINE
  5
3096
330
3473
100
AcDbEntity
  8
AM_0
100
AcDbLine
 10
637.3094869027839
 20
443.6377409445704
 30
0.0
 11
699.3094869027844
 21
443.6377409445704
 31
0.0
  0
LINE
  5
3097
330
3473
100
AcDbEntity
  8
AM_0
100
AcDbLine
 10
614.3094869027845
 20
442.1377409445703
 30
0.0
 11
617.3094869027841
 21
442.1377409445703
 31
0.0
  0
LINE
  5
3098
330
3473
100
AcDbEntity
  8
AM_0
100
AcDbLine
 10
637.3094869027839
 20
443.6377409445704
 30
0.0
 11
637.3094869027839
 21
439.6377409445704
 31
0.0
  0
LINE
  5
3099
330
3473
100
AcDbEntity
  8
AM_0
100
AcDbLine
 10
464.3094869027843
 20
534.1377259445703
 30
0.0
 11
566.0909369027841
 21
536.8029759445703
 31
0.0
  0
LINE
  5
309A
330
3473
100
AcDbEntity
  8
AM_0
100
AcDbLine
 10
385.3095369027842
 20
464.6377359445704
 30
0.0
 11
369.3095369027842
 21
464.6377359445704
 31
0.0
  0
LINE
  5
309B
330
3473
100
AcDbEntity
  8
AM_0
100
AcDbLine
 10
384.309536902784
 20
478.1377359445704
 30
0.0
 11
370.3095369027842
 21
478.1377359445704
 31
0.0
  0
ARC
  5
309C
330
3473
100
AcDbEntity
  8
AM_0
100
AcDbCircle
 10
370.3095369027842
 20
476.1377359445702
 30
0.0
 40
2.0
100
AcDbArc
 50
90.0
 51
180.0
  0
ARC
  5
309D
330
3473
100
AcDbEntity
  8
AM_0
100
AcDbCircle
 10
369.3095369027842
 20
463.6377359445702
 30
0.0
 40
1.0
100
AcDbArc
 50
90.0
 51
180.0
  0
ARC
  5
309E
330
3473
100
AcDbEntity
  8
AM_0
100
AcDbCircle
 10
427.8844369027843
 20
535.2074759445704
 30
0.0
 40
6.0
100
AcDbArc
 50
349.72995
 51
53.53329100000001
  0
LINE
  5
309F
330
3473
100
AcDbEntity
  8
AM_0
100
AcDbLine
 10
433.8094869027839
 20
534.1377259445703
 30
0.0
 11
436.0599869027842
 21
542.5366259445703
 31
0.0
  0
ARC
  5
30A0
330
3473
100
AcDbEntity
  8
AM_0
100
AcDbCircle
 10
464.7344869027842
 20
535.2074759445704
 30
0.0
 40
6.0
100
AcDbArc
 50
126.4666999999999
 51
190.27006
  0
LINE
  5
30A1
330
3473
100
AcDbEntity
  8
AM_0
100
AcDbLine
 10
458.8094869027839
 20
534.1377259445703
 30
0.0
 11
456.558986902784
 21
542.5366759445704
 31
0.0
  0
ARC
  5
30A2
330
3473
100
AcDbEntity
  8
AM_0
100
AcDbCircle
 10
429.3094869027846
 20
511.1537759445702
 30
0.0
 40
5.0
100
AcDbArc
 50
316.08092
 51
0.0
  0
LINE
  5
30A3
330
3473
100
AcDbEntity
  8
AM_0
100
AcDbLine
 10
433.3094869027839
 20
534.1377259445703
 30
0.0
 11
464.3094869027843
 21
534.1377259445703
 31
0.0
  0
LINE
  5
30A4
330
3473
100
AcDbEntity
  8
AM_0
100
AcDbLine
 10
409.7079369027841
 20
483.5898259445705
 30
0.0
 11
429.9110869027845
 21
504.5700759445701
 31
0.0
  0
ARC
  5
30A5
330
3473
100
AcDbEntity
  8
AM_0
100
AcDbCircle
 10
403.309486902784
 20
470.2693609445703
 30
0.0
 40
5.0
100
AcDbArc
 50
272.0
 51
0.0
  0
LINE
  5
30A6
330
3473
100
AcDbEntity
  8
AM_0
100
AcDbLine
 10
385.3094869027841
 20
464.6377409445704
 30
0.0
 11
403.4839869027837
 21
465.2724109445704
 31
0.0
  0
LINE
  5
30A7
330
3473
100
AcDbEntity
  8
AM_0
100
AcDbLine
 10
384.309536902784
 20
464.6377359445704
 30
0.0
 11
384.309536902784
 21
478.1377359445704
 31
0.0
  0
ARC
  5
30A8
330
3473
100
AcDbEntity
  8
AM_0
100
AcDbCircle
 10
413.3094869027841
 20
480.1217159445704
 30
0.0
 40
5.0
100
AcDbArc
 50
136.08092
 51
180.00001
  0
LINE
  5
30A9
330
3473
100
AcDbEntity
  8
AM_0
100
AcDbLine
 10
431.3094869027841
 20
532.1377759445704
 30
0.0
 11
431.3094869027841
 21
508.0383759445703
 31
0.0
  0
ARC
  5
30AA
330
3473
100
AcDbEntity
  8
AM_0
100
AcDbCircle
 10
426.3094869027841
 20
508.0383759445703
 30
0.0
 40
5.0
100
AcDbArc
 50
316.08092
 51
0.0
  0
LINE
  5
30AB
330
3473
100
AcDbEntity
  8
AM_0
100
AcDbLine
 10
429.9110869027845
 20
504.5700759445701
 30
0.0
 11
432.9110869027845
 21
507.6854759445703
 31
0.0
  0
ARC
  5
30AC
330
3473
100
AcDbEntity
  8
AM_0
100
AcDbCircle
 10
433.3094869027839
 20
532.1377759445704
 30
0.0
 40
2.00000005
100
AcDbArc
 50
90.00000300000001
 51
180.00001
  0
LINE
  5
30AD
330
3473
100
AcDbEntity
  8
AM_0
100
AcDbLine
 10
436.2396869027842
 20
533.1575259445703
 30
0.0
 11
464.3094869027843
 21
534.1377259445703
 31
0.0
  0
ARC
  5
30AE
330
3473
100
AcDbEntity
  8
AM_0
100
AcDbCircle
 10
436.3094869027841
 20
531.1587759445703
 30
0.0
 40
2.00000005
100
AcDbArc
 50
91.99999799999995
 51
180.00001
  0
CIRCLE
  5
30AF
330
3473
100
AcDbEntity
  8
AM_0
100
AcDbCircle
 10
446.3094869027839
 20
560.1377259445705
 30
0.0
 40
15.0
  0
ARC
  5
30B0
330
3473
100
AcDbEntity
  8
AM_0
100
AcDbCircle
 10
446.3094869027839
 20
560.1377259445705
 30
0.0
 40
25.0000005
100
AcDbArc
 50
306.46672
 51
233.53329
  0
LINE
  5
30B1
330
3473
100
AcDbEntity
  8
AM_0
100
AcDbLine
 10
436.5154369027837
 20
543.1377259445703
 30
0.0
 11
456.1034869027843
 21
543.1377259445703
 31
0.0
  0
LINE
  5
30B2
330
3473
100
AcDbEntity
  8
AM_0
100
AcDbLine
 10
446.3094369027839
 20
545.1377759445704
 30
0.0
 11
455.7875369027843
 21
543.2587259445702
 31
0.0
  0
ARC
  5
30B3
330
3473
100
AcDbEntity
  8
AM_0
100
AcDbCircle
 10
437.0259369027841
 20
542.2778259445705
 30
0.0
 40
1.0
100
AcDbArc
 50
101.21329
 51
164.99999
  0
LINE
  5
30B4
330
3473
100
AcDbEntity
  8
AM_0
100
AcDbLine
 10
436.8315369027839
 20
543.2587259445702
 30
0.0
 11
446.3094869027839
 21
545.1377259445705
 31
0.0
  0
ARC
  5
30B5
330
3473
100
AcDbEntity
  8
AM_0
100
AcDbCircle
 10
455.5931369027844
 20
542.2778259445705
 30
0.0
 40
1.0
100
AcDbArc
 50
15.0
 51
78.78671
  0
LINE
  5
30B6
330
3473
100
AcDbEntity
  8
AM_0
100
AcDbLine
 10
592.1349869027842
 20
576.5380259445704
 30
0.0
 11
609.3094869027845
 21
577.1377759445704
 31
0.0
  0
ARC
  5
30B7
330
3473
100
AcDbEntity
  8
AM_0
100
AcDbCircle
 10
582.3094869027841
 20
536.9218259445704
 30
0.0
 40
5.0
100
AcDbArc
 50
301.18236
 51
0.0
  0
LINE
  5
30B8
330
3473
100
AcDbEntity
  8
AM_0
100
AcDbLine
 10
572.1073369027845
 20
526.3170759445704
 30
0.0
 11
571.0364369027843
 21
537.8646759445705
 31
0.0
  0
ARC
  5
30B9
330
3473
100
AcDbEntity
  8
AM_0
100
AcDbCircle
 10
549.247886902784
 20
505.2241259445704
 30
0.0
 40
5.0
100
AcDbArc
 50
121.18236
 51
180.00001
  0
ARC
  5
30BA
330
3473
100
AcDbEntity
  8
AM_0
100
AcDbCircle
 10
549.247886902784
 20
503.0112759445704
 30
0.0
 40
5.0
100
AcDbArc
 50
179.9999899999999
 51
270.0
  0
LINE
  5
30BB
330
3473
100
AcDbEntity
  8
AM_0
100
AcDbLine
 10
544.2478869027841
 20
505.2241259445704
 30
0.0
 11
544.2478869027841
 21
503.0112759445704
 31
0.0
  0
ARC
  5
30BC
330
3473
100
AcDbEntity
  8
AM_0
100
AcDbCircle
 10
573.0027369027839
 20
503.0112759445704
 30
0.0
 40
5.0
100
AcDbArc
 50
270.0
 51
306.2555500000001
  0
LINE
  5
30BD
330
3473
100
AcDbEntity
  8
AM_0
100
AcDbLine
 10
549.247886902784
 20
498.0112759445701
 30
0.0
 11
573.0027369027839
 21
498.0112759445701
 31
0.0
  0
ARC
  5
30BE
330
3473
100
AcDbEntity
  8
AM_0
100
AcDbCircle
 10
588.3094869027841
 20
478.4743809445703
 30
0.0
 40
8.0
100
AcDbArc
 50
0.0
 51
90.00000300000001
  0
LINE
  5
30BF
330
3473
100
AcDbEntity
  8
AM_0
100
AcDbLine
 10
549.2385869027843
 20
499.7881609445705
 30
0.0
 11
584.8077369027842
 21
521.3146259445704
 31
0.0
  0
LINE
  5
30C0
330
3473
100
AcDbEntity
  8
AM_0
100
AcDbLine
 10
546.6590869027839
 20
509.5017759445704
 30
0.0
 11
584.8982869027841
 21
532.6441759445704
 31
0.0
  0
LINE
  5
30C1
330
3473
100
AcDbEntity
  8
AM_0
100
AcDbLine
 10
575.9596369027839
 20
498.9793859445703
 30
0.0
 11
587.3094869027839
 21
507.3031259445704
 31
0.0
  0
ARC
  5
30C2
330
3473
100
AcDbEntity
  8
AM_0
100
AcDbCircle
 10
565.8291369027843
 20
546.7995259445704
 30
0.0
 40
10.0
100
AcDbArc
 50
271.4999999999997
 51
315.0
  0
LINE
  5
30C3
330
3473
100
AcDbEntity
  8
AM_0
100
AcDbLine
 10
572.9001869027841
 20
539.72847594457
 30
0.0
 11
587.3094869027839
 21
554.1377759445704
 31
0.0
  0
ARC
  5
30C4
330
3473
100
AcDbEntity
  8
AM_0
100
AcDbCircle
 10
588.3094869027841
 20
536.4868759445703
 30
0.0
 40
8.0
100
AcDbArc
 50
0.0
 51
90.00000300000001
  0
ARC
  5
30C5
330
3473
100
AcDbEntity
  8
AM_0
100
AcDbCircle
 10
592.3094869027841
 20
571.5410259445705
 30
0.0
 40
5.0
100
AcDbArc
 50
91.99999799999995
 51
180.00001
  0
LINE
  5
30C6
330
3473
100
AcDbEntity
  8
AM_0
100
AcDbLine
 10
609.3094869027845
 20
552.1377759445704
 30
0.0
 11
614.3094869027845
 21
552.1377759445704
 31
0.0
  0
ARC
  5
30C7
330
3473
100
AcDbEntity
  8
AM_0
100
AcDbCircle
 10
1090.064036179285
 20
460.3908209445704
 30
0.0
 40
5.0
100
AcDbArc
 50
135.0
 51
217.0967999999998
  0
CIRCLE
  5
30C8
330
3473
100
AcDbEntity
  8
AM_0
100
AcDbCircle
 10
1026.254646179284
 20
412.1377359445705
 30
0.0
 40
132.0
  0
ARC
  5
30C9
330
3473
100
AcDbEntity
  8
AM_0
100
AcDbCircle
 10
1026.254646179284
 20
412.1377359445705
 30
0.0
 40
60.0
100
AcDbArc
 50
90.00000300000001
 51
270.0
  0
ARC
  5
30CA
330
3473
100
AcDbEntity
  8
AM_0
100
AcDbCircle
 10
962.4451961792852
 20
460.3908209445704
 30
0.0
 40
5.0
100
AcDbArc
 50
322.9032099999999
 51
45.00000099999999
  0
ARC
  5
30CB
330
3473
100
AcDbEntity
  8
AM_0
100
AcDbCircle
 10
1026.254646179284
 20
412.1377359445705
 30
0.0
 40
60.0
100
AcDbArc
 50
270.0
 51
90.00000300000001
  0
CIRCLE
  5
30CC
330
3473
100
AcDbEntity
  8
AM_0
100
AcDbCircle
 10
1026.254646179284
 20
412.1377359445705
 30
0.0
 40
140.0
  0
LINE
  5
30CD
330
3473
100
AcDbEntity
  8
ﾁｭｳｼﾝｾﾝ
100
AcDbLine
 10
1026.254646179284
 20
205.1125559445702
 30
0.0
 11
1026.254646179284
 21
590.3882307467056
 31
0.0
  0
LINE
  5
30CE
330
3473
100
AcDbEntity
  8
AM_0
100
AcDbLine
 10
861.254626179285
 20
357.1377359445704
 30
0.0
 11
861.254626179285
 21
467.1377409445703
 31
0.0
  0
LINE
  5
30CF
330
3473
100
AcDbEntity
  8
AM_0
100
AcDbLine
 10
1191.254621179285
 20
357.1377359445704
 30
0.0
 11
1191.254621179285
 21
467.1377409445703
 31
0.0
  0
ARC
  5
30D0
330
3473
100
AcDbEntity
  8
AM_0
100
AcDbCircle
 10
1152.860316179285
 20
402.1377359445704
 30
0.0
 40
5.0
100
AcDbArc
 50
270.0
 51
355.48385
  0
CIRCLE
  5
30D1
330
3473
100
AcDbEntity
  8
AM_0
100
AcDbCircle
 10
1164.140451179285
 20
274.2519309445701
 30
0.0
 40
9.5
  0
LINE
  5
30D2
330
3473
100
AcDbEntity
  8
AM_0
100
AcDbLine
 10
1081.254616179285
 20
247.1377209445702
 30
0.0
 11
1167.793436179284
 21
251.6730309445704
 31
0.0
  0
LINE
  5
30D3
330
3473
100
AcDbEntity
  8
ﾁｭｳｼﾝｾﾝ
100
AcDbLine
 10
850.2729261792849
 20
412.1377359445705
 30
0.0
 11
1203.681211179285
 21
412.1377359445705
 31
0.0
  0
LINE
  5
30D4
330
3473
100
AcDbEntity
  8
AM_0
100
AcDbLine
 10
899.6489611792849
 20
397.1377359445704
 30
0.0
 11
946.2546461792848
 21
397.1377359445704
 31
0.0
  0
LINE
  5
30D5
330
3473
100
AcDbEntity
  8
AM_0
100
AcDbLine
 10
971.254616179285
 20
247.1377209445702
 30
0.0
 11
884.715796179285
 21
251.6730309445704
 31
0.0
  0
ARC
  5
30D6
330
3473
100
AcDbEntity
  8
AM_0
100
AcDbCircle
 10
993.2546161792851
 20
318.8085459445705
 30
0.0
 40
102.8199949999999
100
AcDbArc
 50
222.01518
 51
235.0
  0
LINE
  5
30D7
330
3473
100
AcDbEntity
  8
AM_0
100
AcDbLine
 10
861.254626179285
 20
357.1378009445704
 30
0.0
 11
865.7899761792851
 21
270.5989159445703
 31
0.0
  0
ARC
  5
30D8
330
3473
100
AcDbEntity
  8
ﾁｭｳｼﾝｾﾝ1
100
AcDbCircle
 10
1026.254646179284
 20
412.1377359445705
 30
0.0
 40
195.0000049999999
100
AcDbArc
 50
218.1653199999999
 51
232.1288599999999
  0
LINE
  5
30D9
330
3473
100
AcDbEntity
  8
ﾁｭｳｼﾝｾﾝ1
100
AcDbLine
 10
904.5781611792849
 20
290.4612509445702
 30
0.0
 11
874.1380761792852
 21
260.0211909445703
 31
0.0
  0
ARC
  5
30DA
330
3473
100
AcDbEntity
  8
AM_0
100
AcDbCircle
 10
885.7625511792848
 20
271.6456109445703
 30
0.0
 40
20.0000005
100
AcDbArc
 50
183.00001
 51
267.0
  0
CIRCLE
  5
30DB
330
3473
100
AcDbEntity
  8
AM_0
100
AcDbCircle
 10
888.3688111792853
 20
274.2519309445701
 30
0.0
 40
9.5
  0
ARC
  5
30DC
330
3473
100
AcDbEntity
  8
AM_0
100
AcDbCircle
 10
899.6489611792849
 20
402.1377359445704
 30
0.0
 40
5.0
100
AcDbArc
 50
184.51616
 51
270.0
  0
LINE
  5
30DD
330
3473
100
AcDbEntity
  8
AM_0
100
AcDbLine
 10
964.4076011792847
 20
216.3177409445704
 30
0.0
 11
1088.101631179285
 21
216.3177409445704
 31
0.0
  0
LINE
  5
30DE
330
3473
100
AcDbEntity
  8
AM_0
100
AcDbLine
 10
971.2546461792848
 20
247.1377359445703
 30
0.0
 11
1081.254616179285
 21
247.1377359445703
 31
0.0
  0
ARC
  5
30DF
330
3473
100
AcDbEntity
  8
AM_0
100
AcDbCircle
 10
964.4076011792847
 20
229.1377359445703
 30
0.0
 40
12.82
100
AcDbArc
 50
235.0
 51
270.0
  0
LINE
  5
30E0
330
3473
100
AcDbEntity
  8
AM_0
100
AcDbLine
 10
957.0543911792848
 20
218.6361959445702
 30
0.0
 11
934.2795161792851
 21
234.5833209445704
 31
0.0
  0
ARC
  5
30E1
330
3473
100
AcDbEntity
  8
AM_0
100
AcDbCircle
 10
1059.254616179285
 20
318.8085459445705
 30
0.0
 40
102.8199949999999
100
AcDbArc
 50
305.0
 51
317.98482
  0
LINE
  5
30E2
330
3473
100
AcDbEntity
  8
AM_0
100
AcDbLine
 10
1095.454906179285
 20
218.6361809445704
 30
0.0
 11
1118.229776179284
 21
234.5833059445705
 31
0.0
  0
ARC
  5
30E3
330
3473
100
AcDbEntity
  8
AM_0
100
AcDbCircle
 10
1088.101631179285
 20
229.1377359445703
 30
0.0
 40
12.82
100
AcDbArc
 50
270.0
 51
305.0
  0
ARC
  5
30E4
330
3473
100
AcDbEntity
  8
AM_0
100
AcDbCircle
 10
1026.254646179284
 20
412.1377359445705
 30
0.0
 40
27.5000005
100
AcDbArc
 50
106.91239
 51
73.087597
  0
LINE
  5
30E5
330
3473
100
AcDbEntity
  8
ﾁｭｳｼﾝｾﾝ
100
AcDbLine
 10
951.2546461792847
 20
367.1377359445703
 30
0.0
 11
1101.254616179285
 21
367.1377359445703
 31
0.0
  0
ARC
  5
30E6
330
3473
100
AcDbEntity
  8
AM_0
100
AcDbCircle
 10
1026.254646179284
 20
412.1377359445705
 30
0.0
 40
75.0
100
AcDbArc
 50
142.90321
 51
180.00001
  0
LINE
  5
30E7
330
3473
100
AcDbEntity
  8
AM_0
100
AcDbLine
 10
951.2546461792847
 20
412.1377359445705
 30
0.0
 11
951.2546461792847
 21
402.1377359445704
 31
0.0
  0
ARC
  5
30E8
330
3473
100
AcDbEntity
  8
AM_0
100
AcDbCircle
 10
946.2546461792848
 20
402.1377359445704
 30
0.0
 40
5.0
100
AcDbArc
 50
270.0
 51
0.0
  0
CIRCLE
  5
30E9
330
3473
100
AcDbEntity
  8
AM_5
100
AcDbCircle
 10
1026.254646179284
 20
412.1377359445705
 30
0.0
 40
6.0
  0
CIRCLE
  5
30EA
330
3473
100
AcDbEntity
  8
AM_0
100
AcDbCircle
 10
1026.254646179284
 20
412.1377359445705
 30
0.0
 40
4.500000049999997
  0
LINE
  5
30EB
330
3473
100
AcDbEntity
  8
AM_0
100
AcDbLine
 10
1018.254616179284
 20
433.6377409445703
 30
0.0
 11
1034.254616179284
 21
433.6377409445703
 31
0.0
  0
LINE
  5
30EC
330
3473
100
AcDbEntity
  8
AM_0
100
AcDbLine
 10
1018.254616179284
 20
443.6377409445704
 30
0.0
 11
1034.254616179284
 21
443.6377409445704
 31
0.0
  0
LINE
  5
30ED
330
3473
100
AcDbEntity
  8
AM_0
100
AcDbLine
 10
1018.254616179284
 20
433.6377409445703
 30
0.0
 11
1018.254616179284
 21
443.6377409445704
 31
0.0
  0
LINE
  5
30EE
330
3473
100
AcDbEntity
  8
AM_0
100
AcDbLine
 10
1034.254616179284
 20
433.6377409445703
 30
0.0
 11
1034.254616179284
 21
443.6377409445704
 31
0.0
  0
ARC
  5
30EF
330
3473
100
AcDbEntity
  8
AM_0
100
AcDbCircle
 10
1106.254616179284
 20
402.1377359445704
 30
0.0
 40
5.0
100
AcDbArc
 50
179.9999899999999
 51
270.0
  0
ARC
  5
30F0
330
3473
100
AcDbEntity
  8
AM_0
100
AcDbCircle
 10
1026.254646179284
 20
412.1377359445705
 30
0.0
 40
75.0
100
AcDbArc
 50
0.0
 51
37.09679299999999
  0
LINE
  5
30F1
330
3473
100
AcDbEntity
  8
AM_0
100
AcDbLine
 10
1152.860316179285
 20
397.1377359445704
 30
0.0
 11
1106.254616179284
 21
397.1377359445704
 31
0.0
  0
LINE
  5
30F2
330
3473
100
AcDbEntity
  8
AM_0
100
AcDbLine
 10
1101.254616179285
 20
412.1377359445705
 30
0.0
 11
1101.254616179285
 21
402.1377359445704
 31
0.0
  0
LINE
  5
30F3
330
3473
100
AcDbEntity
  8
AM_0
100
AcDbLine
 10
1191.254636179283
 20
357.1377659445702
 30
0.0
 11
1186.719326179284
 21
270.5989159445703
 31
0.0
  0
ARC
  5
30F4
330
3473
100
AcDbEntity
  8
AM_0
100
AcDbCircle
 10
1166.746731179284
 20
271.6456109445703
 30
0.0
 40
20.0000005
100
AcDbArc
 50
273.0
 51
357.0
  0
CIRCLE
  5
30F5
330
3473
100
AcDbEntity
  8
AM_0
100
AcDbCircle
 10
1164.140451179285
 20
550.0235759445704
 30
0.0
 40
9.5
  0
ARC
  5
30F6
330
3473
100
AcDbEntity
  8
ﾁｭｳｼﾝｾﾝ1
100
AcDbCircle
 10
1026.254646179284
 20
412.1377359445705
 30
0.0
 40
195.0000049999999
100
AcDbArc
 50
39.367219
 51
50.89618900000001
  0
LINE
  5
30F7
330
3473
100
AcDbEntity
  8
ﾁｭｳｼﾝｾﾝ1
100
AcDbLine
 10
1148.833126179285
 20
534.7161759445704
 30
0.0
 11
1178.371151179285
 21
564.2542259445703
 31
0.0
  0
LINE
  5
30F8
330
3473
100
AcDbEntity
  8
AM_0
100
AcDbLine
 10
1081.254646179284
 20
577.1377759445704
 30
0.0
 11
1167.793451179285
 21
572.6024259445704
 31
0.0
  0
LINE
  5
30F9
330
3473
100
AcDbEntity
  8
AM_0
100
AcDbLine
 10
971.254616179285
 20
577.1377259445704
 30
0.0
 11
884.715796179285
 21
572.6024259445704
 31
0.0
  0
LINE
  5
30FA
330
3473
100
AcDbEntity
  8
AM_0
100
AcDbLine
 10
965.9807811792852
 20
463.9263109445703
 30
0.0
 11
932.5468811792852
 21
497.3602109445703
 31
0.0
  0
LINE
  5
30FB
330
3473
100
AcDbEntity
  8
AM_0
100
AcDbLine
 10
861.254626179285
 20
467.1377709445703
 30
0.0
 11
865.7899261792849
 21
553.6765759445703
 31
0.0
  0
ARC
  5
30FC
330
3473
100
AcDbEntity
  8
AM_0
100
AcDbCircle
 10
929.0113611792847
 20
493.8246609445704
 30
0.0
 40
5.0
100
AcDbArc
 50
45.00000099999999
 51
139.96885
  0
ARC
  5
30FD
330
3473
100
AcDbEntity
  8
AM_0
100
AcDbCircle
 10
885.7625511792848
 20
552.62982594457
 30
0.0
 40
20.0000005
100
AcDbArc
 50
92.99999900000001
 51
176.99999
  0
CIRCLE
  5
30FE
330
3473
100
AcDbEntity
  8
AM_0
100
AcDbCircle
 10
888.3688111792853
 20
550.0235759445704
 30
0.0
 40
9.5
  0
ARC
  5
30FF
330
3473
100
AcDbEntity
  8
AM_0
100
AcDbCircle
 10
1026.254646179284
 20
412.1377359445705
 30
0.0
 40
75.0
100
AcDbArc
 50
52.90320600000002
 51
127.0967899999999
  0
LINE
  5
3100
330
3473
100
AcDbEntity
  8
AM_0
100
AcDbLine
 10
971.2546461792848
 20
577.1377759445704
 30
0.0
 11
1081.254616179285
 21
577.1377759445704
 31
0.0
  0
LINE
  5
3101
330
3473
100
AcDbEntity
  8
AM_0
100
AcDbLine
 10
974.4660411792848
 20
472.4115759445703
 30
0.0
 11
941.0321411792848
 21
505.8454759445702
 31
0.0
  0
ARC
  5
3102
330
3473
100
AcDbEntity
  8
AM_0
100
AcDbCircle
 10
978.0015361792848
 20
475.9471559445706
 30
0.0
 40
5.0
100
AcDbArc
 50
225.0
 51
307.0967899999998
  0
ARC
  5
3103
330
3473
100
AcDbEntity
  8
AM_0
100
AcDbCircle
 10
944.5677261792852
 20
509.3809759445703
 30
0.0
 40
5.0
100
AcDbArc
 50
130.03115
 51
225.0
  0
ARC
  5
3104
330
3473
100
AcDbEntity
  8
AM_0
100
AcDbCircle
 10
1026.254646179284
 20
580.1377259445704
 30
0.0
 40
5.0
100
AcDbArc
 50
359.9999899999999
 51
179.9999899999999
  0
LINE
  5
3105
330
3473
100
AcDbEntity
  8
AM_0
100
AcDbLine
 10
1021.254646179283
 20
580.1377259445704
 30
0.0
 11
1021.254646179283
 21
577.1377759445704
 31
0.0
  0
LINE
  5
3106
330
3473
100
AcDbEntity
  8
AM_0
100
AcDbLine
 10
1031.254646179283
 20
580.1377259445704
 30
0.0
 11
1031.254646179283
 21
577.1377759445704
 31
0.0
  0
LINE
  5
3107
330
3473
100
AcDbEntity
  8
AM_0
100
AcDbLine
 10
1078.043251179285
 20
472.4116059445703
 30
0.0
 11
1111.477061179285
 21
505.8454259445705
 31
0.0
  0
LINE
  5
3108
330
3473
100
AcDbEntity
  8
AM_0
100
AcDbLine
 10
1086.528511179285
 20
463.9263459445705
 30
0.0
 11
1119.962321179285
 21
497.3601509445701
 31
0.0
  0
ARC
  5
3109
330
3473
100
AcDbEntity
  8
AM_0
100
AcDbCircle
 10
1074.507701179285
 20
475.9471559445706
 30
0.0
 40
5.0
100
AcDbArc
 50
232.9032099999997
 51
315.0
  0
ARC
  5
310A
330
3473
100
AcDbEntity
  8
AM_0
100
AcDbCircle
 10
1123.497876179282
 20
493.8246609445704
 30
0.0
 40
5.0
100
AcDbArc
 50
40.03114799999996
 51
135.0
  0
ARC
  5
310B
330
3473
100
AcDbEntity
  8
AM_0
100
AcDbCircle
 10
1107.941536179285
 20
509.3809759445703
 30
0.0
 40
5.0
100
AcDbArc
 50
315.0
 51
49.968851
  0
LINE
  5
310C
330
3473
100
AcDbEntity
  8
AM_0
100
AcDbLine
 10
1191.254621179285
 20
467.1377409445703
 30
0.0
 11
1186.719311179283
 21
553.6765759445703
 31
0.0
  0
ARC
  5
310D
330
3473
100
AcDbEntity
  8
AM_0
100
AcDbCircle
 10
1166.746731179284
 20
552.62982594457
 30
0.0
 40
20.0000005
100
AcDbArc
 50
3.000000099999998
 51
86.99999899999999
  0
LINE
  5
310E
330
3473
100
AcDbEntity
  8
AM_0
100
AcDbLine
 10
255.3096069027844
 20
873.6343273354815
 30
0.0
 11
252.3080069027844
 21
873.6343273354815
 31
0.0
  0
LINE
  5
310F
330
3473
100
AcDbEntity
  8
AM_0
100
AcDbLine
 10
255.3096069027844
 20
903.6343273354811
 30
0.0
 11
252.3080069027844
 21
903.6343273354811
 31
0.0
  0
LINE
  5
3110
330
3473
100
AcDbEntity
  8
AM_0
100
AcDbLine
 10
252.3080069027844
 20
902.6343273354811
 30
0.0
 11
210.3080069027844
 21
902.6343273354811
 31
0.0
  0
LINE
  5
3111
330
3473
100
AcDbEntity
  8
AM_0
100
AcDbLine
 10
210.3080069027844
 20
884.6343273354811
 30
0.0
 11
242.3080069027844
 21
884.6343273354811
 31
0.0
  0
LINE
  5
3112
330
3473
100
AcDbEntity
  8
AM_0
100
AcDbLine
 10
210.3080069027844
 20
892.6343273354811
 30
0.0
 11
242.3080069027844
 21
892.6343273354811
 31
0.0
  0
LINE
  5
3113
330
3473
100
AcDbEntity
  8
AM_0
100
AcDbLine
 10
252.3080069027844
 20
874.6343273354813
 30
0.0
 11
210.3080069027844
 21
874.6343273354813
 31
0.0
  0
LINE
  5
3114
330
3473
100
AcDbEntity
  8
AM_0
100
AcDbLine
 10
210.3080069027844
 20
902.6343273354811
 30
0.0
 11
210.3080069027844
 21
874.6343273354813
 31
0.0
  0
ARC
  5
3115
330
3473
100
AcDbEntity
  8
AM_0
100
AcDbCircle
 10
242.3080069027844
 20
888.6343273354812
 30
0.0
 40
3.999999999999884
100
AcDbArc
 50
270.0
 51
90.0
  0
LINE
  5
3116
330
3473
100
AcDbEntity
  8
AM_0
100
AcDbLine
 10
242.3080069027844
 20
892.6343273354811
 30
0.0
 11
242.3080069027844
 21
884.6343273354811
 31
0.0
  0
LINE
  5
3117
330
3473
100
AcDbEntity
  8
AM_0
100
AcDbLine
 10
252.3080069027844
 20
903.6343273354811
 30
0.0
 11
252.3080069027844
 21
888.6343273354812
 31
0.0
  0
LINE
  5
3118
330
3473
100
AcDbEntity
  8
AM_0
100
AcDbLine
 10
252.3080069027844
 20
873.6343273354815
 30
0.0
 11
252.3080069027844
 21
888.6343273354812
 31
0.0
  0
LINE
  5
3119
330
3473
100
AcDbEntity
  8
AM_0
100
AcDbLine
 10
368.3096069027844
 20
792.1343273354811
 30
0.0
 11
368.3096069027844
 21
985.1343273354812
 31
0.0
  0
LINE
  5
311A
330
3473
100
AcDbEntity
  8
AM_0
100
AcDbLine
 10
365.2864409027844
 20
798.3618503354811
 30
0.0
 11
293.1542029027842
 21
839.5802723354812
 31
0.0
  0
ARC
  5
311B
330
3473
100
AcDbEntity
  8
AM_0
100
AcDbCircle
 10
362.3096069027844
 20
793.1523913354809
 30
0.0
 40
6.0
100
AcDbArc
 50
0.0
 51
60.25511900000238
  0
LINE
  5
311C
330
3473
100
AcDbEntity
  8
AM_0
100
AcDbLine
 10
385.3096069027844
 20
791.1343273354813
 30
0.0
 11
369.3096069027844
 21
791.1343273354813
 31
0.0
  0
ARC
  5
311D
330
3473
100
AcDbEntity
  8
AM_0
100
AcDbCircle
 10
369.3096069027844
 20
792.1343273354811
 30
0.0
 40
1.0
100
AcDbArc
 50
180.0
 51
270.0
  0
LINE
  5
311E
330
3473
100
AcDbEntity
  8
AM_0
100
AcDbLine
 10
384.3096069027844
 20
805.021544335481
 30
0.0
 11
384.3096069027844
 21
831.8585393354808
 31
0.0
  0
LINE
  5
311F
330
3473
100
AcDbEntity
  8
AM_0
100
AcDbLine
 10
384.3096069027844
 20
815.6281463354812
 30
0.0
 11
370.3096069027844
 21
815.6281463354812
 31
0.0
  0
LINE
  5
3120
330
3473
100
AcDbEntity
  8
AM_0
100
AcDbLine
 10
384.3096069027844
 20
805.021544335481
 30
0.0
 11
370.3096069027844
 21
805.021544335481
 31
0.0
  0
ARC
  5
3121
330
3473
100
AcDbEntity
  8
AM_0
100
AcDbCircle
 10
370.3096069027844
 20
817.6281463354811
 30
0.0
 40
2.0
100
AcDbArc
 50
180.0
 51
270.0
  0
ARC
  5
3122
330
3473
100
AcDbEntity
  8
AM_0
100
AcDbCircle
 10
370.3096069027844
 20
807.0215443354813
 30
0.0
 40
2.0
100
AcDbArc
 50
180.0
 51
270.0
  0
LINE
  5
3123
330
3473
100
AcDbEntity
  8
AM_0
100
AcDbLine
 10
370.3096069027844
 20
831.8585393354808
 30
0.0
 11
384.3096069027844
 21
831.8585393354808
 31
0.0
  0
ARC
  5
3124
330
3473
100
AcDbEntity
  8
AM_0
100
AcDbCircle
 10
370.3096069027844
 20
829.8585393354809
 30
0.0
 40
2.0
100
AcDbArc
 50
90.0
 51
180.0
  0
ARC
  5
3125
330
3473
100
AcDbEntity
  8
AM_0
100
AcDbCircle
 10
362.3096069027844
 20
984.1162623354811
 30
0.0
 40
6.0
100
AcDbArc
 50
299.7448809999976
 51
0.0
  0
LINE
  5
3126
330
3473
100
AcDbEntity
  8
AM_0
100
AcDbLine
 10
255.3096069027844
 20
916.1343273354811
 30
0.0
 11
255.3096069027844
 21
888.6343273354812
 31
0.0
  0
LINE
  5
3127
330
3473
100
AcDbEntity
  8
AM_0
100
AcDbLine
 10
257.3096069027844
 20
928.5514233354811
 30
0.0
 11
257.3096069027844
 21
888.6343273354812
 31
0.0
  0
LINE
  5
3128
330
3473
100
AcDbEntity
  8
AM_0
100
AcDbLine
 10
291.3096069027843
 20
936.6343273354811
 30
0.0
 11
291.3096069027843
 21
888.6343273354812
 31
0.0
  0
LINE
  5
3129
330
3473
100
AcDbEntity
  8
AM_0
100
AcDbLine
 10
267.3096069027844
 20
933.5426613354812
 30
0.0
 11
267.3096069027844
 21
888.6343273354812
 31
0.0
  0
LINE
  5
312A
330
3473
100
AcDbEntity
  8
AM_0
100
AcDbLine
 10
291.3096069027843
 20
840.6343273354815
 30
0.0
 11
291.3096069027843
 21
888.6343273354812
 31
0.0
  0
LINE
  5
312B
330
3473
100
AcDbEntity
  8
AM_0
100
AcDbLine
 10
267.3096069027844
 20
843.7259933354811
 30
0.0
 11
267.3096069027844
 21
888.6343273354812
 31
0.0
  0
LINE
  5
312C
330
3473
100
AcDbEntity
  8
AM_0
100
AcDbLine
 10
257.3096069027844
 20
848.7172303354812
 30
0.0
 11
257.3096069027844
 21
888.6343273354812
 31
0.0
  0
LINE
  5
312D
330
3473
100
AcDbEntity
  8
AM_0
100
AcDbLine
 10
255.3096069027844
 20
861.1343273354815
 30
0.0
 11
255.3096069027844
 21
888.6343273354812
 31
0.0
  0
LINE
  5
312E
330
3473
100
AcDbEntity
  8
AM_0
100
AcDbLine
 10
289.1850919027842
 20
840.6343273354815
 30
0.0
 11
269.4532009027843
 21
840.6343273354815
 31
0.0
  0
ARC
  5
312F
330
3473
100
AcDbEntity
  8
AM_0
100
AcDbCircle
 10
269.4532009027843
 20
848.6343273354815
 30
0.0
 40
8.0
100
AcDbArc
 50
239.9999999999995
 51
270.0
  0
LINE
  5
3130
330
3473
100
AcDbEntity
  8
AM_0
100
AcDbLine
 10
265.4532009027843
 20
841.7061233354811
 30
0.0
 11
259.3096069027844
 21
845.2531293354809
 31
0.0
  0
ARC
  5
3131
330
3473
100
AcDbEntity
  8
AM_0
100
AcDbCircle
 10
261.3096069027844
 20
848.7172303354812
 30
0.0
 40
4.0
100
AcDbArc
 50
180.0
 51
239.9999999999995
  0
LINE
  5
3132
330
3473
100
AcDbEntity
  8
AM_0
100
AcDbLine
 10
255.3096069027844
 20
861.1343273354815
 30
0.0
 11
257.3096069027844
 21
859.1343273354812
 31
0.0
  0
ARC
  5
3133
330
3473
100
AcDbEntity
  8
AM_0
100
AcDbCircle
 10
289.1850919027842
 20
832.6343273354813
 30
0.0
 40
8.0
100
AcDbArc
 50
60.25511900000238
 51
90.0
  0
LINE
  5
3134
330
3473
100
AcDbEntity
  8
AM_0
100
AcDbLine
 10
365.2864409027844
 20
978.9068033354816
 30
0.0
 11
293.1542029027842
 21
937.6883813354812
 31
0.0
  0
LINE
  5
3135
330
3473
100
AcDbEntity
  8
AM_0
100
AcDbLine
 10
289.1850919027842
 20
936.6343273354811
 30
0.0
 11
269.4532009027843
 21
936.6343273354811
 31
0.0
  0
LINE
  5
3136
330
3473
100
AcDbEntity
  8
AM_0
100
AcDbLine
 10
255.3096069027844
 20
916.1343273354811
 30
0.0
 11
257.3096069027844
 21
918.134327335481
 31
0.0
  0
ARC
  5
3137
330
3473
100
AcDbEntity
  8
AM_0
100
AcDbCircle
 10
269.4532009027843
 20
928.6343273354811
 30
0.0
 40
8.0
100
AcDbArc
 50
90.0
 51
120.0000000000005
  0
ARC
  5
3138
330
3473
100
AcDbEntity
  8
AM_0
100
AcDbCircle
 10
261.3096069027844
 20
928.5514233354811
 30
0.0
 40
4.0
100
AcDbArc
 50
120.0000000000005
 51
180.0
  0
LINE
  5
3139
330
3473
100
AcDbEntity
  8
AM_0
100
AcDbLine
 10
265.4532009027843
 20
935.5625303354813
 30
0.0
 11
259.3096069027844
 21
932.0155243354813
 31
0.0
  0
ARC
  5
313A
330
3473
100
AcDbEntity
  8
AM_0
100
AcDbCircle
 10
289.1850919027842
 20
944.6343273354811
 30
0.0
 40
8.0
100
AcDbArc
 50
270.0
 51
299.7448809999976
  0
LINE
  5
313B
330
3473
100
AcDbEntity
  8
AM_0
100
AcDbLine
 10
384.3096069027844
 20
912.5621992308012
 30
0.0
 11
384.3096069027844
 21
864.7064554401611
 31
0.0
  0
LINE
  5
313C
330
3473
100
AcDbEntity
  8
AM_0
100
AcDbLine
 10
384.3096069027844
 20
864.7064554401611
 30
0.0
 11
368.3096069027844
 21
864.7064554401612
 31
0.0
  0
LINE
  5
313D
330
3473
100
AcDbEntity
  8
AM_0
100
AcDbLine
 10
368.3096069027844
 20
873.6343273354815
 30
0.0
 11
384.3096069027844
 21
873.6343273354815
 31
0.0
  0
LINE
  5
313E
330
3473
100
AcDbEntity
  8
AM_0
100
AcDbLine
 10
368.3096069027844
 20
903.6343273354813
 30
0.0
 11
384.3096069027844
 21
903.6343273354813
 31
0.0
  0
LINE
  5
313F
330
3473
100
AcDbEntity
  8
AM_0
100
AcDbLine
 10
384.3096069027844
 20
912.5621992308012
 30
0.0
 11
368.3096069027844
 21
912.5621992308012
 31
0.0
  0
LINE
  5
3140
330
3473
100
AcDbEntity
  8
AM_0
100
AcDbLine
 10
384.3096069027844
 20
972.2471103354813
 30
0.0
 11
384.3096069027844
 21
945.4101153354812
 31
0.0
  0
LINE
  5
3141
330
3473
100
AcDbEntity
  8
AM_0
100
AcDbLine
 10
384.3096069027844
 20
961.6405083354814
 30
0.0
 11
370.3096069027844
 21
961.6405083354814
 31
0.0
  0
LINE
  5
3142
330
3473
100
AcDbEntity
  8
AM_0
100
AcDbLine
 10
370.3096069027844
 20
945.4101153354812
 30
0.0
 11
384.3096069027844
 21
945.4101153354812
 31
0.0
  0
ARC
  5
3143
330
3473
100
AcDbEntity
  8
AM_0
100
AcDbCircle
 10
370.3096069027844
 20
959.6405083354815
 30
0.0
 40
2.0
100
AcDbArc
 50
90.0
 51
180.0
  0
ARC
  5
3144
330
3473
100
AcDbEntity
  8
AM_0
100
AcDbCircle
 10
370.3096069027844
 20
947.4101153354812
 30
0.0
 40
2.0
100
AcDbArc
 50
180.0
 51
270.0
  0
LINE
  5
3145
330
3473
100
AcDbEntity
  8
AM_0
100
AcDbLine
 10
384.3096069027844
 20
972.2471103354813
 30
0.0
 11
370.3096069027844
 21
972.2471103354813
 31
0.0
  0
ARC
  5
3146
330
3473
100
AcDbEntity
  8
AM_0
100
AcDbCircle
 10
370.3096069027844
 20
970.2471103354811
 30
0.0
 40
2.0
100
AcDbArc
 50
90.0
 51
180.0
  0
LINE
  5
3147
330
3473
100
AcDbEntity
  8
AM_0
100
AcDbLine
 10
385.3096069027844
 20
986.1343273354815
 30
0.0
 11
369.3096069027844
 21
986.1343273354815
 31
0.0
  0
ARC
  5
3148
330
3473
100
AcDbEntity
  8
AM_0
100
AcDbCircle
 10
369.3096069027844
 20
985.1343273354812
 30
0.0
 40
1.0
100
AcDbArc
 50
90.0
 51
180.0
  0
ARC
  5
314A
330
3473
100
AcDbEntity
  8
ﾁｭｳｼﾝｾﾝ1
100
AcDbCircle
 10
1026.254646179284
 20
412.1377359445705
 30
0.0
 40
195.0000049999999
100
AcDbArc
 50
129.1038109999997
 51
140.632781
  0
LINE
  5
314B
330
3473
100
AcDbEntity
  8
ﾁｭｳｼﾝｾﾝ1
100
AcDbLine
 10
903.676166179285
 20
534.7161759445704
 30
0.0
 11
874.1381411792845
 21
564.2542259445703
 31
0.0
  0
ARC
  5
314C
330
3473
100
AcDbEntity
  8
ﾁｭｳｼﾝｾﾝ1
100
AcDbCircle
 10
1026.254646179284
 20
412.1377359445705
 30
0.0
 40
195.0000049999999
100
AcDbArc
 50
307.8711400000001
 51
321.8346799999999
  0
LINE
  5
314D
330
3473
100
AcDbEntity
  8
ﾁｭｳｼﾝｾﾝ1
100
AcDbLine
 10
1147.931131179283
 20
290.4612509445702
 30
0.0
 11
1178.371216179284
 21
260.0211909445703
 31
0.0
  0
LINE
  5
314E
330
3473
100
AcDbEntity
  8
AM_0
100
AcDbLine
 10
617.3094869027845
 20
916.1343273354813
 30
0.0
 11
699.3094869027844
 21
916.1343273354813
 31
0.0
  0
LINE
  5
314F
330
3473
100
AcDbEntity
  8
AM_0
100
AcDbLine
 10
617.3094869027845
 20
861.1343273354815
 30
0.0
 11
699.3094869027844
 21
861.1343273354815
 31
0.0
  0
LINE
  5
3150
330
3473
100
AcDbEntity
  8
ﾁｭｳｼﾝｾﾝ
100
AcDbLine
 10
195.5644863631651
 20
888.6343273354812
 30
0.0
 11
709.9267369027844
 21
888.6343273354812
 31
0.0
  0
POLYLINE
  5
3151
330
3473
100
AcDbEntity
  8
AM_0
100
AcDb2dPolyline
 66
     1
 10
0.0
 20
0.0
 30
0.0
  0
VERTEX
  5
3152
330
3151
100
AcDbEntity
  8
AM_0
100
AcDbVertex
100
AcDb2dVertex
 10
575.2123769027845
 20
975.0225773354815
 30
0.0
  0
VERTEX
  5
3153
330
3151
100
AcDbEntity
  8
AM_0
100
AcDbVertex
100
AcDb2dVertex
 10
573.3016129027845
 20
955.9329673354815
 30
0.0
  0
VERTEX
  5
3154
330
3151
100
AcDbEntity
  8
AM_0
100
AcDbVertex
100
AcDb2dVertex
 10
571.8292649027845
 20
936.8045483354812
 30
0.0
  0
VERTEX
  5
3155
330
3151
100
AcDbEntity
  8
AM_0
100
AcDbVertex
100
AcDb2dVertex
 10
570.7961069027843
 20
917.6473873354813
 30
0.0
  0
VERTEX
  5
3156
330
3151
100
AcDbEntity
  8
AM_0
100
AcDbVertex
100
AcDb2dVertex
 10
570.3095729027844
 20
903.1440223354813
 30
0.0
  0
VERTEX
  5
3157
330
3151
100
AcDbEntity
  8
AM_0
100
AcDbVertex
100
AcDb2dVertex
 10
570.0792569027846
 20
888.6343273354812
 30
0.0
  0
VERTEX
  5
3158
330
3151
100
AcDbEntity
  8
AM_0
100
AcDbVertex
100
AcDb2dVertex
 10
570.2106269027845
 20
867.1130203354811
 30
0.0
  0
VERTEX
  5
3159
330
3151
100
AcDbEntity
  8
AM_0
100
AcDbVertex
100
AcDb2dVertex
 10
570.8995929027845
 20
845.6023423354812
 30
0.0
  0
VERTEX
  5
315A
330
3151
100
AcDbEntity
  8
AM_0
100
AcDbVertex
100
AcDb2dVertex
 10
572.1456919027843
 20
824.1167393354809
 30
0.0
  0
VERTEX
  5
315B
330
3151
100
AcDbEntity
  8
AM_0
100
AcDbVertex
100
AcDb2dVertex
 10
573.9480869027845
 20
802.6706373354809
 30
0.0
  0
SEQEND
  5
315C
330
3151
100
AcDbEntity
  8
AM_0
  0
ARC
  5
315D
330
3473
100
AcDbEntity
  8
AM_0
100
AcDbCircle
 10
429.3094869027846
 20
878.0987373354813
 30
0.0
 40
5.0
100
AcDbArc
 50
0.0
 51
31.78801800000311
  0
ARC
  5
315E
330
3473
100
AcDbEntity
  8
AM_0
100
AcDbCircle
 10
446.3095469027845
 20
888.6343273354812
 30
0.0
 40
12.5
100
AcDbArc
 50
203.5781799999973
 51
336.4218300000007
  0
LINE
  5
315F
330
3473
100
AcDbEntity
  8
AM_0
100
AcDbLine
 10
596.3096069027844
 20
1012.98344733548
 30
0.0
 11
596.3096069027844
 21
764.2852073354812
 31
0.0
  0
LINE
  5
3160
330
3473
100
AcDbEntity
  8
AM_0
100
AcDbLine
 10
614.3095469027845
 20
1028.63432733548
 30
0.0
 11
614.3095469027845
 21
748.6343273354813
 31
0.0
  0
LINE
  5
3161
330
3473
100
AcDbEntity
  8
AM_0
100
AcDbLine
 10
609.3095469027843
 20
1053.63432733548
 30
0.0
 11
609.3095469027843
 21
723.6342673354812
 31
0.0
  0
LINE
  5
3162
330
3473
100
AcDbEntity
  8
AM_0
100
AcDbLine
 10
587.3095469027845
 20
1048.037587335481
 30
0.0
 11
587.3095469027845
 21
729.2310673354809
 31
0.0
  0
LINE
  5
3163
330
3473
100
AcDbEntity
  8
AM_0
100
AcDbLine
 10
617.3094869027845
 20
918.6343273354811
 30
0.0
 11
617.3094869027845
 21
858.6343273354811
 31
0.0
  0
LINE
  5
3164
330
3473
100
AcDbEntity
  8
AM_0
100
AcDbLine
 10
385.3096069027845
 20
986.1343273354815
 30
0.0
 11
385.3096069027845
 21
791.1343273354813
 31
0.0
  0
LINE
  5
3165
330
3473
100
AcDbEntity
  8
AM_0
100
AcDbLine
 10
464.3095469027845
 20
883.6343273354811
 30
0.0
 11
464.3095469027845
 21
755.6343273354813
 31
0.0
  0
LINE
  5
3166
330
3473
100
AcDbEntity
  8
AM_0
100
AcDbLine
 10
408.3094869027845
 20
782.1786373354813
 30
0.0
 11
408.3094869027845
 21
995.0900173354812
 31
0.0
  0
LINE
  5
3167
330
3473
100
AcDbEntity
  8
AM_0
100
AcDbLine
 10
464.3095469027845
 20
755.6343273354813
 30
0.0
 11
439.1350469027845
 21
756.5134173354812
 31
0.0
  0
LINE
  5
3168
330
3473
100
AcDbEntity
  8
AM_0
100
AcDbLine
 10
387.3094869027845
 20
831.8585073354812
 30
0.0
 11
387.3094869027845
 21
805.4391373354812
 31
0.0
  0
LINE
  5
3169
330
3473
100
AcDbEntity
  8
AM_0
100
AcDbLine
 10
434.3094869027845
 20
761.5104273354813
 30
0.0
 11
434.3094869027845
 21
878.0987373354813
 31
0.0
  0
LINE
  5
316A
330
3473
100
AcDbEntity
  8
AM_0
100
AcDbLine
 10
429.4839869027845
 20
776.6107073354811
 30
0.0
 11
413.1349869027843
 21
777.1816273354811
 31
0.0
  0
LINE
  5
316B
330
3473
100
AcDbEntity
  8
AM_0
100
AcDbLine
 10
385.3094869027845
 20
791.1342673354812
 30
0.0
 11
403.4840469027844
 21
790.4996173354809
 31
0.0
  0
LINE
  5
316C
330
3473
100
AcDbEntity
  8
AM_0
100
AcDbLine
 10
387.3094869027845
 20
805.4391373354812
 30
0.0
 11
408.3094869027845
 21
805.4391373354812
 31
0.0
  0
ARC
  5
316D
330
3473
100
AcDbEntity
  8
AM_0
100
AcDbCircle
 10
403.3095469027845
 20
785.5026673354813
 30
0.0
 40
5.0
100
AcDbArc
 50
0.0
 51
88.00000000000279
  0
ARC
  5
316E
330
3473
100
AcDbEntity
  8
AM_0
100
AcDbCircle
 10
413.3094869027845
 20
782.1786373354813
 30
0.0
 40
5.0
100
AcDbArc
 50
180.0000100000009
 51
268.0000000000026
  0
ARC
  5
316F
330
3473
100
AcDbEntity
  8
AM_0
100
AcDbCircle
 10
439.3094869027843
 20
761.5104273354813
 30
0.0
 40
5.0
100
AcDbArc
 50
180.0000100000009
 51
268.0000000000026
  0
ARC
  5
3170
330
3473
100
AcDbEntity
  8
AM_0
100
AcDbCircle
 10
429.3094869027846
 20
771.6138173354813
 30
0.0
 40
5.0
100
AcDbArc
 50
0.0
 51
88.00000000000279
  0
LINE
  5
3171
330
3473
100
AcDbEntity
  8
AM_0
100
AcDbLine
 10
387.3094869027845
 20
831.8585073354812
 30
0.0
 11
408.3094869027845
 21
831.8585073354812
 31
0.0
  0
LINE
  5
3172
330
3473
100
AcDbEntity
  8
AM_0
100
AcDbLine
 10
387.3094869027845
 20
815.6280973354812
 30
0.0
 11
408.3094869027845
 21
815.6280973354812
 31
0.0
  0
LINE
  5
3173
330
3473
100
AcDbEntity
  8
AM_0
100
AcDbLine
 10
592.1351069027845
 20
724.2340573354812
 30
0.0
 11
609.3096069027843
 21
723.6343273354813
 31
0.0
  0
ARC
  5
3174
330
3473
100
AcDbEntity
  8
AM_0
100
AcDbCircle
 10
592.3095469027845
 20
729.2310673354809
 30
0.0
 40
5.0
100
AcDbArc
 50
179.9999899999988
 51
268.0000099999986
  0
LINE
  5
3175
330
3473
100
AcDbEntity
  8
AM_0
100
AcDbLine
 10
464.3095469027845
 20
755.6342673354812
 30
0.0
 11
580.4662869027845
 21
751.5779873354812
 31
0.0
  0
ARC
  5
3176
330
3473
100
AcDbEntity
  8
AM_0
100
AcDbCircle
 10
580.2917869027844
 20
746.5810973354812
 30
0.0
 40
5.0
100
AcDbArc
 50
45.0000010000038
 51
88.00000000000279
  0
LINE
  5
3177
330
3473
100
AcDbEntity
  8
AM_0
100
AcDbLine
 10
549.2387469027845
 20
800.983807335481
 30
0.0
 11
584.8077769027845
 21
779.4573873354813
 31
0.0
  0
LINE
  5
3178
330
3473
100
AcDbEntity
  8
AM_0
100
AcDbLine
 10
546.6591569027845
 20
791.2702473354811
 30
0.0
 11
584.8984069027842
 21
768.1277973354813
 31
0.0
  0
LINE
  5
3179
330
3473
100
AcDbEntity
  8
AM_0
100
AcDbLine
 10
575.9596869027842
 20
801.7926473354812
 30
0.0
 11
587.3096069027845
 21
793.4688573354812
 31
0.0
  0
POLYLINE
  5
317A
330
3473
100
AcDbEntity
  8
AM_0
100
AcDb2dPolyline
 66
     1
 10
0.0
 20
0.0
 30
0.0
  0
VERTEX
  5
317B
330
317A
100
AcDbEntity
  8
AM_0
100
AcDbVertex
100
AcDb2dVertex
 10
577.3930869027845
 20
772.6700273354812
 30
0.0
  0
VERTEX
  5
317C
330
317A
100
AcDbEntity
  8
AM_0
100
AcDbVertex
100
AcDb2dVertex
 10
577.8686509027844
 20
769.1487623354812
 30
0.0
  0
VERTEX
  5
317D
330
317A
100
AcDbEntity
  8
AM_0
100
AcDbVertex
100
AcDb2dVertex
 10
578.3589369027845
 20
765.6295173354813
 30
0.0
  0
VERTEX
  5
317E
330
317A
100
AcDbEntity
  8
AM_0
100
AcDbVertex
100
AcDb2dVertex
 10
578.8638849027845
 20
762.1126373354813
 30
0.0
  0
VERTEX
  5
317F
330
317A
100
AcDbEntity
  8
AM_0
100
AcDbVertex
100
AcDb2dVertex
 10
579.3835169027845
 20
758.5978973354812
 30
0.0
  0
VERTEX
  5
3180
330
317A
100
AcDbEntity
  8
AM_0
100
AcDbVertex
100
AcDb2dVertex
 10
579.9175839027845
 20
755.0868433354811
 30
0.0
  0
VERTEX
  5
3181
330
317A
100
AcDbEntity
  8
AM_0
100
AcDbVertex
100
AcDb2dVertex
 10
580.4662869027845
 20
751.5780473354809
 30
0.0
  0
SEQEND
  5
3182
330
317A
100
AcDbEntity
  8
AM_0
  0
LINE
  5
3183
330
3473
100
AcDbEntity
  8
AM_0
100
AcDbLine
 10
549.2479569027842
 20
802.7607873354812
 30
0.0
 11
573.0027769027841
 21
802.7607873354812
 31
0.0
  0
ARC
  5
3184
330
3473
100
AcDbEntity
  8
AM_0
100
AcDbCircle
 10
549.2479569027842
 20
795.5478973354813
 30
0.0
 40
5.0
100
AcDbArc
 50
179.9999899999988
 51
238.8176499999968
  0
ARC
  5
3185
330
3473
100
AcDbEntity
  8
AM_0
100
AcDbCircle
 10
549.2479569027842
 20
797.7607873354813
 30
0.0
 40
5.0
100
AcDbArc
 50
90.00000299999769
 51
180.0000100000009
  0
LINE
  5
3186
330
3473
100
AcDbEntity
  8
AM_0
100
AcDbLine
 10
544.2479569027844
 20
795.5478973354813
 30
0.0
 11
544.2479569027844
 21
797.7607873354813
 31
0.0
  0
ARC
  5
3187
330
3473
100
AcDbEntity
  8
AM_0
100
AcDbCircle
 10
573.0027769027841
 20
797.7607873354813
 30
0.0
 40
5.0
100
AcDbArc
 50
53.74445300000321
 51
90.00000299999769
  0
LINE
  5
3188
330
3473
100
AcDbEntity
  8
AM_0
100
AcDbLine
 10
583.8273669027845
 20
750.1165673354812
 30
0.0
 11
587.3096069027845
 21
746.634327335481
 31
0.0
  0
ARC
  5
3189
330
3473
100
AcDbEntity
  8
AM_0
100
AcDbCircle
 10
588.3095469027843
 20
764.2852073354812
 30
0.0
 40
8.0
100
AcDbArc
 50
270.0
 51
0.0
  0
ARC
  5
318A
330
3473
100
AcDbEntity
  8
AM_0
100
AcDbCircle
 10
582.3095469027845
 20
763.8502073354809
 30
0.0
 40
5.0
100
AcDbArc
 50
0.0
 51
58.81764099999834
  0
LINE
  5
318B
330
3473
100
AcDbEntity
  8
AM_0
100
AcDbLine
 10
609.3095469027843
 20
748.6343273354813
 30
0.0
 11
614.3095469027845
 21
748.6343273354813
 31
0.0
  0
ARC
  5
318C
330
3473
100
AcDbEntity
  8
AM_0
100
AcDbCircle
 10
588.3095469027843
 20
822.2976573354815
 30
0.0
 40
8.0
100
AcDbArc
 50
270.0
 51
0.0
  0
LINE
  5
318D
330
3473
100
AcDbEntity
  8
AM_0
100
AcDbLine
 10
614.3095469027845
 20
858.6343273354811
 30
0.0
 11
617.3094869027845
 21
858.6343273354811
 31
0.0
  0
ARC
  5
318E
330
3473
100
AcDbEntity
  8
AM_0
100
AcDbCircle
 10
446.3095469027845
 20
888.6343273354812
 30
0.0
 40
12.5
100
AcDbArc
 50
23.57817999999753
 51
156.4218200000024
  0
LINE
  5
318F
330
3473
100
AcDbEntity
  8
AM_0
100
AcDbLine
 10
426.3095469027843
 20
893.6343273354811
 30
0.0
 11
466.3095469027845
 21
893.6343273354811
 31
0.0
  0
LINE
  5
3190
330
3473
100
AcDbEntity
  8
AM_0
100
AcDbLine
 10
426.3095469027843
 20
883.6343273354811
 30
0.0
 11
466.3095469027845
 21
883.6343273354811
 31
0.0
  0
LINE
  5
3191
330
3473
100
AcDbEntity
  8
AM_0
100
AcDbLine
 10
464.3094869027843
 20
1021.634327335479
 30
0.0
 11
439.1349869027845
 21
1020.755237335481
 31
0.0
  0
LINE
  5
3192
330
3473
100
AcDbEntity
  8
AM_0
100
AcDbLine
 10
387.3094869027845
 20
971.8294573354812
 30
0.0
 11
387.3094869027845
 21
945.4100773354811
 31
0.0
  0
LINE
  5
3193
330
3473
100
AcDbEntity
  8
AM_0
100
AcDbLine
 10
434.3094869027845
 20
899.1698473354812
 30
0.0
 11
434.3094869027845
 21
1015.758227335479
 31
0.0
  0
LINE
  5
3194
330
3473
100
AcDbEntity
  8
AM_0
100
AcDbLine
 10
387.3094869027845
 20
945.4100773354811
 30
0.0
 11
408.3094869027845
 21
945.4100773354811
 31
0.0
  0
ARC
  5
3195
330
3473
100
AcDbEntity
  8
AM_0
100
AcDbCircle
 10
429.3094869027846
 20
899.1698473354812
 30
0.0
 40
5.0
100
AcDbArc
 50
328.2119800000008
 51
0.0
  0
ARC
  5
3196
330
3473
100
AcDbEntity
  8
AM_0
100
AcDbCircle
 10
426.3095469027843
 20
888.6343273354812
 30
0.0
 40
5.0
100
AcDbArc
 50
90.00000299999769
 51
270.0
  0
ARC
  5
3197
330
3473
100
AcDbEntity
  8
AM_0
100
AcDbCircle
 10
446.3095469027845
 20
888.6343273354812
 30
0.0
 40
15.0
100
AcDbArc
 50
199.4712300000005
 51
211.7880199999992
  0
ARC
  5
3198
330
3473
100
AcDbEntity
  8
AM_0
100
AcDbCircle
 10
446.3095469027845
 20
888.6343273354812
 30
0.0
 40
15.0
100
AcDbArc
 50
148.2119800000004
 51
160.528769999999
  0
LINE
  5
3199
330
3473
100
AcDbEntity
  8
AM_0
100
AcDbLine
 10
429.4839869027845
 20
1000.65788733548
 30
0.0
 11
413.1349869027843
 21
1000.086957335481
 31
0.0
  0
ARC
  5
319A
330
3473
100
AcDbEntity
  8
AM_0
100
AcDbCircle
 10
403.3095469027845
 20
991.7659173354813
 30
0.0
 40
5.0
100
AcDbArc
 50
271.999999999997
 51
0.0
  0
LINE
  5
319B
330
3473
100
AcDbEntity
  8
AM_0
100
AcDbLine
 10
385.3096069027845
 20
986.1342673354812
 30
0.0
 11
403.4841069027843
 21
986.7689673354815
 31
0.0
  0
LINE
  5
319C
330
3473
100
AcDbEntity
  8
AM_0
100
AcDbLine
 10
387.3094869027845
 20
961.6404873354811
 30
0.0
 11
408.3094869027845
 21
961.6404873354811
 31
0.0
  0
LINE
  5
319D
330
3473
100
AcDbEntity
  8
AM_0
100
AcDbLine
 10
387.3094869027845
 20
971.8294573354812
 30
0.0
 11
408.3094869027845
 21
971.8294573354812
 31
0.0
  0
ARC
  5
319E
330
3473
100
AcDbEntity
  8
AM_0
100
AcDbCircle
 10
413.3094869027845
 20
995.0900173354812
 30
0.0
 40
5.0
100
AcDbArc
 50
91.99999800000055
 51
180.0000100000009
  0
ARC
  5
319F
330
3473
100
AcDbEntity
  8
AM_0
100
AcDbCircle
 10
439.3094869027843
 20
1015.758227335479
 30
0.0
 40
5.0
100
AcDbArc
 50
91.99999800000055
 51
180.0000100000009
  0
ARC
  5
31A0
330
3473
100
AcDbEntity
  8
AM_0
100
AcDbCircle
 10
429.3094869027846
 20
1005.65482733548
 30
0.0
 40
5.0
100
AcDbArc
 50
271.999999999997
 51
0.0
  0
LINE
  5
31A1
330
3473
100
AcDbEntity
  8
AM_0
100
AcDbLine
 10
582.4346669027845
 20
1025.759327335481
 30
0.0
 11
579.2044069027845
 21
1005.69481733548
 31
0.0
  0
LINE
  5
31A2
330
3473
100
AcDbEntity
  8
AM_0
100
AcDbLine
 10
464.3095469027845
 20
1021.634267335481
 30
0.0
 11
580.4662869027845
 21
1025.69053733548
 31
0.0
  0
LINE
  5
31A3
330
3473
100
AcDbEntity
  8
AM_0
100
AcDbLine
 10
464.3095469027845
 20
1021.634327335479
 30
0.0
 11
464.3095469027845
 21
893.6343273354811
 31
0.0
  0
ARC
  5
31A4
330
3473
100
AcDbEntity
  8
AM_0
100
AcDbCircle
 10
466.3095469027845
 20
888.6343273354812
 30
0.0
 40
5.0
100
AcDbArc
 50
270.0
 51
90.00000299999769
  0
LINE
  5
31A5
330
3473
100
AcDbEntity
  8
AM_0
100
AcDbLine
 10
614.3095469027845
 20
918.6343273354811
 30
0.0
 11
617.3094869027845
 21
918.6343273354811
 31
0.0
  0
LINE
  5
31A6
330
3473
100
AcDbEntity
  8
AM_0
100
AcDbLine
 10
546.6590969027845
 20
985.9983373354811
 30
0.0
 11
584.8983469027845
 21
1009.140797335481
 31
0.0
  0
LINE
  5
31A7
330
3473
100
AcDbEntity
  8
AM_0
100
AcDbLine
 10
549.2386869027845
 20
976.2847173354812
 30
0.0
 11
584.8077769027845
 21
997.8111473354813
 31
0.0
  0
LINE
  5
31A8
330
3473
100
AcDbEntity
  8
AM_0
100
AcDbLine
 10
575.9597569027845
 20
975.4758773354815
 30
0.0
 11
587.3096069027845
 21
983.7996073354812
 31
0.0
  0
LINE
  5
31A9
330
3473
100
AcDbEntity
  8
AM_0
100
AcDbLine
 10
549.2479569027842
 20
974.5078573354813
 30
0.0
 11
573.0027769027841
 21
974.5078573354813
 31
0.0
  0
ARC
  5
31AA
330
3473
100
AcDbEntity
  8
AM_0
100
AcDbCircle
 10
549.2479569027842
 20
979.5078573354812
 30
0.0
 40
5.0
100
AcDbArc
 50
179.9999899999988
 51
270.0
  0
ARC
  5
31AB
330
3473
100
AcDbEntity
  8
AM_0
100
AcDbCircle
 10
549.2479569027842
 20
981.7206873354813
 30
0.0
 40
5.0
100
AcDbArc
 50
121.1823599999962
 51
180.0000100000009
  0
LINE
  5
31AC
330
3473
100
AcDbEntity
  8
AM_0
100
AcDbLine
 10
544.2479569027844
 20
981.7206873354813
 30
0.0
 11
544.2479569027844
 21
979.5078573354812
 31
0.0
  0
ARC
  5
31AD
330
3473
100
AcDbEntity
  8
AM_0
100
AcDbCircle
 10
573.0027769027841
 20
979.5078573354812
 30
0.0
 40
5.0
100
AcDbArc
 50
270.0
 51
306.2555499999989
  0
ARC
  5
31AE
330
3473
100
AcDbEntity
  8
AM_0
100
AcDbCircle
 10
588.3095469027843
 20
954.9709373354813
 30
0.0
 40
8.0
100
AcDbArc
 50
0.0
 51
90.00000299999769
  0
ARC
  5
31AF
330
3473
100
AcDbEntity
  8
AM_0
100
AcDbCircle
 10
588.3095469027843
 20
1012.98344733548
 30
0.0
 40
8.0
100
AcDbArc
 50
0.0
 51
90.00000299999769
  0
ARC
  5
31B0
330
3473
100
AcDbEntity
  8
AM_0
100
AcDbCircle
 10
582.3095469027845
 20
1013.418377335481
 30
0.0
 40
5.0
100
AcDbArc
 50
301.1823599999963
 51
0.0
  0
ARC
  5
31B1
330
3473
100
AcDbEntity
  8
AM_0
100
AcDbCircle
 10
580.2917869027844
 20
1030.687547335481
 30
0.0
 40
5.0
100
AcDbArc
 50
271.999999999997
 51
315.0
  0
LINE
  5
31B2
330
3473
100
AcDbEntity
  8
AM_0
100
AcDbLine
 10
592.1351669027845
 20
1053.034527335481
 30
0.0
 11
609.3096069027843
 21
1053.63432733548
 31
0.0
  0
LINE
  5
31B3
330
3473
100
AcDbEntity
  8
AM_0
100
AcDbLine
 10
583.8273669027845
 20
1027.15196733548
 30
0.0
 11
587.3096669027845
 21
1030.634197335481
 31
0.0
  0
ARC
  5
31B4
330
3473
100
AcDbEntity
  8
AM_0
100
AcDbCircle
 10
592.3095469027845
 20
1048.037587335481
 30
0.0
 40
5.0
100
AcDbArc
 50
91.99999800000055
 51
180.0000100000009
  0
LINE
  5
31B5
330
3473
100
AcDbEntity
  8
AM_0
100
AcDbLine
 10
609.3095469027843
 20
1028.63432733548
 30
0.0
 11
614.3095469027845
 21
1028.63432733548
 31
0.0
  0
LINE
  5
31B6
330
3473
100
AcDbEntity
  8
AM_0
100
AcDbLine
 10
699.3094869027844
 20
916.1343273354813
 30
0.0
 11
699.3094869027844
 21
861.1343273354815
 31
0.0
  0
LINE
  5
31B7
330
3473
100
AcDbEntity
  8
AM_0
100
AcDbLine
 10
637.3095469027845
 20
880.6342673354812
 30
0.0
 11
699.3094869027844
 21
880.6342673354812
 31
0.0
  0
LINE
  5
31B8
330
3473
100
AcDbEntity
  8
AM_0
100
AcDbLine
 10
637.3095469027845
 20
896.6342673354812
 30
0.0
 11
699.3094869027844
 21
896.6342673354812
 31
0.0
  0
ARC
  5
31B9
330
3473
100
AcDbEntity
  8
AM_0
100
AcDbCircle
 10
637.3095469027845
 20
888.6342673354812
 30
0.0
 40
8.000011
100
AcDbArc
 50
90.00000299999769
 51
270.0
  0
LINE
  5
31BA
330
3473
100
AcDbEntity
  8
AM_0
100
AcDbLine
 10
637.3094869027845
 20
896.6342673354812
 30
0.0
 11
637.3094869027845
 21
880.6342673354812
 31
0.0
  0
TEXT
  5
3396
330
3473
100
AcDbEntity
  8
AM_0
100
AcDbText
 10
843.5664229365627
 20
946.2584840951455
 30
0.0
 40
20.0
  1
VX37-040GF~VX37-060GF
100
AcDbText
  0
LINE
  5
3599
330
3473
100
AcDbEntity
  8
AM_0
100
AcDbLine
 10
242.3079369027837
 20
384.1377359445704
 30
0.0
 11
210.3079369027839
 21
384.1377359445704
 31
0.0
  0
ENDSEC
  0
SECTION
  2
OBJECTS
  0
DICTIONARY
  5
3410
330
0
100
AcDbDictionary
281
     1
  3
ACAD_CIP_PREVIOUS_PRODUCT_INFO
350
352F
  3
ACAD_COLOR
350
3466
  3
ACAD_DETAILVIEWSTYLE
350
346D
  3
ACAD_FIELDLIST
350
3579
  3
ACAD_GROUP
350
3411
  3
ACAD_LAYOUT
350
3465
  3
ACAD_MATERIAL
350
3414
  3
ACAD_MLEADERSTYLE
350
3469
  3
ACAD_MLINESTYLE
350
3462
  3
ACAD_PLOTSETTINGS
350
3464
  3
ACAD_PLOTSTYLENAME
350
3412
  3
ACAD_SCALELIST
350
3446
  3
ACAD_SECTIONVIEWSTYLE
350
346B
  3
ACAD_TABLESTYLE
350
3467
  3
ACAD_VISUALSTYLE
350
342D
  3
ACDB_RECOMPOSE_DATA
350
367E
  3
AcDbVariableDictionary
350
3672
  3
AcDsDecomposeData
350
3684
  3
AcmDictionary
350
3555
  3
AMG
350
3530
  3
AMGSNAPSETTINGS
350
3591
  0
DICTIONARY
  5
366C
330
3406
100
AcDbDictionary
280
     1
281
     1
  3
ACAD_LAYERSTATES
360
366D
  0
DICTIONARY
  5
365F
330
3458
100
AcDbDictionary
280
     1
281
     1
  3
ADSK_XREC_LAYER_RECONCILED
360
3660
  0
DICTIONARY
  5
3661
330
3477
100
AcDbDictionary
280
     1
281
     1
  3
ADSK_XREC_LAYER_RECONCILED
360
3662
  0
DICTIONARY
  5
3663
330
3491
100
AcDbDictionary
280
     1
281
     1
  3
ADSK_XREC_LAYER_RECONCILED
360
3664
  0
DICTIONARY
  5
3665
330
3493
100
AcDbDictionary
280
     1
281
     1
  3
ADSK_XREC_LAYER_RECONCILED
360
3666
  0
DICTIONARY
  5
3667
330
3494
100
AcDbDictionary
280
     1
281
     1
  3
ADSK_XREC_LAYER_RECONCILED
360
3668
  0
XRECORD
  5
352F
102
{ACAD_REACTORS
330
3410
102
}
330
3410
100
AcDbXrecord
280
     1
300
AMECH_PP
300
2019
300

  0
DICTIONARY
  5
3466
102
{ACAD_REACTORS
330
3410
102
}
330
3410
100
AcDbDictionary
281
     1
  0
DICTIONARY
  5
346D
102
{ACAD_REACTORS
330
3410
102
}
330
3410
100
AcDbDictionary
281
     1
  3
Imperial24
350
346E
  0
FIELDLIST
  5
3579
102
{ACAD_REACTORS
330
3410
102
}
330
3410
100
AcDbIdSet
 90
        8
330
3577
330
3578
330
357A
330
357B
330
357F
330
3580
330
3581
330
3582
100
AcDbFieldList
  0
DICTIONARY
  5
3411
102
{ACAD_REACTORS
330
3410
102
}
330
3410
100
AcDbDictionary
281
     1
  0
DICTIONARY
  5
3465
102
{ACAD_REACTORS
330
3410
102
}
330
3410
100
AcDbDictionary
281
     1
  3
Model
350
3476
  3
レイアウト1
350
3472
  0
DICTIONARY
  5
3414
102
{ACAD_REACTORS
330
3410
102
}
330
3410
100
AcDbDictionary
281
     1
  3
ByBlock
350
341D
  3
ByLayer
350
3415
  3
Global
350
3425
  0
DICTIONARY
  5
3469
102
{ACAD_REACTORS
330
3410
102
}
330
3410
100
AcDbDictionary
281
     1
  3
Standard
350
346A
  0
DICTIONARY
  5
3462
102
{ACAD_REACTORS
330
3410
102
}
330
3410
100
AcDbDictionary
281
     1
  3
Standard
350
3463
  0
DICTIONARY
  5
3464
102
{ACAD_REACTORS
330
3410
102
}
330
3410
100
AcDbDictionary
281
     1
  0
ACDBDICTIONARYWDFLT
  5
3412
102
{ACAD_REACTORS
330
3410
102
}
330
3410
100
AcDbDictionary
281
     1
  3
Normal
350
3413
100
AcDbDictionaryWithDefault
340
3413
  0
DICTIONARY
  5
3446
102
{ACAD_REACTORS
330
3410
102
}
330
3410
100
AcDbDictionary
281
     1
  3
A0
350
3447
  3
A1
350
3448
  3
A2
350
3449
  3
A3
350
344A
  3
A4
350
344B
  3
A5
350
344C
  3
A6
350
344D
  3
A7
350
344E
  3
A8
350
344F
  3
A9
350
3450
  3
B0
350
3451
  3
B1
350
3452
  3
B2
350
3453
  3
B3
350
3454
  3
B4
350
3455
  3
B5
350
3456
  3
B6
350
3457
  0
DICTIONARY
  5
346B
102
{ACAD_REACTORS
330
3410
102
}
330
3410
100
AcDbDictionary
281
     1
  3
Imperial24
350
346C
  0
DICTIONARY
  5
3467
102
{ACAD_REACTORS
330
3410
102
}
330
3410
100
AcDbDictionary
281
     1
  3
Standard
350
3468
  0
DICTIONARY
  5
342D
102
{ACAD_REACTORS
330
3410
102
}
330
3410
100
AcDbDictionary
281
     1
  3
2dWireframe
350
3433
  3
Basic
350
3432
  3
Brighten
350
3439
  3
ColorChange
350
343D
  3
Conceptual
350
3436
  3
Dim
350
3438
  3
EdgeColorOff
350
3445
  3
Facepattern
350
343C
  3
Flat
350
342E
  3
FlatWithEdges
350
342F
  3
Gouraud
350
3430
  3
GouraudWithEdges
350
3431
  3
Hidden
350
3435
  3
JitterOff
350
3443
  3
Linepattern
350
343B
  3
OverhangOff
350
3444
  3
Realistic
350
3437
  3
Shaded
350
3442
  3
Shaded with edges
350
3441
  3
Shades of Gray
350
343E
  3
Sketchy
350
343F
  3
Thicken
350
343A
  3
Wireframe
350
3434
  3
X-Ray
350
3440
  0
XRECORD
  5
367E
102
{ACAD_REACTORS
330
3410
102
}
330
3410
100
AcDbXrecord
280
     1
 90
        1
330
3468
  0
DICTIONARY
  5
3672
102
{ACAD_REACTORS
330
3410
102
}
330
3410
100
AcDbDictionary
281
     1
  3
CANNOSCALE
350
3678
  3
CMLEADERSTYLE
350
3674
  3
CTABLESTYLE
350
3673
  3
CVIEWDETAILSTYLE
350
3675
  3
CVIEWSECTIONSTYLE
350
3676
  3
LAYEREVAL
350
367A
  3
LAYERNOTIFY
350
367B
  3
LIGHTINGUNITS
350
3679
  3
MSLTSCALE
350
3677
  0
DICTIONARY
  5
3684
102
{ACAD_REACTORS
330
3410
102
}
330
3410
100
AcDbDictionary
281
     1
  3
AcDsRecords
350
3686
  3
AcDsSchemas
350
3685
1001
ACAD
1070
     2
  0
DICTIONARY
  5
3555
102
{ACAD_REACTORS
330
3410
102
}
330
3410
100
AcDbDictionary
281
     1
  3
AcmStdDictionary
350
355E
  0
DICTIONARY
  5
3530
102
{ACAD_REACTORS
330
3410
102
}
330
3410
100
AcDbDictionary
281
     1
  0
DICTIONARY
  5
3591
102
{ACAD_REACTORS
330
3410
102
}
330
3410
100
AcDbDictionary
281
     1
  0
DICTIONARY
  5
366D
102
{ACAD_REACTORS
330
366C
102
}
330
366C
100
AcDbDictionary
281
     1
  0
XRECORD
  5
3660
102
{ACAD_REACTORS
330
365F
102
}
330
365F
100
AcDbXrecord
280
     1
290
     1
  0
XRECORD
  5
3662
102
{ACAD_REACTORS
330
3661
102
}
330
3661
100
AcDbXrecord
280
     1
290
     1
  0
XRECORD
  5
3664
102
{ACAD_REACTORS
330
3663
102
}
330
3663
100
AcDbXrecord
280
     1
290
     1
  0
XRECORD
  5
3666
102
{ACAD_REACTORS
330
3665
102
}
330
3665
100
AcDbXrecord
280
     1
290
     1
  0
XRECORD
  5
3668
102
{ACAD_REACTORS
330
3667
102
}
330
3667
100
AcDbXrecord
280
     1
290
     1
  0
ACDBDETAILVIEWSTYLE
  5
346E
102
{ACAD_XDICTIONARY
360
36B9
102
}
102
{ACAD_REACTORS
330
346D
330
3573
102
}
330
346D
100
AcDbModelDocViewStyle
 70
     0
  3
Imperial24
290
     0
100
AcDbDetailViewStyle
 70
     0
 71
     0
 90
        3
 71
     1
340
3459
 62
   256
 40
0.24
340
0
 62
   256
 40
0.24
300

 40
0.36
280
     3
 71
     2
340
3460
 90
       25
 62
   256
 71
     3
340
3459
 62
   256
 40
0.24
 90
        1
 40
0.75
 90
        1
300
%<\AcVar ViewType \f "%tc1">% %<\AcVar ViewDetailId>%\PSCALE %<\AcVar ViewScale \f "%sn">%
 71
     4
340
3460
 90
       25
 62
   256
340
3460
 90
       25
 62
   256
280
     0
  0
LAYOUT
  5
3476
102
{ACAD_REACTORS
330
3465
102
}
330
3465
100
AcDbPlotSettings
  1

  2
JUST PDF 3
  4

  6

 40
0.0
 41
0.0
 42
0.0
 43
0.0
 44
0.0
 45
0.0
 46
0.0
 47
0.0
 48
0.0
 49
0.0
140
0.0
141
0.0
142
1.0
143
1.0
 70
  1712
 72
     0
 73
     0
 74
     0
  7

 75
     0
147
1.0
 76
     0
 77
     2
 78
   300
148
0.0
149
0.0
100
AcDbLayout
  1
Model
 70
     1
 71
     0
 10
0.0
 20
0.0
 11
12.0
 21
9.0
 12
0.0
 22
0.0
 32
0.0
 14
0.0
 24
0.0
 34
0.0
 15
0.0
 25
0.0
 35
0.0
146
0.0
 13
0.0
 23
0.0
 33
0.0
 16
1.0
 26
0.0
 36
0.0
 17
0.0
 27
1.0
 37
0.0
 76
     0
330
3473
331
3478
  0
LAYOUT
  5
3472
102
{ACAD_REACTORS
330
3465
102
}
330
3465
100
AcDbPlotSettings
  1

  2
JUST PDF 3
  4

  6

 40
0.0
 41
0.0
 42
0.0
 43
0.0
 44
0.0
 45
0.0
 46
0.0
 47
0.0
 48
0.0
 49
0.0
140
0.0
141
0.0
142
1.0
143
1.0
 70
   688
 72
     0
 73
     0
 74
     5
  7

 75
    16
147
1.0
 76
     0
 77
     2
 78
   300
148
0.0
149
0.0
100
AcDbLayout
  1
レイアウト1
 70
     1
 71
     1
 10
0.0
 20
0.0
 11
420.0
 21
297.0
 12
0.0
 22
0.0
 32
0.0
 14
1.000000000000000E+20
 24
1.000000000000000E+20
 34
1.000000000000000E+20
 15
-1.000000000000000E+20
 25
-1.000000000000000E+20
 35
-1.000000000000000E+20
146
0.0
 13
0.0
 23
0.0
 33
0.0
 16
1.0
 26
0.0
 36
0.0
 17
0.0
 27
1.0
 37
0.0
 76
     0
330
346F
  0
MATERIAL
  5
341D
102
{ACAD_XDICTIONARY
360
341E
102
}
102
{ACAD_REACTORS
330
3414
102
}
330
3414
100
AcDbMaterial
  1
ByBlock
 72
     0
 43
0.0208333333333333
 43
0.0
 43
0.0
 43
0.0
 43
0.0
 43
0.0208333333333333
 43
0.0
 43
0.0
 43
0.0
 43
0.0
 43
1.0
 43
0.0
 43
0.0
 43
0.0
 43
0.0
 43
1.0
 77
     0
 47
0.0208333333333333
 47
0.0
 47
0.0
 47
0.0
 47
0.0
 47
0.0208333333333333
 47
0.0
 47
0.0
 47
0.0
 47
0.0
 47
1.0
 47
0.0
 47
0.0
 47
0.0
 47
0.0
 47
1.0
171
     0
 49
0.0208333333333333
 49
0.0
 49
0.0
 49
0.0
 49
0.0
 49
0.0208333333333333
 49
0.0
 49
0.0
 49
0.0
 49
0.0
 49
1.0
 49
0.0
 49
0.0
 49
0.0
 49
0.0
 49
1.0
175
     0
142
0.0208333333333333
142
0.0
142
0.0
142
0.0
142
0.0
142
0.0208333333333333
142
0.0
142
0.0
142
0.0
142
0.0
142
1.0
142
0.0
142
0.0
142
0.0
142
0.0
142
1.0
179
     0
144
0.0208333333333333
144
0.0
144
0.0
144
0.0
144
0.0
144
0.0208333333333333
144
0.0
144
0.0
144
0.0
144
0.0
144
1.0
144
0.0
144
0.0
144
0.0
144
0.0
144
1.0
147
0.0208333333333333
147
0.0
147
0.0
147
0.0
147
0.0
147
0.0208333333333333
147
0.0
147
0.0
147
0.0
147
0.0
147
1.0
147
0.0
147
0.0
147
0.0
147
0.0
147
1.0
  0
MATERIAL
  5
3415
102
{ACAD_XDICTIONARY
360
3416
102
}
102
{ACAD_REACTORS
330
3414
102
}
330
3414
100
AcDbMaterial
  1
ByLayer
 72
     0
 43
0.0208333333333333
 43
0.0
 43
0.0
 43
0.0
 43
0.0
 43
0.0208333333333333
 43
0.0
 43
0.0
 43
0.0
 43
0.0
 43
1.0
 43
0.0
 43
0.0
 43
0.0
 43
0.0
 43
1.0
 77
     0
 47
0.0208333333333333
 47
0.0
 47
0.0
 47
0.0
 47
0.0
 47
0.0208333333333333
 47
0.0
 47
0.0
 47
0.0
 47
0.0
 47
1.0
 47
0.0
 47
0.0
 47
0.0
 47
0.0
 47
1.0
171
     0
 49
0.0208333333333333
 49
0.0
 49
0.0
 49
0.0
 49
0.0
 49
0.0208333333333333
 49
0.0
 49
0.0
 49
0.0
 49
0.0
 49
1.0
 49
0.0
 49
0.0
 49
0.0
 49
0.0
 49
1.0
175
     0
142
0.0208333333333333
142
0.0
142
0.0
142
0.0
142
0.0
142
0.0208333333333333
142
0.0
142
0.0
142
0.0
142
0.0
142
1.0
142
0.0
142
0.0
142
0.0
142
0.0
142
1.0
179
     0
144
0.0208333333333333
144
0.0
144
0.0
144
0.0
144
0.0
144
0.0208333333333333
144
0.0
144
0.0
144
0.0
144
0.0
144
1.0
144
0.0
144
0.0
144
0.0
144
0.0
144
1.0
147
0.0208333333333333
147
0.0
147
0.0
147
0.0
147
0.0
147
0.0208333333333333
147
0.0
147
0.0
147
0.0
147
0.0
147
1.0
147
0.0
147
0.0
147
0.0
147
0.0
147
1.0
  0
MATERIAL
  5
3425
102
{ACAD_XDICTIONARY
360
3426
102
}
102
{ACAD_REACTORS
330
3414
102
}
330
3414
100
AcDbMaterial
  1
Global
 72
     0
 43
0.0208333333333333
 43
0.0
 43
0.0
 43
0.0
 43
0.0
 43
0.0208333333333333
 43
0.0
 43
0.0
 43
0.0
 43
0.0
 43
1.0
 43
0.0
 43
0.0
 43
0.0
 43
0.0
 43
1.0
 77
     0
 47
0.0208333333333333
 47
0.0
 47
0.0
 47
0.0
 47
0.0
 47
0.0208333333333333
 47
0.0
 47
0.0
 47
0.0
 47
0.0
 47
1.0
 47
0.0
 47
0.0
 47
0.0
 47
0.0
 47
1.0
171
     0
 49
0.0208333333333333
 49
0.0
 49
0.0
 49
0.0
 49
0.0
 49
0.0208333333333333
 49
0.0
 49
0.0
 49
0.0
 49
0.0
 49
1.0
 49
0.0
 49
0.0
 49
0.0
 49
0.0
 49
1.0
175
     0
142
0.0208333333333333
142
0.0
142
0.0
142
0.0
142
0.0
142
0.0208333333333333
142
0.0
142
0.0
142
0.0
142
0.0
142
1.0
142
0.0
142
0.0
142
0.0
142
0.0
142
1.0
179
     0
144
0.0208333333333333
144
0.0
144
0.0
144
0.0
144
0.0
144
0.0208333333333333
144
0.0
144
0.0
144
0.0
144
0.0
144
1.0
144
0.0
144
0.0
144
0.0
144
0.0
144
1.0
147
0.0208333333333333
147
0.0
147
0.0
147
0.0
147
0.0
147
0.0208333333333333
147
0.0
147
0.0
147
0.0
147
0.0
147
1.0
147
0.0
147
0.0
147
0.0
147
0.0
147
1.0
  0
MLEADERSTYLE
  5
346A
102
{ACAD_REACTORS
330
3469
102
}
330
3469
100
AcDbMLeaderStyle
179
     2
170
     2
171
     1
172
     0
 90
        2
 40
0.0
 41
0.0
173
     1
 91
-1056964608
340
345E
 92
       -2
290
     1
 42
0.09
291
     1
 43
0.36
  3
Standard
 44
0.18
300

342
3459
174
     1
178
     6
175
     1
176
     0
 93
-1056964608
 45
0.18
292
     0
297
     0
 46
0.18
 94
-1056964608
 47
1.0
 49
1.0
140
1.0
293
     1
141
0.0
294
     1
177
     0
142
1.0
295
     0
296
     0
143
0.125
271
     0
272
     9
273
     9
  0
MLINESTYLE
  5
3463
102
{ACAD_REACTORS
330
3462
102
}
330
3462
100
AcDbMlineStyle
  2
STANDARD
 70
     0
  3

 62
   256
 51
90.0
 52
90.0
 71
     2
 49
0.5
 62
   256
  6
BYLAYER
 49
-0.5
 62
   256
  6
BYLAYER
  0
ACDBPLACEHOLDER
  5
3413
102
{ACAD_REACTORS
330
3412
102
}
330
3412
  0
SCALE
  5
3447
102
{ACAD_REACTORS
330
3446
102
}
330
3446
100
AcDbScale
 70
     0
300
1:1
140
1.0
141
1.0
290
     1
  0
SCALE
  5
3448
102
{ACAD_REACTORS
330
3446
102
}
330
3446
100
AcDbScale
 70
     0
300
1/128" = 1'-0"
140
0.0078125
141
12.0
290
     0
  0
SCALE
  5
3449
102
{ACAD_REACTORS
330
3446
102
}
330
3446
100
AcDbScale
 70
     0
300
1/64" = 1'-0"
140
0.015625
141
12.0
290
     0
  0
SCALE
  5
344A
102
{ACAD_REACTORS
330
3446
102
}
330
3446
100
AcDbScale
 70
     0
300
1/32" = 1'-0"
140
0.03125
141
12.0
290
     0
  0
SCALE
  5
344B
102
{ACAD_REACTORS
330
3446
102
}
330
3446
100
AcDbScale
 70
     0
300
1/16" = 1'-0"
140
0.0625
141
12.0
290
     0
  0
SCALE
  5
344C
102
{ACAD_REACTORS
330
3446
102
}
330
3446
100
AcDbScale
 70
     0
300
3/32" = 1'-0"
140
0.09375
141
12.0
290
     0
  0
SCALE
  5
344D
102
{ACAD_REACTORS
330
3446
102
}
330
3446
100
AcDbScale
 70
     0
300
1/8" = 1'-0"
140
0.125
141
12.0
290
     0
  0
SCALE
  5
344E
102
{ACAD_REACTORS
330
3446
102
}
330
3446
100
AcDbScale
 70
     0
300
3/16" = 1'-0"
140
0.1875
141
12.0
290
     0
  0
SCALE
  5
344F
102
{ACAD_REACTORS
330
3446
102
}
330
3446
100
AcDbScale
 70
     0
300
1/4" = 1'-0"
140
0.25
141
12.0
290
     0
  0
SCALE
  5
3450
102
{ACAD_REACTORS
330
3446
102
}
330
3446
100
AcDbScale
 70
     0
300
3/8" = 1'-0"
140
0.375
141
12.0
290
     0
  0
SCALE
  5
3451
102
{ACAD_REACTORS
330
3446
102
}
330
3446
100
AcDbScale
 70
     0
300
1/2" = 1'-0"
140
0.5
141
12.0
290
     0
  0
SCALE
  5
3452
102
{ACAD_REACTORS
330
3446
102
}
330
3446
100
AcDbScale
 70
     0
300
3/4" = 1'-0"
140
0.75
141
12.0
290
     0
  0
SCALE
  5
3453
102
{ACAD_REACTORS
330
3446
102
}
330
3446
100
AcDbScale
 70
     0
300
1" = 1'-0"
140
1.0
141
12.0
290
     0
  0
SCALE
  5
3454
102
{ACAD_REACTORS
330
3446
102
}
330
3446
100
AcDbScale
 70
     0
300
1-1/2" = 1'-0"
140
1.5
141
12.0
290
     0
  0
SCALE
  5
3455
102
{ACAD_REACTORS
330
3446
102
}
330
3446
100
AcDbScale
 70
     0
300
3" = 1'-0"
140
3.0
141
12.0
290
     0
  0
SCALE
  5
3456
102
{ACAD_REACTORS
330
3446
102
}
330
3446
100
AcDbScale
 70
     0
300
6" = 1'-0"
140
6.0
141
12.0
290
     0
  0
SCALE
  5
3457
102
{ACAD_REACTORS
330
3446
102
}
330
3446
100
AcDbScale
 70
     0
300
1'-0" = 1'-0"
140
12.0
141
12.0
290
     0
  0
ACDBSECTIONVIEWSTYLE
  5
346C
102
{ACAD_XDICTIONARY
360
36B7
102
}
102
{ACAD_REACTORS
330
346B
330
3572
102
}
330
346B
100
AcDbModelDocViewStyle
 70
     0
  3
Imperial24
290
     0
100
AcDbSectionViewStyle
 70
     0
 71
     0
 90
       78
 71
     1
340
3459
 62
   256
 40
0.24
340
0
340
0
 62
   256
 40
0.24
300
I, O, Q, S, X, Z
 40
0.48
 90
        3
 40
0.18
 90
        1
 71
     2
340
3460
 90
       25
 62
   256
340
3460
 90
       50
 62
   256
 40
0.24
 40
0.0
 40
0.24
 71
     3
340
3459
 62
   256
 40
0.24
 90
        1
 40
0.75
 90
        1
300
%<\AcVar ViewType \f "%tc1">% %<\AcVar ViewSectionStartId>%-%<\AcVar ViewSectionEndId>%\PSCALE %<\AcVar ViewScale \f "%sn">%
 71
     4
 62
   256
 62
   257
300
ANSI31
 40
1.0
 90
        0
290
     0
290
     0
 90
        6
 40
0.0
 40
1.570796326794896
 40
0.2617993877991494
 40
1.308996938995747
 40
-0.2617993877991494
 40
1.832595714594046
  0
TABLESTYLE
  5
3468
102
{ACAD_XDICTIONARY
360
367C
102
}
102
{ACAD_REACTORS
330
3467
102
}
330
3467
100
AcDbTableStyle
280
     0
  3
Standard
 70
     0
 71
     0
 40
0.06
 41
0.06
280
     0
281
     0
  7
STANDARD
140
0.18
170
     2
 62
     0
 63
     7
283
     0
 90
      512
 91
        0
  1

274
    -2
284
     1
 64
     0
275
    -2
285
     1
 65
     0
276
    -2
286
     1
 66
     0
277
    -2
287
     1
 67
     0
278
    -2
288
     1
 68
     0
279
    -2
289
     1
 69
     0
  7
STANDARD
140
0.25
170
     5
 62
     0
 63
     7
283
     0
 90
      512
 91
        0
  1

274
    -2
284
     1
 64
     0
275
    -2
285
     1
 65
     0
276
    -2
286
     1
 66
     0
277
    -2
287
     1
 67
     0
278
    -2
288
     1
 68
     0
279
    -2
289
     1
 69
     0
  7
STANDARD
140
0.18
170
     5
 62
     0
 63
     7
283
     0
 90
      512
 91
        0
  1

274
    -2
284
     1
 64
     0
275
    -2
285
     1
 65
     0
276
    -2
286
     1
 66
     0
277
    -2
287
     1
 67
     0
278
    -2
288
     1
 68
     0
279
    -2
289
     1
 69
     0
  0
VISUALSTYLE
  5
3433
102
{ACAD_XDICTIONARY
360
3691
102
}
102
{ACAD_REACTORS
330
342D
102
}
330
342D
100
AcDbVisualStyle
  2
2dWireframe
 70
     4
177
     2
291
     0
 71
     0
176
     1
 72
     2
176
     1
 73
     0
176
     1
 90
        0
176
     1
 40
0.6
176
     1
 41
30.0
176
     1
 63
     7
421
 16777215
176
     1
 74
     1
176
     1
 91
        4
176
     1
 64
     7
176
     1
 65
   257
176
     1
 75
     1
176
     1
175
     1
176
     1
 42
1.0
176
     1
 92
        0
176
     1
 66
   257
176
     1
 43
1.0
176
     1
 76
     1
176
     1
 77
     6
176
     1
 78
     2
176
     1
 67
     7
176
     1
 79
     5
176
     1
170
     0
176
     1
171
     0
176
     1
290
     0
176
     1
 93
        1
176
     1
 44
0.0
176
     1
173
     0
176
     1
1001
ACAD
1000
AcDbSavedByObjectVersion
1070
     0
  0
VISUALSTYLE
  5
3432
102
{ACAD_XDICTIONARY
360
368F
102
}
102
{ACAD_REACTORS
330
342D
102
}
330
342D
100
AcDbVisualStyle
  2
Basic
 70
     7
177
     2
291
     1
 71
     1
176
     1
 72
     0
176
     1
 73
     1
176
     1
 90
        0
176
     1
 40
0.6
176
     1
 41
30.0
176
     1
 63
     7
421
 16777215
176
     1
 74
     0
176
     1
 91
        4
176
     1
 64
     7
176
     1
 65
   257
176
     1
 75
     1
176
     1
175
     1
176
     1
 42
1.0
176
     1
 92
        8
176
     1
 66
     7
176
     1
 43
1.0
176
     1
 76
     1
176
     1
 77
     6
176
     1
 78
     2
176
     1
 67
     7
176
     1
 79
     5
176
     1
170
     0
176
     1
171
     0
176
     1
290
     0
176
     1
 93
        1
176
     1
 44
0.0
176
     1
173
     0
176
     1
1001
ACAD
1000
AcDbSavedByObjectVersion
1070
     0
  0
VISUALSTYLE
  5
3439
102
{ACAD_XDICTIONARY
360
369D
102
}
102
{ACAD_REACTORS
330
342D
102
}
330
342D
100
AcDbVisualStyle
  2
Brighten
 70
    12
177
     2
291
     1
 71
     2
176
     1
 72
     2
176
     1
 73
     0
176
     1
 90
        0
176
     1
 40
0.6
176
     1
 41
30.0
176
     1
 63
     7
421
 16777215
176
     1
 74
     1
176
     1
 91
        4
176
     1
 64
     7
176
     1
 65
   257
176
     1
 75
     1
176
     1
175
     1
176
     1
 42
1.0
176
     1
 92
        8
176
     1
 66
     7
176
     1
 43
1.0
176
     1
 76
     1
176
     1
 77
     6
176
     1
 78
     2
176
     1
 67
     7
176
     1
 79
     5
176
     1
170
     0
176
     1
171
     0
176
     1
290
     0
176
     1
 93
        1
176
     1
 44
50.0
176
     1
173
     0
176
     1
1001
ACAD
1000
AcDbSavedByObjectVersion
1070
     0
  0
VISUALSTYLE
  5
343D
102
{ACAD_XDICTIONARY
360
36A5
102
}
102
{ACAD_REACTORS
330
342D
102
}
330
342D
100
AcDbVisualStyle
  2
ColorChange
 70
    16
177
     2
291
     1
 71
     2
176
     1
 72
     2
176
     1
 73
     3
176
     1
 90
        0
176
     1
 40
0.6
176
     1
 41
30.0
176
     1
 63
     8
421
  8421504
176
     1
 74
     1
176
     1
 91
        4
176
     1
 64
     7
176
     1
 65
   257
176
     1
 75
     1
176
     1
175
     1
176
     1
 42
1.0
176
     1
 92
        8
176
     1
 66
     8
424
  8421504
176
     1
 43
1.0
176
     1
 76
     1
176
     1
 77
     6
176
     1
 78
     2
176
     1
 67
     7
176
     1
 79
     5
176
     1
170
     0
176
     1
171
     0
176
     1
290
     0
176
     1
 93
        1
176
     1
 44
0.0
176
     1
173
     0
176
     1
1001
ACAD
1000
AcDbSavedByObjectVersion
1070
     0
  0
VISUALSTYLE
  5
3436
102
{ACAD_XDICTIONARY
360
3697
102
}
102
{ACAD_REACTORS
330
342D
102
}
330
342D
100
AcDbVisualStyle
  2
Conceptual
 70
     9
177
     2
291
     0
 71
     3
176
     1
 72
     2
176
     1
 73
     0
176
     1
 90
        0
176
     1
 40
0.6
176
     1
 41
30.0
176
     1
 63
     7
421
 16777215
176
     1
 74
     2
176
     1
 91
        2
176
     1
 64
     7
176
     1
 65
   257
176
     1
 75
     1
176
     1
175
     1
176
     1
 42
179.0
176
     1
 92
        8
176
     1
 66
     7
176
     1
 43
1.0
176
     1
 76
     1
176
     1
 77
     6
176
     1
 78
     2
176
     1
 67
     7
176
     1
 79
     3
176
     1
170
     0
176
     1
171
     0
176
     1
290
     0
176
     1
 93
        1
176
     1
 44
0.0
176
     1
173
     0
176
     1
1001
ACAD
1000
AcDbSavedByObjectVersion
1070
     0
  0
VISUALSTYLE
  5
3438
102
{ACAD_XDICTIONARY
360
369B
102
}
102
{ACAD_REACTORS
330
342D
102
}
330
342D
100
AcDbVisualStyle
  2
Dim
 70
    11
177
     2
291
     1
 71
     2
176
     1
 72
     2
176
     1
 73
     0
176
     1
 90
        0
176
     1
 40
0.6
176
     1
 41
30.0
176
     1
 63
     7
421
 16777215
176
     1
 74
     1
176
     1
 91
        4
176
     1
 64
     7
176
     1
 65
   257
176
     1
 75
     1
176
     1
175
     1
176
     1
 42
1.0
176
     1
 92
        8
176
     1
 66
     7
176
     1
 43
1.0
176
     1
 76
     1
176
     1
 77
     6
176
     1
 78
     2
176
     1
 67
     7
176
     1
 79
     5
176
     1
170
     0
176
     1
171
     0
176
     1
290
     0
176
     1
 93
        1
176
     1
 44
-50.0
176
     1
173
     0
176
     1
1001
ACAD
1000
AcDbSavedByObjectVersion
1070
     0
  0
VISUALSTYLE
  5
3445
102
{ACAD_XDICTIONARY
360
36B5
102
}
102
{ACAD_REACTORS
330
342D
102
}
330
342D
100
AcDbVisualStyle
  2
EdgeColorOff
 70
    22
177
     2
291
     1
 71
     2
176
     0
 72
     2
176
     0
 73
     0
176
     0
 90
        0
176
     0
 40
0.6
176
     0
 41
30.0
176
     0
 63
     7
421
 16777215
176
     0
 74
     1
176
     0
 91
        4
176
     0
 64
     7
176
     0
 65
   257
176
     0
 75
     1
176
     0
175
     1
176
     0
 42
1.0
176
     0
 92
        8
176
     2
 66
     7
176
     0
 43
1.0
176
     0
 76
     1
176
     0
 77
     6
176
     0
 78
     2
176
     0
 67
     7
176
     0
 79
     5
176
     0
170
     0
176
     0
171
     0
176
     0
290
     0
176
     0
 93
        1
176
     0
 44
0.0
176
     0
173
     0
176
     0
1001
ACAD
1000
AcDbSavedByObjectVersion
1070
     0
  0
VISUALSTYLE
  5
343C
102
{ACAD_XDICTIONARY
360
36A3
102
}
102
{ACAD_REACTORS
330
342D
102
}
330
342D
100
AcDbVisualStyle
  2
Facepattern
 70
    15
177
     2
291
     1
 71
     2
176
     1
 72
     2
176
     1
 73
     0
176
     1
 90
        0
176
     1
 40
0.6
176
     1
 41
30.0
176
     1
 63
     7
421
 16777215
176
     1
 74
     1
176
     1
 91
        4
176
     1
 64
     7
176
     1
 65
   257
176
     1
 75
     1
176
     1
175
     1
176
     1
 42
1.0
176
     1
 92
        8
176
     1
 66
     7
176
     1
 43
1.0
176
     1
 76
     1
176
     1
 77
     6
176
     1
 78
     2
176
     1
 67
     7
176
     1
 79
     5
176
     1
170
     0
176
     1
171
     0
176
     1
290
     0
176
     1
 93
        1
176
     1
 44
0.0
176
     1
173
     0
176
     1
1001
ACAD
1000
AcDbSavedByObjectVersion
1070
     0
  0
VISUALSTYLE
  5
342E
102
{ACAD_XDICTIONARY
360
3687
102
}
102
{ACAD_REACTORS
330
342D
102
}
330
342D
100
AcDbVisualStyle
  2
Flat
 70
     0
177
     2
291
     1
 71
     2
176
     1
 72
     1
176
     1
 73
     1
176
     1
 90
        2
176
     1
 40
0.6
176
     1
 41
30.0
176
     1
 63
     7
421
 16777215
176
     1
 74
     0
176
     1
 91
        0
176
     1
 64
     7
176
     1
 65
   257
176
     1
 75
     1
176
     1
175
     1
176
     1
 42
1.0
176
     1
 92
        8
176
     1
 66
     7
176
     1
 43
1.0
176
     1
 76
     1
176
     1
 77
     6
176
     1
 78
     2
176
     1
 67
     7
176
     1
 79
     5
176
     1
170
     0
176
     1
171
     0
176
     1
290
     0
176
     1
 93
       13
176
     1
 44
0.0
176
     1
173
     0
176
     1
1001
ACAD
1000
AcDbSavedByObjectVersion
1070
     0
  0
VISUALSTYLE
  5
342F
102
{ACAD_XDICTIONARY
360
3689
102
}
102
{ACAD_REACTORS
330
342D
102
}
330
342D
100
AcDbVisualStyle
  2
FlatWithEdges
 70
     1
177
     2
291
     1
 71
     2
176
     1
 72
     1
176
     1
 73
     1
176
     1
 90
        2
176
     1
 40
0.6
176
     1
 41
30.0
176
     1
 63
     7
421
 16777215
176
     1
 74
     1
176
     1
 91
        0
176
     1
 64
     7
176
     1
 65
   257
176
     1
 75
     1
176
     1
175
     1
176
     1
 42
1.0
176
     1
 92
        0
176
     1
 66
   257
176
     1
 43
1.0
176
     1
 76
     1
176
     1
 77
     6
176
     1
 78
     2
176
     1
 67
     7
176
     1
 79
     5
176
     1
170
     0
176
     1
171
     0
176
     1
290
     0
176
     1
 93
       13
176
     1
 44
0.0
176
     1
173
     0
176
     1
1001
ACAD
1000
AcDbSavedByObjectVersion
1070
     0
  0
VISUALSTYLE
  5
3430
102
{ACAD_XDICTIONARY
360
368B
102
}
102
{ACAD_REACTORS
330
342D
102
}
330
342D
100
AcDbVisualStyle
  2
Gouraud
 70
     2
177
     2
291
     1
 71
     2
176
     1
 72
     2
176
     1
 73
     1
176
     1
 90
        2
176
     1
 40
0.6
176
     1
 41
30.0
176
     1
 63
     7
421
 16777215
176
     1
 74
     0
176
     1
 91
        0
176
     1
 64
     7
176
     1
 65
   257
176
     1
 75
     1
176
     1
175
     1
176
     1
 42
1.0
176
     1
 92
        0
176
     1
 66
     7
176
     1
 43
1.0
176
     1
 76
     1
176
     1
 77
     6
176
     1
 78
     2
176
     1
 67
     7
176
     1
 79
     5
176
     1
170
     0
176
     1
171
     0
176
     1
290
     0
176
     1
 93
       13
176
     1
 44
0.0
176
     1
173
     0
176
     1
1001
ACAD
1000
AcDbSavedByObjectVersion
1070
     0
  0
VISUALSTYLE
  5
3431
102
{ACAD_XDICTIONARY
360
368D
102
}
102
{ACAD_REACTORS
330
342D
102
}
330
342D
100
AcDbVisualStyle
  2
GouraudWithEdges
 70
     3
177
     2
291
     1
 71
     2
176
     1
 72
     2
176
     1
 73
     1
176
     1
 90
        2
176
     1
 40
0.6
176
     1
 41
30.0
176
     1
 63
     7
421
 16777215
176
     1
 74
     1
176
     1
 91
        0
176
     1
 64
     7
176
     1
 65
   257
176
     1
 75
     1
176
     1
175
     1
176
     1
 42
1.0
176
     1
 92
        0
176
     1
 66
   257
176
     1
 43
1.0
176
     1
 76
     1
176
     1
 77
     6
176
     1
 78
     2
176
     1
 67
     7
176
     1
 79
     5
176
     1
170
     0
176
     1
171
     0
176
     1
290
     0
176
     1
 93
       13
176
     1
 44
0.0
176
     1
173
     0
176
     1
1001
ACAD
1000
AcDbSavedByObjectVersion
1070
     0
  0
VISUALSTYLE
  5
3435
102
{ACAD_XDICTIONARY
360
3695
102
}
102
{ACAD_REACTORS
330
342D
102
}
330
342D
100
AcDbVisualStyle
  2
Hidden
 70
     6
177
     2
291
     0
 71
     1
176
     1
 72
     2
176
     1
 73
     2
176
     1
 90
        0
176
     1
 40
0.6
176
     1
 41
30.0
176
     1
 63
     7
421
 16777215
176
     1
 74
     2
176
     1
 91
        2
176
     1
 64
     7
176
     1
 65
   257
176
     1
 75
     2
176
     1
175
     1
176
     1
 42
40.0
176
     1
 92
        0
176
     1
 66
   257
176
     1
 43
1.0
176
     1
 76
     1
176
     1
 77
     6
176
     1
 78
     2
176
     1
 67
     7
176
     1
 79
     3
176
     1
170
     0
176
     1
171
     0
176
     1
290
     0
176
     1
 93
        1
176
     1
 44
0.0
176
     1
173
     0
176
     1
1001
ACAD
1000
AcDbSavedByObjectVersion
1070
     0
  0
VISUALSTYLE
  5
3443
102
{ACAD_XDICTIONARY
360
36B1
102
}
102
{ACAD_REACTORS
330
342D
102
}
330
342D
100
AcDbVisualStyle
  2
JitterOff
 70
    20
177
     2
291
     1
 71
     2
176
     0
 72
     2
176
     0
 73
     0
176
     0
 90
        0
176
     0
 40
0.6
176
     0
 41
30.0
176
     0
 63
     7
421
 16777215
176
     0
 74
     1
176
     0
 91
        4
176
     0
 64
     7
176
     0
 65
   257
176
     0
 75
     1
176
     0
175
     1
176
     0
 42
1.0
176
     0
 92
       10
176
     2
 66
     7
176
     0
 43
1.0
176
     0
 76
     1
176
     0
 77
     6
176
     0
 78
     2
176
     0
 67
     7
176
     0
 79
     5
176
     0
170
     0
176
     0
171
     0
176
     0
290
     0
176
     0
 93
        1
176
     0
 44
0.0
176
     0
173
     0
176
     0
1001
ACAD
1000
AcDbSavedByObjectVersion
1070
     0
  0
VISUALSTYLE
  5
343B
102
{ACAD_XDICTIONARY
360
36A1
102
}
102
{ACAD_REACTORS
330
342D
102
}
330
342D
100
AcDbVisualStyle
  2
Linepattern
 70
    14
177
     2
291
     1
 71
     2
176
     1
 72
     2
176
     1
 73
     0
176
     1
 90
        0
176
     1
 40
0.6
176
     1
 41
30.0
176
     1
 63
     7
421
 16777215
176
     1
 74
     1
176
     1
 91
        4
176
     1
 64
     7
176
     1
 65
   257
176
     1
 75
     7
176
     1
175
     7
176
     1
 42
1.0
176
     1
 92
        8
176
     1
 66
     7
176
     1
 43
1.0
176
     1
 76
     1
176
     1
 77
     6
176
     1
 78
     2
176
     1
 67
     7
176
     1
 79
     5
176
     1
170
     0
176
     1
171
     0
176
     1
290
     0
176
     1
 93
        1
176
     1
 44
0.0
176
     1
173
     0
176
     1
1001
ACAD
1000
AcDbSavedByObjectVersion
1070
     0
  0
VISUALSTYLE
  5
3444
102
{ACAD_XDICTIONARY
360
36B3
102
}
102
{ACAD_REACTORS
330
342D
102
}
330
342D
100
AcDbVisualStyle
  2
OverhangOff
 70
    21
177
     2
291
     1
 71
     2
176
     0
 72
     2
176
     0
 73
     0
176
     0
 90
        0
176
     0
 40
0.6
176
     0
 41
30.0
176
     0
 63
     7
421
 16777215
176
     0
 74
     1
176
     0
 91
        4
176
     0
 64
     7
176
     0
 65
   257
176
     0
 75
     1
176
     0
175
     1
176
     0
 42
1.0
176
     0
 92
        9
176
     2
 66
     7
176
     0
 43
1.0
176
     0
 76
     1
176
     0
 77
     6
176
     0
 78
     2
176
     0
 67
     7
176
     0
 79
     5
176
     0
170
     0
176
     0
171
     0
176
     0
290
     0
176
     0
 93
        1
176
     0
 44
0.0
176
     0
173
     0
176
     0
1001
ACAD
1000
AcDbSavedByObjectVersion
1070
     0
  0
VISUALSTYLE
  5
3437
102
{ACAD_XDICTIONARY
360
3699
102
}
102
{ACAD_REACTORS
330
342D
102
}
330
342D
100
AcDbVisualStyle
  2
Realistic
 70
     8
177
     2
291
     0
 71
     2
176
     1
 72
     3
176
     1
 73
     0
176
     1
 90
        2
176
     1
 40
0.6
176
     1
 41
30.0
176
     1
 63
     7
421
 16777215
176
     1
 74
     0
176
     1
 91
        0
176
     1
 64
     7
176
     1
 65
   257
176
     1
 75
     1
176
     1
175
     1
176
     1
 42
1.0
176
     1
 92
        8
176
     1
 66
   257
176
     1
 43
1.0
176
     1
 76
     1
176
     1
 77
     6
176
     1
 78
     2
176
     1
 67
     7
176
     1
 79
     3
176
     1
170
     0
176
     1
171
     0
176
     1
290
     0
176
     1
 93
       13
176
     1
 44
0.0
176
     1
173
     0
176
     1
1001
ACAD
1000
AcDbSavedByObjectVersion
1070
     0
  0
VISUALSTYLE
  5
3442
102
{ACAD_XDICTIONARY
360
36AF
102
}
102
{ACAD_REACTORS
330
342D
102
}
330
342D
100
AcDbVisualStyle
  2
Shaded
 70
    27
177
     2
291
     0
 71
     2
176
     1
 72
     2
176
     1
 73
     1
176
     1
 90
        2
176
     1
 40
0.6
176
     1
 41
30.0
176
     1
 63
     7
421
 16777215
176
     1
 74
     0
176
     1
 91
        4
176
     1
 64
     7
176
     1
 65
   257
176
     1
 75
     1
176
     1
175
     1
176
     1
 42
1.0
176
     1
 92
        8
176
     1
 66
   257
176
     1
 43
1.0
176
     1
 76
     1
176
     1
 77
     6
176
     1
 78
     2
176
     1
 67
     8
425
  7895160
176
     1
 79
     3
176
     1
170
     0
176
     1
171
     0
176
     1
290
     0
176
     1
 93
        5
176
     1
 44
0.0
176
     1
173
     0
176
     1
1001
ACAD
1000
AcDbSavedByObjectVersion
1070
     0
  0
VISUALSTYLE
  5
3441
102
{ACAD_XDICTIONARY
360
36AD
102
}
102
{ACAD_REACTORS
330
342D
102
}
330
342D
100
AcDbVisualStyle
  2
Shaded with edges
 70
    26
177
     2
291
     0
 71
     2
176
     1
 72
     2
176
     1
 73
     1
176
     1
 90
        2
176
     1
 40
0.6
176
     1
 41
30.0
176
     1
 63
     7
421
 16777215
176
     1
 74
     1
176
     1
 91
        2
176
     1
 64
     7
176
     1
 65
   257
176
     1
 75
     2
176
     1
175
     1
176
     1
 42
1.0
176
     1
 92
        8
176
     1
 66
   257
176
     1
 43
1.0
176
     1
 76
     1
176
     1
 77
     6
176
     1
 78
     2
176
     1
 67
     7
176
     1
 79
     3
176
     1
170
     0
176
     1
171
     0
176
     1
290
     0
176
     1
 93
        5
176
     1
 44
0.0
176
     1
173
     0
176
     1
1001
ACAD
1000
AcDbSavedByObjectVersion
1070
     0
  0
VISUALSTYLE
  5
343E
102
{ACAD_XDICTIONARY
360
36A7
102
}
102
{ACAD_REACTORS
330
342D
102
}
330
342D
100
AcDbVisualStyle
  2
Shades of Gray
 70
    23
177
     2
291
     0
 71
     2
176
     1
 72
     2
176
     1
 73
     3
176
     1
 90
        0
176
     1
 40
0.6
176
     1
 41
30.0
176
     1
 63
     7
421
 16777215
176
     1
 74
     2
176
     1
 91
        2
176
     1
 64
     7
176
     1
 65
     7
176
     1
 75
     1
176
     1
175
     1
176
     1
 42
40.0
176
     1
 92
        8
176
     1
 66
     7
176
     1
 43
1.0
176
     1
 76
     1
176
     1
 77
     6
176
     1
 78
     2
176
     1
 67
     7
176
     1
 79
     3
176
     1
170
     0
176
     1
171
     0
176
     1
290
     0
176
     1
 93
        1
176
     1
 44
0.0
176
     1
173
     0
176
     1
1001
ACAD
1000
AcDbSavedByObjectVersion
1070
     0
  0
VISUALSTYLE
  5
343F
102
{ACAD_XDICTIONARY
360
36A9
102
}
102
{ACAD_REACTORS
330
342D
102
}
330
342D
100
AcDbVisualStyle
  2
Sketchy
 70
    24
177
     2
291
     0
 71
     1
176
     1
 72
     2
176
     1
 73
     2
176
     1
 90
        0
176
     1
 40
0.6
176
     1
 41
30.0
176
     1
 63
     7
421
 16777215
176
     1
 74
     2
176
     1
 91
        2
176
     1
 64
     7
176
     1
 65
     7
176
     1
 75
     1
176
     1
175
     1
176
     1
 42
40.0
176
     1
 92
       11
176
     1
 66
     7
176
     1
 43
1.0
176
     1
 76
     1
176
     1
 77
     6
176
     1
 78
     2
176
     1
 67
     7
176
     1
 79
     6
176
     1
170
     0
176
     1
171
     0
176
     1
290
     0
176
     1
 93
        1
176
     1
 44
0.0
176
     1
173
     0
176
     1
1001
ACAD
1000
AcDbSavedByObjectVersion
1070
     0
  0
VISUALSTYLE
  5
343A
102
{ACAD_XDICTIONARY
360
369F
102
}
102
{ACAD_REACTORS
330
342D
102
}
330
342D
100
AcDbVisualStyle
  2
Thicken
 70
    13
177
     2
291
     1
 71
     2
176
     1
 72
     2
176
     1
 73
     0
176
     1
 90
        0
176
     1
 40
0.6
176
     1
 41
30.0
176
     1
 63
     7
421
 16777215
176
     1
 74
     1
176
     1
 91
        4
176
     1
 64
     7
176
     1
 65
   257
176
     1
 75
     1
176
     1
175
     1
176
     1
 42
1.0
176
     1
 92
       12
176
     1
 66
     7
176
     1
 43
1.0
176
     1
 76
     1
176
     1
 77
     6
176
     1
 78
     2
176
     1
 67
     7
176
     1
 79
     5
176
     1
170
     0
176
     1
171
     0
176
     1
290
     0
176
     1
 93
        1
176
     1
 44
0.0
176
     1
173
     0
176
     1
1001
ACAD
1000
AcDbSavedByObjectVersion
1070
     0
  0
VISUALSTYLE
  5
3434
102
{ACAD_XDICTIONARY
360
3693
102
}
102
{ACAD_REACTORS
330
342D
102
}
330
342D
100
AcDbVisualStyle
  2
Wireframe
 70
     5
177
     2
291
     0
 71
     0
176
     1
 72
     2
176
     1
 73
     0
176
     1
 90
        0
176
     1
 40
0.6
176
     1
 41
30.0
176
     1
 63
     7
421
 16777215
176
     1
 74
     1
176
     1
 91
        4
176
     1
 64
     7
176
     1
 65
   257
176
     1
 75
     1
176
     1
175
     1
176
     1
 42
1.0
176
     1
 92
        0
176
     1
 66
   257
176
     1
 43
1.0
176
     1
 76
     1
176
     1
 77
     6
176
     1
 78
     2
176
     1
 67
     7
176
     1
 79
     3
176
     1
170
     0
176
     1
171
     0
176
     1
290
     0
176
     1
 93
        1
176
     1
 44
0.0
176
     1
173
     0
176
     1
1001
ACAD
1000
AcDbSavedByObjectVersion
1070
     0
  0
VISUALSTYLE
  5
3440
102
{ACAD_XDICTIONARY
360
36AB
102
}
102
{ACAD_REACTORS
330
342D
102
}
330
342D
100
AcDbVisualStyle
  2
X-Ray
 70
    25
177
     2
291
     0
 71
     2
176
     1
 72
     2
176
     1
 73
     1
176
     1
 90
        1
176
     1
 40
0.5
176
     1
 41
30.0
176
     1
 63
     7
421
 16777215
176
     1
 74
     1
176
     1
 91
        0
176
     1
 64
     7
176
     1
 65
   257
176
     1
 75
     1
176
     1
175
     1
176
     1
 42
1.0
176
     1
 92
        8
176
     1
 66
     7
176
     1
 43
1.0
176
     1
 76
     1
176
     1
 77
     6
176
     1
 78
     2
176
     1
 67
     7
176
     1
 79
     3
176
     1
170
     0
176
     1
171
     0
176
     1
290
     0
176
     1
 93
       13
176
     1
 44
0.0
176
     1
173
     0
176
     1
1001
ACAD
1000
AcDbSavedByObjectVersion
1070
     0
  0
DICTIONARYVAR
  5
3678
102
{ACAD_REACTORS
330
3672
102
}
330
3672
100
DictionaryVariables
280
     0
  1
1:1
  0
DICTIONARYVAR
  5
3674
102
{ACAD_REACTORS
330
3672
102
}
330
3672
100
DictionaryVariables
280
     0
  1
STANDARD
  0
DICTIONARYVAR
  5
3673
102
{ACAD_REACTORS
330
3672
102
}
330
3672
100
DictionaryVariables
280
     0
  1
STANDARD
  0
DICTIONARYVAR
  5
3675
102
{ACAD_REACTORS
330
3672
102
}
330
3672
100
DictionaryVariables
280
     0
  1
Imperial24
  0
DICTIONARYVAR
  5
3676
102
{ACAD_REACTORS
330
3672
102
}
330
3672
100
DictionaryVariables
280
     0
  1
Imperial24
  0
DICTIONARYVAR
  5
367A
102
{ACAD_REACTORS
330
3672
102
}
330
3672
100
DictionaryVariables
280
     0
  1
1
  0
DICTIONARYVAR
  5
367B
102
{ACAD_REACTORS
330
3672
102
}
330
3672
100
DictionaryVariables
280
     0
  1
15
  0
DICTIONARYVAR
  5
3679
102
{ACAD_REACTORS
330
3672
102
}
330
3672
100
DictionaryVariables
280
     0
  1
0
  0
DICTIONARYVAR
  5
3677
102
{ACAD_REACTORS
330
3672
102
}
330
3672
100
DictionaryVariables
280
     0
  1
0
  0
DICTIONARY
  5
3686
102
{ACAD_REACTORS
330
3684
102
}
330
3684
100
AcDbDictionary
281
     1
  0
DICTIONARY
  5
3685
102
{ACAD_REACTORS
330
3684
102
}
330
3684
100
AcDbDictionary
281
     1
  3
2128375712752
350
367F
  3
2128375712768
350
3680
  3
2128375712784
350
3681
  3
2128375712800
350
3682
  3
2128375712816
350
3683
  0
DICTIONARY
  5
355E
102
{ACAD_REACTORS
330
3555
102
}
330
3555
100
AcDbDictionary
281
     1
  0
DICTIONARY
  5
36B9
330
346E
100
AcDbDictionary
280
     1
281
     1
  3
ACAD_XREC_ROUNDTRIP
360
36BA
  0
DICTIONARY
  5
341E
330
341D
100
AcDbDictionary
280
     1
281
     1
  3
BUMPTILE
360
3420
  3
DIFFUSETILE
360
341F
  3
OPACITYTILE
360
3423
  3
REFLECTIONTILE
360
3422
  3
REFRACTIONTILE
360
3424
  3
SPECULARTILE
360
3421
  0
DICTIONARY
  5
3416
330
3415
100
AcDbDictionary
280
     1
281
     1
  3
BUMPTILE
360
3418
  3
DIFFUSETILE
360
3417
  3
OPACITYTILE
360
341B
  3
REFLECTIONTILE
360
341A
  3
REFRACTIONTILE
360
341C
  3
SPECULARTILE
360
3419
  0
DICTIONARY
  5
3426
330
3425
100
AcDbDictionary
280
     1
281
     1
  3
BUMPTILE
360
3428
  3
DIFFUSETILE
360
3427
  3
OPACITYTILE
360
342B
  3
REFLECTIONTILE
360
342A
  3
REFRACTIONTILE
360
342C
  3
SPECULARTILE
360
3429
  0
DICTIONARY
  5
36B7
330
346C
100
AcDbDictionary
280
     1
281
     1
  3
ACAD_XREC_ROUNDTRIP
360
36B8
  0
DICTIONARY
  5
367C
330
3468
100
AcDbDictionary
280
     1
281
     1
  3
ACAD_ROUNDTRIP_2008_TABLESTYLE_CELLSTYLEMAP
360
367D
  0
DICTIONARY
  5
3691
330
3433
100
AcDbDictionary
280
     1
281
     1
  3
ACAD_XREC_ROUNDTRIP
360
3692
  0
DICTIONARY
  5
368F
330
3432
100
AcDbDictionary
280
     1
281
     1
  3
ACAD_XREC_ROUNDTRIP
360
3690
  0
DICTIONARY
  5
369D
330
3439
100
AcDbDictionary
280
     1
281
     1
  3
ACAD_XREC_ROUNDTRIP
360
369E
  0
DICTIONARY
  5
36A5
330
343D
100
AcDbDictionary
280
     1
281
     1
  3
ACAD_XREC_ROUNDTRIP
360
36A6
  0
DICTIONARY
  5
3697
330
3436
100
AcDbDictionary
280
     1
281
     1
  3
ACAD_XREC_ROUNDTRIP
360
3698
  0
DICTIONARY
  5
369B
330
3438
100
AcDbDictionary
280
     1
281
     1
  3
ACAD_XREC_ROUNDTRIP
360
369C
  0
DICTIONARY
  5
36B5
330
3445
100
AcDbDictionary
280
     1
281
     1
  3
ACAD_XREC_ROUNDTRIP
360
36B6
  0
DICTIONARY
  5
36A3
330
343C
100
AcDbDictionary
280
     1
281
     1
  3
ACAD_XREC_ROUNDTRIP
360
36A4
  0
DICTIONARY
  5
3687
330
342E
100
AcDbDictionary
280
     1
281
     1
  3
ACAD_XREC_ROUNDTRIP
360
3688
  0
DICTIONARY
  5
3689
330
342F
100
AcDbDictionary
280
     1
281
     1
  3
ACAD_XREC_ROUNDTRIP
360
368A
  0
DICTIONARY
  5
368B
330
3430
100
AcDbDictionary
280
     1
281
     1
  3
ACAD_XREC_ROUNDTRIP
360
368C
  0
DICTIONARY
  5
368D
330
3431
100
AcDbDictionary
280
     1
281
     1
  3
ACAD_XREC_ROUNDTRIP
360
368E
  0
DICTIONARY
  5
3695
330
3435
100
AcDbDictionary
280
     1
281
     1
  3
ACAD_XREC_ROUNDTRIP
360
3696
  0
DICTIONARY
  5
36B1
330
3443
100
AcDbDictionary
280
     1
281
     1
  3
ACAD_XREC_ROUNDTRIP
360
36B2
  0
DICTIONARY
  5
36A1
330
343B
100
AcDbDictionary
280
     1
281
     1
  3
ACAD_XREC_ROUNDTRIP
360
36A2
  0
DICTIONARY
  5
36B3
330
3444
100
AcDbDictionary
280
     1
281
     1
  3
ACAD_XREC_ROUNDTRIP
360
36B4
  0
DICTIONARY
  5
3699
330
3437
100
AcDbDictionary
280
     1
281
     1
  3
ACAD_XREC_ROUNDTRIP
360
369A
  0
DICTIONARY
  5
36AF
330
3442
100
AcDbDictionary
280
     1
281
     1
  3
ACAD_XREC_ROUNDTRIP
360
36B0
  0
DICTIONARY
  5
36AD
330
3441
100
AcDbDictionary
280
     1
281
     1
  3
ACAD_XREC_ROUNDTRIP
360
36AE
  0
DICTIONARY
  5
36A7
330
343E
100
AcDbDictionary
280
     1
281
     1
  3
ACAD_XREC_ROUNDTRIP
360
36A8
  0
DICTIONARY
  5
36A9
330
343F
100
AcDbDictionary
280
     1
281
     1
  3
ACAD_XREC_ROUNDTRIP
360
36AA
  0
DICTIONARY
  5
369F
330
343A
100
AcDbDictionary
280
     1
281
     1
  3
ACAD_XREC_ROUNDTRIP
360
36A0
  0
DICTIONARY
  5
3693
330
3434
100
AcDbDictionary
280
     1
281
     1
  3
ACAD_XREC_ROUNDTRIP
360
3694
  0
DICTIONARY
  5
36AB
330
3440
100
AcDbDictionary
280
     1
281
     1
  3
ACAD_XREC_ROUNDTRIP
360
36AC
  0
XRECORD
  5
367F
102
{ACAD_REACTORS
330
3685
102
}
330
3685
100
AcDbXrecord
280
     1
  1
AcDb_Thumbnail_Schema
102
{ATTRRECORD
341
3680
  2
AcDbDs::TreatedAsObjectData
280
     1
291
     1
102
ATTRRECORD}
102
{ATTRRECORD
341
3681
  2
AcDbDs::Legacy
280
     1
291
     1
102
ATTRRECORD}
  2
AcDbDs::ID
280
    10
 91
        8
102
{ATTRRECORD
341
3682
  2
AcDs:Indexable
280
     1
291
     1
102
ATTRRECORD}
102
{ATTRRECORD
341
3683
  2
AcDbDs::HandleAttribute
280
     7
282
     1
102
ATTRRECORD}
  2
Thumbnail_Data
280
    15
 91
        0
  0
XRECORD
  5
3680
102
{ACAD_REACTORS
330
3685
102
}
330
3685
100
AcDbXrecord
280
     1
  1
AcDbDs::TreatedAsObjectDataSchema
  2
AcDbDs::TreatedAsObjectData
280
     1
 91
        0
  0
XRECORD
  5
3681
102
{ACAD_REACTORS
330
3685
102
}
330
3685
100
AcDbXrecord
280
     1
  1
AcDbDs::LegacySchema
  2
AcDbDs::Legacy
280
     1
 91
        0
  0
XRECORD
  5
3682
102
{ACAD_REACTORS
330
3685
102
}
330
3685
100
AcDbXrecord
280
     1
  1
AcDbDs::IndexedPropertySchema
  2
AcDs:Indexable
280
     1
 91
        0
  0
XRECORD
  5
3683
102
{ACAD_REACTORS
330
3685
102
}
330
3685
100
AcDbXrecord
280
     1
  1
AcDbDs::HandleAttributeSchema
  2
AcDbDs::HandleAttribute
280
     7
 91
        1
284
     1
  0
XRECORD
  5
36BA
102
{ACAD_REACTORS
330
36B9
102
}
330
36B9
100
AcDbXrecord
280
     1
102
DISPLAYNAME
  1
Imperial24
102
FLAGS
 90
        0
  0
XRECORD
  5
3420
102
{ACAD_REACTORS
330
341E
102
}
330
341E
100
AcDbXrecord
280
     1
270
     1
271
     1
  0
XRECORD
  5
341F
102
{ACAD_REACTORS
330
341E
102
}
330
341E
100
AcDbXrecord
280
     1
270
     1
271
     1
  0
XRECORD
  5
3423
102
{ACAD_REACTORS
330
341E
102
}
330
341E
100
AcDbXrecord
280
     1
270
     1
271
     1
  0
XRECORD
  5
3422
102
{ACAD_REACTORS
330
341E
102
}
330
341E
100
AcDbXrecord
280
     1
270
     1
271
     1
  0
XRECORD
  5
3424
102
{ACAD_REACTORS
330
341E
102
}
330
341E
100
AcDbXrecord
280
     1
270
     1
271
     1
  0
XRECORD
  5
3421
102
{ACAD_REACTORS
330
341E
102
}
330
341E
100
AcDbXrecord
280
     1
270
     1
271
     1
  0
XRECORD
  5
3418
102
{ACAD_REACTORS
330
3416
102
}
330
3416
100
AcDbXrecord
280
     1
270
     1
271
     1
  0
XRECORD
  5
3417
102
{ACAD_REACTORS
330
3416
102
}
330
3416
100
AcDbXrecord
280
     1
270
     1
271
     1
  0
XRECORD
  5
341B
102
{ACAD_REACTORS
330
3416
102
}
330
3416
100
AcDbXrecord
280
     1
270
     1
271
     1
  0
XRECORD
  5
341A
102
{ACAD_REACTORS
330
3416
102
}
330
3416
100
AcDbXrecord
280
     1
270
     1
271
     1
  0
XRECORD
  5
341C
102
{ACAD_REACTORS
330
3416
102
}
330
3416
100
AcDbXrecord
280
     1
270
     1
271
     1
  0
XRECORD
  5
3419
102
{ACAD_REACTORS
330
3416
102
}
330
3416
100
AcDbXrecord
280
     1
270
     1
271
     1
  0
XRECORD
  5
3428
102
{ACAD_REACTORS
330
3426
102
}
330
3426
100
AcDbXrecord
280
     1
270
     1
271
     1
  0
XRECORD
  5
3427
102
{ACAD_REACTORS
330
3426
102
}
330
3426
100
AcDbXrecord
280
     1
270
     1
271
     1
  0
XRECORD
  5
342B
102
{ACAD_REACTORS
330
3426
102
}
330
3426
100
AcDbXrecord
280
     1
270
     1
271
     1
  0
XRECORD
  5
342A
102
{ACAD_REACTORS
330
3426
102
}
330
3426
100
AcDbXrecord
280
     1
270
     1
271
     1
  0
XRECORD
  5
342C
102
{ACAD_REACTORS
330
3426
102
}
330
3426
100
AcDbXrecord
280
     1
270
     1
271
     1
  0
XRECORD
  5
3429
102
{ACAD_REACTORS
330
3426
102
}
330
3426
100
AcDbXrecord
280
     1
270
     1
271
     1
  0
XRECORD
  5
36B8
102
{ACAD_REACTORS
330
36B7
102
}
330
36B7
100
AcDbXrecord
280
     1
102
DISPLAYNAME
  1
Imperial24
102
FLAGS
 90
        0
  0
CELLSTYLEMAP
  5
367D
102
{ACAD_REACTORS
330
367C
102
}
330
367C
100
AcDbCellStyleMap
 90
        3
300
CELLSTYLE
  1
TABLEFORMAT_BEGIN
 90
        5
170
     1
 91
        0
 92
    32768
 62
   257
 93
        1
300
CONTENTFORMAT
  1
CONTENTFORMAT_BEGIN
 90
        0
 91
        0
 92
      512
 93
        0
300

 40
0.0
140
1.0
 94
        5
 62
     0
340
3459
144
0.25
309
CONTENTFORMAT_END
171
     0
 94
        0
309
TABLEFORMAT_END
  1
CELLSTYLE_BEGIN
 90
        1
 91
        1
300
_TITLE
309
CELLSTYLE_END
300
CELLSTYLE
  1
TABLEFORMAT_BEGIN
 90
        5
170
     1
 91
        0
 92
        0
 62
   257
 93
        1
300
CONTENTFORMAT
  1
CONTENTFORMAT_BEGIN
 90
        0
 91
        0
 92
      512
 93
        0
300

 40
0.0
140
1.0
 94
        5
 62
     0
340
3459
144
0.18
309
CONTENTFORMAT_END
171
     0
 94
        0
309
TABLEFORMAT_END
  1
CELLSTYLE_BEGIN
 90
        2
 91
        1
300
_HEADER
309
CELLSTYLE_END
300
CELLSTYLE
  1
TABLEFORMAT_BEGIN
 90
        5
170
     1
 91
        0
 92
        0
 62
   257
 93
        1
300
CONTENTFORMAT
  1
CONTENTFORMAT_BEGIN
 90
        0
 91
        0
 92
      512
 93
        0
300

 40
0.0
140
1.0
 94
        2
 62
     0
340
3459
144
0.18
309
CONTENTFORMAT_END
171
     0
 94
        0
309
TABLEFORMAT_END
  1
CELLSTYLE_BEGIN
 90
        3
 91
        2
300
_DATA
309
CELLSTYLE_END
  0
XRECORD
  5
3692
102
{ACAD_REACTORS
330
3691
102
}
330
3691
100
AcDbXrecord
280
     1
102
RTVSPost2010Prop28
280
     1
102
RTVSPost2010PropOp28
 70
     1
102
RTVSPost2010Prop29
280
     1
102
RTVSPost2010PropOp29
 70
     1
102
RTVSPost2010Prop30
280
     0
102
RTVSPost2010PropOp30
 70
     1
102
RTVSPost2010Prop31
280
     0
102
RTVSPost2010PropOp31
 70
     1
102
RTVSPost2010Prop32
280
     0
102
RTVSPost2010PropOp32
 70
     1
102
RTVSPost2010Prop33
280
     0
102
RTVSPost2010PropOp33
 70
     1
102
RTVSPost2010Prop34
280
     0
102
RTVSPost2010PropOp34
 70
     1
102
RTVSPost2010Prop35
280
     0
102
RTVSPost2010PropOp35
 70
     1
102
RTVSPost2010Prop36
280
     0
102
RTVSPost2010PropOp36
 70
     1
102
RTVSPost2010Prop37
 90
       50
102
RTVSPost2010PropOp37
 70
     1
102
RTVSPost2010Prop38
140
0.0
102
RTVSPost2010PropOp38
 70
     1
102
RTVSPost2010Prop39
140
1.0
102
RTVSPost2010PropOp39
 70
     1
102
RTVSPost2010Prop40
 90
        0
102
RTVSPost2010PropOp40
 70
     1
102
RTVSPost2010Prop41ColorIndex
 90
       18
102
RTVSPost2010Prop41ColorRGB
 90
        0
102
RTVSPost2010PropOp41
 70
     1
102
RTVSPost2010Prop42
 90
       50
102
RTVSPost2010PropOp42
 70
     1
102
RTVSPost2010Prop43
 90
        3
102
RTVSPost2010PropOp43
 70
     1
102
RTVSPost2010Prop44ColorIndex
 90
        5
102
RTVSPost2010Prop44ColorRGB
 90
      255
102
RTVSPost2010PropOp44
 70
     1
102
RTVSPost2010Prop45
280
     0
102
RTVSPost2010PropOp45
 70
     1
102
RTVSPost2010Prop46
 90
       50
102
RTVSPost2010PropOp46
 70
     1
102
RTVSPost2010Prop47
 90
       50
102
RTVSPost2010PropOp47
 70
     1
102
RTVSPost2010Prop48
 90
       50
102
RTVSPost2010PropOp48
 70
     1
102
RTVSPost2010Prop49
280
     0
102
RTVSPost2010PropOp49
 70
     1
102
RTVSPost2010Prop50
 90
       50
102
RTVSPost2010PropOp50
 70
     1
102
RTVSPost2010Prop51ColorIndex
 90
      256
102
RTVSPost2010Prop51ColorRGB
 90
-16777216
102
RTVSPost2010PropOp51
 70
     0
102
RTVSPost2010Prop52
140
1.0
102
RTVSPost2010PropOp52
 70
     0
102
RTVSPost2010Prop53
 90
        2
102
RTVSPost2010PropOp53
 70
     1
102
RTVSPost2010Prop54
  1
strokes_ogs.tif
102
RTVSPost2010PropOp54
 70
     1
102
RTVSPost2010Prop55
280
     0
102
RTVSPost2010PropOp55
 70
     1
102
RTVSPost2010Prop56
140
1.0
102
RTVSPost2010PropOp56
 70
     1
102
RTVSPost2010Prop57
140
1.0
102
RTVSPost2010PropOp57
 70
     1
  0
XRECORD
  5
3690
102
{ACAD_REACTORS
330
368F
102
}
330
368F
100
AcDbXrecord
280
     1
102
RTVSPost2010Prop28
280
     0
102
RTVSPost2010PropOp28
 70
     1
102
RTVSPost2010Prop29
280
     1
102
RTVSPost2010PropOp29
 70
     1
102
RTVSPost2010Prop30
280
     1
102
RTVSPost2010PropOp30
 70
     1
102
RTVSPost2010Prop31
280
     0
102
RTVSPost2010PropOp31
 70
     1
102
RTVSPost2010Prop32
280
     0
102
RTVSPost2010PropOp32
 70
     1
102
RTVSPost2010Prop33
280
     0
102
RTVSPost2010PropOp33
 70
     1
102
RTVSPost2010Prop34
280
     0
102
RTVSPost2010PropOp34
 70
     1
102
RTVSPost2010Prop35
280
     0
102
RTVSPost2010PropOp35
 70
     1
102
RTVSPost2010Prop36
280
     0
102
RTVSPost2010PropOp36
 70
     1
102
RTVSPost2010Prop37
 90
       50
102
RTVSPost2010PropOp37
 70
     1
102
RTVSPost2010Prop38
140
0.0
102
RTVSPost2010PropOp38
 70
     1
102
RTVSPost2010Prop39
140
1.0
102
RTVSPost2010PropOp39
 70
     1
102
RTVSPost2010Prop40
 90
        0
102
RTVSPost2010PropOp40
 70
     1
102
RTVSPost2010Prop41ColorIndex
 90
       18
102
RTVSPost2010Prop41ColorRGB
 90
        0
102
RTVSPost2010PropOp41
 70
     1
102
RTVSPost2010Prop42
 90
       50
102
RTVSPost2010PropOp42
 70
     1
102
RTVSPost2010Prop43
 90
        3
102
RTVSPost2010PropOp43
 70
     1
102
RTVSPost2010Prop44ColorIndex
 90
        5
102
RTVSPost2010Prop44ColorRGB
 90
      255
102
RTVSPost2010PropOp44
 70
     1
102
RTVSPost2010Prop45
280
     0
102
RTVSPost2010PropOp45
 70
     1
102
RTVSPost2010Prop46
 90
       50
102
RTVSPost2010PropOp46
 70
     1
102
RTVSPost2010Prop47
 90
       50
102
RTVSPost2010PropOp47
 70
     1
102
RTVSPost2010Prop48
 90
       50
102
RTVSPost2010PropOp48
 70
     1
102
RTVSPost2010Prop49
280
     0
102
RTVSPost2010PropOp49
 70
     1
102
RTVSPost2010Prop50
 90
       50
102
RTVSPost2010PropOp50
 70
     1
102
RTVSPost2010Prop51ColorIndex
 90
      256
102
RTVSPost2010Prop51ColorRGB
 90
-16777216
102
RTVSPost2010PropOp51
 70
     0
102
RTVSPost2010Prop52
140
1.0
102
RTVSPost2010PropOp52
 70
     0
102
RTVSPost2010Prop53
 90
        2
102
RTVSPost2010PropOp53
 70
     1
102
RTVSPost2010Prop54
  1
strokes_ogs.tif
102
RTVSPost2010PropOp54
 70
     1
102
RTVSPost2010Prop55
280
     0
102
RTVSPost2010PropOp55
 70
     1
102
RTVSPost2010Prop56
140
1.0
102
RTVSPost2010PropOp56
 70
     1
102
RTVSPost2010Prop57
140
1.0
102
RTVSPost2010PropOp57
 70
     1
  0
XRECORD
  5
369E
102
{ACAD_REACTORS
330
369D
102
}
330
369D
100
AcDbXrecord
280
     1
102
RTVSPost2010Prop28
280
     0
102
RTVSPost2010PropOp28
 70
     1
102
RTVSPost2010Prop29
280
     1
102
RTVSPost2010PropOp29
 70
     1
102
RTVSPost2010Prop30
280
     1
102
RTVSPost2010PropOp30
 70
     1
102
RTVSPost2010Prop31
280
     0
102
RTVSPost2010PropOp31
 70
     1
102
RTVSPost2010Prop32
280
     0
102
RTVSPost2010PropOp32
 70
     1
102
RTVSPost2010Prop33
280
     0
102
RTVSPost2010PropOp33
 70
     1
102
RTVSPost2010Prop34
280
     0
102
RTVSPost2010PropOp34
 70
     1
102
RTVSPost2010Prop35
280
     0
102
RTVSPost2010PropOp35
 70
     1
102
RTVSPost2010Prop36
280
     0
102
RTVSPost2010PropOp36
 70
     1
102
RTVSPost2010Prop37
 90
       50
102
RTVSPost2010PropOp37
 70
     1
102
RTVSPost2010Prop38
140
0.0
102
RTVSPost2010PropOp38
 70
     1
102
RTVSPost2010Prop39
140
1.0
102
RTVSPost2010PropOp39
 70
     1
102
RTVSPost2010Prop40
 90
        0
102
RTVSPost2010PropOp40
 70
     1
102
RTVSPost2010Prop41ColorIndex
 90
       18
102
RTVSPost2010Prop41ColorRGB
 90
        0
102
RTVSPost2010PropOp41
 70
     1
102
RTVSPost2010Prop42
 90
       50
102
RTVSPost2010PropOp42
 70
     1
102
RTVSPost2010Prop43
 90
        3
102
RTVSPost2010PropOp43
 70
     1
102
RTVSPost2010Prop44ColorIndex
 90
        5
102
RTVSPost2010Prop44ColorRGB
 90
      255
102
RTVSPost2010PropOp44
 70
     1
102
RTVSPost2010Prop45
280
     0
102
RTVSPost2010PropOp45
 70
     1
102
RTVSPost2010Prop46
 90
       50
102
RTVSPost2010PropOp46
 70
     1
102
RTVSPost2010Prop47
 90
       50
102
RTVSPost2010PropOp47
 70
     1
102
RTVSPost2010Prop48
 90
       50
102
RTVSPost2010PropOp48
 70
     1
102
RTVSPost2010Prop49
280
     0
102
RTVSPost2010PropOp49
 70
     1
102
RTVSPost2010Prop50
 90
       50
102
RTVSPost2010PropOp50
 70
     1
102
RTVSPost2010Prop51ColorIndex
 90
      256
102
RTVSPost2010Prop51ColorRGB
 90
-16777216
102
RTVSPost2010PropOp51
 70
     0
102
RTVSPost2010Prop52
140
1.0
102
RTVSPost2010PropOp52
 70
     0
102
RTVSPost2010Prop53
 90
        2
102
RTVSPost2010PropOp53
 70
     1
102
RTVSPost2010Prop54
  1
strokes_ogs.tif
102
RTVSPost2010PropOp54
 70
     1
102
RTVSPost2010Prop55
280
     0
102
RTVSPost2010PropOp55
 70
     1
102
RTVSPost2010Prop56
140
1.0
102
RTVSPost2010PropOp56
 70
     1
102
RTVSPost2010Prop57
140
1.0
102
RTVSPost2010PropOp57
 70
     1
  0
XRECORD
  5
36A6
102
{ACAD_REACTORS
330
36A5
102
}
330
36A5
100
AcDbXrecord
280
     1
102
RTVSPost2010Prop28
280
     0
102
RTVSPost2010PropOp28
 70
     1
102
RTVSPost2010Prop29
280
     1
102
RTVSPost2010PropOp29
 70
     1
102
RTVSPost2010Prop30
280
     1
102
RTVSPost2010PropOp30
 70
     1
102
RTVSPost2010Prop31
280
     0
102
RTVSPost2010PropOp31
 70
     1
102
RTVSPost2010Prop32
280
     0
102
RTVSPost2010PropOp32
 70
     1
102
RTVSPost2010Prop33
280
     0
102
RTVSPost2010PropOp33
 70
     1
102
RTVSPost2010Prop34
280
     0
102
RTVSPost2010PropOp34
 70
     1
102
RTVSPost2010Prop35
280
     0
102
RTVSPost2010PropOp35
 70
     1
102
RTVSPost2010Prop36
280
     0
102
RTVSPost2010PropOp36
 70
     1
102
RTVSPost2010Prop37
 90
       50
102
RTVSPost2010PropOp37
 70
     1
102
RTVSPost2010Prop38
140
0.0
102
RTVSPost2010PropOp38
 70
     1
102
RTVSPost2010Prop39
140
1.0
102
RTVSPost2010PropOp39
 70
     1
102
RTVSPost2010Prop40
 90
        0
102
RTVSPost2010PropOp40
 70
     1
102
RTVSPost2010Prop41ColorIndex
 90
       18
102
RTVSPost2010Prop41ColorRGB
 90
        0
102
RTVSPost2010PropOp41
 70
     1
102
RTVSPost2010Prop42
 90
       50
102
RTVSPost2010PropOp42
 70
     1
102
RTVSPost2010Prop43
 90
        3
102
RTVSPost2010PropOp43
 70
     1
102
RTVSPost2010Prop44ColorIndex
 90
        5
102
RTVSPost2010Prop44ColorRGB
 90
      255
102
RTVSPost2010PropOp44
 70
     1
102
RTVSPost2010Prop45
280
     0
102
RTVSPost2010PropOp45
 70
     1
102
RTVSPost2010Prop46
 90
       50
102
RTVSPost2010PropOp46
 70
     1
102
RTVSPost2010Prop47
 90
       50
102
RTVSPost2010PropOp47
 70
     1
102
RTVSPost2010Prop48
 90
       50
102
RTVSPost2010PropOp48
 70
     1
102
RTVSPost2010Prop49
280
     0
102
RTVSPost2010PropOp49
 70
     1
102
RTVSPost2010Prop50
 90
       50
102
RTVSPost2010PropOp50
 70
     1
102
RTVSPost2010Prop51ColorIndex
 90
      256
102
RTVSPost2010Prop51ColorRGB
 90
-16777216
102
RTVSPost2010PropOp51
 70
     0
102
RTVSPost2010Prop52
140
1.0
102
RTVSPost2010PropOp52
 70
     0
102
RTVSPost2010Prop53
 90
        2
102
RTVSPost2010PropOp53
 70
     1
102
RTVSPost2010Prop54
  1
strokes_ogs.tif
102
RTVSPost2010PropOp54
 70
     1
102
RTVSPost2010Prop55
280
     0
102
RTVSPost2010PropOp55
 70
     1
102
RTVSPost2010Prop56
140
1.0
102
RTVSPost2010PropOp56
 70
     1
102
RTVSPost2010Prop57
140
1.0
102
RTVSPost2010PropOp57
 70
     1
  0
XRECORD
  5
3698
102
{ACAD_REACTORS
330
3697
102
}
330
3697
100
AcDbXrecord
280
     1
102
RTVSPost2010Prop28
280
     0
102
RTVSPost2010PropOp28
 70
     1
102
RTVSPost2010Prop29
280
     1
102
RTVSPost2010PropOp29
 70
     1
102
RTVSPost2010Prop30
280
     1
102
RTVSPost2010PropOp30
 70
     1
102
RTVSPost2010Prop31
280
     0
102
RTVSPost2010PropOp31
 70
     1
102
RTVSPost2010Prop32
280
     0
102
RTVSPost2010PropOp32
 70
     1
102
RTVSPost2010Prop33
280
     0
102
RTVSPost2010PropOp33
 70
     1
102
RTVSPost2010Prop34
280
     0
102
RTVSPost2010PropOp34
 70
     1
102
RTVSPost2010Prop35
280
     0
102
RTVSPost2010PropOp35
 70
     1
102
RTVSPost2010Prop36
280
     0
102
RTVSPost2010PropOp36
 70
     1
102
RTVSPost2010Prop37
 90
       50
102
RTVSPost2010PropOp37
 70
     1
102
RTVSPost2010Prop38
140
0.0
102
RTVSPost2010PropOp38
 70
     1
102
RTVSPost2010Prop39
140
1.0
102
RTVSPost2010PropOp39
 70
     1
102
RTVSPost2010Prop40
 90
        0
102
RTVSPost2010PropOp40
 70
     1
102
RTVSPost2010Prop41ColorIndex
 90
       18
102
RTVSPost2010Prop41ColorRGB
 90
        0
102
RTVSPost2010PropOp41
 70
     1
102
RTVSPost2010Prop42
 90
       50
102
RTVSPost2010PropOp42
 70
     1
102
RTVSPost2010Prop43
 90
        3
102
RTVSPost2010PropOp43
 70
     1
102
RTVSPost2010Prop44ColorIndex
 90
        5
102
RTVSPost2010Prop44ColorRGB
 90
      255
102
RTVSPost2010PropOp44
 70
     1
102
RTVSPost2010Prop45
280
     0
102
RTVSPost2010PropOp45
 70
     1
102
RTVSPost2010Prop46
 90
       50
102
RTVSPost2010PropOp46
 70
     1
102
RTVSPost2010Prop47
 90
       50
102
RTVSPost2010PropOp47
 70
     1
102
RTVSPost2010Prop48
 90
       50
102
RTVSPost2010PropOp48
 70
     1
102
RTVSPost2010Prop49
280
     0
102
RTVSPost2010PropOp49
 70
     1
102
RTVSPost2010Prop50
 90
       50
102
RTVSPost2010PropOp50
 70
     1
102
RTVSPost2010Prop51ColorIndex
 90
      256
102
RTVSPost2010Prop51ColorRGB
 90
-16777216
102
RTVSPost2010PropOp51
 70
     0
102
RTVSPost2010Prop52
140
1.0
102
RTVSPost2010PropOp52
 70
     0
102
RTVSPost2010Prop53
 90
        2
102
RTVSPost2010PropOp53
 70
     1
102
RTVSPost2010Prop54
  1
strokes_ogs.tif
102
RTVSPost2010PropOp54
 70
     1
102
RTVSPost2010Prop55
280
     0
102
RTVSPost2010PropOp55
 70
     1
102
RTVSPost2010Prop56
140
1.0
102
RTVSPost2010PropOp56
 70
     1
102
RTVSPost2010Prop57
140
1.0
102
RTVSPost2010PropOp57
 70
     1
  0
XRECORD
  5
369C
102
{ACAD_REACTORS
330
369B
102
}
330
369B
100
AcDbXrecord
280
     1
102
RTVSPost2010Prop28
280
     0
102
RTVSPost2010PropOp28
 70
     1
102
RTVSPost2010Prop29
280
     1
102
RTVSPost2010PropOp29
 70
     1
102
RTVSPost2010Prop30
280
     1
102
RTVSPost2010PropOp30
 70
     1
102
RTVSPost2010Prop31
280
     0
102
RTVSPost2010PropOp31
 70
     1
102
RTVSPost2010Prop32
280
     0
102
RTVSPost2010PropOp32
 70
     1
102
RTVSPost2010Prop33
280
     0
102
RTVSPost2010PropOp33
 70
     1
102
RTVSPost2010Prop34
280
     0
102
RTVSPost2010PropOp34
 70
     1
102
RTVSPost2010Prop35
280
     0
102
RTVSPost2010PropOp35
 70
     1
102
RTVSPost2010Prop36
280
     0
102
RTVSPost2010PropOp36
 70
     1
102
RTVSPost2010Prop37
 90
       50
102
RTVSPost2010PropOp37
 70
     1
102
RTVSPost2010Prop38
140
0.0
102
RTVSPost2010PropOp38
 70
     1
102
RTVSPost2010Prop39
140
1.0
102
RTVSPost2010PropOp39
 70
     1
102
RTVSPost2010Prop40
 90
        0
102
RTVSPost2010PropOp40
 70
     1
102
RTVSPost2010Prop41ColorIndex
 90
       18
102
RTVSPost2010Prop41ColorRGB
 90
        0
102
RTVSPost2010PropOp41
 70
     1
102
RTVSPost2010Prop42
 90
       50
102
RTVSPost2010PropOp42
 70
     1
102
RTVSPost2010Prop43
 90
        3
102
RTVSPost2010PropOp43
 70
     1
102
RTVSPost2010Prop44ColorIndex
 90
        5
102
RTVSPost2010Prop44ColorRGB
 90
      255
102
RTVSPost2010PropOp44
 70
     1
102
RTVSPost2010Prop45
280
     0
102
RTVSPost2010PropOp45
 70
     1
102
RTVSPost2010Prop46
 90
       50
102
RTVSPost2010PropOp46
 70
     1
102
RTVSPost2010Prop47
 90
       50
102
RTVSPost2010PropOp47
 70
     1
102
RTVSPost2010Prop48
 90
       50
102
RTVSPost2010PropOp48
 70
     1
102
RTVSPost2010Prop49
280
     0
102
RTVSPost2010PropOp49
 70
     1
102
RTVSPost2010Prop50
 90
       50
102
RTVSPost2010PropOp50
 70
     1
102
RTVSPost2010Prop51ColorIndex
 90
      256
102
RTVSPost2010Prop51ColorRGB
 90
-16777216
102
RTVSPost2010PropOp51
 70
     0
102
RTVSPost2010Prop52
140
1.0
102
RTVSPost2010PropOp52
 70
     0
102
RTVSPost2010Prop53
 90
        2
102
RTVSPost2010PropOp53
 70
     1
102
RTVSPost2010Prop54
  1
strokes_ogs.tif
102
RTVSPost2010PropOp54
 70
     1
102
RTVSPost2010Prop55
280
     0
102
RTVSPost2010PropOp55
 70
     1
102
RTVSPost2010Prop56
140
1.0
102
RTVSPost2010PropOp56
 70
     1
102
RTVSPost2010Prop57
140
1.0
102
RTVSPost2010PropOp57
 70
     1
  0
XRECORD
  5
36B6
102
{ACAD_REACTORS
330
36B5
102
}
330
36B5
100
AcDbXrecord
280
     1
102
RTVSPost2010Prop28
280
     0
102
RTVSPost2010PropOp28
 70
     1
102
RTVSPost2010Prop29
280
     1
102
RTVSPost2010PropOp29
 70
     1
102
RTVSPost2010Prop30
280
     1
102
RTVSPost2010PropOp30
 70
     1
102
RTVSPost2010Prop31
280
     0
102
RTVSPost2010PropOp31
 70
     1
102
RTVSPost2010Prop32
280
     0
102
RTVSPost2010PropOp32
 70
     1
102
RTVSPost2010Prop33
280
     0
102
RTVSPost2010PropOp33
 70
     1
102
RTVSPost2010Prop34
280
     0
102
RTVSPost2010PropOp34
 70
     1
102
RTVSPost2010Prop35
280
     0
102
RTVSPost2010PropOp35
 70
     1
102
RTVSPost2010Prop36
280
     0
102
RTVSPost2010PropOp36
 70
     1
102
RTVSPost2010Prop37
 90
       50
102
RTVSPost2010PropOp37
 70
     0
102
RTVSPost2010Prop38
140
0.0
102
RTVSPost2010PropOp38
 70
     0
102
RTVSPost2010Prop39
140
1.0
102
RTVSPost2010PropOp39
 70
     0
102
RTVSPost2010Prop40
 90
        0
102
RTVSPost2010PropOp40
 70
     0
102
RTVSPost2010Prop41ColorIndex
 90
       18
102
RTVSPost2010Prop41ColorRGB
 90
        0
102
RTVSPost2010PropOp41
 70
     0
102
RTVSPost2010Prop42
 90
       50
102
RTVSPost2010PropOp42
 70
     0
102
RTVSPost2010Prop43
 90
        3
102
RTVSPost2010PropOp43
 70
     0
102
RTVSPost2010Prop44ColorIndex
 90
        5
102
RTVSPost2010Prop44ColorRGB
 90
      255
102
RTVSPost2010PropOp44
 70
     0
102
RTVSPost2010Prop45
280
     0
102
RTVSPost2010PropOp45
 70
     1
102
RTVSPost2010Prop46
 90
       50
102
RTVSPost2010PropOp46
 70
     0
102
RTVSPost2010Prop47
 90
       50
102
RTVSPost2010PropOp47
 70
     0
102
RTVSPost2010Prop48
 90
       50
102
RTVSPost2010PropOp48
 70
     0
102
RTVSPost2010Prop49
280
     0
102
RTVSPost2010PropOp49
 70
     1
102
RTVSPost2010Prop50
 90
       50
102
RTVSPost2010PropOp50
 70
     0
102
RTVSPost2010Prop51ColorIndex
 90
      256
102
RTVSPost2010Prop51ColorRGB
 90
-16777216
102
RTVSPost2010PropOp51
 70
     0
102
RTVSPost2010Prop52
140
1.0
102
RTVSPost2010PropOp52
 70
     0
102
RTVSPost2010Prop53
 90
        2
102
RTVSPost2010PropOp53
 70
     0
102
RTVSPost2010Prop54
  1
strokes_ogs.tif
102
RTVSPost2010PropOp54
 70
     0
102
RTVSPost2010Prop55
280
     0
102
RTVSPost2010PropOp55
 70
     1
102
RTVSPost2010Prop56
140
1.0
102
RTVSPost2010PropOp56
 70
     0
102
RTVSPost2010Prop57
140
1.0
102
RTVSPost2010PropOp57
 70
     0
  0
XRECORD
  5
36A4
102
{ACAD_REACTORS
330
36A3
102
}
330
36A3
100
AcDbXrecord
280
     1
102
RTVSPost2010Prop28
280
     0
102
RTVSPost2010PropOp28
 70
     1
102
RTVSPost2010Prop29
280
     1
102
RTVSPost2010PropOp29
 70
     1
102
RTVSPost2010Prop30
280
     1
102
RTVSPost2010PropOp30
 70
     1
102
RTVSPost2010Prop31
280
     0
102
RTVSPost2010PropOp31
 70
     1
102
RTVSPost2010Prop32
280
     0
102
RTVSPost2010PropOp32
 70
     1
102
RTVSPost2010Prop33
280
     0
102
RTVSPost2010PropOp33
 70
     1
102
RTVSPost2010Prop34
280
     0
102
RTVSPost2010PropOp34
 70
     1
102
RTVSPost2010Prop35
280
     0
102
RTVSPost2010PropOp35
 70
     1
102
RTVSPost2010Prop36
280
     0
102
RTVSPost2010PropOp36
 70
     1
102
RTVSPost2010Prop37
 90
       50
102
RTVSPost2010PropOp37
 70
     1
102
RTVSPost2010Prop38
140
0.0
102
RTVSPost2010PropOp38
 70
     1
102
RTVSPost2010Prop39
140
1.0
102
RTVSPost2010PropOp39
 70
     1
102
RTVSPost2010Prop40
 90
        0
102
RTVSPost2010PropOp40
 70
     1
102
RTVSPost2010Prop41ColorIndex
 90
       18
102
RTVSPost2010Prop41ColorRGB
 90
        0
102
RTVSPost2010PropOp41
 70
     1
102
RTVSPost2010Prop42
 90
       50
102
RTVSPost2010PropOp42
 70
     1
102
RTVSPost2010Prop43
 90
        3
102
RTVSPost2010PropOp43
 70
     1
102
RTVSPost2010Prop44ColorIndex
 90
        5
102
RTVSPost2010Prop44ColorRGB
 90
      255
102
RTVSPost2010PropOp44
 70
     1
102
RTVSPost2010Prop45
280
     0
102
RTVSPost2010PropOp45
 70
     1
102
RTVSPost2010Prop46
 90
       50
102
RTVSPost2010PropOp46
 70
     1
102
RTVSPost2010Prop47
 90
       50
102
RTVSPost2010PropOp47
 70
     1
102
RTVSPost2010Prop48
 90
       50
102
RTVSPost2010PropOp48
 70
     1
102
RTVSPost2010Prop49
280
     0
102
RTVSPost2010PropOp49
 70
     1
102
RTVSPost2010Prop50
 90
       50
102
RTVSPost2010PropOp50
 70
     1
102
RTVSPost2010Prop51ColorIndex
 90
      256
102
RTVSPost2010Prop51ColorRGB
 90
-16777216
102
RTVSPost2010PropOp51
 70
     0
102
RTVSPost2010Prop52
140
1.0
102
RTVSPost2010PropOp52
 70
     0
102
RTVSPost2010Prop53
 90
        2
102
RTVSPost2010PropOp53
 70
     1
102
RTVSPost2010Prop54
  1
strokes_ogs.tif
102
RTVSPost2010PropOp54
 70
     1
102
RTVSPost2010Prop55
280
     0
102
RTVSPost2010PropOp55
 70
     1
102
RTVSPost2010Prop56
140
1.0
102
RTVSPost2010PropOp56
 70
     1
102
RTVSPost2010Prop57
140
1.0
102
RTVSPost2010PropOp57
 70
     1
  0
XRECORD
  5
3688
102
{ACAD_REACTORS
330
3687
102
}
330
3687
100
AcDbXrecord
280
     1
102
RTVSPost2010Prop28
280
     0
102
RTVSPost2010PropOp28
 70
     1
102
RTVSPost2010Prop29
280
     1
102
RTVSPost2010PropOp29
 70
     1
102
RTVSPost2010Prop30
280
     1
102
RTVSPost2010PropOp30
 70
     1
102
RTVSPost2010Prop31
280
     0
102
RTVSPost2010PropOp31
 70
     1
102
RTVSPost2010Prop32
280
     0
102
RTVSPost2010PropOp32
 70
     1
102
RTVSPost2010Prop33
280
     0
102
RTVSPost2010PropOp33
 70
     1
102
RTVSPost2010Prop34
280
     0
102
RTVSPost2010PropOp34
 70
     1
102
RTVSPost2010Prop35
280
     0
102
RTVSPost2010PropOp35
 70
     1
102
RTVSPost2010Prop36
280
     0
102
RTVSPost2010PropOp36
 70
     1
102
RTVSPost2010Prop37
 90
       50
102
RTVSPost2010PropOp37
 70
     1
102
RTVSPost2010Prop38
140
0.0
102
RTVSPost2010PropOp38
 70
     1
102
RTVSPost2010Prop39
140
1.0
102
RTVSPost2010PropOp39
 70
     1
102
RTVSPost2010Prop40
 90
        0
102
RTVSPost2010PropOp40
 70
     1
102
RTVSPost2010Prop41ColorIndex
 90
       18
102
RTVSPost2010Prop41ColorRGB
 90
        0
102
RTVSPost2010PropOp41
 70
     1
102
RTVSPost2010Prop42
 90
       50
102
RTVSPost2010PropOp42
 70
     1
102
RTVSPost2010Prop43
 90
        3
102
RTVSPost2010PropOp43
 70
     1
102
RTVSPost2010Prop44ColorIndex
 90
        5
102
RTVSPost2010Prop44ColorRGB
 90
      255
102
RTVSPost2010PropOp44
 70
     1
102
RTVSPost2010Prop45
280
     0
102
RTVSPost2010PropOp45
 70
     1
102
RTVSPost2010Prop46
 90
       50
102
RTVSPost2010PropOp46
 70
     1
102
RTVSPost2010Prop47
 90
       50
102
RTVSPost2010PropOp47
 70
     1
102
RTVSPost2010Prop48
 90
       50
102
RTVSPost2010PropOp48
 70
     1
102
RTVSPost2010Prop49
280
     0
102
RTVSPost2010PropOp49
 70
     1
102
RTVSPost2010Prop50
 90
       50
102
RTVSPost2010PropOp50
 70
     1
102
RTVSPost2010Prop51ColorIndex
 90
      256
102
RTVSPost2010Prop51ColorRGB
 90
-16777216
102
RTVSPost2010PropOp51
 70
     0
102
RTVSPost2010Prop52
140
1.0
102
RTVSPost2010PropOp52
 70
     0
102
RTVSPost2010Prop53
 90
        2
102
RTVSPost2010PropOp53
 70
     1
102
RTVSPost2010Prop54
  1
strokes_ogs.tif
102
RTVSPost2010PropOp54
 70
     1
102
RTVSPost2010Prop55
280
     0
102
RTVSPost2010PropOp55
 70
     1
102
RTVSPost2010Prop56
140
1.0
102
RTVSPost2010PropOp56
 70
     1
102
RTVSPost2010Prop57
140
1.0
102
RTVSPost2010PropOp57
 70
     1
  0
XRECORD
  5
368A
102
{ACAD_REACTORS
330
3689
102
}
330
3689
100
AcDbXrecord
280
     1
102
RTVSPost2010Prop28
280
     0
102
RTVSPost2010PropOp28
 70
     1
102
RTVSPost2010Prop29
280
     1
102
RTVSPost2010PropOp29
 70
     1
102
RTVSPost2010Prop30
280
     1
102
RTVSPost2010PropOp30
 70
     1
102
RTVSPost2010Prop31
280
     0
102
RTVSPost2010PropOp31
 70
     1
102
RTVSPost2010Prop32
280
     0
102
RTVSPost2010PropOp32
 70
     1
102
RTVSPost2010Prop33
280
     0
102
RTVSPost2010PropOp33
 70
     1
102
RTVSPost2010Prop34
280
     0
102
RTVSPost2010PropOp34
 70
     1
102
RTVSPost2010Prop35
280
     0
102
RTVSPost2010PropOp35
 70
     1
102
RTVSPost2010Prop36
280
     0
102
RTVSPost2010PropOp36
 70
     1
102
RTVSPost2010Prop37
 90
       50
102
RTVSPost2010PropOp37
 70
     1
102
RTVSPost2010Prop38
140
0.0
102
RTVSPost2010PropOp38
 70
     1
102
RTVSPost2010Prop39
140
1.0
102
RTVSPost2010PropOp39
 70
     1
102
RTVSPost2010Prop40
 90
        0
102
RTVSPost2010PropOp40
 70
     1
102
RTVSPost2010Prop41ColorIndex
 90
       18
102
RTVSPost2010Prop41ColorRGB
 90
        0
102
RTVSPost2010PropOp41
 70
     1
102
RTVSPost2010Prop42
 90
       50
102
RTVSPost2010PropOp42
 70
     1
102
RTVSPost2010Prop43
 90
        3
102
RTVSPost2010PropOp43
 70
     1
102
RTVSPost2010Prop44ColorIndex
 90
        5
102
RTVSPost2010Prop44ColorRGB
 90
      255
102
RTVSPost2010PropOp44
 70
     1
102
RTVSPost2010Prop45
280
     0
102
RTVSPost2010PropOp45
 70
     1
102
RTVSPost2010Prop46
 90
       50
102
RTVSPost2010PropOp46
 70
     1
102
RTVSPost2010Prop47
 90
       50
102
RTVSPost2010PropOp47
 70
     1
102
RTVSPost2010Prop48
 90
       50
102
RTVSPost2010PropOp48
 70
     1
102
RTVSPost2010Prop49
280
     0
102
RTVSPost2010PropOp49
 70
     1
102
RTVSPost2010Prop50
 90
       50
102
RTVSPost2010PropOp50
 70
     1
102
RTVSPost2010Prop51ColorIndex
 90
      256
102
RTVSPost2010Prop51ColorRGB
 90
-16777216
102
RTVSPost2010PropOp51
 70
     0
102
RTVSPost2010Prop52
140
1.0
102
RTVSPost2010PropOp52
 70
     0
102
RTVSPost2010Prop53
 90
        2
102
RTVSPost2010PropOp53
 70
     1
102
RTVSPost2010Prop54
  1
strokes_ogs.tif
102
RTVSPost2010PropOp54
 70
     1
102
RTVSPost2010Prop55
280
     0
102
RTVSPost2010PropOp55
 70
     1
102
RTVSPost2010Prop56
140
1.0
102
RTVSPost2010PropOp56
 70
     1
102
RTVSPost2010Prop57
140
1.0
102
RTVSPost2010PropOp57
 70
     1
  0
XRECORD
  5
368C
102
{ACAD_REACTORS
330
368B
102
}
330
368B
100
AcDbXrecord
280
     1
102
RTVSPost2010Prop28
280
     0
102
RTVSPost2010PropOp28
 70
     1
102
RTVSPost2010Prop29
280
     1
102
RTVSPost2010PropOp29
 70
     1
102
RTVSPost2010Prop30
280
     1
102
RTVSPost2010PropOp30
 70
     1
102
RTVSPost2010Prop31
280
     0
102
RTVSPost2010PropOp31
 70
     1
102
RTVSPost2010Prop32
280
     0
102
RTVSPost2010PropOp32
 70
     1
102
RTVSPost2010Prop33
280
     0
102
RTVSPost2010PropOp33
 70
     1
102
RTVSPost2010Prop34
280
     0
102
RTVSPost2010PropOp34
 70
     1
102
RTVSPost2010Prop35
280
     0
102
RTVSPost2010PropOp35
 70
     1
102
RTVSPost2010Prop36
280
     0
102
RTVSPost2010PropOp36
 70
     1
102
RTVSPost2010Prop37
 90
       50
102
RTVSPost2010PropOp37
 70
     1
102
RTVSPost2010Prop38
140
0.0
102
RTVSPost2010PropOp38
 70
     1
102
RTVSPost2010Prop39
140
1.0
102
RTVSPost2010PropOp39
 70
     1
102
RTVSPost2010Prop40
 90
        0
102
RTVSPost2010PropOp40
 70
     1
102
RTVSPost2010Prop41ColorIndex
 90
       18
102
RTVSPost2010Prop41ColorRGB
 90
        0
102
RTVSPost2010PropOp41
 70
     1
102
RTVSPost2010Prop42
 90
       50
102
RTVSPost2010PropOp42
 70
     1
102
RTVSPost2010Prop43
 90
        3
102
RTVSPost2010PropOp43
 70
     1
102
RTVSPost2010Prop44ColorIndex
 90
        5
102
RTVSPost2010Prop44ColorRGB
 90
      255
102
RTVSPost2010PropOp44
 70
     1
102
RTVSPost2010Prop45
280
     0
102
RTVSPost2010PropOp45
 70
     1
102
RTVSPost2010Prop46
 90
       50
102
RTVSPost2010PropOp46
 70
     1
102
RTVSPost2010Prop47
 90
       50
102
RTVSPost2010PropOp47
 70
     1
102
RTVSPost2010Prop48
 90
       50
102
RTVSPost2010PropOp48
 70
     1
102
RTVSPost2010Prop49
280
     0
102
RTVSPost2010PropOp49
 70
     1
102
RTVSPost2010Prop50
 90
       50
102
RTVSPost2010PropOp50
 70
     1
102
RTVSPost2010Prop51ColorIndex
 90
      256
102
RTVSPost2010Prop51ColorRGB
 90
-16777216
102
RTVSPost2010PropOp51
 70
     0
102
RTVSPost2010Prop52
140
1.0
102
RTVSPost2010PropOp52
 70
     0
102
RTVSPost2010Prop53
 90
        2
102
RTVSPost2010PropOp53
 70
     1
102
RTVSPost2010Prop54
  1
strokes_ogs.tif
102
RTVSPost2010PropOp54
 70
     1
102
RTVSPost2010Prop55
280
     0
102
RTVSPost2010PropOp55
 70
     1
102
RTVSPost2010Prop56
140
1.0
102
RTVSPost2010PropOp56
 70
     1
102
RTVSPost2010Prop57
140
1.0
102
RTVSPost2010PropOp57
 70
     1
  0
XRECORD
  5
368E
102
{ACAD_REACTORS
330
368D
102
}
330
368D
100
AcDbXrecord
280
     1
102
RTVSPost2010Prop28
280
     0
102
RTVSPost2010PropOp28
 70
     1
102
RTVSPost2010Prop29
280
     1
102
RTVSPost2010PropOp29
 70
     1
102
RTVSPost2010Prop30
280
     1
102
RTVSPost2010PropOp30
 70
     1
102
RTVSPost2010Prop31
280
     0
102
RTVSPost2010PropOp31
 70
     1
102
RTVSPost2010Prop32
280
     0
102
RTVSPost2010PropOp32
 70
     1
102
RTVSPost2010Prop33
280
     0
102
RTVSPost2010PropOp33
 70
     1
102
RTVSPost2010Prop34
280
     0
102
RTVSPost2010PropOp34
 70
     1
102
RTVSPost2010Prop35
280
     0
102
RTVSPost2010PropOp35
 70
     1
102
RTVSPost2010Prop36
280
     0
102
RTVSPost2010PropOp36
 70
     1
102
RTVSPost2010Prop37
 90
       50
102
RTVSPost2010PropOp37
 70
     1
102
RTVSPost2010Prop38
140
0.0
102
RTVSPost2010PropOp38
 70
     1
102
RTVSPost2010Prop39
140
1.0
102
RTVSPost2010PropOp39
 70
     1
102
RTVSPost2010Prop40
 90
        0
102
RTVSPost2010PropOp40
 70
     1
102
RTVSPost2010Prop41ColorIndex
 90
       18
102
RTVSPost2010Prop41ColorRGB
 90
        0
102
RTVSPost2010PropOp41
 70
     1
102
RTVSPost2010Prop42
 90
       50
102
RTVSPost2010PropOp42
 70
     1
102
RTVSPost2010Prop43
 90
        3
102
RTVSPost2010PropOp43
 70
     1
102
RTVSPost2010Prop44ColorIndex
 90
        5
102
RTVSPost2010Prop44ColorRGB
 90
      255
102
RTVSPost2010PropOp44
 70
     1
102
RTVSPost2010Prop45
280
     0
102
RTVSPost2010PropOp45
 70
     1
102
RTVSPost2010Prop46
 90
       50
102
RTVSPost2010PropOp46
 70
     1
102
RTVSPost2010Prop47
 90
       50
102
RTVSPost2010PropOp47
 70
     1
102
RTVSPost2010Prop48
 90
       50
102
RTVSPost2010PropOp48
 70
     1
102
RTVSPost2010Prop49
280
     0
102
RTVSPost2010PropOp49
 70
     1
102
RTVSPost2010Prop50
 90
       50
102
RTVSPost2010PropOp50
 70
     1
102
RTVSPost2010Prop51ColorIndex
 90
      256
102
RTVSPost2010Prop51ColorRGB
 90
-16777216
102
RTVSPost2010PropOp51
 70
     0
102
RTVSPost2010Prop52
140
1.0
102
RTVSPost2010PropOp52
 70
     0
102
RTVSPost2010Prop53
 90
        2
102
RTVSPost2010PropOp53
 70
     1
102
RTVSPost2010Prop54
  1
strokes_ogs.tif
102
RTVSPost2010PropOp54
 70
     1
102
RTVSPost2010Prop55
280
     0
102
RTVSPost2010PropOp55
 70
     1
102
RTVSPost2010Prop56
140
1.0
102
RTVSPost2010PropOp56
 70
     1
102
RTVSPost2010Prop57
140
1.0
102
RTVSPost2010PropOp57
 70
     1
  0
XRECORD
  5
3696
102
{ACAD_REACTORS
330
3695
102
}
330
3695
100
AcDbXrecord
280
     1
102
RTVSPost2010Prop28
280
     0
102
RTVSPost2010PropOp28
 70
     1
102
RTVSPost2010Prop29
280
     1
102
RTVSPost2010PropOp29
 70
     1
102
RTVSPost2010Prop30
280
     1
102
RTVSPost2010PropOp30
 70
     1
102
RTVSPost2010Prop31
280
     0
102
RTVSPost2010PropOp31
 70
     1
102
RTVSPost2010Prop32
280
     0
102
RTVSPost2010PropOp32
 70
     1
102
RTVSPost2010Prop33
280
     0
102
RTVSPost2010PropOp33
 70
     1
102
RTVSPost2010Prop34
280
     0
102
RTVSPost2010PropOp34
 70
     1
102
RTVSPost2010Prop35
280
     0
102
RTVSPost2010PropOp35
 70
     1
102
RTVSPost2010Prop36
280
     0
102
RTVSPost2010PropOp36
 70
     1
102
RTVSPost2010Prop37
 90
       50
102
RTVSPost2010PropOp37
 70
     1
102
RTVSPost2010Prop38
140
0.0
102
RTVSPost2010PropOp38
 70
     1
102
RTVSPost2010Prop39
140
1.0
102
RTVSPost2010PropOp39
 70
     1
102
RTVSPost2010Prop40
 90
        0
102
RTVSPost2010PropOp40
 70
     1
102
RTVSPost2010Prop41ColorIndex
 90
       18
102
RTVSPost2010Prop41ColorRGB
 90
        0
102
RTVSPost2010PropOp41
 70
     1
102
RTVSPost2010Prop42
 90
       50
102
RTVSPost2010PropOp42
 70
     1
102
RTVSPost2010Prop43
 90
        3
102
RTVSPost2010PropOp43
 70
     1
102
RTVSPost2010Prop44ColorIndex
 90
        5
102
RTVSPost2010Prop44ColorRGB
 90
      255
102
RTVSPost2010PropOp44
 70
     1
102
RTVSPost2010Prop45
280
     0
102
RTVSPost2010PropOp45
 70
     1
102
RTVSPost2010Prop46
 90
       50
102
RTVSPost2010PropOp46
 70
     1
102
RTVSPost2010Prop47
 90
       50
102
RTVSPost2010PropOp47
 70
     1
102
RTVSPost2010Prop48
 90
       50
102
RTVSPost2010PropOp48
 70
     1
102
RTVSPost2010Prop49
280
     0
102
RTVSPost2010PropOp49
 70
     1
102
RTVSPost2010Prop50
 90
       50
102
RTVSPost2010PropOp50
 70
     1
102
RTVSPost2010Prop51ColorIndex
 90
      256
102
RTVSPost2010Prop51ColorRGB
 90
-16777216
102
RTVSPost2010PropOp51
 70
     0
102
RTVSPost2010Prop52
140
1.0
102
RTVSPost2010PropOp52
 70
     0
102
RTVSPost2010Prop53
 90
        2
102
RTVSPost2010PropOp53
 70
     1
102
RTVSPost2010Prop54
  1
strokes_ogs.tif
102
RTVSPost2010PropOp54
 70
     1
102
RTVSPost2010Prop55
280
     0
102
RTVSPost2010PropOp55
 70
     1
102
RTVSPost2010Prop56
140
1.0
102
RTVSPost2010PropOp56
 70
     1
102
RTVSPost2010Prop57
140
1.0
102
RTVSPost2010PropOp57
 70
     1
  0
XRECORD
  5
36B2
102
{ACAD_REACTORS
330
36B1
102
}
330
36B1
100
AcDbXrecord
280
     1
102
RTVSPost2010Prop28
280
     0
102
RTVSPost2010PropOp28
 70
     1
102
RTVSPost2010Prop29
280
     1
102
RTVSPost2010PropOp29
 70
     1
102
RTVSPost2010Prop30
280
     1
102
RTVSPost2010PropOp30
 70
     1
102
RTVSPost2010Prop31
280
     0
102
RTVSPost2010PropOp31
 70
     1
102
RTVSPost2010Prop32
280
     0
102
RTVSPost2010PropOp32
 70
     1
102
RTVSPost2010Prop33
280
     0
102
RTVSPost2010PropOp33
 70
     1
102
RTVSPost2010Prop34
280
     0
102
RTVSPost2010PropOp34
 70
     1
102
RTVSPost2010Prop35
280
     0
102
RTVSPost2010PropOp35
 70
     1
102
RTVSPost2010Prop36
280
     0
102
RTVSPost2010PropOp36
 70
     1
102
RTVSPost2010Prop37
 90
       50
102
RTVSPost2010PropOp37
 70
     0
102
RTVSPost2010Prop38
140
0.0
102
RTVSPost2010PropOp38
 70
     0
102
RTVSPost2010Prop39
140
1.0
102
RTVSPost2010PropOp39
 70
     0
102
RTVSPost2010Prop40
 90
        0
102
RTVSPost2010PropOp40
 70
     0
102
RTVSPost2010Prop41ColorIndex
 90
       18
102
RTVSPost2010Prop41ColorRGB
 90
        0
102
RTVSPost2010PropOp41
 70
     0
102
RTVSPost2010Prop42
 90
       50
102
RTVSPost2010PropOp42
 70
     0
102
RTVSPost2010Prop43
 90
        3
102
RTVSPost2010PropOp43
 70
     0
102
RTVSPost2010Prop44ColorIndex
 90
        5
102
RTVSPost2010Prop44ColorRGB
 90
      255
102
RTVSPost2010PropOp44
 70
     0
102
RTVSPost2010Prop45
280
     0
102
RTVSPost2010PropOp45
 70
     1
102
RTVSPost2010Prop46
 90
       50
102
RTVSPost2010PropOp46
 70
     0
102
RTVSPost2010Prop47
 90
       50
102
RTVSPost2010PropOp47
 70
     0
102
RTVSPost2010Prop48
 90
       50
102
RTVSPost2010PropOp48
 70
     0
102
RTVSPost2010Prop49
280
     0
102
RTVSPost2010PropOp49
 70
     1
102
RTVSPost2010Prop50
 90
       50
102
RTVSPost2010PropOp50
 70
     0
102
RTVSPost2010Prop51ColorIndex
 90
      256
102
RTVSPost2010Prop51ColorRGB
 90
-16777216
102
RTVSPost2010PropOp51
 70
     0
102
RTVSPost2010Prop52
140
1.0
102
RTVSPost2010PropOp52
 70
     0
102
RTVSPost2010Prop53
 90
        2
102
RTVSPost2010PropOp53
 70
     0
102
RTVSPost2010Prop54
  1
strokes_ogs.tif
102
RTVSPost2010PropOp54
 70
     0
102
RTVSPost2010Prop55
280
     0
102
RTVSPost2010PropOp55
 70
     1
102
RTVSPost2010Prop56
140
1.0
102
RTVSPost2010PropOp56
 70
     0
102
RTVSPost2010Prop57
140
1.0
102
RTVSPost2010PropOp57
 70
     0
  0
XRECORD
  5
36A2
102
{ACAD_REACTORS
330
36A1
102
}
330
36A1
100
AcDbXrecord
280
     1
102
RTVSPost2010Prop28
280
     0
102
RTVSPost2010PropOp28
 70
     1
102
RTVSPost2010Prop29
280
     1
102
RTVSPost2010PropOp29
 70
     1
102
RTVSPost2010Prop30
280
     1
102
RTVSPost2010PropOp30
 70
     1
102
RTVSPost2010Prop31
280
     0
102
RTVSPost2010PropOp31
 70
     1
102
RTVSPost2010Prop32
280
     0
102
RTVSPost2010PropOp32
 70
     1
102
RTVSPost2010Prop33
280
     0
102
RTVSPost2010PropOp33
 70
     1
102
RTVSPost2010Prop34
280
     0
102
RTVSPost2010PropOp34
 70
     1
102
RTVSPost2010Prop35
280
     0
102
RTVSPost2010PropOp35
 70
     1
102
RTVSPost2010Prop36
280
     0
102
RTVSPost2010PropOp36
 70
     1
102
RTVSPost2010Prop37
 90
       50
102
RTVSPost2010PropOp37
 70
     1
102
RTVSPost2010Prop38
140
0.0
102
RTVSPost2010PropOp38
 70
     1
102
RTVSPost2010Prop39
140
1.0
102
RTVSPost2010PropOp39
 70
     1
102
RTVSPost2010Prop40
 90
        0
102
RTVSPost2010PropOp40
 70
     1
102
RTVSPost2010Prop41ColorIndex
 90
       18
102
RTVSPost2010Prop41ColorRGB
 90
        0
102
RTVSPost2010PropOp41
 70
     1
102
RTVSPost2010Prop42
 90
       50
102
RTVSPost2010PropOp42
 70
     1
102
RTVSPost2010Prop43
 90
        3
102
RTVSPost2010PropOp43
 70
     1
102
RTVSPost2010Prop44ColorIndex
 90
        5
102
RTVSPost2010Prop44ColorRGB
 90
      255
102
RTVSPost2010PropOp44
 70
     1
102
RTVSPost2010Prop45
280
     0
102
RTVSPost2010PropOp45
 70
     1
102
RTVSPost2010Prop46
 90
       50
102
RTVSPost2010PropOp46
 70
     1
102
RTVSPost2010Prop47
 90
       50
102
RTVSPost2010PropOp47
 70
     1
102
RTVSPost2010Prop48
 90
       50
102
RTVSPost2010PropOp48
 70
     1
102
RTVSPost2010Prop49
280
     0
102
RTVSPost2010PropOp49
 70
     1
102
RTVSPost2010Prop50
 90
       50
102
RTVSPost2010PropOp50
 70
     1
102
RTVSPost2010Prop51ColorIndex
 90
      256
102
RTVSPost2010Prop51ColorRGB
 90
-16777216
102
RTVSPost2010PropOp51
 70
     0
102
RTVSPost2010Prop52
140
1.0
102
RTVSPost2010PropOp52
 70
     0
102
RTVSPost2010Prop53
 90
        2
102
RTVSPost2010PropOp53
 70
     1
102
RTVSPost2010Prop54
  1
strokes_ogs.tif
102
RTVSPost2010PropOp54
 70
     1
102
RTVSPost2010Prop55
280
     0
102
RTVSPost2010PropOp55
 70
     1
102
RTVSPost2010Prop56
140
1.0
102
RTVSPost2010PropOp56
 70
     1
102
RTVSPost2010Prop57
140
1.0
102
RTVSPost2010PropOp57
 70
     1
  0
XRECORD
  5
36B4
102
{ACAD_REACTORS
330
36B3
102
}
330
36B3
100
AcDbXrecord
280
     1
102
RTVSPost2010Prop28
280
     0
102
RTVSPost2010PropOp28
 70
     1
102
RTVSPost2010Prop29
280
     1
102
RTVSPost2010PropOp29
 70
     1
102
RTVSPost2010Prop30
280
     1
102
RTVSPost2010PropOp30
 70
     1
102
RTVSPost2010Prop31
280
     0
102
RTVSPost2010PropOp31
 70
     1
102
RTVSPost2010Prop32
280
     0
102
RTVSPost2010PropOp32
 70
     1
102
RTVSPost2010Prop33
280
     0
102
RTVSPost2010PropOp33
 70
     1
102
RTVSPost2010Prop34
280
     0
102
RTVSPost2010PropOp34
 70
     1
102
RTVSPost2010Prop35
280
     0
102
RTVSPost2010PropOp35
 70
     1
102
RTVSPost2010Prop36
280
     0
102
RTVSPost2010PropOp36
 70
     1
102
RTVSPost2010Prop37
 90
       50
102
RTVSPost2010PropOp37
 70
     0
102
RTVSPost2010Prop38
140
0.0
102
RTVSPost2010PropOp38
 70
     0
102
RTVSPost2010Prop39
140
1.0
102
RTVSPost2010PropOp39
 70
     0
102
RTVSPost2010Prop40
 90
        0
102
RTVSPost2010PropOp40
 70
     0
102
RTVSPost2010Prop41ColorIndex
 90
       18
102
RTVSPost2010Prop41ColorRGB
 90
        0
102
RTVSPost2010PropOp41
 70
     0
102
RTVSPost2010Prop42
 90
       50
102
RTVSPost2010PropOp42
 70
     0
102
RTVSPost2010Prop43
 90
        3
102
RTVSPost2010PropOp43
 70
     0
102
RTVSPost2010Prop44ColorIndex
 90
        5
102
RTVSPost2010Prop44ColorRGB
 90
      255
102
RTVSPost2010PropOp44
 70
     0
102
RTVSPost2010Prop45
280
     0
102
RTVSPost2010PropOp45
 70
     1
102
RTVSPost2010Prop46
 90
       50
102
RTVSPost2010PropOp46
 70
     0
102
RTVSPost2010Prop47
 90
       50
102
RTVSPost2010PropOp47
 70
     0
102
RTVSPost2010Prop48
 90
       50
102
RTVSPost2010PropOp48
 70
     0
102
RTVSPost2010Prop49
280
     0
102
RTVSPost2010PropOp49
 70
     1
102
RTVSPost2010Prop50
 90
       50
102
RTVSPost2010PropOp50
 70
     0
102
RTVSPost2010Prop51ColorIndex
 90
      256
102
RTVSPost2010Prop51ColorRGB
 90
-16777216
102
RTVSPost2010PropOp51
 70
     0
102
RTVSPost2010Prop52
140
1.0
102
RTVSPost2010PropOp52
 70
     0
102
RTVSPost2010Prop53
 90
        2
102
RTVSPost2010PropOp53
 70
     0
102
RTVSPost2010Prop54
  1
strokes_ogs.tif
102
RTVSPost2010PropOp54
 70
     0
102
RTVSPost2010Prop55
280
     0
102
RTVSPost2010PropOp55
 70
     1
102
RTVSPost2010Prop56
140
1.0
102
RTVSPost2010PropOp56
 70
     0
102
RTVSPost2010Prop57
140
1.0
102
RTVSPost2010PropOp57
 70
     0
  0
XRECORD
  5
369A
102
{ACAD_REACTORS
330
3699
102
}
330
3699
100
AcDbXrecord
280
     1
102
RTVSPost2010Prop28
280
     0
102
RTVSPost2010PropOp28
 70
     1
102
RTVSPost2010Prop29
280
     1
102
RTVSPost2010PropOp29
 70
     1
102
RTVSPost2010Prop30
280
     1
102
RTVSPost2010PropOp30
 70
     1
102
RTVSPost2010Prop31
280
     0
102
RTVSPost2010PropOp31
 70
     1
102
RTVSPost2010Prop32
280
     0
102
RTVSPost2010PropOp32
 70
     1
102
RTVSPost2010Prop33
280
     0
102
RTVSPost2010PropOp33
 70
     1
102
RTVSPost2010Prop34
280
     0
102
RTVSPost2010PropOp34
 70
     1
102
RTVSPost2010Prop35
280
     0
102
RTVSPost2010PropOp35
 70
     1
102
RTVSPost2010Prop36
280
     0
102
RTVSPost2010PropOp36
 70
     1
102
RTVSPost2010Prop37
 90
       50
102
RTVSPost2010PropOp37
 70
     1
102
RTVSPost2010Prop38
140
0.0
102
RTVSPost2010PropOp38
 70
     1
102
RTVSPost2010Prop39
140
1.0
102
RTVSPost2010PropOp39
 70
     1
102
RTVSPost2010Prop40
 90
        0
102
RTVSPost2010PropOp40
 70
     1
102
RTVSPost2010Prop41ColorIndex
 90
       18
102
RTVSPost2010Prop41ColorRGB
 90
        0
102
RTVSPost2010PropOp41
 70
     1
102
RTVSPost2010Prop42
 90
       50
102
RTVSPost2010PropOp42
 70
     1
102
RTVSPost2010Prop43
 90
        3
102
RTVSPost2010PropOp43
 70
     1
102
RTVSPost2010Prop44ColorIndex
 90
        5
102
RTVSPost2010Prop44ColorRGB
 90
      255
102
RTVSPost2010PropOp44
 70
     1
102
RTVSPost2010Prop45
280
     0
102
RTVSPost2010PropOp45
 70
     1
102
RTVSPost2010Prop46
 90
       50
102
RTVSPost2010PropOp46
 70
     1
102
RTVSPost2010Prop47
 90
       50
102
RTVSPost2010PropOp47
 70
     1
102
RTVSPost2010Prop48
 90
       50
102
RTVSPost2010PropOp48
 70
     1
102
RTVSPost2010Prop49
280
     0
102
RTVSPost2010PropOp49
 70
     1
102
RTVSPost2010Prop50
 90
       50
102
RTVSPost2010PropOp50
 70
     1
102
RTVSPost2010Prop51ColorIndex
 90
      256
102
RTVSPost2010Prop51ColorRGB
 90
-16777216
102
RTVSPost2010PropOp51
 70
     0
102
RTVSPost2010Prop52
140
1.0
102
RTVSPost2010PropOp52
 70
     0
102
RTVSPost2010Prop53
 90
        2
102
RTVSPost2010PropOp53
 70
     1
102
RTVSPost2010Prop54
  1
strokes_ogs.tif
102
RTVSPost2010PropOp54
 70
     1
102
RTVSPost2010Prop55
280
     0
102
RTVSPost2010PropOp55
 70
     1
102
RTVSPost2010Prop56
140
1.0
102
RTVSPost2010PropOp56
 70
     1
102
RTVSPost2010Prop57
140
1.0
102
RTVSPost2010PropOp57
 70
     1
  0
XRECORD
  5
36B0
102
{ACAD_REACTORS
330
36AF
102
}
330
36AF
100
AcDbXrecord
280
     1
102
RTVSPost2010Prop28
280
     0
102
RTVSPost2010PropOp28
 70
     1
102
RTVSPost2010Prop29
280
     1
102
RTVSPost2010PropOp29
 70
     1
102
RTVSPost2010Prop30
280
     1
102
RTVSPost2010PropOp30
 70
     1
102
RTVSPost2010Prop31
280
     0
102
RTVSPost2010PropOp31
 70
     1
102
RTVSPost2010Prop32
280
     0
102
RTVSPost2010PropOp32
 70
     1
102
RTVSPost2010Prop33
280
     0
102
RTVSPost2010PropOp33
 70
     1
102
RTVSPost2010Prop34
280
     0
102
RTVSPost2010PropOp34
 70
     1
102
RTVSPost2010Prop35
280
     0
102
RTVSPost2010PropOp35
 70
     1
102
RTVSPost2010Prop36
280
     0
102
RTVSPost2010PropOp36
 70
     1
102
RTVSPost2010Prop37
 90
       50
102
RTVSPost2010PropOp37
 70
     1
102
RTVSPost2010Prop38
140
0.0
102
RTVSPost2010PropOp38
 70
     1
102
RTVSPost2010Prop39
140
1.0
102
RTVSPost2010PropOp39
 70
     1
102
RTVSPost2010Prop40
 90
        0
102
RTVSPost2010PropOp40
 70
     1
102
RTVSPost2010Prop41ColorIndex
 90
       18
102
RTVSPost2010Prop41ColorRGB
 90
        0
102
RTVSPost2010PropOp41
 70
     1
102
RTVSPost2010Prop42
 90
       50
102
RTVSPost2010PropOp42
 70
     1
102
RTVSPost2010Prop43
 90
        3
102
RTVSPost2010PropOp43
 70
     1
102
RTVSPost2010Prop44ColorIndex
 90
        5
102
RTVSPost2010Prop44ColorRGB
 90
      255
102
RTVSPost2010PropOp44
 70
     1
102
RTVSPost2010Prop45
280
     0
102
RTVSPost2010PropOp45
 70
     1
102
RTVSPost2010Prop46
 90
       50
102
RTVSPost2010PropOp46
 70
     1
102
RTVSPost2010Prop47
 90
       50
102
RTVSPost2010PropOp47
 70
     1
102
RTVSPost2010Prop48
 90
       50
102
RTVSPost2010PropOp48
 70
     1
102
RTVSPost2010Prop49
280
     0
102
RTVSPost2010PropOp49
 70
     1
102
RTVSPost2010Prop50
 90
       50
102
RTVSPost2010PropOp50
 70
     1
102
RTVSPost2010Prop51ColorIndex
 90
      256
102
RTVSPost2010Prop51ColorRGB
 90
-16777216
102
RTVSPost2010PropOp51
 70
     0
102
RTVSPost2010Prop52
140
1.0
102
RTVSPost2010PropOp52
 70
     0
102
RTVSPost2010Prop53
 90
        2
102
RTVSPost2010PropOp53
 70
     1
102
RTVSPost2010Prop54
  1
strokes_ogs.tif
102
RTVSPost2010PropOp54
 70
     1
102
RTVSPost2010Prop55
280
     0
102
RTVSPost2010PropOp55
 70
     1
102
RTVSPost2010Prop56
140
1.0
102
RTVSPost2010PropOp56
 70
     1
102
RTVSPost2010Prop57
140
1.0
102
RTVSPost2010PropOp57
 70
     1
  0
XRECORD
  5
36AE
102
{ACAD_REACTORS
330
36AD
102
}
330
36AD
100
AcDbXrecord
280
     1
102
RTVSPost2010Prop28
280
     0
102
RTVSPost2010PropOp28
 70
     1
102
RTVSPost2010Prop29
280
     1
102
RTVSPost2010PropOp29
 70
     1
102
RTVSPost2010Prop30
280
     1
102
RTVSPost2010PropOp30
 70
     1
102
RTVSPost2010Prop31
280
     0
102
RTVSPost2010PropOp31
 70
     1
102
RTVSPost2010Prop32
280
     0
102
RTVSPost2010PropOp32
 70
     1
102
RTVSPost2010Prop33
280
     0
102
RTVSPost2010PropOp33
 70
     1
102
RTVSPost2010Prop34
280
     0
102
RTVSPost2010PropOp34
 70
     1
102
RTVSPost2010Prop35
280
     0
102
RTVSPost2010PropOp35
 70
     1
102
RTVSPost2010Prop36
280
     0
102
RTVSPost2010PropOp36
 70
     1
102
RTVSPost2010Prop37
 90
       50
102
RTVSPost2010PropOp37
 70
     1
102
RTVSPost2010Prop38
140
0.0
102
RTVSPost2010PropOp38
 70
     1
102
RTVSPost2010Prop39
140
1.0
102
RTVSPost2010PropOp39
 70
     1
102
RTVSPost2010Prop40
 90
        0
102
RTVSPost2010PropOp40
 70
     1
102
RTVSPost2010Prop41ColorIndex
 90
       18
102
RTVSPost2010Prop41ColorRGB
 90
        0
102
RTVSPost2010PropOp41
 70
     1
102
RTVSPost2010Prop42
 90
       50
102
RTVSPost2010PropOp42
 70
     1
102
RTVSPost2010Prop43
 90
        3
102
RTVSPost2010PropOp43
 70
     1
102
RTVSPost2010Prop44ColorIndex
 90
        5
102
RTVSPost2010Prop44ColorRGB
 90
      255
102
RTVSPost2010PropOp44
 70
     1
102
RTVSPost2010Prop45
280
     0
102
RTVSPost2010PropOp45
 70
     1
102
RTVSPost2010Prop46
 90
       50
102
RTVSPost2010PropOp46
 70
     1
102
RTVSPost2010Prop47
 90
       50
102
RTVSPost2010PropOp47
 70
     1
102
RTVSPost2010Prop48
 90
       50
102
RTVSPost2010PropOp48
 70
     1
102
RTVSPost2010Prop49
280
     0
102
RTVSPost2010PropOp49
 70
     1
102
RTVSPost2010Prop50
 90
       50
102
RTVSPost2010PropOp50
 70
     1
102
RTVSPost2010Prop51ColorIndex
 90
      256
102
RTVSPost2010Prop51ColorRGB
 90
-16777216
102
RTVSPost2010PropOp51
 70
     0
102
RTVSPost2010Prop52
140
1.0
102
RTVSPost2010PropOp52
 70
     0
102
RTVSPost2010Prop53
 90
        2
102
RTVSPost2010PropOp53
 70
     1
102
RTVSPost2010Prop54
  1
strokes_ogs.tif
102
RTVSPost2010PropOp54
 70
     1
102
RTVSPost2010Prop55
280
     0
102
RTVSPost2010PropOp55
 70
     1
102
RTVSPost2010Prop56
140
1.0
102
RTVSPost2010PropOp56
 70
     1
102
RTVSPost2010Prop57
140
1.0
102
RTVSPost2010PropOp57
 70
     1
  0
XRECORD
  5
36A8
102
{ACAD_REACTORS
330
36A7
102
}
330
36A7
100
AcDbXrecord
280
     1
102
RTVSPost2010Prop28
280
     0
102
RTVSPost2010PropOp28
 70
     1
102
RTVSPost2010Prop29
280
     1
102
RTVSPost2010PropOp29
 70
     1
102
RTVSPost2010Prop30
280
     1
102
RTVSPost2010PropOp30
 70
     1
102
RTVSPost2010Prop31
280
     0
102
RTVSPost2010PropOp31
 70
     1
102
RTVSPost2010Prop32
280
     0
102
RTVSPost2010PropOp32
 70
     1
102
RTVSPost2010Prop33
280
     0
102
RTVSPost2010PropOp33
 70
     1
102
RTVSPost2010Prop34
280
     0
102
RTVSPost2010PropOp34
 70
     1
102
RTVSPost2010Prop35
280
     0
102
RTVSPost2010PropOp35
 70
     1
102
RTVSPost2010Prop36
280
     0
102
RTVSPost2010PropOp36
 70
     1
102
RTVSPost2010Prop37
 90
       50
102
RTVSPost2010PropOp37
 70
     1
102
RTVSPost2010Prop38
140
0.0
102
RTVSPost2010PropOp38
 70
     1
102
RTVSPost2010Prop39
140
1.0
102
RTVSPost2010PropOp39
 70
     1
102
RTVSPost2010Prop40
 90
        0
102
RTVSPost2010PropOp40
 70
     1
102
RTVSPost2010Prop41ColorIndex
 90
       18
102
RTVSPost2010Prop41ColorRGB
 90
        0
102
RTVSPost2010PropOp41
 70
     1
102
RTVSPost2010Prop42
 90
       50
102
RTVSPost2010PropOp42
 70
     1
102
RTVSPost2010Prop43
 90
        3
102
RTVSPost2010PropOp43
 70
     1
102
RTVSPost2010Prop44ColorIndex
 90
        5
102
RTVSPost2010Prop44ColorRGB
 90
      255
102
RTVSPost2010PropOp44
 70
     1
102
RTVSPost2010Prop45
280
     0
102
RTVSPost2010PropOp45
 70
     1
102
RTVSPost2010Prop46
 90
       50
102
RTVSPost2010PropOp46
 70
     1
102
RTVSPost2010Prop47
 90
       50
102
RTVSPost2010PropOp47
 70
     1
102
RTVSPost2010Prop48
 90
       50
102
RTVSPost2010PropOp48
 70
     1
102
RTVSPost2010Prop49
280
     0
102
RTVSPost2010PropOp49
 70
     1
102
RTVSPost2010Prop50
 90
       50
102
RTVSPost2010PropOp50
 70
     1
102
RTVSPost2010Prop51ColorIndex
 90
      256
102
RTVSPost2010Prop51ColorRGB
 90
-16777216
102
RTVSPost2010PropOp51
 70
     0
102
RTVSPost2010Prop52
140
1.0
102
RTVSPost2010PropOp52
 70
     0
102
RTVSPost2010Prop53
 90
        2
102
RTVSPost2010PropOp53
 70
     1
102
RTVSPost2010Prop54
  1
strokes_ogs.tif
102
RTVSPost2010PropOp54
 70
     1
102
RTVSPost2010Prop55
280
     0
102
RTVSPost2010PropOp55
 70
     1
102
RTVSPost2010Prop56
140
1.0
102
RTVSPost2010PropOp56
 70
     1
102
RTVSPost2010Prop57
140
1.0
102
RTVSPost2010PropOp57
 70
     1
  0
XRECORD
  5
36AA
102
{ACAD_REACTORS
330
36A9
102
}
330
36A9
100
AcDbXrecord
280
     1
102
RTVSPost2010Prop28
280
     0
102
RTVSPost2010PropOp28
 70
     1
102
RTVSPost2010Prop29
280
     1
102
RTVSPost2010PropOp29
 70
     1
102
RTVSPost2010Prop30
280
     1
102
RTVSPost2010PropOp30
 70
     1
102
RTVSPost2010Prop31
280
     0
102
RTVSPost2010PropOp31
 70
     1
102
RTVSPost2010Prop32
280
     0
102
RTVSPost2010PropOp32
 70
     1
102
RTVSPost2010Prop33
280
     0
102
RTVSPost2010PropOp33
 70
     1
102
RTVSPost2010Prop34
280
     0
102
RTVSPost2010PropOp34
 70
     1
102
RTVSPost2010Prop35
280
     0
102
RTVSPost2010PropOp35
 70
     1
102
RTVSPost2010Prop36
280
     0
102
RTVSPost2010PropOp36
 70
     1
102
RTVSPost2010Prop37
 90
       50
102
RTVSPost2010PropOp37
 70
     1
102
RTVSPost2010Prop38
140
0.0
102
RTVSPost2010PropOp38
 70
     1
102
RTVSPost2010Prop39
140
1.0
102
RTVSPost2010PropOp39
 70
     1
102
RTVSPost2010Prop40
 90
        0
102
RTVSPost2010PropOp40
 70
     1
102
RTVSPost2010Prop41ColorIndex
 90
       18
102
RTVSPost2010Prop41ColorRGB
 90
        0
102
RTVSPost2010PropOp41
 70
     1
102
RTVSPost2010Prop42
 90
       50
102
RTVSPost2010PropOp42
 70
     1
102
RTVSPost2010Prop43
 90
        3
102
RTVSPost2010PropOp43
 70
     1
102
RTVSPost2010Prop44ColorIndex
 90
        5
102
RTVSPost2010Prop44ColorRGB
 90
      255
102
RTVSPost2010PropOp44
 70
     1
102
RTVSPost2010Prop45
280
     0
102
RTVSPost2010PropOp45
 70
     1
102
RTVSPost2010Prop46
 90
       50
102
RTVSPost2010PropOp46
 70
     1
102
RTVSPost2010Prop47
 90
       50
102
RTVSPost2010PropOp47
 70
     1
102
RTVSPost2010Prop48
 90
       50
102
RTVSPost2010PropOp48
 70
     1
102
RTVSPost2010Prop49
280
     0
102
RTVSPost2010PropOp49
 70
     1
102
RTVSPost2010Prop50
 90
       50
102
RTVSPost2010PropOp50
 70
     1
102
RTVSPost2010Prop51ColorIndex
 90
      256
102
RTVSPost2010Prop51ColorRGB
 90
-16777216
102
RTVSPost2010PropOp51
 70
     0
102
RTVSPost2010Prop52
140
1.0
102
RTVSPost2010PropOp52
 70
     0
102
RTVSPost2010Prop53
 90
        2
102
RTVSPost2010PropOp53
 70
     1
102
RTVSPost2010Prop54
  1
strokes_ogs.tif
102
RTVSPost2010PropOp54
 70
     1
102
RTVSPost2010Prop55
280
     0
102
RTVSPost2010PropOp55
 70
     1
102
RTVSPost2010Prop56
140
1.0
102
RTVSPost2010PropOp56
 70
     1
102
RTVSPost2010Prop57
140
1.0
102
RTVSPost2010PropOp57
 70
     1
  0
XRECORD
  5
36A0
102
{ACAD_REACTORS
330
369F
102
}
330
369F
100
AcDbXrecord
280
     1
102
RTVSPost2010Prop28
280
     0
102
RTVSPost2010PropOp28
 70
     1
102
RTVSPost2010Prop29
280
     1
102
RTVSPost2010PropOp29
 70
     1
102
RTVSPost2010Prop30
280
     1
102
RTVSPost2010PropOp30
 70
     1
102
RTVSPost2010Prop31
280
     0
102
RTVSPost2010PropOp31
 70
     1
102
RTVSPost2010Prop32
280
     0
102
RTVSPost2010PropOp32
 70
     1
102
RTVSPost2010Prop33
280
     0
102
RTVSPost2010PropOp33
 70
     1
102
RTVSPost2010Prop34
280
     0
102
RTVSPost2010PropOp34
 70
     1
102
RTVSPost2010Prop35
280
     0
102
RTVSPost2010PropOp35
 70
     1
102
RTVSPost2010Prop36
280
     0
102
RTVSPost2010PropOp36
 70
     1
102
RTVSPost2010Prop37
 90
       50
102
RTVSPost2010PropOp37
 70
     1
102
RTVSPost2010Prop38
140
0.0
102
RTVSPost2010PropOp38
 70
     1
102
RTVSPost2010Prop39
140
1.0
102
RTVSPost2010PropOp39
 70
     1
102
RTVSPost2010Prop40
 90
        0
102
RTVSPost2010PropOp40
 70
     1
102
RTVSPost2010Prop41ColorIndex
 90
       18
102
RTVSPost2010Prop41ColorRGB
 90
        0
102
RTVSPost2010PropOp41
 70
     1
102
RTVSPost2010Prop42
 90
       50
102
RTVSPost2010PropOp42
 70
     1
102
RTVSPost2010Prop43
 90
        3
102
RTVSPost2010PropOp43
 70
     1
102
RTVSPost2010Prop44ColorIndex
 90
        5
102
RTVSPost2010Prop44ColorRGB
 90
      255
102
RTVSPost2010PropOp44
 70
     1
102
RTVSPost2010Prop45
280
     0
102
RTVSPost2010PropOp45
 70
     1
102
RTVSPost2010Prop46
 90
       50
102
RTVSPost2010PropOp46
 70
     1
102
RTVSPost2010Prop47
 90
       50
102
RTVSPost2010PropOp47
 70
     1
102
RTVSPost2010Prop48
 90
       50
102
RTVSPost2010PropOp48
 70
     1
102
RTVSPost2010Prop49
280
     0
102
RTVSPost2010PropOp49
 70
     1
102
RTVSPost2010Prop50
 90
       50
102
RTVSPost2010PropOp50
 70
     1
102
RTVSPost2010Prop51ColorIndex
 90
      256
102
RTVSPost2010Prop51ColorRGB
 90
-16777216
102
RTVSPost2010PropOp51
 70
     0
102
RTVSPost2010Prop52
140
1.0
102
RTVSPost2010PropOp52
 70
     0
102
RTVSPost2010Prop53
 90
        2
102
RTVSPost2010PropOp53
 70
     1
102
RTVSPost2010Prop54
  1
strokes_ogs.tif
102
RTVSPost2010PropOp54
 70
     1
102
RTVSPost2010Prop55
280
     0
102
RTVSPost2010PropOp55
 70
     1
102
RTVSPost2010Prop56
140
1.0
102
RTVSPost2010PropOp56
 70
     1
102
RTVSPost2010Prop57
140
1.0
102
RTVSPost2010PropOp57
 70
     1
  0
XRECORD
  5
3694
102
{ACAD_REACTORS
330
3693
102
}
330
3693
100
AcDbXrecord
280
     1
102
RTVSPost2010Prop28
280
     0
102
RTVSPost2010PropOp28
 70
     1
102
RTVSPost2010Prop29
280
     1
102
RTVSPost2010PropOp29
 70
     1
102
RTVSPost2010Prop30
280
     1
102
RTVSPost2010PropOp30
 70
     1
102
RTVSPost2010Prop31
280
     0
102
RTVSPost2010PropOp31
 70
     1
102
RTVSPost2010Prop32
280
     0
102
RTVSPost2010PropOp32
 70
     1
102
RTVSPost2010Prop33
280
     0
102
RTVSPost2010PropOp33
 70
     1
102
RTVSPost2010Prop34
280
     0
102
RTVSPost2010PropOp34
 70
     1
102
RTVSPost2010Prop35
280
     0
102
RTVSPost2010PropOp35
 70
     1
102
RTVSPost2010Prop36
280
     0
102
RTVSPost2010PropOp36
 70
     1
102
RTVSPost2010Prop37
 90
       50
102
RTVSPost2010PropOp37
 70
     1
102
RTVSPost2010Prop38
140
0.0
102
RTVSPost2010PropOp38
 70
     1
102
RTVSPost2010Prop39
140
1.0
102
RTVSPost2010PropOp39
 70
     1
102
RTVSPost2010Prop40
 90
        0
102
RTVSPost2010PropOp40
 70
     1
102
RTVSPost2010Prop41ColorIndex
 90
       18
102
RTVSPost2010Prop41ColorRGB
 90
        0
102
RTVSPost2010PropOp41
 70
     1
102
RTVSPost2010Prop42
 90
       50
102
RTVSPost2010PropOp42
 70
     1
102
RTVSPost2010Prop43
 90
        3
102
RTVSPost2010PropOp43
 70
     1
102
RTVSPost2010Prop44ColorIndex
 90
        5
102
RTVSPost2010Prop44ColorRGB
 90
      255
102
RTVSPost2010PropOp44
 70
     1
102
RTVSPost2010Prop45
280
     0
102
RTVSPost2010PropOp45
 70
     1
102
RTVSPost2010Prop46
 90
       50
102
RTVSPost2010PropOp46
 70
     1
102
RTVSPost2010Prop47
 90
       50
102
RTVSPost2010PropOp47
 70
     1
102
RTVSPost2010Prop48
 90
       50
102
RTVSPost2010PropOp48
 70
     1
102
RTVSPost2010Prop49
280
     0
102
RTVSPost2010PropOp49
 70
     1
102
RTVSPost2010Prop50
 90
       50
102
RTVSPost2010PropOp50
 70
     1
102
RTVSPost2010Prop51ColorIndex
 90
      256
102
RTVSPost2010Prop51ColorRGB
 90
-16777216
102
RTVSPost2010PropOp51
 70
     0
102
RTVSPost2010Prop52
140
1.0
102
RTVSPost2010PropOp52
 70
     0
102
RTVSPost2010Prop53
 90
        2
102
RTVSPost2010PropOp53
 70
     1
102
RTVSPost2010Prop54
  1
strokes_ogs.tif
102
RTVSPost2010PropOp54
 70
     1
102
RTVSPost2010Prop55
280
     0
102
RTVSPost2010PropOp55
 70
     1
102
RTVSPost2010Prop56
140
1.0
102
RTVSPost2010PropOp56
 70
     1
102
RTVSPost2010Prop57
140
1.0
102
RTVSPost2010PropOp57
 70
     1
  0
XRECORD
  5
36AC
102
{ACAD_REACTORS
330
36AB
102
}
330
36AB
100
AcDbXrecord
280
     1
102
RTVSPost2010Prop28
280
     0
102
RTVSPost2010PropOp28
 70
     1
102
RTVSPost2010Prop29
280
     1
102
RTVSPost2010PropOp29
 70
     1
102
RTVSPost2010Prop30
280
     1
102
RTVSPost2010PropOp30
 70
     1
102
RTVSPost2010Prop31
280
     0
102
RTVSPost2010PropOp31
 70
     1
102
RTVSPost2010Prop32
280
     0
102
RTVSPost2010PropOp32
 70
     1
102
RTVSPost2010Prop33
280
     0
102
RTVSPost2010PropOp33
 70
     1
102
RTVSPost2010Prop34
280
     0
102
RTVSPost2010PropOp34
 70
     1
102
RTVSPost2010Prop35
280
     0
102
RTVSPost2010PropOp35
 70
     1
102
RTVSPost2010Prop36
280
     0
102
RTVSPost2010PropOp36
 70
     1
102
RTVSPost2010Prop37
 90
       50
102
RTVSPost2010PropOp37
 70
     1
102
RTVSPost2010Prop38
140
0.0
102
RTVSPost2010PropOp38
 70
     1
102
RTVSPost2010Prop39
140
1.0
102
RTVSPost2010PropOp39
 70
     1
102
RTVSPost2010Prop40
 90
        0
102
RTVSPost2010PropOp40
 70
     1
102
RTVSPost2010Prop41ColorIndex
 90
       18
102
RTVSPost2010Prop41ColorRGB
 90
        0
102
RTVSPost2010PropOp41
 70
     1
102
RTVSPost2010Prop42
 90
       50
102
RTVSPost2010PropOp42
 70
     1
102
RTVSPost2010Prop43
 90
        3
102
RTVSPost2010PropOp43
 70
     1
102
RTVSPost2010Prop44ColorIndex
 90
        5
102
RTVSPost2010Prop44ColorRGB
 90
      255
102
RTVSPost2010PropOp44
 70
     1
102
RTVSPost2010Prop45
280
     0
102
RTVSPost2010PropOp45
 70
     1
102
RTVSPost2010Prop46
 90
       50
102
RTVSPost2010PropOp46
 70
     1
102
RTVSPost2010Prop47
 90
       50
102
RTVSPost2010PropOp47
 70
     1
102
RTVSPost2010Prop48
 90
       50
102
RTVSPost2010PropOp48
 70
     1
102
RTVSPost2010Prop49
280
     0
102
RTVSPost2010PropOp49
 70
     1
102
RTVSPost2010Prop50
 90
       50
102
RTVSPost2010PropOp50
 70
     1
102
RTVSPost2010Prop51ColorIndex
 90
      256
102
RTVSPost2010Prop51ColorRGB
 90
-16777216
102
RTVSPost2010PropOp51
 70
     0
102
RTVSPost2010Prop52
140
1.0
102
RTVSPost2010PropOp52
 70
     0
102
RTVSPost2010Prop53
 90
        2
102
RTVSPost2010PropOp53
 70
     1
102
RTVSPost2010Prop54
  1
strokes_ogs.tif
102
RTVSPost2010PropOp54
 70
     1
102
RTVSPost2010Prop55
280
     0
102
RTVSPost2010PropOp55
 70
     1
102
RTVSPost2010Prop56
140
1.0
102
RTVSPost2010PropOp56
 70
     1
102
RTVSPost2010Prop57
140
1.0
102
RTVSPost2010PropOp57
 70
     1
  0
ENDSEC
  0
EOF
