  0
SECTION
  2
HEADER
  9
$ACADVER
  1
AC1024
  9
$ACADMAINTVER
 70
   226
  9
$DWGCODEPAGE
  3
ANSI_932
  9
$LASTSAVEDBY
  1
y-sakai
  9
$INSBASE
 10
0.0
 20
0.0
 30
0.0
  9
$EXTMIN
 10
196.6095769051571
 20
200.6371103590809
 30
-0.0000000000000058
  9
$EXTMAX
 10
1296.759303397567
 20
1120.715484787626
 30
0.0000000000000104
  9
$LIMMIN
 10
0.0
 20
0.0
  9
$LIMMAX
 10
1422.5
 20
925.0
  9
$ORTHOMODE
 70
     0
  9
$REGENMODE
 70
     1
  9
$FILLMODE
 70
     1
  9
$QTEXTMODE
 70
     0
  9
$MIRRTEXT
 70
     1
  9
$LTSCALE
 40
5.0
  9
$ATTMODE
 70
     1
  9
$TEXTSIZE
 40
2.5
  9
$TRACEWID
 40
1.0
  9
$TEXTSTYLE
  7
STANDARD
  9
$CLAYER
  8
AM_0
  9
$CELTYPE
  6
ByLayer
  9
$CECOLOR
 62
   256
  9
$CELTSCALE
 40
1.0
  9
$DISPSILH
 70
     0
  9
$DIMSCALE
 40
1.0
  9
$DIMASZ
 40
2.5
  9
$DIMEXO
 40
1.0
  9
$DIMDLI
 40
8.0
  9
$DIMRND
 40
0.0
  9
$DIMDLE
 40
0.0
  9
$DIMEXE
 40
0.6
  9
$DIMTP
 40
0.1
  9
$DIMTM
 40
0.1
  9
$DIMTXT
 40
2.5
  9
$DIMCEN
 40
0.0
  9
$DIMTSZ
 40
0.0
  9
$DIMTOL
 70
     0
  9
$DIMLIM
 70
     0
  9
$DIMTIH
 70
     0
  9
$DIMTOH
 70
     0
  9
$DIMSE1
 70
     0
  9
$DIMSE2
 70
     0
  9
$DIMTAD
 70
     1
  9
$DIMZIN
 70
     8
  9
$DIMBLK
  1

  9
$DIMASO
 70
     1
  9
$DIMSHO
 70
     1
  9
$DIMPOST
  1

  9
$DIMAPOST
  1
"
  9
$DIMALT
 70
     0
  9
$DIMALTD
 70
     2
  9
$DIMALTF
 40
0.0393701
  9
$DIMLFAC
 40
1.0
  9
$DIMTOFL
 70
     1
  9
$DIMTVP
 40
0.0
  9
$DIMTIX
 70
     0
  9
$DIMSOXD
 70
     0
  9
$DIMSAH
 70
     0
  9
$DIMBLK1
  1

  9
$DIMBLK2
  1

  9
$DIMSTYLE
  2
AM_ISO
  9
$DIMCLRD
 70
   256
  9
$DIMCLRE
 70
   256
  9
$DIMCLRT
 70
     4
  9
$DIMTFAC
 40
0.71
  9
$DIMGAP
 40
0.8
  9
$DIMJUST
 70
     0
  9
$DIMSD1
 70
     0
  9
$DIMSD2
 70
     0
  9
$DIMTOLJ
 70
     1
  9
$DIMTZIN
 70
     0
  9
$DIMALTZ
 70
     0
  9
$DIMALTTZ
 70
     0
  9
$DIMUPT
 70
     0
  9
$DIMDEC
 70
     4
  9
$DIMTDEC
 70
     4
  9
$DIMALTU
 70
     2
  9
$DIMALTTD
 70
     2
  9
$DIMTXSTY
  7
STANDARD
  9
$DIMAUNIT
 70
     0
  9
$DIMADEC
 70
     0
  9
$DIMALTRND
 40
0.0
  9
$DIMAZIN
 70
     0
  9
$DIMDSEP
 70
    46
  9
$DIMATFIT
 70
     3
  9
$DIMFRAC
 70
     0
  9
$DIMLDRBLK
  1

  9
$DIMLUNIT
 70
     2
  9
$DIMLWD
 70
    -2
  9
$DIMLWE
 70
    -2
  9
$DIMTMOVE
 70
     0
  9
$DIMFXL
 40
1.0
  9
$DIMFXLON
 70
     0
  9
$DIMJOGANG
 40
0.7853981633974483
  9
$DIMTFILL
 70
     0
  9
$DIMTFILLCLR
 70
     0
  9
$DIMARCSYM
 70
     0
  9
$DIMLTYPE
  6

  9
$DIMLTEX1
  6

  9
$DIMLTEX2
  6

  9
$DIMTXTDIRECTION
 70
     0
  9
$LUNITS
 70
     2
  9
$LUPREC
 70
     2
  9
$SKETCHINC
 40
1.0
  9
$FILLETRAD
 40
25.0
  9
$AUNITS
 70
     0
  9
$AUPREC
 70
     0
  9
$MENU
  1
.
  9
$ELEVATION
 40
0.0
  9
$PELEVATION
 40
0.0
  9
$THICKNESS
 40
0.0
  9
$LIMCHECK
 70
     0
  9
$CHAMFERA
 40
10.0
  9
$CHAMFERB
 40
5.0
  9
$CHAMFERC
 40
0.0
  9
$CHAMFERD
 40
0.0
  9
$SKPOLY
 70
     0
  9
$TDCREATE
 40
2452066.753194444
  9
$TDUCREATE
 40
2452066.378194444
  9
$TDUPDATE
 40
2460363.554895833
  9
$TDUUPDATE
 40
2460363.179895833
  9
$TDINDWG
 40
0.0876199190
  9
$TDUSRTIMER
 40
0.0876199074
  9
$USRTIMER
 70
     1
  9
$ANGBASE
 50
0.0
  9
$ANGDIR
 70
     0
  9
$PDMODE
 70
     0
  9
$PDSIZE
 40
0.0
  9
$PLINEWID
 40
0.0
  9
$SPLFRAME
 70
     0
  9
$SPLINETYPE
 70
     6
  9
$SPLINESEGS
 70
     8
  9
$HANDSEED
  5
32F2
  9
$SURFTAB1
 70
     6
  9
$SURFTAB2
 70
     6
  9
$SURFTYPE
 70
     6
  9
$SURFU
 70
     6
  9
$SURFV
 70
     6
  9
$UCSBASE
  2

  9
$UCSNAME
  2

  9
$UCSORG
 10
0.0
 20
0.0
 30
0.0
  9
$UCSXDIR
 10
1.0
 20
0.0
 30
0.0
  9
$UCSYDIR
 10
0.0
 20
1.0
 30
0.0
  9
$UCSORTHOREF
  2

  9
$UCSORTHOVIEW
 70
     0
  9
$UCSORGTOP
 10
0.0
 20
0.0
 30
0.0
  9
$UCSORGBOTTOM
 10
0.0
 20
0.0
 30
0.0
  9
$UCSORGLEFT
 10
0.0
 20
0.0
 30
0.0
  9
$UCSORGRIGHT
 10
0.0
 20
0.0
 30
0.0
  9
$UCSORGFRONT
 10
0.0
 20
0.0
 30
0.0
  9
$UCSORGBACK
 10
0.0
 20
0.0
 30
0.0
  9
$PUCSBASE
  2

  9
$PUCSNAME
  2

  9
$PUCSORG
 10
0.0
 20
0.0
 30
0.0
  9
$PUCSXDIR
 10
1.0
 20
0.0
 30
0.0
  9
$PUCSYDIR
 10
0.0
 20
1.0
 30
0.0
  9
$PUCSORTHOREF
  2

  9
$PUCSORTHOVIEW
 70
     0
  9
$PUCSORGTOP
 10
0.0
 20
0.0
 30
0.0
  9
$PUCSORGBOTTOM
 10
0.0
 20
0.0
 30
0.0
  9
$PUCSORGLEFT
 10
0.0
 20
0.0
 30
0.0
  9
$PUCSORGRIGHT
 10
0.0
 20
0.0
 30
0.0
  9
$PUCSORGFRONT
 10
0.0
 20
0.0
 30
0.0
  9
$PUCSORGBACK
 10
0.0
 20
0.0
 30
0.0
  9
$USERI1
 70
     0
  9
$USERI2
 70
     0
  9
$USERI3
 70
     0
  9
$USERI4
 70
     0
  9
$USERI5
 70
     0
  9
$USERR1
 40
0.0
  9
$USERR2
 40
0.0
  9
$USERR3
 40
0.0
  9
$USERR4
 40
0.0
  9
$USERR5
 40
0.0
  9
$WORLDVIEW
 70
     1
  9
$SHADEDGE
 70
     3
  9
$SHADEDIF
 70
    70
  9
$TILEMODE
 70
     1
  9
$MAXACTVP
 70
    64
  9
$PINSBASE
 10
0.0
 20
0.0
 30
0.0
  9
$PLIMCHECK
 70
     0
  9
$PEXTMIN
 10
1.000000000000000E+20
 20
1.000000000000000E+20
 30
1.000000000000000E+20
  9
$PEXTMAX
 10
-1.000000000000000E+20
 20
-1.000000000000000E+20
 30
-1.000000000000000E+20
  9
$PLIMMIN
 10
0.0
 20
0.0
  9
$PLIMMAX
 10
420.0
 20
297.0
  9
$UNITMODE
 70
     0
  9
$VISRETAIN
 70
     1
  9
$PLINEGEN
 70
     0
  9
$PSLTSCALE
 70
     1
  9
$TREEDEPTH
 70
  3020
  9
$CMLSTYLE
  2
Standard
  9
$CMLJUST
 70
     0
  9
$CMLSCALE
 40
1.0
  9
$PROXYGRAPHICS
 70
     1
  9
$MEASUREMENT
 70
     0
  9
$CELWEIGHT
370
    -1
  9
$ENDCAPS
280
     0
  9
$JOINSTYLE
280
     0
  9
$LWDISPLAY
290
     0
  9
$INSUNITS
 70
     0
  9
$HYPERLINKBASE
  1

  9
$STYLESHEET
  1

  9
$XEDIT
290
     1
  9
$CEPSNTYPE
380
     0
  9
$PSTYLEMODE
290
     1
  9
$FINGERPRINTGUID
  2
{1D3610D3-CBF7-294A-B7A4-3527937CB9E6}
  9
$VERSIONGUID
  2
{D9B34765-768B-F245-B27B-FA10B0F4383E}
  9
$EXTNAMES
290
     1
  9
$PSVPSCALE
 40
0.0
  9
$OLESTARTUP
290
     0
  9
$SORTENTS
280
   127
  9
$INDEXCTL
280
     0
  9
$HIDETEXT
280
     0
  9
$XCLIPFRAME
280
     2
  9
$HALOGAP
280
     0
  9
$OBSCOLOR
 70
   257
  9
$OBSLTYPE
280
     0
  9
$INTERSECTIONDISPLAY
280
     0
  9
$INTERSECTIONCOLOR
 70
   257
  9
$DIMASSOC
280
     1
  9
$PROJECTNAME
  1

  9
$CAMERADISPLAY
290
     0
  9
$LENSLENGTH
 40
50.0
  9
$CAMERAHEIGHT
 40
0.0
  9
$STEPSPERSEC
 40
2.0
  9
$STEPSIZE
 40
6.0
  9
$3DDWFPREC
 40
2.0
  9
$PSOLWIDTH
 40
0.25
  9
$PSOLHEIGHT
 40
4.0
  9
$LOFTANG1
 40
1.570796326794896
  9
$LOFTANG2
 40
1.570796326794896
  9
$LOFTMAG1
 40
0.0
  9
$LOFTMAG2
 40
0.0
  9
$LOFTPARAM
 70
     7
  9
$LOFTNORMALS
280
     1
  9
$LATITUDE
 40
37.795
  9
$LONGITUDE
 40
-122.394
  9
$NORTHDIRECTION
 40
0.0
  9
$TIMEZONE
 70
 -8000
  9
$LIGHTGLYPHDISPLAY
280
     1
  9
$TILEMODELIGHTSYNCH
280
     1
  9
$CMATERIAL
347
303E
  9
$SOLIDHIST
280
     0
  9
$SHOWHIST
280
     1
  9
$DWFFRAME
280
     2
  9
$DGNFRAME
280
     0
  9
$REALWORLDSCALE
290
     1
  9
$INTERFERECOLOR
 62
     1
  9
$INTERFEREOBJVS
345
3060
  9
$INTERFEREVPVS
346
305D
  9
$CSHADOW
280
     0
  9
$SHADOWPLANELOCATION
 40
0.0
  0
ENDSEC
  0
SECTION
  2
CLASSES
  0
CLASS
  1
ACDBDICTIONARYWDFLT
  2
AcDbDictionaryWithDefault
  3
ObjectDBX Classes
 90
        0
 91
        1
280
     0
281
     0
  0
CLASS
  1
MATERIAL
  2
AcDbMaterial
  3
ObjectDBX Classes
 90
     1153
 91
        3
280
     0
281
     0
  0
CLASS
  1
VISUALSTYLE
  2
AcDbVisualStyle
  3
ObjectDBX Classes
 90
     4095
 91
       24
280
     0
281
     0
  0
CLASS
  1
SCALE
  2
AcDbScale
  3
ObjectDBX Classes
 90
     1153
 91
       17
280
     0
281
     0
  0
CLASS
  1
TABLESTYLE
  2
AcDbTableStyle
  3
ObjectDBX Classes
 90
     4095
 91
        1
280
     0
281
     0
  0
CLASS
  1
MLEADERSTYLE
  2
AcDbMLeaderStyle
  3
ACDB_MLEADERSTYLE_CLASS
 90
     4095
 91
        1
280
     0
281
     0
  0
CLASS
  1
ACDBSECTIONVIEWSTYLE
  2
AcDbSectionViewStyle
  3
ObjectDBX Classes
 90
     1025
 91
        2
280
     0
281
     0
  0
CLASS
  1
ACDBDETAILVIEWSTYLE
  2
AcDbDetailViewStyle
  3
ObjectDBX Classes
 90
     1025
 91
        2
280
     0
281
     0
  0
CLASS
  1
AMGSETTINGSOBJ
  2
AmgSettingsObj
  3
"AcadM|Product Description: AutoCAD Mechanical|Company: Autodesk, Inc."
 90
     1024
 91
        2
280
     0
281
     0
  0
CLASS
  1
ACME_DOCUMENT
  2
AcMeDbDoc
  3
AcMeServices
 90
     1024
 91
        1
280
     0
281
     0
  0
CLASS
  1
ACMESCOPE
  2
AcMeScope
  3
AcMeServices
 90
     1024
 91
        1
280
     0
281
     0
  0
CLASS
  1
ACMECOMMANDHISTORY
  2
AcMeCommandHistory
  3
AcMeServices
 90
     1024
 91
        1
280
     0
281
     0
  0
CLASS
  1
ACIMSYSVARMAN
  2
AcImSysVarManager
  3
AcMeServices
 90
     1024
 91
        3
280
     0
281
     0
  0
CLASS
  1
ACIMINTSYSVAR
  2
AcImIntSysVar
  3
AcMeServices
 90
     1024
 91
        5
280
     0
281
     0
  0
CLASS
  1
ACMESTATEMGR
  2
AcMeStateMgr
  3
AcMeServices
 90
     1024
 91
        1
280
     0
281
     0
  0
CLASS
  1
ACDBENTITYCACHE
  2
AcMeEntityCache
  3
AcMeServices
 90
     1024
 91
        1
280
     0
281
     0
  0
CLASS
  1
ACGREFMASTER
  2
AcGrefMaster
  3
AcAttribServices
 90
     1024
 91
        1
280
     0
281
     0
  0
CLASS
  1
ACME_DATABASE
  2
AcMeDbDatabase
  3
AcMeServices
 90
     1024
 91
        2
280
     0
281
     0
  0
CLASS
  1
ACRFINSADJUSTERMGR
  2
AcRfInsAdjusterMgr
  3
AcMeServices
 90
     1024
 91
        1
280
     0
281
     0
  0
CLASS
  1
ACGREFACADMASTER
  2
AcGrefacadMaster
  3
AcGrefServices
 90
     1024
 91
        1
280
     0
281
     0
  0
CLASS
  1
AMIMASTER
  2
AmiMaster
  3
AmiServices
 90
     1024
 91
        1
280
     0
281
     0
  0
CLASS
  1
AMDTMENUSTATEMGR
  2
AmdtMenuStateMgr
  3
McadcomServices
 90
     1024
 91
        1
280
     0
281
     0
  0
CLASS
  1
AMDTMCOMMENUSTATE
  2
AmdtMcomMenuState
  3
McadcomServices
 90
     1024
 91
        1
280
     0
281
     0
  0
CLASS
  1
MAPIAMMOUDLE
  2
MApiAmModule
  3
MApiAmServices
 90
     1024
 91
        1
280
     0
281
     0
  0
CLASS
  1
ACIMSTRSYSVAR
  2
AcImStrSysVar
  3
AcMeServices
 90
     1024
 91
        5
280
     0
281
     0
  0
CLASS
  1
AMDTAMMENUSTATE
  2
AmdtAmMenuState
  3
DesignerAssemblies_arx
 90
     1024
 91
        1
280
     0
281
     0
  0
CLASS
  1
ACAMPROJECT
  2
AcAmProject
  3
DesignerAssemblies
 90
     1024
 91
        1
280
     0
281
     0
  0
CLASS
  1
ACAMGRCOMPDEF
  2
AcAmGrCompDef
  3
DesignerAssemblies
 90
     1024
 91
        1
280
     0
281
     0
  0
CLASS
  1
ACAMCOMPDEF
  2
AcAmCompDef
  3
DesignerAssemblies
 90
     1024
 91
        1
280
     0
281
     0
  0
CLASS
  1
ACAMCOMPDEFMGR
  2
AcAmCompDefMgr
  3
DesignerAssemblies
 90
     1024
 91
        1
280
     0
281
     0
  0
CLASS
  1
AMCONTEXTMGR
  2
AcAmContextMgr
  3
DesignerAssemblies
 90
     1024
 91
        1
280
     0
281
     0
  0
CLASS
  1
ACAMCONTEXTMODELER
  2
AcAmContextModeler
  3
DesignerAssemblies
 90
     1024
 91
        1
280
     0
281
     0
  0
CLASS
  1
ACMDATADICTIONARY
  2
AcmDataDictionary
  3
"AcmSymBB|Product Description: AutoCAD Mechanical|Company: Autodesk, Inc."
 90
     1024
 91
        1
280
     0
281
     0
  0
CLASS
  1
ACAMGRCOMPDEFSET
  2
AcAmGrCompDefSet
  3
DesignerAssemblies
 90
     1024
 91
        1
280
     0
281
     0
  0
CLASS
  1
AMDTBROWSERDBTAB
  2
AmdtBrowserDbTab
  3
McadcomServices
 90
     1024
 91
        1
280
     0
281
     0
  0
CLASS
  1
CBROWSERAPPOBJECT
  2
CBrowserAppObject
  3
McadcomServices
 90
     1024
 91
        2
280
     0
281
     0
  0
CLASS
  1
DM_PLACEHOLDER
  2
AcDmSelsetPlaceholder
  3
McadcomServices
 90
     1024
 91
        1
280
     0
281
     0
  0
CLASS
  1
EXACXREFPANELOBJECT
  2
ExAcXREFPanelObject
  3
EXAC_ESW
 90
     1025
 91
        1
280
     0
281
     0
  0
CLASS
  1
NPOCOLLECTION
  2
AcDbImpNonPersistentObjectsCollection
  3
ObjectDBX Classes
 90
     1153
 91
        1
280
     0
281
     0
  0
CLASS
  1
ACMSTANDARDANSI
  2
AcmStandardANSI
  3
"Amdt_StdImp|Product Description: AutoCAD Mechanical|Company: Autodesk, Inc."
 90
     1024
 91
        1
280
     0
281
     0
  0
CLASS
  1
ACMSURFSTANDARDANSI
  2
AcmSurfTextStdANSI
  3
"Amdt_StdImp|Product Description: AutoCAD Mechanical|Company: Autodesk, Inc."
 90
     1024
 91
        1
280
     0
281
     0
  0
CLASS
  1
ACMFCFSTANDARDANSI
  2
AcmFCFStdANSI
  3
"Amdt_StdImp|Product Description: AutoCAD Mechanical|Company: Autodesk, Inc."
 90
     1024
 91
        1
280
     0
281
     0
  0
CLASS
  1
ACMWELDSTANDARDANSI
  2
AcmWeldingStdANSI
  3
"Amdt_StdImp|Product Description: AutoCAD Mechanical|Company: Autodesk, Inc."
 90
     1024
 91
        1
280
     0
281
     0
  0
CLASS
  1
ACMIDSTANDARDANSI
  2
AcmIdStdANSI
  3
"Amdt_StdImp|Product Description: AutoCAD Mechanical|Company: Autodesk, Inc."
 90
     1024
 91
        1
280
     0
281
     0
  0
CLASS
  1
ACMDATUMSTANDARDANSI
  2
AcmDatumStdANSI
  3
"Amdt_StdImp|Product Description: AutoCAD Mechanical|Company: Autodesk, Inc."
 90
     1024
 91
        1
280
     0
281
     0
  0
CLASS
  1
ACMBOMSTANDARDANSI
  2
AcmBOMStdANSI
  3
"Amdt_StdImp|Product Description: AutoCAD Mechanical|Company: Autodesk, Inc."
 90
     1024
 91
        1
280
     0
281
     0
  0
CLASS
  1
ACMDETAILSTANDARDANSI
  2
AmdtDetailSymStdANSI
  3
"Amdt_StdImp|Product Description: AutoCAD Mechanical|Company: Autodesk, Inc."
 90
     1024
 91
        1
280
     0
281
     0
  0
CLASS
  1
ACMSECTIONSTANDARDANSI
  2
AmdtSectionSymStdANSI
  3
"Amdt_StdImp|Product Description: AutoCAD Mechanical|Company: Autodesk, Inc."
 90
     1024
 91
        1
280
     0
281
     0
  0
CLASS
  1
ACMCENTERLINESTANDARDANSI
  2
AmdtCenterLineStdANSI
  3
"Amdt_StdImp|Product Description: AutoCAD Mechanical|Company: Autodesk, Inc."
 90
     1024
 91
        1
280
     0
281
     0
  0
CLASS
  1
ACMTHREADLINESTANDARDANSI
  2
AmdtThreadLineStdANSI
  3
"Amdt_StdImp|Product Description: AutoCAD Mechanical|Company: Autodesk, Inc."
 90
     1024
 91
        1
280
     0
281
     0
  0
CLASS
  1
ACMNOTESTANDARDANSI
  2
AmdtNoteStdANSI
  3
"Amdt_StdImp|Product Description: AutoCAD Mechanical|Company: Autodesk, Inc."
 90
     1024
 91
        1
280
     0
281
     0
  0
CLASS
  1
ACMTAPERSTANDARDANSI
  2
AcmTaperStdANSI
  3
"Amdt_StdImp|Product Description: AutoCAD Mechanical|Company: Autodesk, Inc."
 90
     1024
 91
        1
280
     0
281
     0
  0
CLASS
  1
ACMANOOTATIONVIEWSTANDARDANSI
  2
AmdtAnViewStdANSI
  3
"Amdt_StdImp|Product Description: AutoCAD Mechanical|Company: Autodesk, Inc."
 90
     1024
 91
        1
280
     0
281
     0
  0
CLASS
  1
ACAMGLAYSTD
  2
AcAmgLayStd
  3
"AmgLay|Product Description: AutoCAD Mechanical|Company: Autodesk, Inc."
 90
     1024
 91
        1
280
     0
281
     0
  0
CLASS
  1
ACAMGDIMSTD
  2
AcAmgDimStd
  3
"AmgDim|Product Description: AutoCAD Mechanical|Company: Autodesk, Inc."
 90
     1024
 91
        1
280
     0
281
     0
  0
CLASS
  1
ACAMGHOLECHARTSTDANSI
  2
AcAmgHoleChartStdANSI
  3
"AmgDim" "Product Description: AutoCAD Mechanical|Company: Autodesk, Inc."
 90
     1024
 91
        1
280
     0
281
     0
  0
CLASS
  1
AMGOBJPROPCFG
  2
AmgObjPropCfg
  3
"AmgLay|Product Description: AutoCAD Mechanical|Company: Autodesk, Inc."
 90
     1024
 91
        1
280
     0
281
     0
  0
CLASS
  1
ACAMGTITLESTD
  2
AcAmgTitleStd
  3
"AmgTitle|Product Description: AutoCAD Mechanical|Company: Autodesk, Inc."
 90
     1024
 91
        1
280
     0
281
     0
  0
CLASS
  1
ACMSECTIONSTANDARDCUSTOM
  2
AmdtSectionSymStdCustom
  3
"Amdt_StdImp|Product Description: AutoCAD Mechanical|Company: Autodesk, Inc."
 90
     1024
 91
        1
280
     0
281
     0
  0
CLASS
  1
ACMDETAILTANDARDCUSTOM
  2
AmdtDetailSymStdCustom
  3
"Amdt_StdImp|Product Description: AutoCAD Mechanical|Company: Autodesk, Inc."
 90
     1024
 91
        1
280
     0
281
     0
  0
CLASS
  1
FIELD
  2
AcDbField
  3
ObjectDBX Classes
 90
     1152
 91
        8
280
     0
281
     0
  0
CLASS
  1
FIELDLIST
  2
AcDbFieldList
  3
ObjectDBX Classes
 90
     1152
 91
        1
280
     0
281
     0
  0
CLASS
  1
AMDTNOTETEMPLATEDB
  2
AmdtNoteTemplateDB
  3
"AcmSymBB" "Product Description: AutoCAD Mechanical|Company: Autodesk, Inc."
 90
     1024
 91
        7
280
     0
281
     0
  0
CLASS
  1
SORTENTSTABLE
  2
AcDbSortentsTable
  3
ObjectDBX Classes
 90
        0
 91
        1
280
     0
281
     0
  0
CLASS
  1
ACAMGFILTERDAT
  2
AcAmgFilterDat
  3
"AcadM|Product Description: AutoCAD Mechanical|Company: Autodesk, Inc."
 90
     1024
 91
        6
280
     0
281
     0
  0
CLASS
  1
DICTIONARYVAR
  2
AcDbDictionaryVar
  3
ObjectDBX Classes
 90
        0
 91
       18
280
     0
281
     0
  0
CLASS
  1
CELLSTYLEMAP
  2
AcDbCellStyleMap
  3
ObjectDBX Classes
 90
     1152
 91
        2
280
     0
281
     0
  0
ENDSEC
  0
SECTION
  2
TABLES
  0
TABLE
  2
VPORT
  5
3035
330
0
100
AcDbSymbolTable
 70
     1
  0
VPORT
  5
30A1
330
3035
100
AcDbSymbolTableRecord
100
AcDbViewportTableRecord
  2
*ACTIVE
 70
     0
 10
0.0
 20
0.0
 11
1.0
 21
1.0
 12
746.6844401513622
 22
660.6762975733533
 13
0.0
 23
0.0
 14
12.5
 24
12.5
 15
50.0
 25
50.0
 16
0.0
 26
0.0
 36
1.0
 17
0.0
 27
0.0
 37
0.0
 40
927.7456942154495
 41
2.197496522948539
 42
50.0
 43
0.0
 44
0.0
 50
0.0
 51
0.0
 71
     0
 72
   100
 73
     1
 74
     3
 75
     0
 76
     0
 77
     0
 78
     0
281
     0
 65
     0
110
0.0
120
0.0
130
0.0
111
1.0
121
0.0
131
0.0
112
0.0
122
1.0
132
0.0
 79
     0
146
0.0
348
305C
 60
     3
 61
     5
292
     1
282
     0
141
0.0
142
0.0
 63
   250
421
  3355443
1001
ACAD_NAV_VCDISPLAY
1070
     3
  0
ENDTAB
  0
TABLE
  2
LTYPE
  5
3032
330
0
100
AcDbSymbolTable
 70
    26
  0
LTYPE
  5
3087
330
3032
100
AcDbSymbolTableRecord
100
AcDbLinetypeTableRecord
  2
ByBlock
 70
     0
  3

 72
    65
 73
     0
 40
0.0
  0
LTYPE
  5
3088
330
3032
100
AcDbSymbolTableRecord
100
AcDbLinetypeTableRecord
  2
ByLayer
 70
     0
  3

 72
    65
 73
     0
 40
0.0
  0
LTYPE
  5
3089
330
3032
100
AcDbSymbolTableRecord
100
AcDbLinetypeTableRecord
  2
CONTINUOUS
 70
     0
  3
Solid line
 72
    65
 73
     0
 40
0.0
  0
LTYPE
  5
30A2
330
3032
100
AcDbSymbolTableRecord
100
AcDbLinetypeTableRecord
  2
AM_ISO02W050
 70
     0
  3
__ __ __ __ __ __ __ __ __ __ __ __ __ __ __
 72
    65
 73
     2
 40
7.5
 49
6.0
 74
     0
 49
-1.5
 74
     0
  0
LTYPE
  5
30A3
330
3032
100
AcDbSymbolTableRecord
100
AcDbLinetypeTableRecord
  2
AM_ISO08W050
 70
     0
  3
____ . ____ . ____ . ____ . ____ . ____ . ____
 72
    65
 73
     4
 40
18.0
 49
12.0
 74
     0
 49
-1.5
 74
     0
 49
3.0
 74
     0
 49
-1.5
 74
     0
  0
LTYPE
  5
30A4
330
3032
100
AcDbSymbolTableRecord
100
AcDbLinetypeTableRecord
  2
AM_ISO09W050
 70
     0
  3
_____ . . _____ . . _____ . . ____ .. ____
 72
    65
 73
     6
 40
22.5
 49
12.0
 74
     0
 49
-1.5
 74
     0
 49
3.0
 74
     0
 49
-1.5
 74
     0
 49
3.0
 74
     0
 49
-1.5
 74
     0
  0
LTYPE
  5
30A5
330
3032
100
AcDbSymbolTableRecord
100
AcDbLinetypeTableRecord
  2
AMCONSTR
 70
     0
  3
_______________________
 72
    65
 73
     2
 40
9999.0
 49
9999.0
 74
     0
 49
0.0
 74
     0
  0
LTYPE
  5
30A6
330
3032
100
AcDbSymbolTableRecord
100
AcDbLinetypeTableRecord
  2
AM_ISO08W050X2
 70
     0
  3
__ . __ . __ . __ . __ . __
 72
    65
 73
     4
 40
9.0
 49
6.0
 74
     0
 49
-0.75
 74
     0
 49
1.5
 74
     0
 49
-0.75
 74
     0
  0
LTYPE
  5
30A7
330
3032
100
AcDbSymbolTableRecord
100
AcDbLinetypeTableRecord
  2
AM_ISO02W050X2
 70
     0
  3
 _ _ _ _ _ _ _ _ _ _ _ _
 72
    65
 73
     2
 40
3.75
 49
3.0
 74
     0
 49
-0.75
 74
     0
  0
LTYPE
  5
30A8
330
3032
100
AcDbSymbolTableRecord
100
AcDbLinetypeTableRecord
  2
AMZIGZAG
 70
     0
  3
/\/-/\/-/\/-/\/-/\/-/\/
 72
    65
 73
     2
 40
11.00009999999999
 49
0.0001
 74
     0
 49
-11.0
 74
     0
  0
LTYPE
  5
30AD
330
3032
100
AcDbSymbolTableRecord
100
AcDbLinetypeTableRecord
  2
PHANTOM2
 70
     0
  3
Phantom (.5x) ___ _ _ ___ _ _ ___ _ _ ___ _ _
 72
    65
 73
     6
 40
31.75
 49
15.875
 74
     0
 49
-3.174999999999998
 74
     0
 49
3.174999999999998
 74
     0
 49
-3.174999999999998
 74
     0
 49
3.174999999999998
 74
     0
 49
-3.174999999999998
 74
     0
  0
LTYPE
  5
30B0
330
3032
100
AcDbSymbolTableRecord
100
AcDbLinetypeTableRecord
  2
GEN7
 70
     0
  3
____ . ____ . ____ . ____ . ____ . ____ . ____
 72
    65
 73
     4
 40
14.25
 49
9.75
 74
     0
 49
-1.5
 74
     0
 49
1.5
 74
     0
 49
-1.5
 74
     0
  0
LTYPE
  5
30B1
330
3032
100
AcDbSymbolTableRecord
100
AcDbLinetypeTableRecord
  2
GEN7A
 70
     0
  3
__ . __ . __
 72
    65
 73
     4
 40
7.375
 49
4.75
 74
     0
 49
-0.875
 74
     0
 49
0.875
 74
     0
 49
-0.875
 74
     0
  0
LTYPE
  5
30B8
330
3032
100
AcDbSymbolTableRecord
100
AcDbLinetypeTableRecord
  2
ACANSTGB
 70
     0
  3
__ . . __ . .
 72
    65
 73
     6
 40
0.35433070866
 49
0.15748031496
 74
     0
 49
-0.03937007874
 74
     0
 49
0.03937007874
 74
     0
 49
-0.03937007874
 74
     0
 49
0.03937007874
 74
     0
 49
-0.03937007874
 74
     0
  0
LTYPE
  5
30B9
330
3032
100
AcDbSymbolTableRecord
100
AcDbLinetypeTableRecord
  2
ACANSTGL
 70
     0
  3
_ _ _ _ _
 72
    65
 73
     2
 40
0.11811023622
 49
0.07874015748
 74
     0
 49
-0.03937007874
 74
     0
  0
ENDTAB
  0
TABLE
  2
LAYER
  5
302F
102
{ACAD_XDICTIONARY
360
32A3
102
}
330
0
100
AcDbSymbolTable
 70
     6
  0
LAYER
  5
3081
102
{ACAD_XDICTIONARY
360
3296
102
}
330
302F
100
AcDbSymbolTableRecord
100
AcDbLayerTableRecord
  2
0
 70
     0
 62
     7
  6
CONTINUOUS
370
    -3
390
303C
347
304E
  0
LAYER
  5
30A0
102
{ACAD_XDICTIONARY
360
3298
102
}
330
302F
100
AcDbSymbolTableRecord
100
AcDbLayerTableRecord
  2
AM_0
 70
     0
 62
     7
  6
CONTINUOUS
370
    -3
390
303C
347
304E
  0
LAYER
  5
30BA
102
{ACAD_XDICTIONARY
360
329A
102
}
330
302F
100
AcDbSymbolTableRecord
100
AcDbLayerTableRecord
  2
AM_5
 70
     0
 62
     2
  6
CONTINUOUS
370
    -3
390
303C
347
304E
  0
LAYER
  5
30BB
330
302F
100
AcDbSymbolTableRecord
100
AcDbLayerTableRecord
  2
DEFPOINTS
 70
     0
 62
     7
  6
CONTINUOUS
290
     0
370
    -3
390
303C
347
304E
  0
LAYER
  5
30BC
102
{ACAD_XDICTIONARY
360
329C
102
}
330
302F
100
AcDbSymbolTableRecord
100
AcDbLayerTableRecord
  2
ﾁｭｳｼﾝｾﾝ
 70
     0
 62
     1
  6
GEN7
370
    -3
390
303C
347
304E
  0
LAYER
  5
30BD
102
{ACAD_XDICTIONARY
360
329E
102
}
330
302F
100
AcDbSymbolTableRecord
100
AcDbLayerTableRecord
  2
ﾁｭｳｼﾝｾﾝ1
 70
     0
 62
     1
  6
GEN7A
370
    -3
390
303C
347
304E
  0
ENDTAB
  0
TABLE
  2
STYLE
  5
3030
330
0
100
AcDbSymbolTable
 70
     9
  0
STYLE
  5
3082
330
3030
100
AcDbSymbolTableRecord
100
AcDbTextStyleTableRecord
  2
STANDARD
 70
     0
 40
0.0
 41
0.8299999999999998
 50
0.0
 71
     0
 42
2.5
  3
txt.shx
  4
bigfont.shx
  0
STYLE
  5
30C2
330
3030
100
AcDbSymbolTableRecord
100
AcDbTextStyleTableRecord
  2
ACANSGDT
 70
     0
 40
0.0
 41
1.0
 50
0.0
 71
     0
 42
2.5
  3
amgdt.shx
  4

  0
ENDTAB
  0
TABLE
  2
VIEW
  5
3033
330
0
100
AcDbSymbolTable
 70
     7
  0
VIEW
  5
30C5
330
3033
100
AcDbSymbolTableRecord
100
AcDbViewTableRecord
  2
AM_VIEW1
 70
     0
 40
462.5
 10
416.0796500920808
 20
693.75
 41
832.1593001841621
 11
0.0
 21
0.0
 31
1.0
 12
0.0
 22
0.0
 32
0.0
 42
50.0
 43
0.0
 44
0.0
 50
0.0
 71
     0
281
     0
 72
     0
 73
     0
348
305C
  0
VIEW
  5
30C6
330
3033
100
AcDbSymbolTableRecord
100
AcDbViewTableRecord
  2
AM_VIEW2
 70
     0
 40
462.5
 10
1006.420349907918
 20
693.75
 41
832.1593001841621
 11
0.0
 21
0.0
 31
1.0
 12
0.0
 22
0.0
 32
0.0
 42
50.0
 43
0.0
 44
0.0
 50
0.0
 71
     0
281
     0
 72
     0
 73
     0
348
305C
  0
VIEW
  5
30C7
330
3033
100
AcDbSymbolTableRecord
100
AcDbViewTableRecord
  2
AM_VIEW3
 70
     0
 40
462.5
 10
416.0796500920808
 20
231.25
 41
832.1593001841621
 11
0.0
 21
0.0
 31
1.0
 12
0.0
 22
0.0
 32
0.0
 42
50.0
 43
0.0
 44
0.0
 50
0.0
 71
     0
281
     0
 72
     0
 73
     0
348
305C
  0
VIEW
  5
30C8
330
3033
100
AcDbSymbolTableRecord
100
AcDbViewTableRecord
  2
AM_VIEW4
 70
     0
 40
462.5
 10
1006.420349907918
 20
231.25
 41
832.1593001841621
 11
0.0
 21
0.0
 31
1.0
 12
0.0
 22
0.0
 32
0.0
 42
50.0
 43
0.0
 44
0.0
 50
0.0
 71
     0
281
     0
 72
     0
 73
     0
348
305C
  0
VIEW
  5
30C9
330
3033
100
AcDbSymbolTableRecord
100
AcDbViewTableRecord
  2
AM_VIEW5
 70
     0
 40
462.5
 10
711.2499999999997
 20
462.5
 41
832.1593001841618
 11
0.0
 21
0.0
 31
1.0
 12
0.0
 22
0.0
 32
0.0
 42
50.0
 43
0.0
 44
0.0
 50
0.0
 71
     0
281
     0
 72
     0
 73
     0
348
305C
  0
VIEW
  5
30CA
330
3033
100
AcDbSymbolTableRecord
100
AcDbViewTableRecord
  2
AM_VIEW6
 70
     0
 40
924.99075
 10
711.2499999999997
 20
462.5
 41
1664.30195718232
 11
0.0
 21
0.0
 31
1.0
 12
0.0
 22
0.0
 32
0.0
 42
50.0
 43
0.0
 44
0.0
 50
0.0
 71
     0
281
     0
 72
     0
 73
     0
348
305C
  0
ENDTAB
  0
TABLE
  2
UCS
  5
3034
330
0
100
AcDbSymbolTable
 70
     0
  0
ENDTAB
  0
TABLE
  2
APPID
  5
3036
330
0
100
AcDbSymbolTable
 70
    95
  0
APPID
  5
3083
330
3036
100
AcDbSymbolTableRecord
100
AcDbRegAppTableRecord
  2
ACAD
 70
     0
  0
APPID
  5
308A
330
3036
100
AcDbSymbolTableRecord
100
AcDbRegAppTableRecord
  2
ACADANNOTATIVE
 70
     0
  0
APPID
  5
30CB
330
3036
100
AcDbSymbolTableRecord
100
AcDbRegAppTableRecord
  2
MCAD_NO_VIS
 70
     0
  0
APPID
  5
30CC
330
3036
100
AcDbSymbolTableRecord
100
AcDbRegAppTableRecord
  2
ACAD_TEMP_GRAPHIC
 70
     0
  0
APPID
  5
30CD
330
3036
100
AcDbSymbolTableRecord
100
AcDbRegAppTableRecord
  2
ACATTRIBSERVICES
 70
     0
  0
APPID
  5
30CE
330
3036
100
AcDbSymbolTableRecord
100
AcDbRegAppTableRecord
  2
GENIUS_GENREC_14
 70
     0
  0
APPID
  5
30CF
330
3036
100
AcDbSymbolTableRecord
100
AcDbRegAppTableRecord
  2
GENIUS_GENOBJ-N-REC_13
 70
     0
  0
APPID
  5
30D0
330
3036
100
AcDbSymbolTableRecord
100
AcDbRegAppTableRecord
  2
GENIUS_GENODEF_13
 70
     0
  0
APPID
  5
30D1
330
3036
100
AcDbSymbolTableRecord
100
AcDbRegAppTableRecord
  2
GENIUS_GENOLIS_13
 70
     0
  0
APPID
  5
30D2
330
3036
100
AcDbSymbolTableRecord
100
AcDbRegAppTableRecord
  2
GENIUS_GENOBJ-N-TIT_13
 70
     0
  0
APPID
  5
30D3
330
3036
100
AcDbSymbolTableRecord
100
AcDbRegAppTableRecord
  2
GENIUS_GENOENT_13
 70
     0
  0
APPID
  5
30D4
330
3036
100
AcDbSymbolTableRecord
100
AcDbRegAppTableRecord
  2
GENIUS_GENTITLE_13
 70
     0
  0
APPID
  5
30D5
330
3036
100
AcDbSymbolTableRecord
100
AcDbRegAppTableRecord
  2
GENIUS_GENOREF_13
 70
     0
  0
APPID
  5
30D6
330
3036
100
AcDbSymbolTableRecord
100
AcDbRegAppTableRecord
  2
GENIUS_GENSCREG_15
 70
     0
  0
APPID
  5
30D7
330
3036
100
AcDbSymbolTableRecord
100
AcDbRegAppTableRecord
  2
GENIUS_GENOBJ-N-SDF_13
 70
     0
  0
APPID
  5
30D8
330
3036
100
AcDbSymbolTableRecord
100
AcDbRegAppTableRecord
  2
GENIUS_GENFIL_13
 70
     0
  0
APPID
  5
30D9
330
3036
100
AcDbSymbolTableRecord
100
AcDbRegAppTableRecord
  2
GENIUS_GENOBJ-N-CHA_13
 70
     0
  0
APPID
  5
30DA
330
3036
100
AcDbSymbolTableRecord
100
AcDbRegAppTableRecord
  2
GENIUS_GENDTOL_13
 70
     0
  0
APPID
  5
30DB
330
3036
100
AcDbSymbolTableRecord
100
AcDbRegAppTableRecord
  2
GENIUS_GENOBJ-N-FIL_13
 70
     0
  0
APPID
  5
30DC
330
3036
100
AcDbSymbolTableRecord
100
AcDbRegAppTableRecord
  2
AD_DRAW
 70
     0
  0
APPID
  5
30DD
330
3036
100
AcDbSymbolTableRecord
100
AcDbRegAppTableRecord
  2
DESIGNERASSEMBLIES
 70
     0
  0
APPID
  5
30DE
330
3036
100
AcDbSymbolTableRecord
100
AcDbRegAppTableRecord
  2
ASURF_PCURVE_APPNAME
 70
     0
  0
APPID
  5
30DF
330
3036
100
AcDbSymbolTableRecord
100
AcDbRegAppTableRecord
  2
GENIUS_GE3SECT_13
 70
     0
  0
APPID
  5
30E0
330
3036
100
AcDbSymbolTableRecord
100
AcDbRegAppTableRecord
  2
GENIUS_GENCFG_13
 70
     0
  0
APPID
  5
30E1
330
3036
100
AcDbSymbolTableRecord
100
AcDbRegAppTableRecord
  2
GENIUS_GE3CFG0_13
 70
     0
  0
APPID
  5
30E2
330
3036
100
AcDbSymbolTableRecord
100
AcDbRegAppTableRecord
  2
GENIUS_GENCFG0_13
 70
     0
  0
APPID
  5
30E3
330
3036
100
AcDbSymbolTableRecord
100
AcDbRegAppTableRecord
  2
GENIUS_GENCFG1_13
 70
     0
  0
APPID
  5
30E4
330
3036
100
AcDbSymbolTableRecord
100
AcDbRegAppTableRecord
  2
GENIUS_GENCFG2_13
 70
     0
  0
APPID
  5
30E5
330
3036
100
AcDbSymbolTableRecord
100
AcDbRegAppTableRecord
  2
GENIUS_GENCFG3_13
 70
     0
  0
APPID
  5
30E6
330
3036
100
AcDbSymbolTableRecord
100
AcDbRegAppTableRecord
  2
GENIUS_GENCFG4_13
 70
     0
  0
APPID
  5
30E7
330
3036
100
AcDbSymbolTableRecord
100
AcDbRegAppTableRecord
  2
GENIUS_GEVCFG0_13
 70
     0
  0
APPID
  5
30E8
330
3036
100
AcDbSymbolTableRecord
100
AcDbRegAppTableRecord
  2
GENIUS_GENHINW_13
 70
     0
  0
APPID
  5
30E9
330
3036
100
AcDbSymbolTableRecord
100
AcDbRegAppTableRecord
  2
GENIUS_FIRSTVISTXT_14
 70
     0
  0
APPID
  5
30EA
330
3036
100
AcDbSymbolTableRecord
100
AcDbRegAppTableRecord
  2
GENIUS_GENOBJ-N-LEADER_13
 70
     0
  0
APPID
  5
30EB
330
3036
100
AcDbSymbolTableRecord
100
AcDbRegAppTableRecord
  2
GEV_VCCNULL_SWITCH_OFF
 70
     0
  0
APPID
  5
30EC
330
3036
100
AcDbSymbolTableRecord
100
AcDbRegAppTableRecord
  2
GENIUS_GEFCFG0_13
 70
     0
  0
APPID
  5
30ED
330
3036
100
AcDbSymbolTableRecord
100
AcDbRegAppTableRecord
  2
GENIUS_GENZVEED_13
 70
     0
  0
APPID
  5
30EE
330
3036
100
AcDbSymbolTableRecord
100
AcDbRegAppTableRecord
  2
GENIUS_GENSCREG_13
 70
     0
  0
APPID
  5
30EF
330
3036
100
AcDbSymbolTableRecord
100
AcDbRegAppTableRecord
  2
GENIUS_DUMCFG0_13
 70
     0
  0
APPID
  5
30F0
330
3036
100
AcDbSymbolTableRecord
100
AcDbRegAppTableRecord
  2
GEVID936201362
 70
     0
  0
APPID
  5
30F1
330
3036
100
AcDbSymbolTableRecord
100
AcDbRegAppTableRecord
  2
GEVDC
 70
     0
  0
APPID
  5
30F2
330
3036
100
AcDbSymbolTableRecord
100
AcDbRegAppTableRecord
  2
GEVCON
 70
     0
  0
APPID
  5
30F3
330
3036
100
AcDbSymbolTableRecord
100
AcDbRegAppTableRecord
  2
VCC
 70
     0
  0
APPID
  5
30F4
330
3036
100
AcDbSymbolTableRecord
100
AcDbRegAppTableRecord
  2
GEVPT
 70
     0
  0
APPID
  5
30F5
330
3036
100
AcDbSymbolTableRecord
100
AcDbRegAppTableRecord
  2
GEVIT
 70
     0
  0
APPID
  5
30F6
330
3036
100
AcDbSymbolTableRecord
100
AcDbRegAppTableRecord
  2
GENBH
 70
     0
  0
APPID
  5
30F7
330
3036
100
AcDbSymbolTableRecord
100
AcDbRegAppTableRecord
  2
GEVMK
 70
     0
  0
APPID
  5
30F8
330
3036
100
AcDbSymbolTableRecord
100
AcDbRegAppTableRecord
  2
GENIUS_GENBH_13
 70
     0
  0
APPID
  5
30F9
330
3036
100
AcDbSymbolTableRecord
100
AcDbRegAppTableRecord
  2
GENIUS_GENOBJ-NBEHI-BHF_13
 70
     0
  0
APPID
  5
30FA
330
3036
100
AcDbSymbolTableRecord
100
AcDbRegAppTableRecord
  2
GENIUS_GENOBJ-NBEHI-BHB_13
 70
     0
  0
APPID
  5
30FB
330
3036
100
AcDbSymbolTableRecord
100
AcDbRegAppTableRecord
  2
GENIUS_GENOBJ-F-DESC_13
 70
     0
  0
APPID
  5
30FC
330
3036
100
AcDbSymbolTableRecord
100
AcDbRegAppTableRecord
  2
GENIUS_GEFDESC_14
 70
     0
  0
APPID
  5
30FD
330
3036
100
AcDbSymbolTableRecord
100
AcDbRegAppTableRecord
  2
GENIUS_GENOBJ-F-PART_13
 70
     0
  0
APPID
  5
30FE
330
3036
100
AcDbSymbolTableRecord
100
AcDbRegAppTableRecord
  2
GENIUS_GEFSTDP_13
 70
     0
  0
APPID
  5
30FF
330
3036
100
AcDbSymbolTableRecord
100
AcDbRegAppTableRecord
  2
GENIUS_GEFPARTINS_13
 70
     0
  0
APPID
  5
3100
330
3036
100
AcDbSymbolTableRecord
100
AcDbRegAppTableRecord
  2
GENIUS_GENTRA_14
 70
     0
  0
APPID
  5
3101
330
3036
100
AcDbSymbolTableRecord
100
AcDbRegAppTableRecord
  2
GENIUS_GENINF13_13
 70
     0
  0
APPID
  5
3102
330
3036
100
AcDbSymbolTableRecord
100
AcDbRegAppTableRecord
  2
GENIUS_GENOBJ-N-INFOPT_13
 70
     0
  0
APPID
  5
3103
330
3036
100
AcDbSymbolTableRecord
100
AcDbRegAppTableRecord
  2
GENIUS_GENOBJ-N-RSSYM_13
 70
     0
  0
APPID
  5
3104
330
3036
100
AcDbSymbolTableRecord
100
AcDbRegAppTableRecord
  2
GENIUS_GENSYMENT_13
 70
     0
  0
APPID
  5
3105
330
3036
100
AcDbSymbolTableRecord
100
AcDbRegAppTableRecord
  2
GENIUS_GENSCSYM_13
 70
     0
  0
APPID
  5
3106
330
3036
100
AcDbSymbolTableRecord
100
AcDbRegAppTableRecord
  2
GENIUS_GEFINFNAM_13
 70
     0
  0
APPID
  5
3107
330
3036
100
AcDbSymbolTableRecord
100
AcDbRegAppTableRecord
  2
GENIUS_GENOBJ-N-CEN_13
 70
     0
  0
APPID
  5
3108
330
3036
100
AcDbSymbolTableRecord
100
AcDbRegAppTableRecord
  2
GENIUS_GENOBJ-N-CRS_13
 70
     0
  0
APPID
  5
3109
330
3036
100
AcDbSymbolTableRecord
100
AcDbRegAppTableRecord
  2
GENIUS_GENOBJ-N-CRC_13
 70
     0
  0
APPID
  5
310A
330
3036
100
AcDbSymbolTableRecord
100
AcDbRegAppTableRecord
  2
GENIUS_GENCRC_14
 70
     0
  0
APPID
  5
310B
330
3036
100
AcDbSymbolTableRecord
100
AcDbRegAppTableRecord
  2
GEVID942827039
 70
     0
  0
APPID
  5
310C
330
3036
100
AcDbSymbolTableRecord
100
AcDbRegAppTableRecord
  2
GEVID942827040
 70
     0
  0
APPID
  5
310D
330
3036
100
AcDbSymbolTableRecord
100
AcDbRegAppTableRecord
  2
GEVID942827041
 70
     0
  0
APPID
  5
310E
330
3036
100
AcDbSymbolTableRecord
100
AcDbRegAppTableRecord
  2
GENIUS_GENOBJ-F-SCPASSM_13
 70
     0
  0
APPID
  5
310F
330
3036
100
AcDbSymbolTableRecord
100
AcDbRegAppTableRecord
  2
GENIUS_GENDIMSH_14
 70
     0
  0
APPID
  5
3110
330
3036
100
AcDbSymbolTableRecord
100
AcDbRegAppTableRecord
  2
GEVID942827042
 70
     0
  0
APPID
  5
3111
330
3036
100
AcDbSymbolTableRecord
100
AcDbRegAppTableRecord
  2
GEVID946020473
 70
     0
  0
APPID
  5
3112
330
3036
100
AcDbSymbolTableRecord
100
AcDbRegAppTableRecord
  2
GEVID946020474
 70
     0
  0
APPID
  5
3113
330
3036
100
AcDbSymbolTableRecord
100
AcDbRegAppTableRecord
  2
GEVID946020475
 70
     0
  0
APPID
  5
3114
330
3036
100
AcDbSymbolTableRecord
100
AcDbRegAppTableRecord
  2
GENIUS_GENOBJ-N-HTC_13
 70
     0
  0
APPID
  5
3115
330
3036
100
AcDbSymbolTableRecord
100
AcDbRegAppTableRecord
  2
GENIUS_GENHATCH_13
 70
     0
  0
APPID
  5
3116
330
3036
100
AcDbSymbolTableRecord
100
AcDbRegAppTableRecord
  2
GEVID948854295
 70
     0
  0
APPID
  5
3117
330
3036
100
AcDbSymbolTableRecord
100
AcDbRegAppTableRecord
  2
GEVID939402019
 70
     0
  0
APPID
  5
3118
330
3036
100
AcDbSymbolTableRecord
100
AcDbRegAppTableRecord
  2
GEVID952919491
 70
     0
  0
APPID
  5
3119
330
3036
100
AcDbSymbolTableRecord
100
AcDbRegAppTableRecord
  2
GEVID952919492
 70
     0
  0
APPID
  5
311A
330
3036
100
AcDbSymbolTableRecord
100
AcDbRegAppTableRecord
  2
GENIUS_GEFWELD_13
 70
     0
  0
APPID
  5
311B
330
3036
100
AcDbSymbolTableRecord
100
AcDbRegAppTableRecord
  2
GENIUS_GENOBJ-F-WELS_13
 70
     0
  0
APPID
  5
311C
330
3036
100
AcDbSymbolTableRecord
100
AcDbRegAppTableRecord
  2
GEVID952919493
 70
     0
  0
APPID
  5
311D
330
3036
100
AcDbSymbolTableRecord
100
AcDbRegAppTableRecord
  2
GENIUS_GENOBJ-N-RSBK_13
 70
     0
  0
APPID
  5
311E
330
3036
100
AcDbSymbolTableRecord
100
AcDbRegAppTableRecord
  2
GENIUS_GENOBJ-N-LIB_13
 70
     0
  0
APPID
  5
311F
330
3036
100
AcDbSymbolTableRecord
100
AcDbRegAppTableRecord
  2
GENIUS_GENSCALE_13
 70
     0
  0
APPID
  5
3120
330
3036
100
AcDbSymbolTableRecord
100
AcDbRegAppTableRecord
  2
GEVID986376691
 70
     0
  0
APPID
  5
3121
330
3036
100
AcDbSymbolTableRecord
100
AcDbRegAppTableRecord
  2
DCO15
 70
     0
  0
APPID
  5
3122
330
3036
100
AcDbSymbolTableRecord
100
AcDbRegAppTableRecord
  2
ACAD_DSTYLE_DIMBREAK
 70
     0
  0
APPID
  5
3123
330
3036
100
AcDbSymbolTableRecord
100
AcDbRegAppTableRecord
  2
ACAD_DSTYLE_DIMJAG
 70
     0
  0
APPID
  5
3124
330
3036
100
AcDbSymbolTableRecord
100
AcDbRegAppTableRecord
  2
ACAD_NAV_VCDISPLAY
 70
     0
  0
APPID
  5
3125
330
3036
100
AcDbSymbolTableRecord
100
AcDbRegAppTableRecord
  2
ACADANNOPO
 70
     0
  0
APPID
  5
3126
330
3036
100
AcDbSymbolTableRecord
100
AcDbRegAppTableRecord
  2
ACAD_EXEMPT_FROM_CAD_STANDARDS
 70
     0
  0
APPID
  5
3127
330
3036
100
AcDbSymbolTableRecord
100
AcDbRegAppTableRecord
  2
ACAD_MLEADERVER
 70
     0
  0
ENDTAB
  0
TABLE
  2
DIMSTYLE
  5
3037
330
0
100
AcDbSymbolTable
 70
    23
100
AcDbDimStyleTable
 71
     1
340
3128
  0
DIMSTYLE
105
3084
330
3037
100
AcDbSymbolTableRecord
100
AcDbDimStyleTableRecord
  2
STANDARD
 70
     0
271
     2
272
     2
279
     2
284
     8
285
     8
286
     8
340
3082
  0
DIMSTYLE
105
3128
330
3037
100
AcDbSymbolTableRecord
100
AcDbDimStyleTableRecord
  2
AM_ISO
 70
     0
  4
"
 41
2.5
 42
1.0
 43
8.0
 44
0.6
 47
0.1
 48
0.1
 73
     0
 74
     0
 77
     1
 78
     8
140
2.5
141
0.0
143
0.0393701
146
0.71
147
0.8
172
     1
176
   256
177
   256
178
     4
271
     2
272
     2
279
     2
284
     8
285
     8
286
     8
340
3082
  0
DIMSTYLE
105
3136
102
{ACAD_REACTORS
330
3186
102
}
330
3037
100
AcDbSymbolTableRecord
100
AcDbDimStyleTableRecord
  2
AM_ANSI
 70
     0
  4
mm
 41
0.1
 42
0.05
 43
0.5
 44
0.1
 47
0.1
 48
0.1
 78
     7
140
0.12
141
0.0
146
0.71
147
0.06
176
   256
177
   256
178
     2
271
     2
272
     2
279
     2
284
     8
285
     8
286
     8
340
3082
  0
DIMSTYLE
105
3137
330
3037
100
AcDbSymbolTableRecord
100
AcDbDimStyleTableRecord
  2
AM_ANSI$3
 70
     0
  4
mm
 41
0.1
 42
0.05
 43
0.5
 44
0.1
 47
0.1
 48
0.1
 78
     7
140
0.12
141
0.0
146
0.71
147
0.06
176
   256
177
   256
178
     2
271
     2
272
     2
279
     2
284
     8
285
     8
286
     8
340
3082
  0
DIMSTYLE
105
3138
330
3037
100
AcDbSymbolTableRecord
100
AcDbDimStyleTableRecord
  2
AM_ANSI$4
 70
     0
  4
mm
 41
0.1
 42
0.05
 43
0.5
 44
0.1
 47
0.1
 48
0.1
 78
     7
140
0.12
141
0.0
146
0.71
147
0.06
176
   256
177
   256
178
     2
271
     2
272
     2
279
     2
284
     8
285
     8
286
     8
340
3082
  0
DIMSTYLE
105
3139
330
3037
100
AcDbSymbolTableRecord
100
AcDbDimStyleTableRecord
  2
AM_ANSI$7
 70
     0
  4
mm
 41
0.1
 42
0.05
 43
0.5
 44
0.1
 47
0.1
 48
0.1
 78
     7
140
0.24
141
0.0
146
0.71
147
0.06
176
   256
177
   256
178
     2
271
     2
272
     2
279
     2
284
     8
285
     8
286
     8
340
3082
  0
DIMSTYLE
105
313A
330
3037
100
AcDbSymbolTableRecord
100
AcDbDimStyleTableRecord
  2
AM_ANSI$SF
 70
     0
  4
mm
 41
0.1
 42
0.05
 43
0.5
 44
0.1
 47
0.1
 48
0.1
 75
     1
 76
     1
 78
     7
140
0.12
141
0.0
146
0.71
147
0.06
176
   256
177
   256
178
     2
271
     2
272
     2
279
     2
284
     8
285
     8
286
     8
340
3082
  0
DIMSTYLE
105
313B
330
3037
100
AcDbSymbolTableRecord
100
AcDbDimStyleTableRecord
  2
AM_ANSI$SH
 70
     0
  4
mm
 41
0.1
 42
0.05
 43
0.5
 44
0.1
 47
0.1
 48
0.1
 75
     1
 76
     1
 78
     7
140
0.12
141
0.0
146
0.71
147
0.06
173
     1
176
   256
177
   256
178
     2
271
     2
272
     2
279
     2
284
     8
285
     8
286
     8
340
3082
  0
ENDTAB
  0
TABLE
  2
BLOCK_RECORD
  5
302E
330
0
100
AcDbSymbolTable
 70
    12
  0
BLOCK_RECORD
  5
309C
330
302E
100
AcDbSymbolTableRecord
100
AcDbBlockTableRecord
  2
*Model_Space
340
309F
 70
     0
280
     1
281
     0
  0
BLOCK_RECORD
  5
3098
330
302E
100
AcDbSymbolTableRecord
100
AcDbBlockTableRecord
  2
*Paper_Space
340
309B
 70
     0
280
     1
281
     0
  0
BLOCK_RECORD
  5
3153
330
302E
100
AcDbSymbolTableRecord
100
AcDbBlockTableRecord
  2
_ACMFILLEDHALF
340
0
 70
     0
280
     1
281
     0
  0
ENDTAB
  0
ENDSEC
  0
SECTION
  2
BLOCKS
  0
BLOCK
  5
309D
330
309C
100
AcDbEntity
  8
0
100
AcDbBlockBegin
  2
*Model_Space
 70
     0
 10
0.0
 20
0.0
 30
0.0
  3
*Model_Space
  1

  0
ENDBLK
  5
309E
330
309C
100
AcDbEntity
  8
0
100
AcDbBlockEnd
  0
BLOCK
  5
3099
330
3098
100
AcDbEntity
 67
     1
  8
0
100
AcDbBlockBegin
  2
*Paper_Space
 70
     0
 10
0.0
 20
0.0
 30
0.0
  3
*Paper_Space
  1

  0
ENDBLK
  5
309A
330
3098
100
AcDbEntity
 67
     1
  8
0
100
AcDbBlockEnd
  0
BLOCK
  5
3154
330
3153
100
AcDbEntity
  8
0
100
AcDbBlockBegin
  2
_ACMFILLEDHALF
 70
     0
 10
0.0
 20
0.0
 30
0.0
  3
_ACMFILLEDHALF
  1

  0
TRACE
  5
2F98
330
3153
100
AcDbEntity
  8
AM_0
 62
     0
100
AcDbTrace
 10
-0.8
 20
0.0
 30
0.0
 11
-1.0
 21
0.166666666
 31
0.0
 12
0.0
 22
0.0
 32
0.0
 13
0.0
 23
0.0
 33
0.0
  0
LINE
  5
2F99
330
3153
100
AcDbEntity
  8
AM_0
 62
     0
100
AcDbLine
 10
-1.0
 20
0.0
 30
0.0
 11
-0.8
 21
0.0
 31
0.0
  0
ENDBLK
  5
2F97
330
3153
100
AcDbEntity
  8
0
100
AcDbBlockEnd
  0
ENDSEC
  0
SECTION
  2
ENTITIES
  0
LINE
  5
2C19
330
309C
100
AcDbEntity
  8
ﾁｭｳｼﾝｾﾝ
100
AcDbLine
 10
751.0851715565718
 20
429.5957146603676
 30
0.0
 11
388.4374128889929
 21
429.5957146603676
 31
0.0
  0
LINE
  5
2C1A
330
309C
100
AcDbEntity
  8
AM_0
100
AcDbLine
 10
667.1461215565718
 20
463.5957446603676
 30
0.0
 11
748.1461215565715
 21
463.5957446603676
 31
0.0
  0
LINE
  5
2C1B
330
309C
100
AcDbEntity
  8
AM_0
100
AcDbLine
 10
643.1461215565717
 20
399.5957146603677
 30
0.0
 11
748.1461215565715
 21
399.5957146603677
 31
0.0
  0
LINE
  5
2C1C
330
309C
100
AcDbEntity
  8
AM_0
100
AcDbLine
 10
643.1461215565717
 20
459.5957146603677
 30
0.0
 11
748.1461215565715
 21
459.5957146603677
 31
0.0
  0
LINE
  5
2C1D
330
309C
100
AcDbEntity
  8
AM_0
100
AcDbLine
 10
667.1461215565718
 20
463.5957446603676
 30
0.0
 11
667.1461215565718
 21
459.5957146603677
 31
0.0
  0
LINE
  5
2C1E
330
309C
100
AcDbEntity
  8
AM_0
100
AcDbLine
 10
380.1461215565718
 20
465.2084976603676
 30
0.0
 11
380.1461215565718
 21
438.3715026603676
 31
0.0
  0
LINE
  5
2C1F
330
309C
100
AcDbEntity
  8
AM_0
100
AcDbLine
 10
383.1461215565718
 20
464.8931096603678
 30
0.0
 11
383.1461215565718
 21
438.3714996603678
 31
0.0
  0
LINE
  5
2C20
330
309C
100
AcDbEntity
  8
AM_0
100
AcDbLine
 10
361.1229555565716
 20
471.8681906603676
 30
0.0
 11
288.9907175565716
 21
430.6497686603676
 31
0.0
  0
LINE
  5
2C21
330
309C
100
AcDbEntity
  8
AM_0
100
AcDbLine
 10
364.1461215565718
 20
381.5957146603677
 30
0.0
 11
364.1461215565718
 21
490.5957146603676
 31
0.0
  0
LINE
  5
2C22
330
309C
100
AcDbEntity
  8
AM_0
100
AcDbLine
 10
381.1461215565718
 20
479.0957146603676
 30
0.0
 11
381.1461215565718
 21
284.0957096603677
 31
0.0
  0
LINE
  5
2C23
330
309C
100
AcDbEntity
  8
AM_0
100
AcDbLine
 10
405.146171556572
 20
509.8654596603676
 30
0.0
 11
405.146171556572
 21
250.3421696603678
 31
0.0
  0
LINE
  5
2C24
330
309C
100
AcDbEntity
  8
AM_0
100
AcDbLine
 10
424.6461215565719
 20
556.5957346603676
 30
0.0
 11
424.6461215565719
 21
211.9715496603677
 31
0.0
  0
LINE
  5
2C25
330
309C
100
AcDbEntity
  8
AM_0
100
AcDbLine
 10
633.1461215565719
 20
614.5957846603679
 30
0.0
 11
633.1461215565719
 21
244.5957096603676
 31
0.0
  0
LINE
  5
2C26
330
309C
100
AcDbEntity
  8
AM_0
100
AcDbLine
 10
617.1461215565718
 20
576.1546346603676
 30
0.0
 11
617.1461215565718
 21
283.0368446603677
 31
0.0
  0
LINE
  5
2C27
330
309C
100
AcDbEntity
  8
AM_0
100
AcDbLine
 10
608.1461215565719
 20
611.5957346603676
 30
0.0
 11
608.1461215565719
 21
371.6586996603678
 31
0.0
  0
LINE
  5
2C28
330
309C
100
AcDbEntity
  8
AM_0
100
AcDbLine
 10
638.1461215565717
 20
274.5957096603677
 30
0.0
 11
638.1461215565717
 21
584.5957346603674
 31
0.0
  0
LINE
  5
2C29
330
309C
100
AcDbEntity
  8
AM_0
100
AcDbLine
 10
494.6461215565718
 20
561.5957346603676
 30
0.0
 11
494.6461215565718
 21
207.5957096603676
 31
0.0
  0
LINE
  5
2C2A
330
309C
100
AcDbEntity
  8
AM_0
100
AcDbLine
 10
584.640571556572
 20
522.0383846603676
 30
0.0
 11
607.8837215565717
 21
372.0526496603676
 31
0.0
  0
LINE
  5
2C2B
330
309C
100
AcDbEntity
  8
AM_0
100
AcDbLine
 10
285.0216065565719
 20
429.5957146603676
 30
0.0
 11
265.2897155565717
 21
429.5957146603676
 31
0.0
  0
LINE
  5
2C2C
330
309C
100
AcDbEntity
  8
AM_0
100
AcDbLine
 10
285.0216065565719
 20
333.5957146603677
 30
0.0
 11
265.2897155565717
 21
333.5957146603677
 31
0.0
  0
LINE
  5
2C2D
330
309C
100
AcDbEntity
  8
ﾁｭｳｼﾝｾﾝ
100
AcDbLine
 10
196.6660109971694
 20
381.5957146603677
 30
0.0
 11
416.3265258038449
 21
381.5957146603677
 31
0.0
  0
LINE
  5
2C2E
330
309C
100
AcDbEntity
  8
AM_0
100
AcDbLine
 10
263.1461215565717
 20
426.5040486603679
 30
0.0
 11
263.1461215565717
 21
381.5957146603677
 31
0.0
  0
LINE
  5
2C2F
330
309C
100
AcDbEntity
  8
AM_0
100
AcDbLine
 10
248.1445215565717
 20
396.5957146603677
 30
0.0
 11
248.1445215565717
 21
381.5957146603677
 31
0.0
  0
LINE
  5
2C30
330
309C
100
AcDbEntity
  8
AM_0
100
AcDbLine
 10
206.1445215565717
 20
398.5957146603677
 30
0.0
 11
206.1445215565717
 21
367.5957146603677
 31
0.0
  0
LINE
  5
2C31
330
309C
100
AcDbEntity
  8
AM_0
100
AcDbLine
 10
251.1461215565718
 20
409.0957146603676
 30
0.0
 11
251.1461215565718
 21
381.5957146603677
 31
0.0
  0
LINE
  5
2C32
330
309C
100
AcDbEntity
  8
AM_0
100
AcDbLine
 10
253.1461215565718
 20
421.5128106603676
 30
0.0
 11
253.1461215565718
 21
381.5957146603677
 31
0.0
  0
LINE
  5
2C33
330
309C
100
AcDbEntity
  8
AM_0
100
AcDbLine
 10
248.1445215565717
 20
367.5957146603677
 30
0.0
 11
206.1445215565717
 21
367.5957146603677
 31
0.0
  0
LINE
  5
2C34
330
309C
100
AcDbEntity
  8
AM_0
100
AcDbLine
 10
263.1461215565717
 20
336.6873806603678
 30
0.0
 11
263.1461215565717
 21
381.5957146603677
 31
0.0
  0
LINE
  5
2C35
330
309C
100
AcDbEntity
  8
AM_0
100
AcDbLine
 10
251.1461215565718
 20
354.0957146603677
 30
0.0
 11
253.1461215565718
 21
352.0957146603677
 31
0.0
  0
LINE
  5
2C36
330
309C
100
AcDbEntity
  8
AM_0
100
AcDbLine
 10
253.1461215565718
 20
341.6786176603678
 30
0.0
 11
253.1461215565718
 21
381.5957146603677
 31
0.0
  0
LINE
  5
2C37
330
309C
100
AcDbEntity
  8
AM_0
100
AcDbLine
 10
261.2897155565717
 20
334.6675106603677
 30
0.0
 11
255.1461215565718
 21
338.2145166603677
 31
0.0
  0
ARC
  5
2C38
330
309C
100
AcDbEntity
  8
AM_0
100
AcDbCircle
 10
265.2897155565717
 20
341.5957146603677
 30
0.0
 40
8.0
100
AcDbArc
 50
239.9999999999995
 51
270.0
  0
ARC
  5
2C39
330
309C
100
AcDbEntity
  8
AM_0
100
AcDbCircle
 10
257.1461215565718
 20
341.6786176603678
 30
0.0
 40
4.0
100
AcDbArc
 50
180.0
 51
239.9999999999995
  0
LINE
  5
2C3A
330
309C
100
AcDbEntity
  8
AM_0
100
AcDbLine
 10
248.1445215565717
 20
366.5957146603677
 30
0.0
 11
248.1445215565717
 21
381.5957146603677
 31
0.0
  0
LINE
  5
2C3B
330
309C
100
AcDbEntity
  8
AM_0
100
AcDbLine
 10
251.1461215565718
 20
354.0957146603677
 30
0.0
 11
251.1461215565718
 21
381.5957146603677
 31
0.0
  0
LINE
  5
2C3C
330
309C
100
AcDbEntity
  8
AM_0
100
AcDbLine
 10
251.1461215565718
 20
366.5957146603677
 30
0.0
 11
248.1445215565717
 21
366.5957146603677
 31
0.0
  0
LINE
  5
2C3E
330
309C
100
AcDbEntity
  8
AM_0
100
AcDbLine
 10
248.1445215565717
 20
395.5957146603677
 30
0.0
 11
206.1445215565717
 21
395.5957146603677
 31
0.0
  0
LINE
  5
2C3F
330
309C
100
AcDbEntity
  8
AM_0
100
AcDbLine
 10
261.2897155565717
 20
428.5239176603676
 30
0.0
 11
255.1461215565718
 21
424.9769116603678
 31
0.0
  0
LINE
  5
2C40
330
309C
100
AcDbEntity
  8
AM_0
100
AcDbLine
 10
238.1445215565715
 20
398.5957146603677
 30
0.0
 11
238.1445215565717
 21
395.5957146603677
 31
0.0
  0
LINE
  5
2C41
330
309C
100
AcDbEntity
  8
AM_0
100
AcDbLine
 10
251.1461215565718
 20
396.5957146603677
 30
0.0
 11
248.1445215565717
 21
396.5957146603677
 31
0.0
  0
ARC
  5
2C42
330
309C
100
AcDbEntity
  8
AM_0
100
AcDbCircle
 10
257.1461215565718
 20
421.5128106603676
 30
0.0
 40
4.0
100
AcDbArc
 50
120.0000000000005
 51
180.0
  0
LINE
  5
2C43
330
309C
100
AcDbEntity
  8
AM_0
100
AcDbLine
 10
251.1461215565718
 20
409.0957146603676
 30
0.0
 11
253.1461215565718
 21
411.0957146603676
 31
0.0
  0
ARC
  5
2C44
330
309C
100
AcDbEntity
  8
AM_0
100
AcDbCircle
 10
265.2897155565717
 20
421.5957146603676
 30
0.0
 40
8.0
100
AcDbArc
 50
90.0
 51
120.0000000000005
  0
LINE
  5
2C45
330
309C
100
AcDbEntity
  8
AM_0
100
AcDbLine
 10
426.576321556572
 20
209.9727396603678
 30
0.0
 11
494.6460715565716
 21
207.5956946603677
 31
0.0
  0
LINE
  5
2C46
330
309C
100
AcDbEntity
  8
AM_0
100
AcDbLine
 10
383.1461215565718
 20
324.8199546603677
 30
0.0
 11
383.1461215565718
 21
298.2982846603677
 31
0.0
  0
LINE
  5
2C47
330
309C
100
AcDbEntity
  8
AM_0
100
AcDbLine
 10
380.1461215565718
 20
355.0587146603678
 30
0.0
 11
380.1461215565718
 21
297.9829316603678
 31
0.0
  0
LINE
  5
2C48
330
309C
100
AcDbEntity
  8
AM_0
100
AcDbLine
 10
364.1461215565718
 20
285.0957146603677
 30
0.0
 11
364.1461215565718
 21
381.5957146603677
 31
0.0
  0
LINE
  5
2C49
330
309C
100
AcDbEntity
  8
AM_0
100
AcDbLine
 10
361.1229555565716
 20
291.3232376603676
 30
0.0
 11
288.9907175565716
 21
332.5416596603677
 31
0.0
  0
LINE
  5
2C4A
330
309C
100
AcDbEntity
  8
AM_0
100
AcDbLine
 10
454.6461215565718
 20
329.5385846603676
 30
0.0
 11
454.6461215565718
 21
295.2692346603677
 31
0.0
  0
LINE
  5
2C4B
330
309C
100
AcDbEntity
  8
AM_0
100
AcDbLine
 10
381.1461215565718
 20
284.0957146603677
 30
0.0
 11
365.1461215565718
 21
284.0957146603677
 31
0.0
  0
LINE
  5
2C4C
330
309C
100
AcDbEntity
  8
AM_0
100
AcDbLine
 10
380.1461215565718
 20
297.9829316603678
 30
0.0
 11
366.1461215565718
 21
297.9829316603678
 31
0.0
  0
ARC
  5
2C4D
330
309C
100
AcDbEntity
  8
AM_0
100
AcDbCircle
 10
366.1461215565718
 20
299.9829316603678
 30
0.0
 40
2.0
100
AcDbArc
 50
180.0
 51
270.0
  0
ARC
  5
2C4E
330
309C
100
AcDbEntity
  8
AM_0
100
AcDbCircle
 10
358.1461215565718
 20
286.1137786603677
 30
0.0
 40
6.0
100
AcDbArc
 50
0.0
 51
60.25511900000238
  0
ARC
  5
2C4F
330
309C
100
AcDbEntity
  8
AM_0
100
AcDbCircle
 10
365.1461215565718
 20
285.0957146603677
 30
0.0
 40
1.0
100
AcDbArc
 50
180.0
 51
270.0
  0
ARC
  5
2C50
330
309C
100
AcDbEntity
  8
AM_0
100
AcDbCircle
 10
415.1461715565719
 20
250.3421696603678
 30
0.0
 40
10.0
100
AcDbArc
 50
179.9999899999999
 51
223.5679
  0
LINE
  5
2C51
330
309C
100
AcDbEntity
  8
AM_0
100
AcDbLine
 10
429.6461215565718
 20
223.5957096603677
 30
0.0
 11
452.6461715565719
 21
223.5957096603677
 31
0.0
  0
ARC
  5
2C52
330
309C
100
AcDbEntity
  8
AM_0
100
AcDbCircle
 10
429.6461215565718
 20
228.5957096603677
 30
0.0
 40
5.0
100
AcDbArc
 50
179.9999899999999
 51
270.0
  0
ARC
  5
2C53
330
309C
100
AcDbEntity
  8
AM_0
100
AcDbCircle
 10
414.6461215565718
 20
221.8492496603676
 30
0.0
 40
10.0
100
AcDbArc
 50
0.0
 51
43.56790499999998
  0
ARC
  5
2C54
330
309C
100
AcDbEntity
  8
AM_0
100
AcDbCircle
 10
426.646171556572
 20
211.9715496603677
 30
0.0
 40
2.00000005
100
AcDbArc
 50
179.9999899999999
 51
268.0000099999999
  0
LINE
  5
2C55
330
309C
100
AcDbEntity
  8
AM_0
100
AcDbLine
 10
421.8917215565716
 20
228.7414296603676
 30
0.0
 11
407.9006215565716
 21
243.4500646603677
 31
0.0
  0
ARC
  5
2C56
330
309C
100
AcDbEntity
  8
AM_0
100
AcDbCircle
 10
456.6461715565719
 20
210.9239096603677
 30
0.0
 40
2.00000005
100
AcDbArc
 50
179.9999899999999
 51
268.0000099999999
  0
ARC
  5
2C57
330
309C
100
AcDbEntity
  8
AM_0
100
AcDbCircle
 10
452.6461715565719
 20
221.5957246603676
 30
0.0
 40
2.00000005
100
AcDbArc
 50
0.0
 51
90.00000300000001
  0
LINE
  5
2C58
330
309C
100
AcDbEntity
  8
AM_0
100
AcDbLine
 10
454.6461215565718
 20
221.5957246603676
 30
0.0
 11
454.6461215565718
 21
210.9239096603677
 31
0.0
  0
LINE
  5
2C59
330
309C
100
AcDbEntity
  8
AM_0
100
AcDbLine
 10
429.6461215565718
 20
292.2692346603677
 30
0.0
 11
451.646171556572
 21
292.2692346603677
 31
0.0
  0
ARC
  5
2C5A
330
309C
100
AcDbEntity
  8
AM_0
100
AcDbCircle
 10
395.146171556572
 20
273.6007146603677
 30
0.0
 40
10.0
100
AcDbArc
 50
0.0
 51
88.0
  0
LINE
  5
2C5B
330
309C
100
AcDbEntity
  8
AM_0
100
AcDbLine
 10
383.1461215565718
 20
298.2982846603677
 30
0.0
 11
405.146171556572
 21
298.2982846603677
 31
0.0
  0
LINE
  5
2C5C
330
309C
100
AcDbEntity
  8
AM_0
100
AcDbLine
 10
381.1460715565719
 20
284.0956796603677
 30
0.0
 11
395.495071556572
 21
283.5946146603678
 31
0.0
  0
LINE
  5
2C5D
330
309C
100
AcDbEntity
  8
AM_0
100
AcDbLine
 10
383.1461215565718
 20
308.5895446603677
 30
0.0
 11
405.146171556572
 21
308.5895446603677
 31
0.0
  0
ARC
  5
2C5E
330
309C
100
AcDbEntity
  8
AM_0
100
AcDbCircle
 10
429.6461215565718
 20
287.2692346603677
 30
0.0
 40
5.0
100
AcDbArc
 50
90.00000300000001
 51
180.00001
  0
ARC
  5
2C5F
330
309C
100
AcDbEntity
  8
AM_0
100
AcDbCircle
 10
451.646171556572
 20
295.2692346603677
 30
0.0
 40
3.00000005
100
AcDbArc
 50
270.0
 51
0.0
  0
LINE
  5
2C60
330
309C
100
AcDbEntity
  8
AM_0
100
AcDbLine
 10
366.1461215565718
 20
438.3715026603676
 30
0.0
 11
380.1461215565718
 21
438.3715026603676
 31
0.0
  0
LINE
  5
2C61
330
309C
100
AcDbEntity
  8
AM_0
100
AcDbLine
 10
380.1461215565718
 20
454.6018956603679
 30
0.0
 11
366.1461215565718
 21
454.6018956603679
 31
0.0
  0
LINE
  5
2C62
330
309C
100
AcDbEntity
  8
AM_0
100
AcDbLine
 10
366.1461215565718
 20
339.5951866603676
 30
0.0
 11
380.1461215565718
 21
339.5951866603676
 31
0.0
  0
LINE
  5
2C63
330
309C
100
AcDbEntity
  8
AM_0
100
AcDbLine
 10
366.1461215565718
 20
355.0587146603678
 30
0.0
 11
380.1461215565718
 21
355.0587146603678
 31
0.0
  0
LINE
  5
2C64
330
309C
100
AcDbEntity
  8
AM_0
100
AcDbLine
 10
287.1461215565718
 20
429.5957146603676
 30
0.0
 11
287.1461215565718
 21
381.5957146603677
 31
0.0
  0
LINE
  5
2C65
330
309C
100
AcDbEntity
  8
AM_0
100
AcDbLine
 10
287.1461215565718
 20
333.5957146603677
 30
0.0
 11
287.1461215565718
 21
381.5957146603677
 31
0.0
  0
ARC
  5
2C66
330
309C
100
AcDbEntity
  8
AM_0
100
AcDbCircle
 10
285.0216065565719
 20
325.5957146603677
 30
0.0
 40
8.0
100
AcDbArc
 50
60.25511900000238
 51
90.0
  0
ARC
  5
2C67
330
309C
100
AcDbEntity
  8
AM_0
100
AcDbCircle
 10
366.1461215565718
 20
353.0587146603678
 30
0.0
 40
2.0
100
AcDbArc
 50
90.0
 51
180.0
  0
ARC
  5
2C68
330
309C
100
AcDbEntity
  8
AM_0
100
AcDbCircle
 10
366.1461215565718
 20
337.5951866603678
 30
0.0
 40
2.0
100
AcDbArc
 50
90.0
 51
180.0
  0
ARC
  5
2C69
330
309C
100
AcDbEntity
  8
AM_0
100
AcDbCircle
 10
285.0216065565719
 20
437.5957146603676
 30
0.0
 40
8.0
100
AcDbArc
 50
270.0
 51
299.7448809999976
  0
ARC
  5
2C6A
330
309C
100
AcDbEntity
  8
AM_0
100
AcDbCircle
 10
366.1461215565718
 20
440.3715026603678
 30
0.0
 40
2.0
100
AcDbArc
 50
180.0
 51
270.0
  0
ARC
  5
2C6B
330
309C
100
AcDbEntity
  8
AM_0
100
AcDbCircle
 10
366.1461215565718
 20
452.6018956603676
 30
0.0
 40
2.0
100
AcDbArc
 50
90.0
 51
180.0
  0
LINE
  5
2C6C
330
309C
100
AcDbEntity
  8
AM_0
100
AcDbLine
 10
429.6461215565718
 20
332.5386146603677
 30
0.0
 11
451.646171556572
 21
332.5386146603677
 31
0.0
  0
LINE
  5
2C6D
330
309C
100
AcDbEntity
  8
AM_0
100
AcDbLine
 10
383.1461215565718
 20
324.8199546603677
 30
0.0
 11
405.146171556572
 21
324.8199546603677
 31
0.0
  0
ARC
  5
2C6E
330
309C
100
AcDbEntity
  8
AM_0
100
AcDbCircle
 10
429.6461215565718
 20
337.5386146603677
 30
0.0
 40
5.0
100
AcDbArc
 50
179.9999899999999
 51
270.0
  0
ARC
  5
2C6F
330
309C
100
AcDbEntity
  8
AM_0
100
AcDbCircle
 10
451.646171556572
 20
329.5385846603676
 30
0.0
 40
3.00000005
100
AcDbArc
 50
0.0
 51
90.00000300000001
  0
LINE
  5
2C70
330
309C
100
AcDbEntity
  8
AM_0
100
AcDbLine
 10
429.6461215565718
 20
454.8207496603678
 30
0.0
 11
451.646171556572
 21
454.8207496603678
 31
0.0
  0
LINE
  5
2C71
330
309C
100
AcDbEntity
  8
AM_0
100
AcDbLine
 10
429.6461215565718
 20
417.6465546603678
 30
0.0
 11
451.646171556572
 21
417.6465546603678
 31
0.0
  0
ARC
  5
2C72
330
309C
100
AcDbEntity
  8
AM_0
100
AcDbCircle
 10
429.6461215565718
 20
412.6465546603676
 30
0.0
 40
5.0
100
AcDbArc
 50
90.00000300000001
 51
180.00001
  0
LINE
  5
2C73
330
309C
100
AcDbEntity
  8
AM_0
100
AcDbLine
 10
383.1461215565718
 20
438.3714996603678
 30
0.0
 11
405.146171556572
 21
438.3714996603678
 31
0.0
  0
LINE
  5
2C74
330
309C
100
AcDbEntity
  8
AM_0
100
AcDbLine
 10
383.1461215565718
 20
454.6019096603678
 30
0.0
 11
405.146171556572
 21
454.6019096603678
 31
0.0
  0
ARC
  5
2C75
330
309C
100
AcDbEntity
  8
AM_0
100
AcDbCircle
 10
429.6461215565718
 20
459.8207496603678
 30
0.0
 40
5.0
100
AcDbArc
 50
179.9999899999999
 51
270.0
  0
LINE
  5
2C76
330
309C
100
AcDbEntity
  8
AM_0
100
AcDbLine
 10
454.6461215565718
 20
451.8207496603676
 30
0.0
 11
454.6461215565718
 21
420.6465546603678
 31
0.0
  0
ARC
  5
2C77
330
309C
100
AcDbEntity
  8
AM_0
100
AcDbCircle
 10
451.646171556572
 20
420.6465546603678
 30
0.0
 40
3.00000005
100
AcDbArc
 50
270.0
 51
0.0
  0
ARC
  5
2C78
330
309C
100
AcDbEntity
  8
AM_0
100
AcDbCircle
 10
451.646171556572
 20
451.8207496603676
 30
0.0
 40
3.00000005
100
AcDbArc
 50
0.0
 51
90.00000300000001
  0
LINE
  5
2C79
330
309C
100
AcDbEntity
  8
AM_0
100
AcDbLine
 10
561.5260215565718
 20
259.3261946603677
 30
0.0
 11
608.1461215565719
 21
259.3261946603677
 31
0.0
  0
LINE
  5
2C7A
330
309C
100
AcDbEntity
  8
AM_0
100
AcDbLine
 10
561.5260215565718
 20
299.9512096603677
 30
0.0
 11
608.1461215565719
 21
299.9512096603677
 31
0.0
  0
LINE
  5
2C7B
330
309C
100
AcDbEntity
  8
AM_0
100
AcDbLine
 10
558.1787215565716
 20
205.9320446603678
 30
0.0
 11
625.1461215565718
 21
244.5957246603676
 31
0.0
  0
LINE
  5
2C7C
330
309C
100
AcDbEntity
  8
AM_0
100
AcDbLine
 10
494.6461215565718
 20
207.5957246603676
 30
0.0
 11
558.1787215565716
 21
205.9320596603676
 31
0.0
  0
ARC
  5
2C7D
330
309C
100
AcDbEntity
  8
AM_0
100
AcDbCircle
 10
561.5260215565718
 20
279.6386796603678
 30
0.0
 40
20.3124945
100
AcDbArc
 50
90.00000300000001
 51
270.0
  0
LINE
  5
2C7E
330
309C
100
AcDbEntity
  8
AM_0
100
AcDbLine
 10
528.146121556572
 20
286.0324796603677
 30
0.0
 11
528.146121556572
 21
272.3824546603677
 31
0.0
  0
ARC
  5
2C7F
330
309C
100
AcDbEntity
  8
AM_0
100
AcDbCircle
 10
525.0653215565717
 20
279.0570446603678
 30
0.0
 40
8.5603475
100
AcDbArc
 50
90.00000300000001
 51
270.0
  0
LINE
  5
2C80
330
309C
100
AcDbEntity
  8
AM_0
100
AcDbLine
 10
525.0653215565717
 20
270.4966796603677
 30
0.0
 11
543.3870215565717
 21
270.4966796603677
 31
0.0
  0
LINE
  5
2C81
330
309C
100
AcDbEntity
  8
AM_0
100
AcDbLine
 10
525.0653215565717
 20
287.6173796603676
 30
0.0
 11
542.8461215565716
 21
287.6173796603676
 31
0.0
  0
LINE
  5
2C82
330
309C
100
AcDbEntity
  8
AM_0
100
AcDbLine
 10
563.1461215565717
 20
297.7924596603676
 30
0.0
 11
563.1461215565717
 21
261.6724646603677
 31
0.0
  0
ARC
  5
2C83
330
309C
100
AcDbEntity
  8
AM_0
100
AcDbCircle
 10
611.1461215565717
 20
247.5957096603677
 30
0.0
 40
3.00000005
100
AcDbArc
 50
179.9999899999999
 51
270.0
  0
LINE
  5
2C84
330
309C
100
AcDbEntity
  8
AM_0
100
AcDbLine
 10
633.1461215565719
 20
244.5957096603676
 30
0.0
 11
611.1461215565717
 21
244.5957096603676
 31
0.0
  0
ARC
  5
2C85
330
309C
100
AcDbEntity
  8
AM_0
100
AcDbCircle
 10
615.1461715565716
 20
283.0368446603677
 30
0.0
 40
2.00000005
100
AcDbArc
 50
270.0
 51
0.0
  0
LINE
  5
2C86
330
309C
100
AcDbEntity
  8
AM_0
100
AcDbLine
 10
608.1461215565719
 20
317.8124496603676
 30
0.0
 11
608.1461215565719
 21
247.5957096603677
 31
0.0
  0
LINE
  5
2C87
330
309C
100
AcDbEntity
  8
AM_0
100
AcDbLine
 10
610.146171556572
 20
281.0368446603677
 30
0.0
 11
615.1461715565716
 21
281.0368446603677
 31
0.0
  0
ARC
  5
2C88
330
309C
100
AcDbEntity
  8
AM_0
100
AcDbCircle
 10
610.146171556572
 20
279.0368446603677
 30
0.0
 40
2.00000005
100
AcDbArc
 50
90.00000300000001
 51
180.00001
  0
LINE
  5
2C89
330
309C
100
AcDbEntity
  8
AM_0
100
AcDbLine
 10
633.1461215565719
 20
274.5957096603677
 30
0.0
 11
638.1461215565717
 21
274.5957096603677
 31
0.0
  0
LINE
  5
2C8A
330
309C
100
AcDbEntity
  8
AM_0
100
AcDbLine
 10
610.146171556572
 20
319.0018096603678
 30
0.0
 11
615.1461715565716
 21
319.0018096603678
 31
0.0
  0
ARC
  5
2C8B
330
309C
100
AcDbEntity
  8
AM_0
100
AcDbCircle
 10
615.1461715565716
 20
321.0018096603677
 30
0.0
 40
2.00000005
100
AcDbArc
 50
270.0
 51
0.0
  0
LINE
  5
2C8C
330
309C
100
AcDbEntity
  8
AM_0
100
AcDbLine
 10
609.8600715565721
 20
370.3588946603677
 30
0.0
 11
615.1461715565716
 21
370.3588946603677
 31
0.0
  0
ARC
  5
2C8D
330
309C
100
AcDbEntity
  8
AM_0
100
AcDbCircle
 10
609.8600715565721
 20
372.3588946603678
 30
0.0
 40
2.00000005
100
AcDbArc
 50
188.809
 51
270.0
  0
ARC
  5
2C8E
330
309C
100
AcDbEntity
  8
AM_0
100
AcDbCircle
 10
609.1461715565721
 20
371.6586996603678
 30
0.0
 40
1.0
100
AcDbArc
 50
179.9999899999999
 51
224.4439999999999
  0
ARC
  5
2C8F
330
309C
100
AcDbEntity
  8
AM_0
100
AcDbCircle
 10
615.1461715565716
 20
368.3589246603677
 30
0.0
 40
2.00000005
100
AcDbArc
 50
0.0
 51
90.00000300000001
  0
LINE
  5
2C90
330
309C
100
AcDbEntity
  8
AM_0
100
AcDbLine
 10
643.1461215565717
 20
462.0957146603676
 30
0.0
 11
643.1461215565717
 21
397.0957146603677
 31
0.0
  0
LINE
  5
2C91
330
309C
100
AcDbEntity
  8
AM_0
100
AcDbLine
 10
638.1461215565717
 20
397.0957146603677
 30
0.0
 11
643.1461215565717
 21
397.0957146603677
 31
0.0
  0
LINE
  5
2C92
330
309C
100
AcDbEntity
  8
AM_0
100
AcDbLine
 10
638.1461215565717
 20
462.0957146603676
 30
0.0
 11
643.1461215565717
 21
462.0957146603676
 31
0.0
  0
LINE
  5
2C93
330
309C
100
AcDbEntity
  8
AM_0
100
AcDbLine
 10
429.4716715565717
 20
559.3197846603676
 30
0.0
 11
494.6461715565719
 21
561.5957346603676
 31
0.0
  0
LINE
  5
2C94
330
309C
100
AcDbEntity
  8
AM_0
100
AcDbLine
 10
429.6461215565718
 20
561.5957346603676
 30
0.0
 11
494.6461215565718
 21
561.5957346603676
 31
0.0
  0
ARC
  5
2C95
330
309C
100
AcDbEntity
  8
AM_0
100
AcDbCircle
 10
439.6461215565718
 20
587.5957346603676
 30
0.0
 40
25.0000005
100
AcDbArc
 50
306.46672
 51
233.53329
  0
LINE
  5
2C96
330
309C
100
AcDbEntity
  8
AM_0
100
AcDbLine
 10
381.1461215565718
 20
479.0957146603679
 30
0.0
 11
365.1461215565718
 21
479.0957146603679
 31
0.0
  0
LINE
  5
2C97
330
309C
100
AcDbEntity
  8
AM_0
100
AcDbLine
 10
380.1461215565718
 20
492.5957146603677
 30
0.0
 11
366.1461215565718
 21
492.5957146603677
 31
0.0
  0
LINE
  5
2C98
330
309C
100
AcDbEntity
  8
AM_0
100
AcDbLine
 10
380.1461215565718
 20
465.2084976603676
 30
0.0
 11
366.1461215565718
 21
465.2084976603676
 31
0.0
  0
ARC
  5
2C99
330
309C
100
AcDbEntity
  8
AM_0
100
AcDbCircle
 10
358.1461215565718
 20
477.0776496603679
 30
0.0
 40
6.0
100
AcDbArc
 50
299.7448809999976
 51
0.0
  0
ARC
  5
2C9A
330
309C
100
AcDbEntity
  8
AM_0
100
AcDbCircle
 10
366.1461215565718
 20
463.2084976603676
 30
0.0
 40
2.0
100
AcDbArc
 50
90.0
 51
180.0
  0
ARC
  5
2C9B
330
309C
100
AcDbEntity
  8
AM_0
100
AcDbCircle
 10
365.1461215565718
 20
478.0957146603679
 30
0.0
 40
1.0
100
AcDbArc
 50
90.0
 51
180.0
  0
ARC
  5
2C9C
330
309C
100
AcDbEntity
  8
AM_0
100
AcDbCircle
 10
366.1461215565718
 20
490.5957146603676
 30
0.0
 40
2.0
100
AcDbArc
 50
90.0
 51
180.0
  0
ARC
  5
2C9D
330
309C
100
AcDbEntity
  8
AM_0
100
AcDbCircle
 10
451.646171556572
 20
537.8140346603676
 30
0.0
 40
3.00000005
100
AcDbArc
 50
270.0
 51
0.0
  0
ARC
  5
2C9E
330
309C
100
AcDbEntity
  8
AM_0
100
AcDbCircle
 10
429.6461215565718
 20
529.8139846603679
 30
0.0
 40
5.0
100
AcDbArc
 50
90.00000300000001
 51
180.00001
  0
ARC
  5
2C9F
330
309C
100
AcDbEntity
  8
AM_0
100
AcDbCircle
 10
414.6461215565718
 20
535.3259346603676
 30
0.0
 40
10.0
100
AcDbArc
 50
309.36932
 51
0.0
  0
ARC
  5
2CA0
330
309C
100
AcDbEntity
  8
AM_0
100
AcDbCircle
 10
395.146171556572
 20
489.5907096603677
 30
0.0
 40
10.0
100
AcDbArc
 50
272.0
 51
0.0
  0
LINE
  5
2CA1
330
309C
100
AcDbEntity
  8
AM_0
100
AcDbLine
 10
380.1461215565718
 20
479.0957146603679
 30
0.0
 11
380.1461215565718
 21
492.5957146603677
 31
0.0
  0
LINE
  5
2CA2
330
309C
100
AcDbEntity
  8
AM_0
100
AcDbLine
 10
381.146171556572
 20
479.0957146603676
 30
0.0
 11
395.4952715565718
 21
479.5968146603676
 31
0.0
  0
LINE
  5
2CA3
330
309C
100
AcDbEntity
  8
AM_0
100
AcDbLine
 10
383.1461215565718
 20
464.8931096603678
 30
0.0
 11
405.146171556572
 21
464.8931096603678
 31
0.0
  0
ARC
  5
2CA4
330
309C
100
AcDbEntity
  8
AM_0
100
AcDbCircle
 10
415.1461715565719
 20
509.8654596603676
 30
0.0
 40
10.0
100
AcDbArc
 50
129.3693199999998
 51
180.00001
  0
LINE
  5
2CA5
330
309C
100
AcDbEntity
  8
AM_0
100
AcDbLine
 10
408.8029715565719
 20
517.5961846603678
 30
0.0
 11
420.9893715565717
 21
527.5952846603676
 31
0.0
  0
LINE
  5
2CA6
330
309C
100
AcDbEntity
  8
AM_0
100
AcDbLine
 10
429.8521215565716
 20
570.5957346603676
 30
0.0
 11
449.4402215565719
 21
570.5957346603676
 31
0.0
  0
LINE
  5
2CA7
330
309C
100
AcDbEntity
  8
AM_0
100
AcDbLine
 10
430.1680215565716
 20
570.7166846603676
 30
0.0
 11
439.6461215565718
 21
572.5957346603676
 31
0.0
  0
LINE
  5
2CA8
330
309C
100
AcDbEntity
  8
AM_0
100
AcDbLine
 10
429.6461215565718
 20
551.3432846603675
 30
0.0
 11
451.646171556572
 21
551.3432846603675
 31
0.0
  0
CIRCLE
  5
2CA9
330
309C
100
AcDbEntity
  8
AM_0
100
AcDbCircle
 10
439.6461215565718
 20
587.5957346603676
 30
0.0
 40
15.0
  0
LINE
  5
2CAA
330
309C
100
AcDbEntity
  8
AM_0
100
AcDbLine
 10
429.6461215565718
 20
534.8139846603679
 30
0.0
 11
451.646171556572
 21
534.8139846603679
 31
0.0
  0
ARC
  5
2CAB
330
309C
100
AcDbEntity
  8
AM_0
100
AcDbCircle
 10
429.6461215565718
 20
556.3432846603675
 30
0.0
 40
5.0
100
AcDbArc
 50
179.9999899999999
 51
270.0
  0
ARC
  5
2CAC
330
309C
100
AcDbEntity
  8
AM_0
100
AcDbCircle
 10
421.2211215565716
 20
562.6654346603676
 30
0.0
 40
6.0
100
AcDbArc
 50
349.72995
 51
53.53329100000001
  0
ARC
  5
2CAD
330
309C
100
AcDbEntity
  8
AM_0
100
AcDbCircle
 10
430.3625715565719
 20
569.7358346603676
 30
0.0
 40
1.0
100
AcDbArc
 50
101.21329
 51
164.99999
  0
LINE
  5
2CAE
330
309C
100
AcDbEntity
  8
AM_0
100
AcDbLine
 10
426.9315215565717
 20
560.7946346603678
 30
0.0
 11
429.3966715565717
 21
569.9946346603677
 31
0.0
  0
ARC
  5
2CAF
330
309C
100
AcDbEntity
  8
AM_0
100
AcDbCircle
 10
429.6461215565718
 20
554.3228346603678
 30
0.0
 40
5.0
100
AcDbArc
 50
91.99999799999995
 51
180.00001
  0
ARC
  5
2CB0
330
309C
100
AcDbEntity
  8
AM_0
100
AcDbCircle
 10
429.6461215565718
 20
556.5957346603676
 30
0.0
 40
5.0
100
AcDbArc
 50
90.00000300000001
 51
180.00001
  0
LINE
  5
2CB1
330
309C
100
AcDbEntity
  8
AM_0
100
AcDbLine
 10
439.6461715565719
 20
572.5957346603676
 30
0.0
 11
449.1242215565717
 21
570.7166846603676
 31
0.0
  0
ARC
  5
2CB2
330
309C
100
AcDbEntity
  8
AM_0
100
AcDbCircle
 10
451.646171556572
 20
548.3432846603675
 30
0.0
 40
3.00000005
100
AcDbArc
 50
0.0
 51
90.00000300000001
  0
LINE
  5
2CB3
330
309C
100
AcDbEntity
  8
AM_0
100
AcDbLine
 10
454.6461215565718
 20
548.3432846603675
 30
0.0
 11
454.6461215565718
 21
537.8140346603676
 31
0.0
  0
LINE
  5
2CB4
330
309C
100
AcDbEntity
  8
AM_0
100
AcDbLine
 10
452.1461215565718
 20
561.5957346603676
 30
0.0
 11
449.8956215565717
 21
569.9946346603677
 31
0.0
  0
ARC
  5
2CB5
330
309C
100
AcDbEntity
  8
AM_0
100
AcDbCircle
 10
448.9297715565719
 20
569.7358346603676
 30
0.0
 40
1.0
100
AcDbArc
 50
15.0
 51
78.78671
  0
ARC
  5
2CB6
330
309C
100
AcDbEntity
  8
AM_0
100
AcDbCircle
 10
458.0711715565716
 20
562.6654346603676
 30
0.0
 40
6.0
100
AcDbArc
 50
126.4666999999999
 51
190.27006
  0
LINE
  5
2CB7
330
309C
100
AcDbEntity
  8
AM_0
100
AcDbLine
 10
605.7783715565715
 20
570.3082846603677
 30
0.0
 11
549.5139215565719
 21
535.4699846603677
 31
0.0
  0
LINE
  5
2CB8
330
309C
100
AcDbEntity
  8
AM_0
100
AcDbLine
 10
605.7783215565716
 20
558.3428346603675
 30
0.0
 11
550.8413215565719
 21
524.3263846603676
 31
0.0
  0
LINE
  5
2CB9
330
309C
100
AcDbEntity
  8
AM_0
100
AcDbLine
 10
608.1461215565719
 20
539.5024346603674
 30
0.0
 11
585.9683215565722
 21
523.0249346603677
 31
0.0
  0
LINE
  5
2CBA
330
309C
100
AcDbEntity
  8
AM_0
100
AcDbLine
 10
580.1319215565716
 20
566.5814346603679
 30
0.0
 11
606.681721556572
 21
593.1312346603676
 31
0.0
  0
ARC
  5
2CBB
330
309C
100
AcDbEntity
  8
AM_0
100
AcDbCircle
 10
552.1461215565717
 20
531.2188846603679
 30
0.0
 40
5.0
100
AcDbArc
 50
121.76536
 51
180.00001
  0
LINE
  5
2CBC
330
309C
100
AcDbEntity
  8
AM_0
100
AcDbLine
 10
552.1461215565717
 20
522.0383346603678
 30
0.0
 11
582.9864715565719
 21
522.0383346603678
 31
0.0
  0
LINE
  5
2CBD
330
309C
100
AcDbEntity
  8
AM_0
100
AcDbLine
 10
547.1461215565717
 20
531.2188846603679
 30
0.0
 11
547.1461215565717
 21
527.0383346603678
 31
0.0
  0
ARC
  5
2CBE
330
309C
100
AcDbEntity
  8
AM_0
100
AcDbCircle
 10
552.1461215565717
 20
527.0383346603678
 30
0.0
 40
5.0
100
AcDbArc
 50
179.9999899999999
 51
270.0
  0
ARC
  5
2CBF
330
309C
100
AcDbEntity
  8
AM_0
100
AcDbCircle
 10
582.9864715565719
 20
527.0383346603678
 30
0.0
 40
5.0
100
AcDbArc
 50
270.0
 51
306.6114999999999
  0
LINE
  5
2CC0
330
309C
100
AcDbEntity
  8
AM_0
100
AcDbLine
 10
494.6461715565719
 20
561.5957346603676
 30
0.0
 11
573.3225715565716
 21
563.6559346603678
 31
0.0
  0
ARC
  5
2CC1
330
309C
100
AcDbEntity
  8
AM_0
100
AcDbCircle
 10
573.0608215565721
 20
573.6524846603677
 30
0.0
 40
10.0
100
AcDbArc
 50
271.4999999999997
 51
315.0
  0
LINE
  5
2CC2
330
309C
100
AcDbEntity
  8
AM_0
100
AcDbLine
 10
578.0590215565716
 20
564.5086346603676
 30
0.0
 11
579.6659215565719
 21
554.1397346603678
 31
0.0
  0
LINE
  5
2CC3
330
309C
100
AcDbEntity
  8
AM_0
100
AcDbLine
 10
608.1461215565719
 20
515.8670846603676
 30
0.0
 11
615.1461715565716
 21
515.8670846603676
 31
0.0
  0
ARC
  5
2CC4
330
309C
100
AcDbEntity
  8
AM_0
100
AcDbCircle
 10
615.1461715565716
 20
513.8670846603677
 30
0.0
 40
2.00000005
100
AcDbArc
 50
0.0
 51
90.00000300000001
  0
ARC
  5
2CC5
330
309C
100
AcDbEntity
  8
AM_0
100
AcDbCircle
 10
603.1461215565719
 20
574.5593346603676
 30
0.0
 40
5.0
100
AcDbArc
 50
301.76537
 51
0.0
  0
LINE
  5
2CC6
330
309C
100
AcDbEntity
  8
AM_0
100
AcDbLine
 10
610.146171556572
 20
578.1546346603676
 30
0.0
 11
615.1461715565716
 21
578.1546346603676
 31
0.0
  0
ARC
  5
2CC7
330
309C
100
AcDbEntity
  8
AM_0
100
AcDbCircle
 10
610.146171556572
 20
580.1546346603676
 30
0.0
 40
2.00000005
100
AcDbArc
 50
179.9999899999999
 51
270.0
  0
ARC
  5
2CC8
330
309C
100
AcDbEntity
  8
AM_0
100
AcDbCircle
 10
615.1461715565716
 20
576.1546346603676
 30
0.0
 40
2.00000005
100
AcDbArc
 50
0.0
 51
90.00000300000001
  0
ARC
  5
2CC9
330
309C
100
AcDbEntity
  8
AM_0
100
AcDbCircle
 10
603.1461215565719
 20
596.6667846603676
 30
0.0
 40
5.0
100
AcDbArc
 50
315.0
 51
0.0
  0
LINE
  5
2CCA
330
309C
100
AcDbEntity
  8
AM_0
100
AcDbLine
 10
633.1461215565719
 20
584.5957346603674
 30
0.0
 11
638.1461215565717
 21
584.5957346603674
 31
0.0
  0
LINE
  5
2CCB
330
309C
100
AcDbEntity
  8
AM_0
100
AcDbLine
 10
611.1461215565717
 20
614.5957846603679
 30
0.0
 11
633.1461215565719
 21
614.5957846603679
 31
0.0
  0
ARC
  5
2CCC
330
309C
100
AcDbEntity
  8
AM_0
100
AcDbCircle
 10
611.1461215565717
 20
611.5957346603676
 30
0.0
 40
3.00000005
100
AcDbArc
 50
90.00000300000001
 51
180.00001
  0
LINE
  5
2CCD
330
309C
100
AcDbEntity
  8
AM_0
100
AcDbLine
 10
1077.694386556571
 20
463.5957446603676
 30
0.0
 11
1077.694386556571
 21
452.5957146603676
 31
0.0
  0
LINE
  5
2CCE
330
309C
100
AcDbEntity
  8
AM_0
100
AcDbLine
 10
1059.694356556571
 20
463.5957446603676
 30
0.0
 11
1059.694356556571
 21
452.5957146603676
 31
0.0
  0
LINE
  5
2CCF
330
309C
100
AcDbEntity
  8
AM_0
100
AcDbLine
 10
748.1461215565715
 20
463.5957446603676
 30
0.0
 11
748.1461215565715
 21
399.5957146603677
 31
0.0
  0
LINE
  5
2CD0
330
309C
100
AcDbEntity
  8
AM_0
100
AcDbLine
 10
1253.694366556572
 20
589.5957346603676
 30
0.0
 11
1253.694366556572
 21
269.5957096603676
 31
0.0
  0
LINE
  5
2CD1
330
309C
100
AcDbEntity
  8
ﾁｭｳｼﾝｾﾝ
100
AcDbLine
 10
1068.694386556571
 20
622.7659846603676
 30
0.0
 11
1068.694386556571
 21
200.6869896603677
 31
0.0
  0
LINE
  5
2CD2
330
309C
100
AcDbEntity
  8
AM_0
100
AcDbLine
 10
883.6943865565713
 20
589.5957346603676
 30
0.0
 11
883.6943865565713
 21
269.5957096603676
 31
0.0
  0
ARC
  5
2CD3
330
309C
100
AcDbEntity
  8
AM_0
100
AcDbCircle
 10
1068.694386556571
 20
429.5957146603676
 30
0.0
 40
82.0
100
AcDbArc
 50
144.5940699999999
 51
180.00001
  0
ARC
  5
2CD4
330
309C
100
AcDbEntity
  8
AM_0
100
AcDbCircle
 10
1045.899341556572
 20
437.0969346603678
 30
0.0
 40
112.0
100
AcDbArc
 50
133.0483099999999
 51
169.9999899999999
  0
ARC
  5
2CD5
330
309C
100
AcDbEntity
  8
AM_0
100
AcDbCircle
 10
1091.489401556571
 20
437.0969346603678
 30
0.0
 40
112.0
100
AcDbArc
 50
9.999999699999998
 51
46.95168300000001
  0
ARC
  5
2CD6
330
309C
100
AcDbEntity
  8
AM_0
100
AcDbCircle
 10
1068.694386556571
 20
429.5957146603676
 30
0.0
 40
82.0
100
AcDbArc
 50
0.0
 51
35.40593199999999
  0
ARC
  5
2CD7
330
309C
100
AcDbEntity
  8
AM_0
100
AcDbCircle
 10
1068.694386556571
 20
429.5957146603676
 30
0.0
 40
146.0
100
AcDbArc
 50
270.0
 51
90.00000300000001
  0
ARC
  5
2CD8
330
309C
100
AcDbEntity
  8
AM_0
100
AcDbCircle
 10
1068.694386556571
 20
429.5957146603676
 30
0.0
 40
146.0
100
AcDbArc
 50
90.00000300000001
 51
270.0
  0
ARC
  5
2CD9
330
309C
100
AcDbEntity
  8
AM_0
100
AcDbCircle
 10
1068.694386556571
 20
429.5957146603676
 30
0.0
 40
65.0
100
AcDbArc
 50
90.00000300000001
 51
270.0
  0
ARC
  5
2CDA
330
309C
100
AcDbEntity
  8
AM_0
100
AcDbCircle
 10
1068.694386556571
 20
429.5957146603676
 30
0.0
 40
155.0
100
AcDbArc
 50
270.0
 51
90.00000300000001
  0
ARC
  5
2CDB
330
309C
100
AcDbEntity
  8
AM_0
100
AcDbCircle
 10
1068.694386556571
 20
429.5957146603676
 30
0.0
 40
65.0
100
AcDbArc
 50
270.0
 51
90.00000300000001
  0
ARC
  5
2CDC
330
309C
100
AcDbEntity
  8
AM_0
100
AcDbCircle
 10
1068.694386556571
 20
429.5957146603676
 30
0.0
 40
155.0
100
AcDbArc
 50
90.00000300000001
 51
270.0
  0
ARC
  5
2CDD
330
309C
100
AcDbEntity
  8
AM_0
100
AcDbCircle
 10
1160.694356556571
 20
419.5957146603676
 30
0.0
 40
10.0
100
AcDbArc
 50
179.9999899999999
 51
270.0
  0
LINE
  5
2CDE
330
309C
100
AcDbEntity
  8
AM_0
100
AcDbLine
 10
1228.694371556571
 20
244.5957096603676
 30
0.0
 11
908.6943865565713
 21
244.5957096603676
 31
0.0
  0
LINE
  5
2CDF
330
309C
100
AcDbEntity
  8
ﾁｭｳｼﾝｾﾝ
100
AcDbLine
 10
870.9582715565714
 20
429.5957146603676
 30
0.0
 11
1268.126391556571
 21
429.5957146603676
 31
0.0
  0
LINE
  5
2CE0
330
309C
100
AcDbEntity
  8
AM_0
100
AcDbLine
 10
1139.425756556571
 20
208.1564246603678
 30
0.0
 11
1175.05048155657
 21
233.7909596603676
 31
0.0
  0
LINE
  5
2CE1
330
309C
100
AcDbEntity
  8
AM_0
100
AcDbLine
 10
928.4945265565715
 20
409.5957146603677
 30
0.0
 11
976.6943565565718
 21
409.5957146603677
 31
0.0
  0
LINE
  5
2CE2
330
309C
100
AcDbEntity
  8
AM_0
100
AcDbLine
 10
927.3459065565715
 20
409.7294096603678
 30
0.0
 11
935.600846556572
 21
456.5455746603676
 31
0.0
  0
ARC
  5
2CE3
330
309C
100
AcDbEntity
  8
AM_0
100
AcDbCircle
 10
908.6943865565713
 20
269.5957096603676
 30
0.0
 40
25.0000005
100
AcDbArc
 50
179.9999899999999
 51
270.0
  0
CIRCLE
  5
2CE4
330
309C
100
AcDbEntity
  8
AM_0
100
AcDbCircle
 10
909.5953265565711
 20
270.4966796603677
 30
0.0
 40
12.0
  0
LINE
  5
2CE5
330
309C
100
AcDbEntity
  8
ﾁｭｳｼﾝｾﾝ1
100
AcDbLine
 10
894.392536556572
 20
255.2938896603677
 30
0.0
 11
924.7981465565715
 21
285.6994996603677
 31
0.0
  0
ARC
  5
2CE6
330
309C
100
AcDbEntity
  8
ﾁｭｳｼﾝｾﾝ1
100
AcDbCircle
 10
1068.694386556571
 20
429.5957146603676
 30
0.0
 40
225.000005
100
AcDbArc
 50
219.5229799999999
 51
230.47702
  0
ARC
  5
2CE7
330
309C
100
AcDbEntity
  8
AM_0
100
AcDbCircle
 10
928.4945265565715
 20
414.5957146603676
 30
0.0
 40
5.0
100
AcDbArc
 50
186.10685
 51
270.0
  0
LINE
  5
2CE8
330
309C
100
AcDbEntity
  8
AM_0
100
AcDbLine
 10
1006.194386556571
 20
205.5027246603676
 30
0.0
 11
1131.194371556571
 21
205.5027246603676
 31
0.0
  0
LINE
  5
2CE9
330
309C
100
AcDbEntity
  8
AM_0
100
AcDbLine
 10
997.9630015565719
 20
208.1564246603678
 30
0.0
 11
962.3382765565716
 21
233.7909446603678
 31
0.0
  0
ARC
  5
2CEA
330
309C
100
AcDbEntity
  8
AM_0
100
AcDbCircle
 10
1068.694386556571
 20
381.5957146603677
 30
0.0
 40
182.0929899999999
100
AcDbArc
 50
228.79547
 51
234.26228
  0
ARC
  5
2CEB
330
309C
100
AcDbEntity
  8
AM_0
100
AcDbCircle
 10
1006.194386556571
 20
219.5957096603676
 30
0.0
 40
14.0929995
100
AcDbArc
 50
234.26228
 51
270.0
  0
ARC
  5
2CEC
330
309C
100
AcDbEntity
  8
AM_0
100
AcDbCircle
 10
1131.194371556571
 20
219.5957096603676
 30
0.0
 40
14.0929995
100
AcDbArc
 50
270.0
 51
305.73772
  0
ARC
  5
2CED
330
309C
100
AcDbEntity
  8
AM_0
100
AcDbCircle
 10
1068.694386556571
 20
429.5957146603676
 30
0.0
 40
30.0000005
100
AcDbArc
 50
107.4575999999999
 51
72.542384
  0
LINE
  5
2CEE
330
309C
100
AcDbEntity
  8
ﾁｭｳｼﾝｾﾝ
100
AcDbLine
 10
1150.694356556571
 20
381.5957146603677
 30
0.0
 11
986.6943565565716
 21
381.5957146603677
 31
0.0
  0
LINE
  5
2CEF
330
309C
100
AcDbEntity
  8
AM_0
100
AcDbLine
 10
986.6943565565716
 20
429.5957146603676
 30
0.0
 11
986.6943565565716
 21
419.5957146603676
 31
0.0
  0
ARC
  5
2CF0
330
309C
100
AcDbEntity
  8
AM_0
100
AcDbCircle
 10
976.6943565565718
 20
419.5957146603676
 30
0.0
 40
10.0
100
AcDbArc
 50
270.0
 51
0.0
  0
CIRCLE
  5
2CF1
330
309C
100
AcDbEntity
  8
AM_0
100
AcDbCircle
 10
1068.694386556571
 20
429.5957146603676
 30
0.0
 40
4.500000049999997
  0
CIRCLE
  5
2CF2
330
309C
100
AcDbEntity
  8
AM_5
100
AcDbCircle
 10
1068.694386556571
 20
429.5957146603676
 30
0.0
 40
6.0
  0
LINE
  5
2CF3
330
309C
100
AcDbEntity
  8
AM_0
100
AcDbLine
 10
1059.694356556571
 20
452.5957146603676
 30
0.0
 11
1077.694386556571
 21
452.5957146603676
 31
0.0
  0
LINE
  5
2CF4
330
309C
100
AcDbEntity
  8
AM_0
100
AcDbLine
 10
1150.694356556571
 20
429.5957146603676
 30
0.0
 11
1150.694356556571
 21
419.5957146603676
 31
0.0
  0
ARC
  5
2CF5
330
309C
100
AcDbEntity
  8
AM_0
100
AcDbCircle
 10
1228.694371556571
 20
269.5957096603676
 30
0.0
 40
25.0000005
100
AcDbArc
 50
270.0
 51
0.0
  0
ARC
  5
2CF6
330
309C
100
AcDbEntity
  8
AM_0
100
AcDbCircle
 10
1068.694386556571
 20
381.5957146603677
 30
0.0
 40
182.0929899999999
100
AcDbArc
 50
305.73772
 51
311.2045299999999
  0
CIRCLE
  5
2CF7
330
309C
100
AcDbEntity
  8
AM_0
100
AcDbCircle
 10
1227.793386556571
 20
270.4966796603677
 30
0.0
 40
12.0
  0
ARC
  5
2CF8
330
309C
100
AcDbEntity
  8
AM_0
100
AcDbCircle
 10
1208.894231556572
 20
414.5957146603676
 30
0.0
 40
5.0
100
AcDbArc
 50
270.0
 51
353.8931499999998
  0
LINE
  5
2CF9
330
309C
100
AcDbEntity
  8
AM_0
100
AcDbLine
 10
1210.042806556572
 20
409.7294396603676
 30
0.0
 11
1201.787881556572
 21
456.5455446603676
 31
0.0
  0
LINE
  5
2CFA
330
309C
100
AcDbEntity
  8
AM_0
100
AcDbLine
 10
1208.894231556572
 20
409.5957146603677
 30
0.0
 11
1160.694356556571
 21
409.5957146603677
 31
0.0
  0
LINE
  5
2CFB
330
309C
100
AcDbEntity
  8
AM_0
100
AcDbLine
 10
908.6943865565713
 20
614.5957846603679
 30
0.0
 11
1228.694371556571
 21
614.5957846603679
 31
0.0
  0
LINE
  5
2CFC
330
309C
100
AcDbEntity
  8
AM_0
100
AcDbLine
 10
1136.39362155657
 20
487.3954596603676
 30
0.0
 11
1170.64670655657
 21
521.6485346603676
 31
0.0
  0
LINE
  5
2CFD
330
309C
100
AcDbEntity
  8
AM_0
100
AcDbLine
 10
1126.494116556572
 20
497.2949646603677
 30
0.0
 11
1160.747196556572
 21
531.5480346603679
 31
0.0
  0
ARC
  5
2CFE
330
309C
100
AcDbEntity
  8
AM_0
100
AcDbCircle
 10
1068.694386556571
 20
381.5957146603681
 30
0.0
 40
172.0000049999999
100
AcDbArc
 50
58.77028799999354
 51
121.2297100000055
  0
ARC
  5
2CFF
330
309C
100
AcDbEntity
  8
AM_0
100
AcDbCircle
 10
908.6943865565713
 20
589.5957346603676
 30
0.0
 40
25.0000005
100
AcDbArc
 50
90.00000300000001
 51
180.00001
  0
CIRCLE
  5
2D00
330
309C
100
AcDbEntity
  8
AM_0
100
AcDbCircle
 10
909.5953265565711
 20
588.6947846603676
 30
0.0
 40
12.0
  0
ARC
  5
2D01
330
309C
100
AcDbEntity
  8
AM_0
100
AcDbCircle
 10
1068.694386556571
 20
429.5957146603676
 30
0.0
 40
82.0
100
AcDbArc
 50
54.594067
 51
125.4059299999999
  0
ARC
  5
2D02
330
309C
100
AcDbEntity
  8
AM_0
100
AcDbCircle
 10
982.2983915565719
 20
537.2048846603676
 30
0.0
 40
8.0
100
AcDbArc
 50
128.7598699999997
 51
225.0
  0
LINE
  5
2D03
330
309C
100
AcDbEntity
  8
AM_0
100
AcDbLine
 10
1000.99510655657
 20
487.3954896603676
 30
0.0
 11
966.7420515565718
 21
521.6485346603676
 31
0.0
  0
LINE
  5
2D04
330
309C
100
AcDbEntity
  8
AM_0
100
AcDbLine
 10
1010.894581556571
 20
497.2949946603676
 30
0.0
 11
976.6415615565719
 21
531.5480346603679
 31
0.0
  0
ARC
  5
2D05
330
309C
100
AcDbEntity
  8
AM_0
100
AcDbCircle
 10
961.0851915565715
 20
515.9917346603678
 30
0.0
 40
8.0
100
AcDbArc
 50
45.00000099999999
 51
141.2401299999999
  0
ARC
  5
2D06
330
309C
100
AcDbEntity
  8
AM_0
100
AcDbCircle
 10
1016.551471556571
 20
502.9518246603676
 30
0.0
 40
8.0
100
AcDbArc
 50
225.0
 51
305.4059299999999
  0
ARC
  5
2D07
330
309C
100
AcDbEntity
  8
AM_0
100
AcDbCircle
 10
995.3382765565716
 20
481.7386296603676
 30
0.0
 40
8.0
100
AcDbArc
 50
324.5940700000001
 51
45.00000099999999
  0
LINE
  5
2D08
330
309C
100
AcDbEntity
  8
AM_0
100
AcDbLine
 10
1059.694356556571
 20
463.5957446603676
 30
0.0
 11
1077.694386556571
 21
463.5957446603676
 31
0.0
  0
ARC
  5
2D09
330
309C
100
AcDbEntity
  8
AM_0
100
AcDbCircle
 10
1120.837271556571
 20
502.9518246603676
 30
0.0
 40
8.0
100
AcDbArc
 50
234.5940699999999
 51
315.0
  0
ARC
  5
2D0A
330
309C
100
AcDbEntity
  8
AM_0
100
AcDbCircle
 10
1142.050466556571
 20
481.7386296603676
 30
0.0
 40
8.0
100
AcDbArc
 50
135.0
 51
215.40593
  0
ARC
  5
2D0B
330
309C
100
AcDbEntity
  8
AM_0
100
AcDbCircle
 10
1228.694371556571
 20
589.5957346603676
 30
0.0
 40
25.0000005
100
AcDbArc
 50
0.0
 51
90.00000300000001
  0
ARC
  5
2D0C
330
309C
100
AcDbEntity
  8
AM_0
100
AcDbCircle
 10
1155.09033655657
 20
537.2048846603676
 30
0.0
 40
8.0
100
AcDbArc
 50
315.0
 51
51.24013
  0
ARC
  5
2D0D
330
309C
100
AcDbEntity
  8
AM_0
100
AcDbCircle
 10
1176.30355155657
 20
515.9917346603678
 30
0.0
 40
8.0
100
AcDbArc
 50
38.759869
 51
135.0
  0
ARC
  5
2D0E
330
309C
100
AcDbEntity
  8
ﾁｭｳｼﾝｾﾝ1
100
AcDbCircle
 10
1068.694386556571
 20
429.5957146603676
 30
0.0
 40
225.000005
100
AcDbArc
 50
38.696153
 51
50.477014
  0
LINE
  5
2D0F
330
309C
100
AcDbEntity
  8
ﾁｭｳｼﾝｾﾝ1
100
AcDbLine
 10
1242.996176556571
 20
603.8975346603677
 30
0.0
 11
1211.915753002808
 21
572.8171240255903
 31
0.0
  0
CIRCLE
  5
2D10
330
309C
100
AcDbEntity
  8
AM_0
100
AcDbCircle
 10
1227.793386556571
 20
588.6947846603676
 30
0.0
 40
12.0
  0
LINE
  5
2D11
330
309C
100
AcDbEntity
  8
AM_0
100
AcDbLine
 10
251.1461615565719
 20
920.6417420866834
 30
0.0
 11
248.1445615565717
 21
920.6417420866834
 31
0.0
  0
LINE
  5
2D12
330
309C
100
AcDbEntity
  8
AM_0
100
AcDbLine
 10
251.1461615565719
 20
950.6417420866835
 30
0.0
 11
248.1445615565717
 21
950.6417420866835
 31
0.0
  0
LINE
  5
2D13
330
309C
100
AcDbEntity
  8
AM_0
100
AcDbLine
 10
248.1445615565717
 20
949.6417420866835
 30
0.0
 11
206.1445615565717
 21
949.6417420866835
 31
0.0
  0
LINE
  5
2D14
330
309C
100
AcDbEntity
  8
AM_0
100
AcDbLine
 10
206.1445615565717
 20
931.6417420866835
 30
0.0
 11
238.1445615565718
 21
931.6417420866835
 31
0.0
  0
LINE
  5
2D15
330
309C
100
AcDbEntity
  8
AM_0
100
AcDbLine
 10
206.1445615565717
 20
939.6417420866836
 30
0.0
 11
238.1445615565718
 21
939.6417420866836
 31
0.0
  0
LINE
  5
2D16
330
309C
100
AcDbEntity
  8
AM_0
100
AcDbLine
 10
248.1445615565717
 20
921.6417420866834
 30
0.0
 11
206.1445615565717
 21
921.6417420866834
 31
0.0
  0
LINE
  5
2D17
330
309C
100
AcDbEntity
  8
AM_0
100
AcDbLine
 10
206.1445615565717
 20
949.6417420866835
 30
0.0
 11
206.1445615565717
 21
921.6417420866834
 31
0.0
  0
ARC
  5
2D18
330
309C
100
AcDbEntity
  8
AM_0
100
AcDbCircle
 10
238.1445615565718
 20
935.6417420866835
 30
0.0
 40
3.999999999999884
100
AcDbArc
 50
270.0
 51
90.0
  0
LINE
  5
2D19
330
309C
100
AcDbEntity
  8
AM_0
100
AcDbLine
 10
238.1445615565718
 20
939.6417420866836
 30
0.0
 11
238.1445615565718
 21
931.6417420866835
 31
0.0
  0
LINE
  5
2D1A
330
309C
100
AcDbEntity
  8
AM_0
100
AcDbLine
 10
248.1445615565717
 20
950.6417420866835
 30
0.0
 11
248.1445615565717
 21
935.6417420866835
 31
0.0
  0
LINE
  5
2D1B
330
309C
100
AcDbEntity
  8
AM_0
100
AcDbLine
 10
248.1445615565717
 20
920.6417420866834
 30
0.0
 11
248.1445615565717
 21
935.6417420866835
 31
0.0
  0
LINE
  5
2D1C
330
309C
100
AcDbEntity
  8
AM_0
100
AcDbLine
 10
364.1461615565718
 20
839.1417420866837
 30
0.0
 11
364.1461615565718
 21
1032.141742086683
 31
0.0
  0
LINE
  5
2D1D
330
309C
100
AcDbEntity
  8
AM_0
100
AcDbLine
 10
361.1229955565718
 20
845.3692650866836
 30
0.0
 11
288.9907575565717
 21
886.5876870866836
 31
0.0
  0
ARC
  5
2D1E
330
309C
100
AcDbEntity
  8
AM_0
100
AcDbCircle
 10
358.1461615565718
 20
840.1598060866836
 30
0.0
 40
6.0
100
AcDbArc
 50
0.0
 51
60.25511900000238
  0
LINE
  5
2D1F
330
309C
100
AcDbEntity
  8
AM_0
100
AcDbLine
 10
381.1461615565718
 20
838.1417420866835
 30
0.0
 11
365.1461615565718
 21
838.1417420866835
 31
0.0
  0
ARC
  5
2D20
330
309C
100
AcDbEntity
  8
AM_0
100
AcDbCircle
 10
365.1461615565718
 20
839.1417420866837
 30
0.0
 40
1.0
100
AcDbArc
 50
180.0
 51
270.0
  0
LINE
  5
2D21
330
309C
100
AcDbEntity
  8
AM_0
100
AcDbLine
 10
380.1461615565718
 20
852.0289590866836
 30
0.0
 11
380.1461615565718
 21
878.8659540866836
 31
0.0
  0
LINE
  5
2D22
330
309C
100
AcDbEntity
  8
AM_0
100
AcDbLine
 10
380.1461615565718
 20
862.6355610866836
 30
0.0
 11
366.1461615565718
 21
862.6355610866836
 31
0.0
  0
LINE
  5
2D23
330
309C
100
AcDbEntity
  8
AM_0
100
AcDbLine
 10
380.1461615565718
 20
852.0289590866836
 30
0.0
 11
366.1461615565718
 21
852.0289590866836
 31
0.0
  0
ARC
  5
2D24
330
309C
100
AcDbEntity
  8
AM_0
100
AcDbCircle
 10
366.1461615565718
 20
864.6355610866836
 30
0.0
 40
2.0
100
AcDbArc
 50
180.0
 51
270.0
  0
ARC
  5
2D25
330
309C
100
AcDbEntity
  8
AM_0
100
AcDbCircle
 10
366.1461615565718
 20
854.0289590866837
 30
0.0
 40
2.0
100
AcDbArc
 50
180.0
 51
270.0
  0
LINE
  5
2D26
330
309C
100
AcDbEntity
  8
AM_0
100
AcDbLine
 10
366.1461615565718
 20
878.8659540866836
 30
0.0
 11
380.1461615565718
 21
878.8659540866836
 31
0.0
  0
ARC
  5
2D27
330
309C
100
AcDbEntity
  8
AM_0
100
AcDbCircle
 10
366.1461615565718
 20
876.8659540866833
 30
0.0
 40
2.0
100
AcDbArc
 50
90.0
 51
180.0
  0
ARC
  5
2D28
330
309C
100
AcDbEntity
  8
AM_0
100
AcDbCircle
 10
358.1461615565718
 20
1031.123677086683
 30
0.0
 40
6.0
100
AcDbArc
 50
299.7448809999976
 51
0.0
  0
LINE
  5
2D29
330
309C
100
AcDbEntity
  8
AM_0
100
AcDbLine
 10
251.1461615565719
 20
963.1417420866835
 30
0.0
 11
251.1461615565719
 21
935.6417420866835
 31
0.0
  0
LINE
  5
2D2A
330
309C
100
AcDbEntity
  8
AM_0
100
AcDbLine
 10
253.1461615565719
 20
975.5588380866836
 30
0.0
 11
253.1461615565719
 21
935.6417420866835
 31
0.0
  0
LINE
  5
2D2B
330
309C
100
AcDbEntity
  8
AM_0
100
AcDbLine
 10
287.1461615565718
 20
983.6417420866835
 30
0.0
 11
287.1461615565718
 21
935.6417420866835
 31
0.0
  0
LINE
  5
2D2C
330
309C
100
AcDbEntity
  8
AM_0
100
AcDbLine
 10
263.1461615565718
 20
980.5500760866836
 30
0.0
 11
263.1461615565718
 21
935.6417420866835
 31
0.0
  0
LINE
  5
2D2D
330
309C
100
AcDbEntity
  8
AM_0
100
AcDbLine
 10
287.1461615565718
 20
887.6417420866834
 30
0.0
 11
287.1461615565718
 21
935.6417420866835
 31
0.0
  0
LINE
  5
2D2E
330
309C
100
AcDbEntity
  8
AM_0
100
AcDbLine
 10
263.1461615565718
 20
890.7334080866835
 30
0.0
 11
263.1461615565718
 21
935.6417420866835
 31
0.0
  0
LINE
  5
2D2F
330
309C
100
AcDbEntity
  8
AM_0
100
AcDbLine
 10
253.1461615565719
 20
895.7246450866835
 30
0.0
 11
253.1461615565719
 21
935.6417420866835
 31
0.0
  0
LINE
  5
2D30
330
309C
100
AcDbEntity
  8
AM_0
100
AcDbLine
 10
251.1461615565719
 20
908.1417420866834
 30
0.0
 11
251.1461615565719
 21
935.6417420866835
 31
0.0
  0
LINE
  5
2D31
330
309C
100
AcDbEntity
  8
AM_0
100
AcDbLine
 10
285.0216465565718
 20
887.6417420866834
 30
0.0
 11
265.2897555565717
 21
887.6417420866834
 31
0.0
  0
ARC
  5
2D32
330
309C
100
AcDbEntity
  8
AM_0
100
AcDbCircle
 10
265.2897555565717
 20
895.6417420866834
 30
0.0
 40
8.0
100
AcDbArc
 50
239.9999999999995
 51
270.0
  0
LINE
  5
2D33
330
309C
100
AcDbEntity
  8
AM_0
100
AcDbLine
 10
261.2897555565717
 20
888.7135380866833
 30
0.0
 11
255.1461615565719
 21
892.2605440866833
 31
0.0
  0
ARC
  5
2D34
330
309C
100
AcDbEntity
  8
AM_0
100
AcDbCircle
 10
257.1461615565719
 20
895.7246450866835
 30
0.0
 40
4.0
100
AcDbArc
 50
180.0
 51
239.9999999999995
  0
LINE
  5
2D35
330
309C
100
AcDbEntity
  8
AM_0
100
AcDbLine
 10
251.1461615565719
 20
908.1417420866834
 30
0.0
 11
253.1461615565719
 21
906.1417420866835
 31
0.0
  0
ARC
  5
2D36
330
309C
100
AcDbEntity
  8
AM_0
100
AcDbCircle
 10
285.0216465565718
 20
879.6417420866834
 30
0.0
 40
8.0
100
AcDbArc
 50
60.25511900000238
 51
90.0
  0
LINE
  5
2D37
330
309C
100
AcDbEntity
  8
AM_0
100
AcDbLine
 10
361.1229955565718
 20
1025.914218086682
 30
0.0
 11
288.9907575565717
 21
984.6957960866832
 31
0.0
  0
LINE
  5
2D38
330
309C
100
AcDbEntity
  8
AM_0
100
AcDbLine
 10
285.0216465565718
 20
983.6417420866835
 30
0.0
 11
265.2897555565717
 21
983.6417420866835
 31
0.0
  0
LINE
  5
2D39
330
309C
100
AcDbEntity
  8
AM_0
100
AcDbLine
 10
251.1461615565719
 20
963.1417420866835
 30
0.0
 11
253.1461615565719
 21
965.1417420866835
 31
0.0
  0
ARC
  5
2D3A
330
309C
100
AcDbEntity
  8
AM_0
100
AcDbCircle
 10
265.2897555565717
 20
975.6417420866835
 30
0.0
 40
8.0
100
AcDbArc
 50
90.0
 51
120.0000000000005
  0
ARC
  5
2D3B
330
309C
100
AcDbEntity
  8
AM_0
100
AcDbCircle
 10
257.1461615565719
 20
975.5588380866836
 30
0.0
 40
4.0
100
AcDbArc
 50
120.0000000000005
 51
180.0
  0
LINE
  5
2D3C
330
309C
100
AcDbEntity
  8
AM_0
100
AcDbLine
 10
261.2897555565717
 20
982.5699450866832
 30
0.0
 11
255.1461615565719
 21
979.0229390866835
 31
0.0
  0
ARC
  5
2D3D
330
309C
100
AcDbEntity
  8
AM_0
100
AcDbCircle
 10
285.0216465565718
 20
991.6417420866835
 30
0.0
 40
8.0
100
AcDbArc
 50
270.0
 51
299.7448809999976
  0
LINE
  5
2D3E
330
309C
100
AcDbEntity
  8
AM_0
100
AcDbLine
 10
380.1461615565718
 20
959.5696139820036
 30
0.0
 11
380.1461615565717
 21
911.7138701913635
 31
0.0
  0
LINE
  5
2D3F
330
309C
100
AcDbEntity
  8
AM_0
100
AcDbLine
 10
380.1461615565718
 20
911.7138701913635
 30
0.0
 11
364.1461615565718
 21
911.7138701913635
 31
0.0
  0
LINE
  5
2D40
330
309C
100
AcDbEntity
  8
AM_0
100
AcDbLine
 10
364.1461615565718
 20
920.6417420866838
 30
0.0
 11
380.1461615565717
 21
920.6417420866834
 31
0.0
  0
LINE
  5
2D41
330
309C
100
AcDbEntity
  8
AM_0
100
AcDbLine
 10
364.1461615565718
 20
950.6417420866835
 30
0.0
 11
380.1461615565717
 21
950.6417420866835
 31
0.0
  0
LINE
  5
2D42
330
309C
100
AcDbEntity
  8
AM_0
100
AcDbLine
 10
380.1461615565718
 20
959.5696139820036
 30
0.0
 11
364.1461615565718
 21
959.5696139820036
 31
0.0
  0
LINE
  5
2D43
330
309C
100
AcDbEntity
  8
AM_0
100
AcDbLine
 10
380.1461615565718
 20
1019.254525086683
 30
0.0
 11
380.1461615565718
 21
992.4175300866835
 31
0.0
  0
LINE
  5
2D44
330
309C
100
AcDbEntity
  8
AM_0
100
AcDbLine
 10
380.1461615565718
 20
1008.647923086683
 30
0.0
 11
366.1461615565718
 21
1008.647923086683
 31
0.0
  0
LINE
  5
2D45
330
309C
100
AcDbEntity
  8
AM_0
100
AcDbLine
 10
366.1461615565718
 20
992.4175300866835
 30
0.0
 11
380.1461615565718
 21
992.4175300866835
 31
0.0
  0
ARC
  5
2D46
330
309C
100
AcDbEntity
  8
AM_0
100
AcDbCircle
 10
366.1461615565718
 20
1006.647923086683
 30
0.0
 40
2.0
100
AcDbArc
 50
90.0
 51
180.0
  0
ARC
  5
2D47
330
309C
100
AcDbEntity
  8
AM_0
100
AcDbCircle
 10
366.1461615565718
 20
994.4175300866831
 30
0.0
 40
2.0
100
AcDbArc
 50
180.0
 51
270.0
  0
LINE
  5
2D48
330
309C
100
AcDbEntity
  8
AM_0
100
AcDbLine
 10
380.1461615565718
 20
1019.254525086683
 30
0.0
 11
366.1461615565718
 21
1019.254525086683
 31
0.0
  0
ARC
  5
2D49
330
309C
100
AcDbEntity
  8
AM_0
100
AcDbCircle
 10
366.1461615565718
 20
1017.254525086683
 30
0.0
 40
2.0
100
AcDbArc
 50
90.0
 51
180.0
  0
LINE
  5
2D4A
330
309C
100
AcDbEntity
  8
AM_0
100
AcDbLine
 10
381.1461615565718
 20
1033.141742086683
 30
0.0
 11
365.1461615565718
 21
1033.141742086683
 31
0.0
  0
ARC
  5
2D4B
330
309C
100
AcDbEntity
  8
AM_0
100
AcDbCircle
 10
365.1461615565718
 20
1032.141742086683
 30
0.0
 40
1.0
100
AcDbArc
 50
90.0
 51
180.0
  0
ARC
  5
2D4D
330
309C
100
AcDbEntity
  8
ﾁｭｳｼﾝｾﾝ1
100
AcDbCircle
 10
1068.694386556571
 20
429.5957146603676
 30
0.0
 40
225.000005
100
AcDbArc
 50
129.522986
 51
141.3038469999999
  0
LINE
  5
2D4E
330
309C
100
AcDbEntity
  8
ﾁｭｳｼﾝｾﾝ1
100
AcDbLine
 10
894.3925965565718
 20
603.8975346603677
 30
0.0
 11
925.4730201103352
 21
572.8171240255903
 31
0.0
  0
ARC
  5
2D4F
330
309C
100
AcDbEntity
  8
ﾁｭｳｼﾝｾﾝ1
100
AcDbCircle
 10
1068.694386556571
 20
429.5957146603676
 30
0.0
 40
225.000005
100
AcDbArc
 50
309.5229799999998
 51
320.47702
  0
LINE
  5
2D50
330
309C
100
AcDbEntity
  8
ﾁｭｳｼﾝｾﾝ1
100
AcDbLine
 10
1242.99623655657
 20
255.2938896603677
 30
0.0
 11
1212.59062655657
 21
285.6994996603677
 31
0.0
  0
LINE
  5
2D51
330
309C
100
AcDbEntity
  8
AM_0
100
AcDbLine
 10
643.1461215565717
 20
965.6417020866831
 30
0.0
 11
748.1461215565715
 21
965.6417020866831
 31
0.0
  0
LINE
  5
2D52
330
309C
100
AcDbEntity
  8
AM_0
100
AcDbLine
 10
667.1461215565718
 20
926.6417420866835
 30
0.0
 11
748.1461215565715
 21
926.6417420866835
 31
0.0
  0
LINE
  5
2D53
330
309C
100
AcDbEntity
  8
AM_0
100
AcDbLine
 10
667.1461215565718
 20
944.6417420866835
 30
0.0
 11
748.1461215565715
 21
944.6417420866835
 31
0.0
  0
LINE
  5
2D54
330
309C
100
AcDbEntity
  8
AM_0
100
AcDbLine
 10
643.1461215565717
 20
905.6417420866834
 30
0.0
 11
748.1461215565715
 21
905.6417420866834
 31
0.0
  0
LINE
  5
2D55
330
309C
100
AcDbEntity
  8
ﾁｭｳｼﾝｾﾝ
100
AcDbLine
 10
196.6660109971694
 20
935.6417420866835
 30
0.0
 11
763.9690615565715
 21
935.6417420866835
 31
0.0
  0
POLYLINE
  5
2D56
330
309C
100
AcDbEntity
  8
AM_0
100
AcDb2dPolyline
 66
     1
 10
0.0
 20
0.0
 30
0.0
  0
VERTEX
  5
2D57
330
2D56
100
AcDbEntity
  8
AM_0
100
AcDbVertex
100
AcDb2dVertex
 10
587.5296215565716
 20
1030.230902086683
 30
0.0
  0
VERTEX
  5
2D58
330
2D56
100
AcDbEntity
  8
AM_0
100
AcDbVertex
100
AcDb2dVertex
 10
584.4620135565718
 20
1014.644843086683
 30
0.0
  0
VERTEX
  5
2D59
330
2D56
100
AcDbEntity
  8
AM_0
100
AcDbVertex
100
AcDb2dVertex
 10
581.9302175565718
 20
998.9628310866836
 30
0.0
  0
VERTEX
  5
2D5A
330
2D56
100
AcDbEntity
  8
AM_0
100
AcDbVertex
100
AcDb2dVertex
 10
579.9372065565721
 20
983.2032830866832
 30
0.0
  0
VERTEX
  5
2D5B
330
2D56
100
AcDbEntity
  8
AM_0
100
AcDbVertex
100
AcDb2dVertex
 10
578.4853215565719
 20
967.3847020866835
 30
0.0
  0
VERTEX
  5
2D5C
330
2D56
100
AcDbEntity
  8
AM_0
100
AcDbVertex
100
AcDb2dVertex
 10
577.4472115565717
 20
946.2292180866835
 30
0.0
  0
VERTEX
  5
2D5D
330
2D56
100
AcDbEntity
  8
AM_0
100
AcDbVertex
100
AcDb2dVertex
 10
577.4296125565718
 20
925.0482870866836
 30
0.0
  0
VERTEX
  5
2D5E
330
2D56
100
AcDbEntity
  8
AM_0
100
AcDbVertex
100
AcDb2dVertex
 10
578.4325645565718
 20
903.8911080866835
 30
0.0
  0
VERTEX
  5
2D5F
330
2D56
100
AcDbEntity
  8
AM_0
100
AcDbVertex
100
AcDb2dVertex
 10
580.4537395565716
 20
882.8068240866835
 30
0.0
  0
VERTEX
  5
2D60
330
2D56
100
AcDbEntity
  8
AM_0
100
AcDbVertex
100
AcDb2dVertex
 10
583.4884415565718
 20
861.8444120866834
 30
0.0
  0
VERTEX
  5
2D61
330
2D56
100
AcDbEntity
  8
AM_0
100
AcDbVertex
100
AcDb2dVertex
 10
587.5296215565716
 20
841.0525620866833
 30
0.0
  0
SEQEND
  5
2D62
330
2D56
100
AcDbEntity
  8
AM_0
  0
LINE
  5
2D63
330
309C
100
AcDbEntity
  8
AM_0
100
AcDbLine
 10
643.1461215565717
 20
968.1417020866835
 30
0.0
 11
643.1461215565717
 21
903.1417420866835
 31
0.0
  0
LINE
  5
2D64
330
309C
100
AcDbEntity
  8
AM_0
100
AcDbLine
 10
633.1461215565719
 20
1120.641702086682
 30
0.0
 11
633.1461215565719
 21
750.6417420866835
 31
0.0
  0
LINE
  5
2D65
330
309C
100
AcDbEntity
  8
AM_0
100
AcDbLine
 10
617.1461215565718
 20
1082.200602086682
 30
0.0
 11
617.1461215565718
 21
789.0717920866833
 31
0.0
  0
LINE
  5
2D66
330
309C
100
AcDbEntity
  8
AM_0
100
AcDbLine
 10
608.1461215565719
 20
1117.641702086682
 30
0.0
 11
608.1461215565719
 21
753.6417420866834
 31
0.0
  0
LINE
  5
2D67
330
309C
100
AcDbEntity
  8
AM_0
100
AcDbLine
 10
638.1461215565717
 20
780.6417420866835
 30
0.0
 11
638.1461215565717
 21
1090.641702086682
 31
0.0
  0
LINE
  5
2D68
330
309C
100
AcDbEntity
  8
AM_0
100
AcDbLine
 10
405.1461215565716
 20
810.7022920866835
 30
0.0
 11
405.1461215565716
 21
1060.581102086682
 31
0.0
  0
LINE
  5
2D69
330
309C
100
AcDbEntity
  8
AM_0
100
AcDbLine
 10
424.6461215565719
 20
783.9676720866837
 30
0.0
 11
424.6461215565719
 21
930.6417420866834
 31
0.0
  0
LINE
  5
2D6A
330
309C
100
AcDbEntity
  8
AM_0
100
AcDbLine
 10
494.6461215565718
 20
1094.588802086682
 30
0.0
 11
494.6461215565718
 21
776.6947220866835
 31
0.0
  0
LINE
  5
2D6B
330
309C
100
AcDbEntity
  8
AM_0
100
AcDbLine
 10
381.1461615565718
 20
1033.141702086682
 30
0.0
 11
381.1461615565718
 21
838.1417420866835
 31
0.0
  0
LINE
  5
2D6C
330
309C
100
AcDbEntity
  8
AM_0
100
AcDbLine
 10
603.3206215565718
 20
772.8997320866833
 30
0.0
 11
494.6461215565718
 21
776.6947220866835
 31
0.0
  0
LINE
  5
2D6D
330
309C
100
AcDbEntity
  8
AM_0
100
AcDbLine
 10
409.8035315565716
 20
805.7140620866835
 30
0.0
 11
419.9887115565716
 21
805.0146020866833
 31
0.0
  0
ARC
  5
2D6E
330
309C
100
AcDbEntity
  8
AM_0
100
AcDbCircle
 10
410.1461215565718
 20
810.7022920866835
 30
0.0
 40
5.0
100
AcDbArc
 50
180.0000100000009
 51
266.0712399999984
  0
LINE
  5
2D6F
330
309C
100
AcDbEntity
  8
AM_0
100
AcDbLine
 10
383.1461615565718
 20
878.8659820866834
 30
0.0
 11
383.1461615565718
 21
852.3442520866833
 31
0.0
  0
LINE
  5
2D70
330
309C
100
AcDbEntity
  8
AM_0
100
AcDbLine
 10
381.1461615565718
 20
838.1416820866835
 30
0.0
 11
395.4951215565716
 21
837.6405820866834
 31
0.0
  0
LINE
  5
2D71
330
309C
100
AcDbEntity
  8
AM_0
100
AcDbLine
 10
383.1461615565718
 20
862.6355120866833
 30
0.0
 11
405.1461215565716
 21
862.6355120866833
 31
0.0
  0
LINE
  5
2D72
330
309C
100
AcDbEntity
  8
AM_0
100
AcDbLine
 10
383.1461615565718
 20
852.3442520866833
 30
0.0
 11
405.1461215565716
 21
852.3442520866833
 31
0.0
  0
ARC
  5
2D73
330
309C
100
AcDbEntity
  8
AM_0
100
AcDbCircle
 10
395.1461215565718
 20
827.6467420866834
 30
0.0
 40
10.0
100
AcDbArc
 50
0.0
 51
88.00000000000279
  0
LINE
  5
2D74
330
309C
100
AcDbEntity
  8
AM_0
100
AcDbLine
 10
383.1461615565718
 20
878.8659820866834
 30
0.0
 11
405.1461215565716
 21
878.8659820866834
 31
0.0
  0
LINE
  5
2D75
330
309C
100
AcDbEntity
  8
AM_0
100
AcDbLine
 10
494.6461215565718
 20
776.6947220866835
 30
0.0
 11
429.4715615565718
 21
778.9706620866835
 31
0.0
  0
LINE
  5
2D76
330
309C
100
AcDbEntity
  8
AM_0
100
AcDbLine
 10
429.6461215565718
 20
799.7311520866835
 30
0.0
 11
452.6461215565718
 21
799.7311520866835
 31
0.0
  0
LINE
  5
2D77
330
309C
100
AcDbEntity
  8
AM_0
100
AcDbLine
 10
429.6461215565718
 20
794.2153520866835
 30
0.0
 11
452.6461215565718
 21
794.2153520866835
 31
0.0
  0
ARC
  5
2D78
330
309C
100
AcDbEntity
  8
AM_0
100
AcDbCircle
 10
429.6461215565718
 20
804.7311520866836
 30
0.0
 40
5.0
100
AcDbArc
 50
180.0000100000009
 51
270.0
  0
ARC
  5
2D79
330
309C
100
AcDbEntity
  8
AM_0
100
AcDbCircle
 10
429.6461215565718
 20
789.2153520866835
 30
0.0
 40
5.0
100
AcDbArc
 50
90.00000299999769
 51
180.0000100000009
  0
ARC
  5
2D7A
330
309C
100
AcDbEntity
  8
AM_0
100
AcDbCircle
 10
429.6461215565718
 20
783.9676720866837
 30
0.0
 40
5.0
100
AcDbArc
 50
180.0000100000009
 51
268.0000000000026
  0
ARC
  5
2D7B
330
309C
100
AcDbEntity
  8
AM_0
100
AcDbCircle
 10
419.6461215565718
 20
800.0263220866836
 30
0.0
 40
5.0
100
AcDbArc
 50
0.0
 51
86.07123699999879
  0
ARC
  5
2D7C
330
309C
100
AcDbEntity
  8
AM_0
100
AcDbCircle
 10
452.6461215565718
 20
797.7311520866835
 30
0.0
 40
2.0
100
AcDbArc
 50
0.0
 51
90.00000299999769
  0
ARC
  5
2D7D
330
309C
100
AcDbEntity
  8
AM_0
100
AcDbCircle
 10
452.6461215565718
 20
796.2153520866835
 30
0.0
 40
2.0
100
AcDbArc
 50
270.0
 51
0.0
  0
LINE
  5
2D7E
330
309C
100
AcDbEntity
  8
AM_0
100
AcDbLine
 10
454.6461215565718
 20
797.7311520866835
 30
0.0
 11
454.6461215565718
 21
796.2153520866835
 31
0.0
  0
LINE
  5
2D7F
330
309C
100
AcDbEntity
  8
AM_0
100
AcDbLine
 10
454.6461215565718
 20
843.6975220866836
 30
0.0
 11
454.6461215565718
 21
883.6131720866832
 31
0.0
  0
LINE
  5
2D80
330
309C
100
AcDbEntity
  8
AM_0
100
AcDbLine
 10
429.6461215565718
 20
840.6975220866835
 30
0.0
 11
451.6461215565718
 21
840.6975220866835
 31
0.0
  0
ARC
  5
2D81
330
309C
100
AcDbEntity
  8
AM_0
100
AcDbCircle
 10
429.6461215565718
 20
835.6975220866836
 30
0.0
 40
5.0
100
AcDbArc
 50
90.00000299999769
 51
180.0000100000009
  0
ARC
  5
2D82
330
309C
100
AcDbEntity
  8
AM_0
100
AcDbCircle
 10
451.6461215565718
 20
843.6975220866836
 30
0.0
 40
3.0
100
AcDbArc
 50
270.0
 51
0.0
  0
LINE
  5
2D83
330
309C
100
AcDbEntity
  8
AM_0
100
AcDbLine
 10
429.6461215565718
 20
886.6131720866833
 30
0.0
 11
451.6461215565718
 21
886.6131720866833
 31
0.0
  0
ARC
  5
2D84
330
309C
100
AcDbEntity
  8
AM_0
100
AcDbCircle
 10
429.6461215565718
 20
891.6131720866832
 30
0.0
 40
5.0
100
AcDbArc
 50
180.0000100000009
 51
270.0
  0
ARC
  5
2D85
330
309C
100
AcDbEntity
  8
AM_0
100
AcDbCircle
 10
451.6461215565718
 20
883.6131720866832
 30
0.0
 40
3.0
100
AcDbArc
 50
0.0
 51
90.00000299999769
  0
LINE
  5
2D86
330
309C
100
AcDbEntity
  8
AM_0
100
AcDbLine
 10
610.1461215565717
 20
787.0828420866835
 30
0.0
 11
615.1461215565717
 21
787.0828420866835
 31
0.0
  0
LINE
  5
2D87
330
309C
100
AcDbEntity
  8
AM_0
100
AcDbLine
 10
608.1461215565719
 20
849.3703820866835
 30
0.0
 11
615.1461215565717
 21
849.3703820866835
 31
0.0
  0
LINE
  5
2D88
330
309C
100
AcDbEntity
  8
AM_0
100
AcDbLine
 10
611.1461215565717
 20
750.6416820866835
 30
0.0
 11
633.1461215565719
 21
750.6416820866835
 31
0.0
  0
LINE
  5
2D89
330
309C
100
AcDbEntity
  8
AM_0
100
AcDbLine
 10
605.7783215565716
 20
794.9291520866835
 30
0.0
 11
549.5139215565719
 21
829.7674720866835
 31
0.0
  0
LINE
  5
2D8A
330
309C
100
AcDbEntity
  8
AM_0
100
AcDbLine
 10
605.7782615565717
 20
806.8946720866835
 30
0.0
 11
550.8412515565717
 21
840.9110920866835
 31
0.0
  0
POLYLINE
  5
2D8B
330
309C
100
AcDbEntity
  8
AM_0
100
AcDb2dPolyline
 66
     1
 10
0.0
 20
0.0
 30
0.0
  0
VERTEX
  5
2D8C
330
2D8B
100
AcDbEntity
  8
AM_0
100
AcDbVertex
100
AcDb2dVertex
 10
598.3194315565715
 20
799.5474320866833
 30
0.0
  0
VERTEX
  5
2D8D
330
2D8B
100
AcDbEntity
  8
AM_0
100
AcDbVertex
100
AcDb2dVertex
 10
599.8359735565718
 20
794.6894640866835
 30
0.0
  0
VERTEX
  5
2D8E
330
2D8B
100
AcDbEntity
  8
AM_0
100
AcDbVertex
100
AcDb2dVertex
 10
601.4014415565718
 20
789.8470420866837
 30
0.0
  0
VERTEX
  5
2D8F
330
2D8B
100
AcDbEntity
  8
AM_0
100
AcDbVertex
100
AcDb2dVertex
 10
603.0155095565718
 20
785.0206040866835
 30
0.0
  0
VERTEX
  5
2D90
330
2D8B
100
AcDbEntity
  8
AM_0
100
AcDbVertex
100
AcDb2dVertex
 10
604.6778615565719
 20
780.2105820866835
 30
0.0
  0
VERTEX
  5
2D91
330
2D8B
100
AcDbEntity
  8
AM_0
100
AcDbVertex
100
AcDb2dVertex
 10
606.3881505565716
 20
775.4175210866833
 30
0.0
  0
VERTEX
  5
2D92
330
2D8B
100
AcDbEntity
  8
AM_0
100
AcDbVertex
100
AcDb2dVertex
 10
608.1461215565719
 20
770.6417420866835
 30
0.0
  0
SEQEND
  5
2D93
330
2D8B
100
AcDbEntity
  8
AM_0
  0
ARC
  5
2D94
330
309C
100
AcDbEntity
  8
AM_0
100
AcDbCircle
 10
611.1461215565717
 20
753.6417420866834
 30
0.0
 40
3.0
100
AcDbArc
 50
179.9999899999988
 51
270.0
  0
ARC
  5
2D95
330
309C
100
AcDbEntity
  8
AM_0
100
AcDbCircle
 10
603.1461215565719
 20
767.9027920866833
 30
0.0
 40
5.0
100
AcDbArc
 50
0.0
 51
88.00000000000279
  0
ARC
  5
2D96
330
309C
100
AcDbEntity
  8
AM_0
100
AcDbCircle
 10
603.1461215565719
 20
790.6781220866835
 30
0.0
 40
5.0
100
AcDbArc
 50
0.0
 51
58.23463000000423
  0
ARC
  5
2D97
330
309C
100
AcDbEntity
  8
AM_0
100
AcDbCircle
 10
610.1461215565717
 20
785.0828420866835
 30
0.0
 40
2.0
100
AcDbArc
 50
90.00000299999769
 51
180.0000100000009
  0
LINE
  5
2D98
330
309C
100
AcDbEntity
  8
AM_0
100
AcDbLine
 10
552.1461215565717
 20
843.1991120866834
 30
0.0
 11
582.9863915565717
 21
843.1991120866834
 31
0.0
  0
ARC
  5
2D99
330
309C
100
AcDbEntity
  8
AM_0
100
AcDbCircle
 10
552.1461215565717
 20
838.1991120866835
 30
0.0
 40
5.0
100
AcDbArc
 50
90.00000299999769
 51
180.0000100000009
  0
ARC
  5
2D9A
330
309C
100
AcDbEntity
  8
AM_0
100
AcDbCircle
 10
552.1461215565717
 20
834.0185720866836
 30
0.0
 40
5.0
100
AcDbArc
 50
179.9999899999988
 51
238.2346499999997
  0
LINE
  5
2D9B
330
309C
100
AcDbEntity
  8
AM_0
100
AcDbLine
 10
547.1461215565717
 20
834.0185720866836
 30
0.0
 11
547.1461215565717
 21
838.1991120866835
 31
0.0
  0
LINE
  5
2D9C
330
309C
100
AcDbEntity
  8
AM_0
100
AcDbLine
 10
608.1461215565719
 20
825.7349420866836
 30
0.0
 11
585.9682615565717
 21
842.2126020866835
 31
0.0
  0
ARC
  5
2D9D
330
309C
100
AcDbEntity
  8
AM_0
100
AcDbCircle
 10
582.9863915565717
 20
838.1991120866835
 30
0.0
 40
5.0
100
AcDbArc
 50
53.38850499999789
 51
90.00000299999769
  0
LINE
  5
2D9E
330
309C
100
AcDbEntity
  8
AM_0
100
AcDbLine
 10
633.1461215565719
 20
780.6417420866835
 30
0.0
 11
638.1461215565717
 21
780.6417420866835
 31
0.0
  0
ARC
  5
2D9F
330
309C
100
AcDbEntity
  8
AM_0
100
AcDbCircle
 10
615.1461215565717
 20
789.0828420866835
 30
0.0
 40
2.0
100
AcDbArc
 50
270.0
 51
0.0
  0
ARC
  5
2DA0
330
309C
100
AcDbEntity
  8
AM_0
100
AcDbCircle
 10
615.1461215565717
 20
851.3703820866835
 30
0.0
 40
2.0
100
AcDbArc
 50
270.0
 51
0.0
  0
LINE
  5
2DA1
330
309C
100
AcDbEntity
  8
AM_0
100
AcDbLine
 10
638.1461215565717
 20
903.1417420866835
 30
0.0
 11
643.1461215565717
 21
903.1417420866835
 31
0.0
  0
LINE
  5
2DA2
330
309C
100
AcDbEntity
  8
AM_0
100
AcDbLine
 10
603.3205615565718
 20
1098.383802086683
 30
0.0
 11
494.6461215565718
 21
1094.588802086682
 31
0.0
  0
LINE
  5
2DA3
330
309C
100
AcDbEntity
  8
AM_0
100
AcDbLine
 10
424.6461215565719
 20
940.6417420866835
 30
0.0
 11
424.6461215565719
 21
1087.315802086683
 31
0.0
  0
LINE
  5
2DA4
330
309C
100
AcDbEntity
  8
AM_0
100
AcDbLine
 10
409.8035315565716
 20
1065.569402086683
 30
0.0
 11
419.9886515565719
 21
1066.268802086683
 31
0.0
  0
LINE
  5
2DA5
330
309C
100
AcDbEntity
  8
AM_0
100
AcDbLine
 10
383.1461615565718
 20
1018.939102086683
 30
0.0
 11
383.1461615565718
 21
992.4175020866837
 31
0.0
  0
LINE
  5
2DA6
330
309C
100
AcDbEntity
  8
AM_0
100
AcDbLine
 10
383.1461615565718
 20
992.4175020866837
 30
0.0
 11
405.1461215565716
 21
992.4175020866837
 31
0.0
  0
ARC
  5
2DA7
330
309C
100
AcDbEntity
  8
AM_0
100
AcDbCircle
 10
395.1461215565718
 20
1043.636702086683
 30
0.0
 40
10.0
100
AcDbArc
 50
271.9999999999971
 51
0.0
  0
LINE
  5
2DA8
330
309C
100
AcDbEntity
  8
AM_0
100
AcDbLine
 10
381.1460615565717
 20
1033.141702086682
 30
0.0
 11
395.4951215565716
 21
1033.642802086683
 31
0.0
  0
LINE
  5
2DA9
330
309C
100
AcDbEntity
  8
AM_0
100
AcDbLine
 10
383.1461615565718
 20
1018.939102086683
 30
0.0
 11
405.1461215565716
 21
1018.939102086683
 31
0.0
  0
LINE
  5
2DAA
330
309C
100
AcDbEntity
  8
AM_0
100
AcDbLine
 10
383.1461615565718
 20
1008.647802086683
 30
0.0
 11
405.1461215565716
 21
1008.647802086683
 31
0.0
  0
ARC
  5
2DAB
330
309C
100
AcDbEntity
  8
AM_0
100
AcDbCircle
 10
410.1461215565718
 20
1060.581102086682
 30
0.0
 40
5.0
100
AcDbArc
 50
93.92876800000069
 51
180.0000100000009
  0
LINE
  5
2DAC
330
309C
100
AcDbEntity
  8
AM_0
100
AcDbLine
 10
454.6461215565718
 20
987.6703020866838
 30
0.0
 11
454.6461215565718
 21
1027.585802086683
 31
0.0
  0
ARC
  5
2DAD
330
309C
100
AcDbEntity
  8
AM_0
100
AcDbCircle
 10
459.6461215565716
 20
935.6417420866835
 30
0.0
 40
5.0
100
AcDbArc
 50
270.0
 51
90.00000299999769
  0
ARC
  5
2DAE
330
309C
100
AcDbEntity
  8
AM_0
100
AcDbCircle
 10
439.6461215565718
 20
935.6417420866835
 30
0.0
 40
12.5
100
AcDbArc
 50
203.5781799999973
 51
336.4218300000007
  0
ARC
  5
2DAF
330
309C
100
AcDbEntity
  8
AM_0
100
AcDbCircle
 10
439.6461215565718
 20
935.6417420866835
 30
0.0
 40
12.5
100
AcDbArc
 50
23.57817999999753
 51
156.4218200000024
  0
LINE
  5
2DB0
330
309C
100
AcDbEntity
  8
AM_0
100
AcDbLine
 10
419.6461215565718
 20
940.6417420866835
 30
0.0
 11
459.6461215565716
 21
940.6417420866835
 31
0.0
  0
LINE
  5
2DB1
330
309C
100
AcDbEntity
  8
AM_0
100
AcDbLine
 10
419.6461215565718
 20
930.6417420866834
 30
0.0
 11
459.6461215565716
 21
930.6417420866834
 31
0.0
  0
ARC
  5
2DB2
330
309C
100
AcDbEntity
  8
AM_0
100
AcDbCircle
 10
419.6461215565718
 20
935.6417420866835
 30
0.0
 40
5.0
100
AcDbArc
 50
90.00000299999769
 51
270.0
  0
LINE
  5
2DB3
330
309C
100
AcDbEntity
  8
AM_0
100
AcDbLine
 10
429.6461215565718
 20
984.6703020866836
 30
0.0
 11
451.6461215565718
 21
984.6703020866836
 31
0.0
  0
ARC
  5
2DB4
330
309C
100
AcDbEntity
  8
AM_0
100
AcDbCircle
 10
429.6461215565718
 20
979.6703020866832
 30
0.0
 40
5.0
100
AcDbArc
 50
90.00000299999769
 51
180.0000100000009
  0
ARC
  5
2DB5
330
309C
100
AcDbEntity
  8
AM_0
100
AcDbCircle
 10
451.6461215565718
 20
987.6703020866838
 30
0.0
 40
3.0
100
AcDbArc
 50
270.0
 51
0.0
  0
LINE
  5
2DB6
330
309C
100
AcDbEntity
  8
AM_0
100
AcDbLine
 10
429.6461215565718
 20
1030.585802086683
 30
0.0
 11
451.6461215565718
 21
1030.585802086683
 31
0.0
  0
ARC
  5
2DB7
330
309C
100
AcDbEntity
  8
AM_0
100
AcDbCircle
 10
429.6461215565718
 20
1035.585802086683
 30
0.0
 40
5.0
100
AcDbArc
 50
180.0000100000009
 51
270.0
  0
ARC
  5
2DB8
330
309C
100
AcDbEntity
  8
AM_0
100
AcDbCircle
 10
451.6461215565718
 20
1027.585802086683
 30
0.0
 40
3.0
100
AcDbArc
 50
0.0
 51
90.00000299999769
  0
LINE
  5
2DB9
330
309C
100
AcDbEntity
  8
AM_0
100
AcDbLine
 10
429.6461215565718
 20
1077.068002086683
 30
0.0
 11
452.6461215565718
 21
1077.068002086683
 31
0.0
  0
LINE
  5
2DBA
330
309C
100
AcDbEntity
  8
AM_0
100
AcDbLine
 10
429.6461215565718
 20
1071.552302086683
 30
0.0
 11
452.6461215565718
 21
1071.552302086683
 31
0.0
  0
ARC
  5
2DBB
330
309C
100
AcDbEntity
  8
AM_0
100
AcDbCircle
 10
429.6461215565718
 20
1082.068002086683
 30
0.0
 40
5.0
100
AcDbArc
 50
180.0000100000009
 51
270.0
  0
ARC
  5
2DBC
330
309C
100
AcDbEntity
  8
AM_0
100
AcDbCircle
 10
429.6461215565718
 20
1066.552302086683
 30
0.0
 40
5.0
100
AcDbArc
 50
90.00000299999769
 51
180.0000100000009
  0
ARC
  5
2DBD
330
309C
100
AcDbEntity
  8
AM_0
100
AcDbCircle
 10
419.6461215565718
 20
1071.257102086683
 30
0.0
 40
5.0
100
AcDbArc
 50
273.9287600000013
 51
0.0
  0
ARC
  5
2DBE
330
309C
100
AcDbEntity
  8
AM_0
100
AcDbCircle
 10
452.6461215565718
 20
1075.068002086683
 30
0.0
 40
2.0
100
AcDbArc
 50
0.0
 51
90.00000299999769
  0
ARC
  5
2DBF
330
309C
100
AcDbEntity
  8
AM_0
100
AcDbCircle
 10
452.6461215565718
 20
1073.552302086683
 30
0.0
 40
2.0
100
AcDbArc
 50
270.0
 51
0.0
  0
LINE
  5
2DC0
330
309C
100
AcDbEntity
  8
AM_0
100
AcDbLine
 10
454.6461215565718
 20
1073.552302086683
 30
0.0
 11
454.6461215565718
 21
1075.068002086683
 31
0.0
  0
LINE
  5
2DC1
330
309C
100
AcDbEntity
  8
AM_0
100
AcDbLine
 10
494.6461215565718
 20
1094.588802086682
 30
0.0
 11
429.4715615565718
 21
1092.312802086683
 31
0.0
  0
ARC
  5
2DC2
330
309C
100
AcDbEntity
  8
AM_0
100
AcDbCircle
 10
429.6461215565718
 20
1087.315802086683
 30
0.0
 40
5.0
100
AcDbArc
 50
91.99999800000055
 51
180.0000100000009
  0
LINE
  5
2DC3
330
309C
100
AcDbEntity
  8
AM_0
100
AcDbLine
 10
608.1461215565719
 20
1100.641702086682
 30
0.0
 11
598.3194815565719
 21
1071.736202086683
 31
0.0
  0
ARC
  5
2DC4
330
309C
100
AcDbEntity
  8
AM_0
100
AcDbCircle
 10
610.1461215565717
 20
1086.200602086682
 30
0.0
 40
2.0
100
AcDbArc
 50
179.9999899999988
 51
270.0
  0
LINE
  5
2DC5
330
309C
100
AcDbEntity
  8
AM_0
100
AcDbLine
 10
610.1461215565717
 20
1084.200602086682
 30
0.0
 11
615.1461215565717
 21
1084.200602086682
 31
0.0
  0
LINE
  5
2DC6
330
309C
100
AcDbEntity
  8
AM_0
100
AcDbLine
 10
608.1461215565719
 20
1021.913102086683
 30
0.0
 11
615.1461215565717
 21
1021.913102086683
 31
0.0
  0
LINE
  5
2DC7
330
309C
100
AcDbEntity
  8
AM_0
100
AcDbLine
 10
605.7783215565716
 20
1076.354402086683
 30
0.0
 11
549.5138615565718
 21
1041.516002086683
 31
0.0
  0
LINE
  5
2DC8
330
309C
100
AcDbEntity
  8
AM_0
100
AcDbLine
 10
605.7782615565717
 20
1064.388802086683
 30
0.0
 11
550.8412515565717
 21
1030.372502086682
 31
0.0
  0
LINE
  5
2DC9
330
309C
100
AcDbEntity
  8
AM_0
100
AcDbLine
 10
552.1461215565717
 20
1028.084402086683
 30
0.0
 11
582.9863915565717
 21
1028.084402086683
 31
0.0
  0
ARC
  5
2DCA
330
309C
100
AcDbEntity
  8
AM_0
100
AcDbCircle
 10
552.1461215565717
 20
1037.264902086682
 30
0.0
 40
5.0
100
AcDbArc
 50
121.7653600000025
 51
180.0000100000009
  0
ARC
  5
2DCB
330
309C
100
AcDbEntity
  8
AM_0
100
AcDbCircle
 10
552.1461215565717
 20
1033.084402086683
 30
0.0
 40
5.0
100
AcDbArc
 50
179.9999899999988
 51
270.0
  0
LINE
  5
2DCC
330
309C
100
AcDbEntity
  8
AM_0
100
AcDbLine
 10
547.1461215565717
 20
1037.264902086682
 30
0.0
 11
547.1461215565717
 21
1033.084402086683
 31
0.0
  0
LINE
  5
2DCD
330
309C
100
AcDbEntity
  8
AM_0
100
AcDbLine
 10
608.1461815565718
 20
1045.548502086682
 30
0.0
 11
585.9683315565717
 21
1029.070802086683
 31
0.0
  0
ARC
  5
2DCE
330
309C
100
AcDbEntity
  8
AM_0
100
AcDbCircle
 10
582.9863915565717
 20
1033.084402086683
 30
0.0
 40
5.0
100
AcDbArc
 50
270.0
 51
306.6115000000011
  0
ARC
  5
2DCF
330
309C
100
AcDbEntity
  8
AM_0
100
AcDbCircle
 10
603.1461215565719
 20
1080.605402086682
 30
0.0
 40
5.0
100
AcDbArc
 50
301.7653699999957
 51
0.0
  0
ARC
  5
2DD0
330
309C
100
AcDbEntity
  8
AM_0
100
AcDbCircle
 10
667.1461215565718
 20
935.6417420866835
 30
0.0
 40
9.0
100
AcDbArc
 50
90.00000299999769
 51
270.0
  0
LINE
  5
2DD1
330
309C
100
AcDbEntity
  8
AM_0
100
AcDbLine
 10
638.1461215565717
 20
968.1417020866835
 30
0.0
 11
643.1461215565717
 21
968.1417020866835
 31
0.0
  0
LINE
  5
2DD2
330
309C
100
AcDbEntity
  8
AM_0
100
AcDbLine
 10
667.1461215565718
 20
944.6417420866835
 30
0.0
 11
667.1461215565718
 21
926.6417420866835
 31
0.0
  0
ARC
  5
2DD3
330
309C
100
AcDbEntity
  8
AM_0
100
AcDbCircle
 10
615.1461215565717
 20
1019.913102086682
 30
0.0
 40
2.0
100
AcDbArc
 50
0.0
 51
90.00000299999769
  0
ARC
  5
2DD4
330
309C
100
AcDbEntity
  8
AM_0
100
AcDbCircle
 10
615.1461215565717
 20
1082.200602086682
 30
0.0
 40
2.0
100
AcDbArc
 50
0.0
 51
90.00000299999769
  0
LINE
  5
2DD5
330
309C
100
AcDbEntity
  8
AM_0
100
AcDbLine
 10
611.1461215565717
 20
1120.641702086682
 30
0.0
 11
633.1461215565719
 21
1120.641702086682
 31
0.0
  0
ARC
  5
2DD6
330
309C
100
AcDbEntity
  8
AM_0
100
AcDbCircle
 10
603.1461215565719
 20
1103.380802086682
 30
0.0
 40
5.0
100
AcDbArc
 50
271.9999999999971
 51
0.0
  0
ARC
  5
2DD7
330
309C
100
AcDbEntity
  8
AM_0
100
AcDbCircle
 10
611.1461215565717
 20
1117.641702086682
 30
0.0
 40
3.0
100
AcDbArc
 50
90.00000299999769
 51
180.0000100000009
  0
LINE
  5
2DD8
330
309C
100
AcDbEntity
  8
AM_0
100
AcDbLine
 10
633.1461215565719
 20
1090.641702086682
 30
0.0
 11
638.1461215565717
 21
1090.641702086682
 31
0.0
  0
LINE
  5
2DD9
330
309C
100
AcDbEntity
  8
AM_0
100
AcDbLine
 10
748.1461215565715
 20
965.6417020866831
 30
0.0
 11
748.1461215565715
 21
905.6417420866834
 31
0.0
  0
TEXT
  5
2FBF
330
309C
100
AcDbEntity
  8
AM_0
100
AcDbText
 10
886.703821426162
 20
968.7194373164102
 30
0.0
 40
20.0
  1
VX37-080GF~VX37-120GF
100
AcDbText
  0
LINE
  5
31C0
330
309C
100
AcDbEntity
  8
AM_0
100
AcDbLine
 10
238.1445215565715
 20
398.5957146603677
 30
0.0
 11
206.1445215565717
 21
398.5957146603677
 31
0.0
  0
ENDSEC
  0
SECTION
  2
OBJECTS
  0
DICTIONARY
  5
3039
330
0
100
AcDbDictionary
281
     1
  3
ACAD_CIP_PREVIOUS_PRODUCT_INFO
350
3156
  3
ACAD_COLOR
350
308F
  3
ACAD_DETAILVIEWSTYLE
350
3096
  3
ACAD_FIELDLIST
350
31A0
  3
ACAD_GROUP
350
303A
  3
ACAD_LAYOUT
350
308E
  3
ACAD_MATERIAL
350
303D
  3
ACAD_MLEADERSTYLE
350
3092
  3
ACAD_MLINESTYLE
350
308B
  3
ACAD_PLOTSETTINGS
350
308D
  3
ACAD_PLOTSTYLENAME
350
303B
  3
ACAD_SCALELIST
350
306F
  3
ACAD_SECTIONVIEWSTYLE
350
3094
  3
ACAD_TABLESTYLE
350
3090
  3
ACAD_VISUALSTYLE
350
3056
  3
ACDB_RECOMPOSE_DATA
350
32B5
  3
AcDbVariableDictionary
350
32A9
  3
AcDsDecomposeData
350
32BB
  3
AcmDictionary
350
317C
  3
AMG
350
3157
  3
AMGSNAPSETTINGS
350
31B8
  0
DICTIONARY
  5
32A3
330
302F
100
AcDbDictionary
280
     1
281
     1
  3
ACAD_LAYERSTATES
360
32A4
  0
DICTIONARY
  5
3296
330
3081
100
AcDbDictionary
280
     1
281
     1
  3
ADSK_XREC_LAYER_RECONCILED
360
3297
  0
DICTIONARY
  5
3298
330
30A0
100
AcDbDictionary
280
     1
281
     1
  3
ADSK_XREC_LAYER_RECONCILED
360
3299
  0
DICTIONARY
  5
329A
330
30BA
100
AcDbDictionary
280
     1
281
     1
  3
ADSK_XREC_LAYER_RECONCILED
360
329B
  0
DICTIONARY
  5
329C
330
30BC
100
AcDbDictionary
280
     1
281
     1
  3
ADSK_XREC_LAYER_RECONCILED
360
329D
  0
DICTIONARY
  5
329E
330
30BD
100
AcDbDictionary
280
     1
281
     1
  3
ADSK_XREC_LAYER_RECONCILED
360
329F
  0
XRECORD
  5
3156
102
{ACAD_REACTORS
330
3039
102
}
330
3039
100
AcDbXrecord
280
     1
300
AMECH_PP
300
2019
300

  0
DICTIONARY
  5
308F
102
{ACAD_REACTORS
330
3039
102
}
330
3039
100
AcDbDictionary
281
     1
  0
DICTIONARY
  5
3096
102
{ACAD_REACTORS
330
3039
102
}
330
3039
100
AcDbDictionary
281
     1
  3
Imperial24
350
3097
  0
FIELDLIST
  5
31A0
102
{ACAD_REACTORS
330
3039
102
}
330
3039
100
AcDbIdSet
 90
        8
330
319E
330
319F
330
31A1
330
31A2
330
31A6
330
31A7
330
31A8
330
31A9
100
AcDbFieldList
  0
DICTIONARY
  5
303A
102
{ACAD_REACTORS
330
3039
102
}
330
3039
100
AcDbDictionary
281
     1
  0
DICTIONARY
  5
308E
102
{ACAD_REACTORS
330
3039
102
}
330
3039
100
AcDbDictionary
281
     1
  3
Model
350
309F
  3
レイアウト1
350
309B
  0
DICTIONARY
  5
303D
102
{ACAD_REACTORS
330
3039
102
}
330
3039
100
AcDbDictionary
281
     1
  3
ByBlock
350
3046
  3
ByLayer
350
303E
  3
Global
350
304E
  0
DICTIONARY
  5
3092
102
{ACAD_REACTORS
330
3039
102
}
330
3039
100
AcDbDictionary
281
     1
  3
Standard
350
3093
  0
DICTIONARY
  5
308B
102
{ACAD_REACTORS
330
3039
102
}
330
3039
100
AcDbDictionary
281
     1
  3
Standard
350
308C
  0
DICTIONARY
  5
308D
102
{ACAD_REACTORS
330
3039
102
}
330
3039
100
AcDbDictionary
281
     1
  0
ACDBDICTIONARYWDFLT
  5
303B
102
{ACAD_REACTORS
330
3039
102
}
330
3039
100
AcDbDictionary
281
     1
  3
Normal
350
303C
100
AcDbDictionaryWithDefault
340
303C
  0
DICTIONARY
  5
306F
102
{ACAD_REACTORS
330
3039
102
}
330
3039
100
AcDbDictionary
281
     1
  3
A0
350
3070
  3
A1
350
3071
  3
A2
350
3072
  3
A3
350
3073
  3
A4
350
3074
  3
A5
350
3075
  3
A6
350
3076
  3
A7
350
3077
  3
A8
350
3078
  3
A9
350
3079
  3
B0
350
307A
  3
B1
350
307B
  3
B2
350
307C
  3
B3
350
307D
  3
B4
350
307E
  3
B5
350
307F
  3
B6
350
3080
  0
DICTIONARY
  5
3094
102
{ACAD_REACTORS
330
3039
102
}
330
3039
100
AcDbDictionary
281
     1
  3
Imperial24
350
3095
  0
DICTIONARY
  5
3090
102
{ACAD_REACTORS
330
3039
102
}
330
3039
100
AcDbDictionary
281
     1
  3
Standard
350
3091
  0
DICTIONARY
  5
3056
102
{ACAD_REACTORS
330
3039
102
}
330
3039
100
AcDbDictionary
281
     1
  3
2dWireframe
350
305C
  3
Basic
350
305B
  3
Brighten
350
3062
  3
ColorChange
350
3066
  3
Conceptual
350
305F
  3
Dim
350
3061
  3
EdgeColorOff
350
306E
  3
Facepattern
350
3065
  3
Flat
350
3057
  3
FlatWithEdges
350
3058
  3
Gouraud
350
3059
  3
GouraudWithEdges
350
305A
  3
Hidden
350
305E
  3
JitterOff
350
306C
  3
Linepattern
350
3064
  3
OverhangOff
350
306D
  3
Realistic
350
3060
  3
Shaded
350
306B
  3
Shaded with edges
350
306A
  3
Shades of Gray
350
3067
  3
Sketchy
350
3068
  3
Thicken
350
3063
  3
Wireframe
350
305D
  3
X-Ray
350
3069
  0
XRECORD
  5
32B5
102
{ACAD_REACTORS
330
3039
102
}
330
3039
100
AcDbXrecord
280
     1
 90
        1
330
3091
  0
DICTIONARY
  5
32A9
102
{ACAD_REACTORS
330
3039
102
}
330
3039
100
AcDbDictionary
281
     1
  3
CANNOSCALE
350
32AF
  3
CMLEADERSTYLE
350
32AB
  3
CTABLESTYLE
350
32AA
  3
CVIEWDETAILSTYLE
350
32AC
  3
CVIEWSECTIONSTYLE
350
32AD
  3
LAYEREVAL
350
32B1
  3
LAYERNOTIFY
350
32B2
  3
LIGHTINGUNITS
350
32B0
  3
MSLTSCALE
350
32AE
  0
DICTIONARY
  5
32BB
102
{ACAD_REACTORS
330
3039
102
}
330
3039
100
AcDbDictionary
281
     1
  3
AcDsRecords
350
32BD
  3
AcDsSchemas
350
32BC
1001
ACAD
1070
     2
  0
DICTIONARY
  5
317C
102
{ACAD_REACTORS
330
3039
102
}
330
3039
100
AcDbDictionary
281
     1
  3
AcmStdDictionary
350
3185
  0
DICTIONARY
  5
3157
102
{ACAD_REACTORS
330
3039
102
}
330
3039
100
AcDbDictionary
281
     1
  0
DICTIONARY
  5
31B8
102
{ACAD_REACTORS
330
3039
102
}
330
3039
100
AcDbDictionary
281
     1
  0
DICTIONARY
  5
32A4
102
{ACAD_REACTORS
330
32A3
102
}
330
32A3
100
AcDbDictionary
281
     1
  0
XRECORD
  5
3297
102
{ACAD_REACTORS
330
3296
102
}
330
3296
100
AcDbXrecord
280
     1
290
     1
  0
XRECORD
  5
3299
102
{ACAD_REACTORS
330
3298
102
}
330
3298
100
AcDbXrecord
280
     1
290
     1
  0
XRECORD
  5
329B
102
{ACAD_REACTORS
330
329A
102
}
330
329A
100
AcDbXrecord
280
     1
290
     1
  0
XRECORD
  5
329D
102
{ACAD_REACTORS
330
329C
102
}
330
329C
100
AcDbXrecord
280
     1
290
     1
  0
XRECORD
  5
329F
102
{ACAD_REACTORS
330
329E
102
}
330
329E
100
AcDbXrecord
280
     1
290
     1
  0
ACDBDETAILVIEWSTYLE
  5
3097
102
{ACAD_XDICTIONARY
360
32F0
102
}
102
{ACAD_REACTORS
330
3096
330
319A
102
}
330
3096
100
AcDbModelDocViewStyle
 70
     0
  3
Imperial24
290
     0
100
AcDbDetailViewStyle
 70
     0
 71
     0
 90
        3
 71
     1
340
3082
 62
   256
 40
0.24
340
0
 62
   256
 40
0.24
300

 40
0.36
280
     3
 71
     2
340
3089
 90
       25
 62
   256
 71
     3
340
3082
 62
   256
 40
0.24
 90
        1
 40
0.75
 90
        1
300
%<\AcVar ViewType \f "%tc1">% %<\AcVar ViewDetailId>%\PSCALE %<\AcVar ViewScale \f "%sn">%
 71
     4
340
3089
 90
       25
 62
   256
340
3089
 90
       25
 62
   256
280
     0
  0
LAYOUT
  5
309F
102
{ACAD_REACTORS
330
308E
102
}
330
308E
100
AcDbPlotSettings
  1

  2
JUST PDF 3
  4

  6

 40
0.0
 41
0.0
 42
0.0
 43
0.0
 44
0.0
 45
0.0
 46
0.0
 47
0.0
 48
0.0
 49
0.0
140
0.0
141
0.0
142
1.0
143
1.0
 70
  1712
 72
     0
 73
     0
 74
     0
  7

 75
     0
147
1.0
 76
     0
 77
     2
 78
   300
148
0.0
149
0.0
100
AcDbLayout
  1
Model
 70
     1
 71
     0
 10
0.0
 20
0.0
 11
12.0
 21
9.0
 12
0.0
 22
0.0
 32
0.0
 14
0.0
 24
0.0
 34
0.0
 15
0.0
 25
0.0
 35
0.0
146
0.0
 13
0.0
 23
0.0
 33
0.0
 16
1.0
 26
0.0
 36
0.0
 17
0.0
 27
1.0
 37
0.0
 76
     0
330
309C
331
30A1
  0
LAYOUT
  5
309B
102
{ACAD_REACTORS
330
308E
102
}
330
308E
100
AcDbPlotSettings
  1

  2
JUST PDF 3
  4

  6

 40
0.0
 41
0.0
 42
0.0
 43
0.0
 44
0.0
 45
0.0
 46
0.0
 47
0.0
 48
0.0
 49
0.0
140
0.0
141
0.0
142
1.0
143
1.0
 70
   688
 72
     0
 73
     0
 74
     5
  7

 75
    16
147
1.0
 76
     0
 77
     2
 78
   300
148
0.0
149
0.0
100
AcDbLayout
  1
レイアウト1
 70
     1
 71
     1
 10
0.0
 20
0.0
 11
420.0
 21
297.0
 12
0.0
 22
0.0
 32
0.0
 14
1.000000000000000E+20
 24
1.000000000000000E+20
 34
1.000000000000000E+20
 15
-1.000000000000000E+20
 25
-1.000000000000000E+20
 35
-1.000000000000000E+20
146
0.0
 13
0.0
 23
0.0
 33
0.0
 16
1.0
 26
0.0
 36
0.0
 17
0.0
 27
1.0
 37
0.0
 76
     0
330
3098
  0
MATERIAL
  5
3046
102
{ACAD_XDICTIONARY
360
3047
102
}
102
{ACAD_REACTORS
330
303D
102
}
330
303D
100
AcDbMaterial
  1
ByBlock
 72
     0
 43
0.0208333333333333
 43
0.0
 43
0.0
 43
0.0
 43
0.0
 43
0.0208333333333333
 43
0.0
 43
0.0
 43
0.0
 43
0.0
 43
1.0
 43
0.0
 43
0.0
 43
0.0
 43
0.0
 43
1.0
 77
     0
 47
0.0208333333333333
 47
0.0
 47
0.0
 47
0.0
 47
0.0
 47
0.0208333333333333
 47
0.0
 47
0.0
 47
0.0
 47
0.0
 47
1.0
 47
0.0
 47
0.0
 47
0.0
 47
0.0
 47
1.0
171
     0
 49
0.0208333333333333
 49
0.0
 49
0.0
 49
0.0
 49
0.0
 49
0.0208333333333333
 49
0.0
 49
0.0
 49
0.0
 49
0.0
 49
1.0
 49
0.0
 49
0.0
 49
0.0
 49
0.0
 49
1.0
175
     0
142
0.0208333333333333
142
0.0
142
0.0
142
0.0
142
0.0
142
0.0208333333333333
142
0.0
142
0.0
142
0.0
142
0.0
142
1.0
142
0.0
142
0.0
142
0.0
142
0.0
142
1.0
179
     0
144
0.0208333333333333
144
0.0
144
0.0
144
0.0
144
0.0
144
0.0208333333333333
144
0.0
144
0.0
144
0.0
144
0.0
144
1.0
144
0.0
144
0.0
144
0.0
144
0.0
144
1.0
147
0.0208333333333333
147
0.0
147
0.0
147
0.0
147
0.0
147
0.0208333333333333
147
0.0
147
0.0
147
0.0
147
0.0
147
1.0
147
0.0
147
0.0
147
0.0
147
0.0
147
1.0
  0
MATERIAL
  5
303E
102
{ACAD_XDICTIONARY
360
303F
102
}
102
{ACAD_REACTORS
330
303D
102
}
330
303D
100
AcDbMaterial
  1
ByLayer
 72
     0
 43
0.0208333333333333
 43
0.0
 43
0.0
 43
0.0
 43
0.0
 43
0.0208333333333333
 43
0.0
 43
0.0
 43
0.0
 43
0.0
 43
1.0
 43
0.0
 43
0.0
 43
0.0
 43
0.0
 43
1.0
 77
     0
 47
0.0208333333333333
 47
0.0
 47
0.0
 47
0.0
 47
0.0
 47
0.0208333333333333
 47
0.0
 47
0.0
 47
0.0
 47
0.0
 47
1.0
 47
0.0
 47
0.0
 47
0.0
 47
0.0
 47
1.0
171
     0
 49
0.0208333333333333
 49
0.0
 49
0.0
 49
0.0
 49
0.0
 49
0.0208333333333333
 49
0.0
 49
0.0
 49
0.0
 49
0.0
 49
1.0
 49
0.0
 49
0.0
 49
0.0
 49
0.0
 49
1.0
175
     0
142
0.0208333333333333
142
0.0
142
0.0
142
0.0
142
0.0
142
0.0208333333333333
142
0.0
142
0.0
142
0.0
142
0.0
142
1.0
142
0.0
142
0.0
142
0.0
142
0.0
142
1.0
179
     0
144
0.0208333333333333
144
0.0
144
0.0
144
0.0
144
0.0
144
0.0208333333333333
144
0.0
144
0.0
144
0.0
144
0.0
144
1.0
144
0.0
144
0.0
144
0.0
144
0.0
144
1.0
147
0.0208333333333333
147
0.0
147
0.0
147
0.0
147
0.0
147
0.0208333333333333
147
0.0
147
0.0
147
0.0
147
0.0
147
1.0
147
0.0
147
0.0
147
0.0
147
0.0
147
1.0
  0
MATERIAL
  5
304E
102
{ACAD_XDICTIONARY
360
304F
102
}
102
{ACAD_REACTORS
330
303D
102
}
330
303D
100
AcDbMaterial
  1
Global
 72
     0
 43
0.0208333333333333
 43
0.0
 43
0.0
 43
0.0
 43
0.0
 43
0.0208333333333333
 43
0.0
 43
0.0
 43
0.0
 43
0.0
 43
1.0
 43
0.0
 43
0.0
 43
0.0
 43
0.0
 43
1.0
 77
     0
 47
0.0208333333333333
 47
0.0
 47
0.0
 47
0.0
 47
0.0
 47
0.0208333333333333
 47
0.0
 47
0.0
 47
0.0
 47
0.0
 47
1.0
 47
0.0
 47
0.0
 47
0.0
 47
0.0
 47
1.0
171
     0
 49
0.0208333333333333
 49
0.0
 49
0.0
 49
0.0
 49
0.0
 49
0.0208333333333333
 49
0.0
 49
0.0
 49
0.0
 49
0.0
 49
1.0
 49
0.0
 49
0.0
 49
0.0
 49
0.0
 49
1.0
175
     0
142
0.0208333333333333
142
0.0
142
0.0
142
0.0
142
0.0
142
0.0208333333333333
142
0.0
142
0.0
142
0.0
142
0.0
142
1.0
142
0.0
142
0.0
142
0.0
142
0.0
142
1.0
179
     0
144
0.0208333333333333
144
0.0
144
0.0
144
0.0
144
0.0
144
0.0208333333333333
144
0.0
144
0.0
144
0.0
144
0.0
144
1.0
144
0.0
144
0.0
144
0.0
144
0.0
144
1.0
147
0.0208333333333333
147
0.0
147
0.0
147
0.0
147
0.0
147
0.0208333333333333
147
0.0
147
0.0
147
0.0
147
0.0
147
1.0
147
0.0
147
0.0
147
0.0
147
0.0
147
1.0
  0
MLEADERSTYLE
  5
3093
102
{ACAD_REACTORS
330
3092
102
}
330
3092
100
AcDbMLeaderStyle
179
     2
170
     2
171
     1
172
     0
 90
        2
 40
0.0
 41
0.0
173
     1
 91
-1056964608
340
3087
 92
       -2
290
     1
 42
0.09
291
     1
 43
0.36
  3
Standard
 44
0.18
300

342
3082
174
     1
178
     6
175
     1
176
     0
 93
-1056964608
 45
0.18
292
     0
297
     0
 46
0.18
 94
-1056964608
 47
1.0
 49
1.0
140
1.0
293
     1
141
0.0
294
     1
177
     0
142
1.0
295
     0
296
     0
143
0.125
271
     0
272
     9
273
     9
  0
MLINESTYLE
  5
308C
102
{ACAD_REACTORS
330
308B
102
}
330
308B
100
AcDbMlineStyle
  2
STANDARD
 70
     0
  3

 62
   256
 51
90.0
 52
90.0
 71
     2
 49
0.5
 62
   256
  6
BYLAYER
 49
-0.5
 62
   256
  6
BYLAYER
  0
ACDBPLACEHOLDER
  5
303C
102
{ACAD_REACTORS
330
303B
102
}
330
303B
  0
SCALE
  5
3070
102
{ACAD_REACTORS
330
306F
102
}
330
306F
100
AcDbScale
 70
     0
300
1:1
140
1.0
141
1.0
290
     1
  0
SCALE
  5
3071
102
{ACAD_REACTORS
330
306F
102
}
330
306F
100
AcDbScale
 70
     0
300
1/128" = 1'-0"
140
0.0078125
141
12.0
290
     0
  0
SCALE
  5
3072
102
{ACAD_REACTORS
330
306F
102
}
330
306F
100
AcDbScale
 70
     0
300
1/64" = 1'-0"
140
0.015625
141
12.0
290
     0
  0
SCALE
  5
3073
102
{ACAD_REACTORS
330
306F
102
}
330
306F
100
AcDbScale
 70
     0
300
1/32" = 1'-0"
140
0.03125
141
12.0
290
     0
  0
SCALE
  5
3074
102
{ACAD_REACTORS
330
306F
102
}
330
306F
100
AcDbScale
 70
     0
300
1/16" = 1'-0"
140
0.0625
141
12.0
290
     0
  0
SCALE
  5
3075
102
{ACAD_REACTORS
330
306F
102
}
330
306F
100
AcDbScale
 70
     0
300
3/32" = 1'-0"
140
0.09375
141
12.0
290
     0
  0
SCALE
  5
3076
102
{ACAD_REACTORS
330
306F
102
}
330
306F
100
AcDbScale
 70
     0
300
1/8" = 1'-0"
140
0.125
141
12.0
290
     0
  0
SCALE
  5
3077
102
{ACAD_REACTORS
330
306F
102
}
330
306F
100
AcDbScale
 70
     0
300
3/16" = 1'-0"
140
0.1875
141
12.0
290
     0
  0
SCALE
  5
3078
102
{ACAD_REACTORS
330
306F
102
}
330
306F
100
AcDbScale
 70
     0
300
1/4" = 1'-0"
140
0.25
141
12.0
290
     0
  0
SCALE
  5
3079
102
{ACAD_REACTORS
330
306F
102
}
330
306F
100
AcDbScale
 70
     0
300
3/8" = 1'-0"
140
0.375
141
12.0
290
     0
  0
SCALE
  5
307A
102
{ACAD_REACTORS
330
306F
102
}
330
306F
100
AcDbScale
 70
     0
300
1/2" = 1'-0"
140
0.5
141
12.0
290
     0
  0
SCALE
  5
307B
102
{ACAD_REACTORS
330
306F
102
}
330
306F
100
AcDbScale
 70
     0
300
3/4" = 1'-0"
140
0.75
141
12.0
290
     0
  0
SCALE
  5
307C
102
{ACAD_REACTORS
330
306F
102
}
330
306F
100
AcDbScale
 70
     0
300
1" = 1'-0"
140
1.0
141
12.0
290
     0
  0
SCALE
  5
307D
102
{ACAD_REACTORS
330
306F
102
}
330
306F
100
AcDbScale
 70
     0
300
1-1/2" = 1'-0"
140
1.5
141
12.0
290
     0
  0
SCALE
  5
307E
102
{ACAD_REACTORS
330
306F
102
}
330
306F
100
AcDbScale
 70
     0
300
3" = 1'-0"
140
3.0
141
12.0
290
     0
  0
SCALE
  5
307F
102
{ACAD_REACTORS
330
306F
102
}
330
306F
100
AcDbScale
 70
     0
300
6" = 1'-0"
140
6.0
141
12.0
290
     0
  0
SCALE
  5
3080
102
{ACAD_REACTORS
330
306F
102
}
330
306F
100
AcDbScale
 70
     0
300
1'-0" = 1'-0"
140
12.0
141
12.0
290
     0
  0
ACDBSECTIONVIEWSTYLE
  5
3095
102
{ACAD_XDICTIONARY
360
32EE
102
}
102
{ACAD_REACTORS
330
3094
330
3199
102
}
330
3094
100
AcDbModelDocViewStyle
 70
     0
  3
Imperial24
290
     0
100
AcDbSectionViewStyle
 70
     0
 71
     0
 90
       78
 71
     1
340
3082
 62
   256
 40
0.24
340
0
340
0
 62
   256
 40
0.24
300
I, O, Q, S, X, Z
 40
0.48
 90
        3
 40
0.18
 90
        1
 71
     2
340
3089
 90
       25
 62
   256
340
3089
 90
       50
 62
   256
 40
0.24
 40
0.0
 40
0.24
 71
     3
340
3082
 62
   256
 40
0.24
 90
        1
 40
0.75
 90
        1
300
%<\AcVar ViewType \f "%tc1">% %<\AcVar ViewSectionStartId>%-%<\AcVar ViewSectionEndId>%\PSCALE %<\AcVar ViewScale \f "%sn">%
 71
     4
 62
   256
 62
   257
300
ANSI31
 40
1.0
 90
        0
290
     0
290
     0
 90
        6
 40
0.0
 40
1.570796326794896
 40
0.2617993877991494
 40
1.308996938995747
 40
-0.2617993877991494
 40
1.832595714594046
  0
TABLESTYLE
  5
3091
102
{ACAD_XDICTIONARY
360
32B3
102
}
102
{ACAD_REACTORS
330
3090
102
}
330
3090
100
AcDbTableStyle
280
     0
  3
Standard
 70
     0
 71
     0
 40
0.06
 41
0.06
280
     0
281
     0
  7
STANDARD
140
0.18
170
     2
 62
     0
 63
     7
283
     0
 90
      512
 91
        0
  1

274
    -2
284
     1
 64
     0
275
    -2
285
     1
 65
     0
276
    -2
286
     1
 66
     0
277
    -2
287
     1
 67
     0
278
    -2
288
     1
 68
     0
279
    -2
289
     1
 69
     0
  7
STANDARD
140
0.25
170
     5
 62
     0
 63
     7
283
     0
 90
      512
 91
        0
  1

274
    -2
284
     1
 64
     0
275
    -2
285
     1
 65
     0
276
    -2
286
     1
 66
     0
277
    -2
287
     1
 67
     0
278
    -2
288
     1
 68
     0
279
    -2
289
     1
 69
     0
  7
STANDARD
140
0.18
170
     5
 62
     0
 63
     7
283
     0
 90
      512
 91
        0
  1

274
    -2
284
     1
 64
     0
275
    -2
285
     1
 65
     0
276
    -2
286
     1
 66
     0
277
    -2
287
     1
 67
     0
278
    -2
288
     1
 68
     0
279
    -2
289
     1
 69
     0
  0
VISUALSTYLE
  5
305C
102
{ACAD_XDICTIONARY
360
32C8
102
}
102
{ACAD_REACTORS
330
3056
102
}
330
3056
100
AcDbVisualStyle
  2
2dWireframe
 70
     4
177
     2
291
     0
 71
     0
176
     1
 72
     2
176
     1
 73
     0
176
     1
 90
        0
176
     1
 40
0.6
176
     1
 41
30.0
176
     1
 63
     7
421
 16777215
176
     1
 74
     1
176
     1
 91
        4
176
     1
 64
     7
176
     1
 65
   257
176
     1
 75
     1
176
     1
175
     1
176
     1
 42
1.0
176
     1
 92
        0
176
     1
 66
   257
176
     1
 43
1.0
176
     1
 76
     1
176
     1
 77
     6
176
     1
 78
     2
176
     1
 67
     7
176
     1
 79
     5
176
     1
170
     0
176
     1
171
     0
176
     1
290
     0
176
     1
 93
        1
176
     1
 44
0.0
176
     1
173
     0
176
     1
1001
ACAD
1000
AcDbSavedByObjectVersion
1070
     0
  0
VISUALSTYLE
  5
305B
102
{ACAD_XDICTIONARY
360
32C6
102
}
102
{ACAD_REACTORS
330
3056
102
}
330
3056
100
AcDbVisualStyle
  2
Basic
 70
     7
177
     2
291
     1
 71
     1
176
     1
 72
     0
176
     1
 73
     1
176
     1
 90
        0
176
     1
 40
0.6
176
     1
 41
30.0
176
     1
 63
     7
421
 16777215
176
     1
 74
     0
176
     1
 91
        4
176
     1
 64
     7
176
     1
 65
   257
176
     1
 75
     1
176
     1
175
     1
176
     1
 42
1.0
176
     1
 92
        8
176
     1
 66
     7
176
     1
 43
1.0
176
     1
 76
     1
176
     1
 77
     6
176
     1
 78
     2
176
     1
 67
     7
176
     1
 79
     5
176
     1
170
     0
176
     1
171
     0
176
     1
290
     0
176
     1
 93
        1
176
     1
 44
0.0
176
     1
173
     0
176
     1
1001
ACAD
1000
AcDbSavedByObjectVersion
1070
     0
  0
VISUALSTYLE
  5
3062
102
{ACAD_XDICTIONARY
360
32D4
102
}
102
{ACAD_REACTORS
330
3056
102
}
330
3056
100
AcDbVisualStyle
  2
Brighten
 70
    12
177
     2
291
     1
 71
     2
176
     1
 72
     2
176
     1
 73
     0
176
     1
 90
        0
176
     1
 40
0.6
176
     1
 41
30.0
176
     1
 63
     7
421
 16777215
176
     1
 74
     1
176
     1
 91
        4
176
     1
 64
     7
176
     1
 65
   257
176
     1
 75
     1
176
     1
175
     1
176
     1
 42
1.0
176
     1
 92
        8
176
     1
 66
     7
176
     1
 43
1.0
176
     1
 76
     1
176
     1
 77
     6
176
     1
 78
     2
176
     1
 67
     7
176
     1
 79
     5
176
     1
170
     0
176
     1
171
     0
176
     1
290
     0
176
     1
 93
        1
176
     1
 44
50.0
176
     1
173
     0
176
     1
1001
ACAD
1000
AcDbSavedByObjectVersion
1070
     0
  0
VISUALSTYLE
  5
3066
102
{ACAD_XDICTIONARY
360
32DC
102
}
102
{ACAD_REACTORS
330
3056
102
}
330
3056
100
AcDbVisualStyle
  2
ColorChange
 70
    16
177
     2
291
     1
 71
     2
176
     1
 72
     2
176
     1
 73
     3
176
     1
 90
        0
176
     1
 40
0.6
176
     1
 41
30.0
176
     1
 63
     8
421
  8421504
176
     1
 74
     1
176
     1
 91
        4
176
     1
 64
     7
176
     1
 65
   257
176
     1
 75
     1
176
     1
175
     1
176
     1
 42
1.0
176
     1
 92
        8
176
     1
 66
     8
424
  8421504
176
     1
 43
1.0
176
     1
 76
     1
176
     1
 77
     6
176
     1
 78
     2
176
     1
 67
     7
176
     1
 79
     5
176
     1
170
     0
176
     1
171
     0
176
     1
290
     0
176
     1
 93
        1
176
     1
 44
0.0
176
     1
173
     0
176
     1
1001
ACAD
1000
AcDbSavedByObjectVersion
1070
     0
  0
VISUALSTYLE
  5
305F
102
{ACAD_XDICTIONARY
360
32CE
102
}
102
{ACAD_REACTORS
330
3056
102
}
330
3056
100
AcDbVisualStyle
  2
Conceptual
 70
     9
177
     2
291
     0
 71
     3
176
     1
 72
     2
176
     1
 73
     0
176
     1
 90
        0
176
     1
 40
0.6
176
     1
 41
30.0
176
     1
 63
     7
421
 16777215
176
     1
 74
     2
176
     1
 91
        2
176
     1
 64
     7
176
     1
 65
   257
176
     1
 75
     1
176
     1
175
     1
176
     1
 42
179.0
176
     1
 92
        8
176
     1
 66
     7
176
     1
 43
1.0
176
     1
 76
     1
176
     1
 77
     6
176
     1
 78
     2
176
     1
 67
     7
176
     1
 79
     3
176
     1
170
     0
176
     1
171
     0
176
     1
290
     0
176
     1
 93
        1
176
     1
 44
0.0
176
     1
173
     0
176
     1
1001
ACAD
1000
AcDbSavedByObjectVersion
1070
     0
  0
VISUALSTYLE
  5
3061
102
{ACAD_XDICTIONARY
360
32D2
102
}
102
{ACAD_REACTORS
330
3056
102
}
330
3056
100
AcDbVisualStyle
  2
Dim
 70
    11
177
     2
291
     1
 71
     2
176
     1
 72
     2
176
     1
 73
     0
176
     1
 90
        0
176
     1
 40
0.6
176
     1
 41
30.0
176
     1
 63
     7
421
 16777215
176
     1
 74
     1
176
     1
 91
        4
176
     1
 64
     7
176
     1
 65
   257
176
     1
 75
     1
176
     1
175
     1
176
     1
 42
1.0
176
     1
 92
        8
176
     1
 66
     7
176
     1
 43
1.0
176
     1
 76
     1
176
     1
 77
     6
176
     1
 78
     2
176
     1
 67
     7
176
     1
 79
     5
176
     1
170
     0
176
     1
171
     0
176
     1
290
     0
176
     1
 93
        1
176
     1
 44
-50.0
176
     1
173
     0
176
     1
1001
ACAD
1000
AcDbSavedByObjectVersion
1070
     0
  0
VISUALSTYLE
  5
306E
102
{ACAD_XDICTIONARY
360
32EC
102
}
102
{ACAD_REACTORS
330
3056
102
}
330
3056
100
AcDbVisualStyle
  2
EdgeColorOff
 70
    22
177
     2
291
     1
 71
     2
176
     0
 72
     2
176
     0
 73
     0
176
     0
 90
        0
176
     0
 40
0.6
176
     0
 41
30.0
176
     0
 63
     7
421
 16777215
176
     0
 74
     1
176
     0
 91
        4
176
     0
 64
     7
176
     0
 65
   257
176
     0
 75
     1
176
     0
175
     1
176
     0
 42
1.0
176
     0
 92
        8
176
     2
 66
     7
176
     0
 43
1.0
176
     0
 76
     1
176
     0
 77
     6
176
     0
 78
     2
176
     0
 67
     7
176
     0
 79
     5
176
     0
170
     0
176
     0
171
     0
176
     0
290
     0
176
     0
 93
        1
176
     0
 44
0.0
176
     0
173
     0
176
     0
1001
ACAD
1000
AcDbSavedByObjectVersion
1070
     0
  0
VISUALSTYLE
  5
3065
102
{ACAD_XDICTIONARY
360
32DA
102
}
102
{ACAD_REACTORS
330
3056
102
}
330
3056
100
AcDbVisualStyle
  2
Facepattern
 70
    15
177
     2
291
     1
 71
     2
176
     1
 72
     2
176
     1
 73
     0
176
     1
 90
        0
176
     1
 40
0.6
176
     1
 41
30.0
176
     1
 63
     7
421
 16777215
176
     1
 74
     1
176
     1
 91
        4
176
     1
 64
     7
176
     1
 65
   257
176
     1
 75
     1
176
     1
175
     1
176
     1
 42
1.0
176
     1
 92
        8
176
     1
 66
     7
176
     1
 43
1.0
176
     1
 76
     1
176
     1
 77
     6
176
     1
 78
     2
176
     1
 67
     7
176
     1
 79
     5
176
     1
170
     0
176
     1
171
     0
176
     1
290
     0
176
     1
 93
        1
176
     1
 44
0.0
176
     1
173
     0
176
     1
1001
ACAD
1000
AcDbSavedByObjectVersion
1070
     0
  0
VISUALSTYLE
  5
3057
102
{ACAD_XDICTIONARY
360
32BE
102
}
102
{ACAD_REACTORS
330
3056
102
}
330
3056
100
AcDbVisualStyle
  2
Flat
 70
     0
177
     2
291
     1
 71
     2
176
     1
 72
     1
176
     1
 73
     1
176
     1
 90
        2
176
     1
 40
0.6
176
     1
 41
30.0
176
     1
 63
     7
421
 16777215
176
     1
 74
     0
176
     1
 91
        0
176
     1
 64
     7
176
     1
 65
   257
176
     1
 75
     1
176
     1
175
     1
176
     1
 42
1.0
176
     1
 92
        8
176
     1
 66
     7
176
     1
 43
1.0
176
     1
 76
     1
176
     1
 77
     6
176
     1
 78
     2
176
     1
 67
     7
176
     1
 79
     5
176
     1
170
     0
176
     1
171
     0
176
     1
290
     0
176
     1
 93
       13
176
     1
 44
0.0
176
     1
173
     0
176
     1
1001
ACAD
1000
AcDbSavedByObjectVersion
1070
     0
  0
VISUALSTYLE
  5
3058
102
{ACAD_XDICTIONARY
360
32C0
102
}
102
{ACAD_REACTORS
330
3056
102
}
330
3056
100
AcDbVisualStyle
  2
FlatWithEdges
 70
     1
177
     2
291
     1
 71
     2
176
     1
 72
     1
176
     1
 73
     1
176
     1
 90
        2
176
     1
 40
0.6
176
     1
 41
30.0
176
     1
 63
     7
421
 16777215
176
     1
 74
     1
176
     1
 91
        0
176
     1
 64
     7
176
     1
 65
   257
176
     1
 75
     1
176
     1
175
     1
176
     1
 42
1.0
176
     1
 92
        0
176
     1
 66
   257
176
     1
 43
1.0
176
     1
 76
     1
176
     1
 77
     6
176
     1
 78
     2
176
     1
 67
     7
176
     1
 79
     5
176
     1
170
     0
176
     1
171
     0
176
     1
290
     0
176
     1
 93
       13
176
     1
 44
0.0
176
     1
173
     0
176
     1
1001
ACAD
1000
AcDbSavedByObjectVersion
1070
     0
  0
VISUALSTYLE
  5
3059
102
{ACAD_XDICTIONARY
360
32C2
102
}
102
{ACAD_REACTORS
330
3056
102
}
330
3056
100
AcDbVisualStyle
  2
Gouraud
 70
     2
177
     2
291
     1
 71
     2
176
     1
 72
     2
176
     1
 73
     1
176
     1
 90
        2
176
     1
 40
0.6
176
     1
 41
30.0
176
     1
 63
     7
421
 16777215
176
     1
 74
     0
176
     1
 91
        0
176
     1
 64
     7
176
     1
 65
   257
176
     1
 75
     1
176
     1
175
     1
176
     1
 42
1.0
176
     1
 92
        0
176
     1
 66
     7
176
     1
 43
1.0
176
     1
 76
     1
176
     1
 77
     6
176
     1
 78
     2
176
     1
 67
     7
176
     1
 79
     5
176
     1
170
     0
176
     1
171
     0
176
     1
290
     0
176
     1
 93
       13
176
     1
 44
0.0
176
     1
173
     0
176
     1
1001
ACAD
1000
AcDbSavedByObjectVersion
1070
     0
  0
VISUALSTYLE
  5
305A
102
{ACAD_XDICTIONARY
360
32C4
102
}
102
{ACAD_REACTORS
330
3056
102
}
330
3056
100
AcDbVisualStyle
  2
GouraudWithEdges
 70
     3
177
     2
291
     1
 71
     2
176
     1
 72
     2
176
     1
 73
     1
176
     1
 90
        2
176
     1
 40
0.6
176
     1
 41
30.0
176
     1
 63
     7
421
 16777215
176
     1
 74
     1
176
     1
 91
        0
176
     1
 64
     7
176
     1
 65
   257
176
     1
 75
     1
176
     1
175
     1
176
     1
 42
1.0
176
     1
 92
        0
176
     1
 66
   257
176
     1
 43
1.0
176
     1
 76
     1
176
     1
 77
     6
176
     1
 78
     2
176
     1
 67
     7
176
     1
 79
     5
176
     1
170
     0
176
     1
171
     0
176
     1
290
     0
176
     1
 93
       13
176
     1
 44
0.0
176
     1
173
     0
176
     1
1001
ACAD
1000
AcDbSavedByObjectVersion
1070
     0
  0
VISUALSTYLE
  5
305E
102
{ACAD_XDICTIONARY
360
32CC
102
}
102
{ACAD_REACTORS
330
3056
102
}
330
3056
100
AcDbVisualStyle
  2
Hidden
 70
     6
177
     2
291
     0
 71
     1
176
     1
 72
     2
176
     1
 73
     2
176
     1
 90
        0
176
     1
 40
0.6
176
     1
 41
30.0
176
     1
 63
     7
421
 16777215
176
     1
 74
     2
176
     1
 91
        2
176
     1
 64
     7
176
     1
 65
   257
176
     1
 75
     2
176
     1
175
     1
176
     1
 42
40.0
176
     1
 92
        0
176
     1
 66
   257
176
     1
 43
1.0
176
     1
 76
     1
176
     1
 77
     6
176
     1
 78
     2
176
     1
 67
     7
176
     1
 79
     3
176
     1
170
     0
176
     1
171
     0
176
     1
290
     0
176
     1
 93
        1
176
     1
 44
0.0
176
     1
173
     0
176
     1
1001
ACAD
1000
AcDbSavedByObjectVersion
1070
     0
  0
VISUALSTYLE
  5
306C
102
{ACAD_XDICTIONARY
360
32E8
102
}
102
{ACAD_REACTORS
330
3056
102
}
330
3056
100
AcDbVisualStyle
  2
JitterOff
 70
    20
177
     2
291
     1
 71
     2
176
     0
 72
     2
176
     0
 73
     0
176
     0
 90
        0
176
     0
 40
0.6
176
     0
 41
30.0
176
     0
 63
     7
421
 16777215
176
     0
 74
     1
176
     0
 91
        4
176
     0
 64
     7
176
     0
 65
   257
176
     0
 75
     1
176
     0
175
     1
176
     0
 42
1.0
176
     0
 92
       10
176
     2
 66
     7
176
     0
 43
1.0
176
     0
 76
     1
176
     0
 77
     6
176
     0
 78
     2
176
     0
 67
     7
176
     0
 79
     5
176
     0
170
     0
176
     0
171
     0
176
     0
290
     0
176
     0
 93
        1
176
     0
 44
0.0
176
     0
173
     0
176
     0
1001
ACAD
1000
AcDbSavedByObjectVersion
1070
     0
  0
VISUALSTYLE
  5
3064
102
{ACAD_XDICTIONARY
360
32D8
102
}
102
{ACAD_REACTORS
330
3056
102
}
330
3056
100
AcDbVisualStyle
  2
Linepattern
 70
    14
177
     2
291
     1
 71
     2
176
     1
 72
     2
176
     1
 73
     0
176
     1
 90
        0
176
     1
 40
0.6
176
     1
 41
30.0
176
     1
 63
     7
421
 16777215
176
     1
 74
     1
176
     1
 91
        4
176
     1
 64
     7
176
     1
 65
   257
176
     1
 75
     7
176
     1
175
     7
176
     1
 42
1.0
176
     1
 92
        8
176
     1
 66
     7
176
     1
 43
1.0
176
     1
 76
     1
176
     1
 77
     6
176
     1
 78
     2
176
     1
 67
     7
176
     1
 79
     5
176
     1
170
     0
176
     1
171
     0
176
     1
290
     0
176
     1
 93
        1
176
     1
 44
0.0
176
     1
173
     0
176
     1
1001
ACAD
1000
AcDbSavedByObjectVersion
1070
     0
  0
VISUALSTYLE
  5
306D
102
{ACAD_XDICTIONARY
360
32EA
102
}
102
{ACAD_REACTORS
330
3056
102
}
330
3056
100
AcDbVisualStyle
  2
OverhangOff
 70
    21
177
     2
291
     1
 71
     2
176
     0
 72
     2
176
     0
 73
     0
176
     0
 90
        0
176
     0
 40
0.6
176
     0
 41
30.0
176
     0
 63
     7
421
 16777215
176
     0
 74
     1
176
     0
 91
        4
176
     0
 64
     7
176
     0
 65
   257
176
     0
 75
     1
176
     0
175
     1
176
     0
 42
1.0
176
     0
 92
        9
176
     2
 66
     7
176
     0
 43
1.0
176
     0
 76
     1
176
     0
 77
     6
176
     0
 78
     2
176
     0
 67
     7
176
     0
 79
     5
176
     0
170
     0
176
     0
171
     0
176
     0
290
     0
176
     0
 93
        1
176
     0
 44
0.0
176
     0
173
     0
176
     0
1001
ACAD
1000
AcDbSavedByObjectVersion
1070
     0
  0
VISUALSTYLE
  5
3060
102
{ACAD_XDICTIONARY
360
32D0
102
}
102
{ACAD_REACTORS
330
3056
102
}
330
3056
100
AcDbVisualStyle
  2
Realistic
 70
     8
177
     2
291
     0
 71
     2
176
     1
 72
     3
176
     1
 73
     0
176
     1
 90
        2
176
     1
 40
0.6
176
     1
 41
30.0
176
     1
 63
     7
421
 16777215
176
     1
 74
     0
176
     1
 91
        0
176
     1
 64
     7
176
     1
 65
   257
176
     1
 75
     1
176
     1
175
     1
176
     1
 42
1.0
176
     1
 92
        8
176
     1
 66
   257
176
     1
 43
1.0
176
     1
 76
     1
176
     1
 77
     6
176
     1
 78
     2
176
     1
 67
     7
176
     1
 79
     3
176
     1
170
     0
176
     1
171
     0
176
     1
290
     0
176
     1
 93
       13
176
     1
 44
0.0
176
     1
173
     0
176
     1
1001
ACAD
1000
AcDbSavedByObjectVersion
1070
     0
  0
VISUALSTYLE
  5
306B
102
{ACAD_XDICTIONARY
360
32E6
102
}
102
{ACAD_REACTORS
330
3056
102
}
330
3056
100
AcDbVisualStyle
  2
Shaded
 70
    27
177
     2
291
     0
 71
     2
176
     1
 72
     2
176
     1
 73
     1
176
     1
 90
        2
176
     1
 40
0.6
176
     1
 41
30.0
176
     1
 63
     7
421
 16777215
176
     1
 74
     0
176
     1
 91
        4
176
     1
 64
     7
176
     1
 65
   257
176
     1
 75
     1
176
     1
175
     1
176
     1
 42
1.0
176
     1
 92
        8
176
     1
 66
   257
176
     1
 43
1.0
176
     1
 76
     1
176
     1
 77
     6
176
     1
 78
     2
176
     1
 67
     8
425
  7895160
176
     1
 79
     3
176
     1
170
     0
176
     1
171
     0
176
     1
290
     0
176
     1
 93
        5
176
     1
 44
0.0
176
     1
173
     0
176
     1
1001
ACAD
1000
AcDbSavedByObjectVersion
1070
     0
  0
VISUALSTYLE
  5
306A
102
{ACAD_XDICTIONARY
360
32E4
102
}
102
{ACAD_REACTORS
330
3056
102
}
330
3056
100
AcDbVisualStyle
  2
Shaded with edges
 70
    26
177
     2
291
     0
 71
     2
176
     1
 72
     2
176
     1
 73
     1
176
     1
 90
        2
176
     1
 40
0.6
176
     1
 41
30.0
176
     1
 63
     7
421
 16777215
176
     1
 74
     1
176
     1
 91
        2
176
     1
 64
     7
176
     1
 65
   257
176
     1
 75
     2
176
     1
175
     1
176
     1
 42
1.0
176
     1
 92
        8
176
     1
 66
   257
176
     1
 43
1.0
176
     1
 76
     1
176
     1
 77
     6
176
     1
 78
     2
176
     1
 67
     7
176
     1
 79
     3
176
     1
170
     0
176
     1
171
     0
176
     1
290
     0
176
     1
 93
        5
176
     1
 44
0.0
176
     1
173
     0
176
     1
1001
ACAD
1000
AcDbSavedByObjectVersion
1070
     0
  0
VISUALSTYLE
  5
3067
102
{ACAD_XDICTIONARY
360
32DE
102
}
102
{ACAD_REACTORS
330
3056
102
}
330
3056
100
AcDbVisualStyle
  2
Shades of Gray
 70
    23
177
     2
291
     0
 71
     2
176
     1
 72
     2
176
     1
 73
     3
176
     1
 90
        0
176
     1
 40
0.6
176
     1
 41
30.0
176
     1
 63
     7
421
 16777215
176
     1
 74
     2
176
     1
 91
        2
176
     1
 64
     7
176
     1
 65
     7
176
     1
 75
     1
176
     1
175
     1
176
     1
 42
40.0
176
     1
 92
        8
176
     1
 66
     7
176
     1
 43
1.0
176
     1
 76
     1
176
     1
 77
     6
176
     1
 78
     2
176
     1
 67
     7
176
     1
 79
     3
176
     1
170
     0
176
     1
171
     0
176
     1
290
     0
176
     1
 93
        1
176
     1
 44
0.0
176
     1
173
     0
176
     1
1001
ACAD
1000
AcDbSavedByObjectVersion
1070
     0
  0
VISUALSTYLE
  5
3068
102
{ACAD_XDICTIONARY
360
32E0
102
}
102
{ACAD_REACTORS
330
3056
102
}
330
3056
100
AcDbVisualStyle
  2
Sketchy
 70
    24
177
     2
291
     0
 71
     1
176
     1
 72
     2
176
     1
 73
     2
176
     1
 90
        0
176
     1
 40
0.6
176
     1
 41
30.0
176
     1
 63
     7
421
 16777215
176
     1
 74
     2
176
     1
 91
        2
176
     1
 64
     7
176
     1
 65
     7
176
     1
 75
     1
176
     1
175
     1
176
     1
 42
40.0
176
     1
 92
       11
176
     1
 66
     7
176
     1
 43
1.0
176
     1
 76
     1
176
     1
 77
     6
176
     1
 78
     2
176
     1
 67
     7
176
     1
 79
     6
176
     1
170
     0
176
     1
171
     0
176
     1
290
     0
176
     1
 93
        1
176
     1
 44
0.0
176
     1
173
     0
176
     1
1001
ACAD
1000
AcDbSavedByObjectVersion
1070
     0
  0
VISUALSTYLE
  5
3063
102
{ACAD_XDICTIONARY
360
32D6
102
}
102
{ACAD_REACTORS
330
3056
102
}
330
3056
100
AcDbVisualStyle
  2
Thicken
 70
    13
177
     2
291
     1
 71
     2
176
     1
 72
     2
176
     1
 73
     0
176
     1
 90
        0
176
     1
 40
0.6
176
     1
 41
30.0
176
     1
 63
     7
421
 16777215
176
     1
 74
     1
176
     1
 91
        4
176
     1
 64
     7
176
     1
 65
   257
176
     1
 75
     1
176
     1
175
     1
176
     1
 42
1.0
176
     1
 92
       12
176
     1
 66
     7
176
     1
 43
1.0
176
     1
 76
     1
176
     1
 77
     6
176
     1
 78
     2
176
     1
 67
     7
176
     1
 79
     5
176
     1
170
     0
176
     1
171
     0
176
     1
290
     0
176
     1
 93
        1
176
     1
 44
0.0
176
     1
173
     0
176
     1
1001
ACAD
1000
AcDbSavedByObjectVersion
1070
     0
  0
VISUALSTYLE
  5
305D
102
{ACAD_XDICTIONARY
360
32CA
102
}
102
{ACAD_REACTORS
330
3056
102
}
330
3056
100
AcDbVisualStyle
  2
Wireframe
 70
     5
177
     2
291
     0
 71
     0
176
     1
 72
     2
176
     1
 73
     0
176
     1
 90
        0
176
     1
 40
0.6
176
     1
 41
30.0
176
     1
 63
     7
421
 16777215
176
     1
 74
     1
176
     1
 91
        4
176
     1
 64
     7
176
     1
 65
   257
176
     1
 75
     1
176
     1
175
     1
176
     1
 42
1.0
176
     1
 92
        0
176
     1
 66
   257
176
     1
 43
1.0
176
     1
 76
     1
176
     1
 77
     6
176
     1
 78
     2
176
     1
 67
     7
176
     1
 79
     3
176
     1
170
     0
176
     1
171
     0
176
     1
290
     0
176
     1
 93
        1
176
     1
 44
0.0
176
     1
173
     0
176
     1
1001
ACAD
1000
AcDbSavedByObjectVersion
1070
     0
  0
VISUALSTYLE
  5
3069
102
{ACAD_XDICTIONARY
360
32E2
102
}
102
{ACAD_REACTORS
330
3056
102
}
330
3056
100
AcDbVisualStyle
  2
X-Ray
 70
    25
177
     2
291
     0
 71
     2
176
     1
 72
     2
176
     1
 73
     1
176
     1
 90
        1
176
     1
 40
0.5
176
     1
 41
30.0
176
     1
 63
     7
421
 16777215
176
     1
 74
     1
176
     1
 91
        0
176
     1
 64
     7
176
     1
 65
   257
176
     1
 75
     1
176
     1
175
     1
176
     1
 42
1.0
176
     1
 92
        8
176
     1
 66
     7
176
     1
 43
1.0
176
     1
 76
     1
176
     1
 77
     6
176
     1
 78
     2
176
     1
 67
     7
176
     1
 79
     3
176
     1
170
     0
176
     1
171
     0
176
     1
290
     0
176
     1
 93
       13
176
     1
 44
0.0
176
     1
173
     0
176
     1
1001
ACAD
1000
AcDbSavedByObjectVersion
1070
     0
  0
DICTIONARYVAR
  5
32AF
102
{ACAD_REACTORS
330
32A9
102
}
330
32A9
100
DictionaryVariables
280
     0
  1
1:1
  0
DICTIONARYVAR
  5
32AB
102
{ACAD_REACTORS
330
32A9
102
}
330
32A9
100
DictionaryVariables
280
     0
  1
STANDARD
  0
DICTIONARYVAR
  5
32AA
102
{ACAD_REACTORS
330
32A9
102
}
330
32A9
100
DictionaryVariables
280
     0
  1
STANDARD
  0
DICTIONARYVAR
  5
32AC
102
{ACAD_REACTORS
330
32A9
102
}
330
32A9
100
DictionaryVariables
280
     0
  1
Imperial24
  0
DICTIONARYVAR
  5
32AD
102
{ACAD_REACTORS
330
32A9
102
}
330
32A9
100
DictionaryVariables
280
     0
  1
Imperial24
  0
DICTIONARYVAR
  5
32B1
102
{ACAD_REACTORS
330
32A9
102
}
330
32A9
100
DictionaryVariables
280
     0
  1
1
  0
DICTIONARYVAR
  5
32B2
102
{ACAD_REACTORS
330
32A9
102
}
330
32A9
100
DictionaryVariables
280
     0
  1
15
  0
DICTIONARYVAR
  5
32B0
102
{ACAD_REACTORS
330
32A9
102
}
330
32A9
100
DictionaryVariables
280
     0
  1
0
  0
DICTIONARYVAR
  5
32AE
102
{ACAD_REACTORS
330
32A9
102
}
330
32A9
100
DictionaryVariables
280
     0
  1
0
  0
DICTIONARY
  5
32BD
102
{ACAD_REACTORS
330
32BB
102
}
330
32BB
100
AcDbDictionary
281
     1
  0
DICTIONARY
  5
32BC
102
{ACAD_REACTORS
330
32BB
102
}
330
32BB
100
AcDbDictionary
281
     1
  3
2128375705056
350
32B6
  3
2128375705072
350
32B7
  3
2128375705088
350
32B8
  3
2128375705104
350
32B9
  3
2128375705120
350
32BA
  0
DICTIONARY
  5
3185
102
{ACAD_REACTORS
330
317C
102
}
330
317C
100
AcDbDictionary
281
     1
  0
DICTIONARY
  5
32F0
330
3097
100
AcDbDictionary
280
     1
281
     1
  3
ACAD_XREC_ROUNDTRIP
360
32F1
  0
DICTIONARY
  5
3047
330
3046
100
AcDbDictionary
280
     1
281
     1
  3
BUMPTILE
360
3049
  3
DIFFUSETILE
360
3048
  3
OPACITYTILE
360
304C
  3
REFLECTIONTILE
360
304B
  3
REFRACTIONTILE
360
304D
  3
SPECULARTILE
360
304A
  0
DICTIONARY
  5
303F
330
303E
100
AcDbDictionary
280
     1
281
     1
  3
BUMPTILE
360
3041
  3
DIFFUSETILE
360
3040
  3
OPACITYTILE
360
3044
  3
REFLECTIONTILE
360
3043
  3
REFRACTIONTILE
360
3045
  3
SPECULARTILE
360
3042
  0
DICTIONARY
  5
304F
330
304E
100
AcDbDictionary
280
     1
281
     1
  3
BUMPTILE
360
3051
  3
DIFFUSETILE
360
3050
  3
OPACITYTILE
360
3054
  3
REFLECTIONTILE
360
3053
  3
REFRACTIONTILE
360
3055
  3
SPECULARTILE
360
3052
  0
DICTIONARY
  5
32EE
330
3095
100
AcDbDictionary
280
     1
281
     1
  3
ACAD_XREC_ROUNDTRIP
360
32EF
  0
DICTIONARY
  5
32B3
330
3091
100
AcDbDictionary
280
     1
281
     1
  3
ACAD_ROUNDTRIP_2008_TABLESTYLE_CELLSTYLEMAP
360
32B4
  0
DICTIONARY
  5
32C8
330
305C
100
AcDbDictionary
280
     1
281
     1
  3
ACAD_XREC_ROUNDTRIP
360
32C9
  0
DICTIONARY
  5
32C6
330
305B
100
AcDbDictionary
280
     1
281
     1
  3
ACAD_XREC_ROUNDTRIP
360
32C7
  0
DICTIONARY
  5
32D4
330
3062
100
AcDbDictionary
280
     1
281
     1
  3
ACAD_XREC_ROUNDTRIP
360
32D5
  0
DICTIONARY
  5
32DC
330
3066
100
AcDbDictionary
280
     1
281
     1
  3
ACAD_XREC_ROUNDTRIP
360
32DD
  0
DICTIONARY
  5
32CE
330
305F
100
AcDbDictionary
280
     1
281
     1
  3
ACAD_XREC_ROUNDTRIP
360
32CF
  0
DICTIONARY
  5
32D2
330
3061
100
AcDbDictionary
280
     1
281
     1
  3
ACAD_XREC_ROUNDTRIP
360
32D3
  0
DICTIONARY
  5
32EC
330
306E
100
AcDbDictionary
280
     1
281
     1
  3
ACAD_XREC_ROUNDTRIP
360
32ED
  0
DICTIONARY
  5
32DA
330
3065
100
AcDbDictionary
280
     1
281
     1
  3
ACAD_XREC_ROUNDTRIP
360
32DB
  0
DICTIONARY
  5
32BE
330
3057
100
AcDbDictionary
280
     1
281
     1
  3
ACAD_XREC_ROUNDTRIP
360
32BF
  0
DICTIONARY
  5
32C0
330
3058
100
AcDbDictionary
280
     1
281
     1
  3
ACAD_XREC_ROUNDTRIP
360
32C1
  0
DICTIONARY
  5
32C2
330
3059
100
AcDbDictionary
280
     1
281
     1
  3
ACAD_XREC_ROUNDTRIP
360
32C3
  0
DICTIONARY
  5
32C4
330
305A
100
AcDbDictionary
280
     1
281
     1
  3
ACAD_XREC_ROUNDTRIP
360
32C5
  0
DICTIONARY
  5
32CC
330
305E
100
AcDbDictionary
280
     1
281
     1
  3
ACAD_XREC_ROUNDTRIP
360
32CD
  0
DICTIONARY
  5
32E8
330
306C
100
AcDbDictionary
280
     1
281
     1
  3
ACAD_XREC_ROUNDTRIP
360
32E9
  0
DICTIONARY
  5
32D8
330
3064
100
AcDbDictionary
280
     1
281
     1
  3
ACAD_XREC_ROUNDTRIP
360
32D9
  0
DICTIONARY
  5
32EA
330
306D
100
AcDbDictionary
280
     1
281
     1
  3
ACAD_XREC_ROUNDTRIP
360
32EB
  0
DICTIONARY
  5
32D0
330
3060
100
AcDbDictionary
280
     1
281
     1
  3
ACAD_XREC_ROUNDTRIP
360
32D1
  0
DICTIONARY
  5
32E6
330
306B
100
AcDbDictionary
280
     1
281
     1
  3
ACAD_XREC_ROUNDTRIP
360
32E7
  0
DICTIONARY
  5
32E4
330
306A
100
AcDbDictionary
280
     1
281
     1
  3
ACAD_XREC_ROUNDTRIP
360
32E5
  0
DICTIONARY
  5
32DE
330
3067
100
AcDbDictionary
280
     1
281
     1
  3
ACAD_XREC_ROUNDTRIP
360
32DF
  0
DICTIONARY
  5
32E0
330
3068
100
AcDbDictionary
280
     1
281
     1
  3
ACAD_XREC_ROUNDTRIP
360
32E1
  0
DICTIONARY
  5
32D6
330
3063
100
AcDbDictionary
280
     1
281
     1
  3
ACAD_XREC_ROUNDTRIP
360
32D7
  0
DICTIONARY
  5
32CA
330
305D
100
AcDbDictionary
280
     1
281
     1
  3
ACAD_XREC_ROUNDTRIP
360
32CB
  0
DICTIONARY
  5
32E2
330
3069
100
AcDbDictionary
280
     1
281
     1
  3
ACAD_XREC_ROUNDTRIP
360
32E3
  0
XRECORD
  5
32B6
102
{ACAD_REACTORS
330
32BC
102
}
330
32BC
100
AcDbXrecord
280
     1
  1
AcDb_Thumbnail_Schema
102
{ATTRRECORD
341
32B7
  2
AcDbDs::TreatedAsObjectData
280
     1
291
     1
102
ATTRRECORD}
102
{ATTRRECORD
341
32B8
  2
AcDbDs::Legacy
280
     1
291
     1
102
ATTRRECORD}
  2
AcDbDs::ID
280
    10
 91
        8
102
{ATTRRECORD
341
32B9
  2
AcDs:Indexable
280
     1
291
     1
102
ATTRRECORD}
102
{ATTRRECORD
341
32BA
  2
AcDbDs::HandleAttribute
280
     7
282
     1
102
ATTRRECORD}
  2
Thumbnail_Data
280
    15
 91
        0
  0
XRECORD
  5
32B7
102
{ACAD_REACTORS
330
32BC
102
}
330
32BC
100
AcDbXrecord
280
     1
  1
AcDbDs::TreatedAsObjectDataSchema
  2
AcDbDs::TreatedAsObjectData
280
     1
 91
        0
  0
XRECORD
  5
32B8
102
{ACAD_REACTORS
330
32BC
102
}
330
32BC
100
AcDbXrecord
280
     1
  1
AcDbDs::LegacySchema
  2
AcDbDs::Legacy
280
     1
 91
        0
  0
XRECORD
  5
32B9
102
{ACAD_REACTORS
330
32BC
102
}
330
32BC
100
AcDbXrecord
280
     1
  1
AcDbDs::IndexedPropertySchema
  2
AcDs:Indexable
280
     1
 91
        0
  0
XRECORD
  5
32BA
102
{ACAD_REACTORS
330
32BC
102
}
330
32BC
100
AcDbXrecord
280
     1
  1
AcDbDs::HandleAttributeSchema
  2
AcDbDs::HandleAttribute
280
     7
 91
        1
284
     1
  0
XRECORD
  5
32F1
102
{ACAD_REACTORS
330
32F0
102
}
330
32F0
100
AcDbXrecord
280
     1
102
DISPLAYNAME
  1
Imperial24
102
FLAGS
 90
        0
  0
XRECORD
  5
3049
102
{ACAD_REACTORS
330
3047
102
}
330
3047
100
AcDbXrecord
280
     1
270
     1
271
     1
  0
XRECORD
  5
3048
102
{ACAD_REACTORS
330
3047
102
}
330
3047
100
AcDbXrecord
280
     1
270
     1
271
     1
  0
XRECORD
  5
304C
102
{ACAD_REACTORS
330
3047
102
}
330
3047
100
AcDbXrecord
280
     1
270
     1
271
     1
  0
XRECORD
  5
304B
102
{ACAD_REACTORS
330
3047
102
}
330
3047
100
AcDbXrecord
280
     1
270
     1
271
     1
  0
XRECORD
  5
304D
102
{ACAD_REACTORS
330
3047
102
}
330
3047
100
AcDbXrecord
280
     1
270
     1
271
     1
  0
XRECORD
  5
304A
102
{ACAD_REACTORS
330
3047
102
}
330
3047
100
AcDbXrecord
280
     1
270
     1
271
     1
  0
XRECORD
  5
3041
102
{ACAD_REACTORS
330
303F
102
}
330
303F
100
AcDbXrecord
280
     1
270
     1
271
     1
  0
XRECORD
  5
3040
102
{ACAD_REACTORS
330
303F
102
}
330
303F
100
AcDbXrecord
280
     1
270
     1
271
     1
  0
XRECORD
  5
3044
102
{ACAD_REACTORS
330
303F
102
}
330
303F
100
AcDbXrecord
280
     1
270
     1
271
     1
  0
XRECORD
  5
3043
102
{ACAD_REACTORS
330
303F
102
}
330
303F
100
AcDbXrecord
280
     1
270
     1
271
     1
  0
XRECORD
  5
3045
102
{ACAD_REACTORS
330
303F
102
}
330
303F
100
AcDbXrecord
280
     1
270
     1
271
     1
  0
XRECORD
  5
3042
102
{ACAD_REACTORS
330
303F
102
}
330
303F
100
AcDbXrecord
280
     1
270
     1
271
     1
  0
XRECORD
  5
3051
102
{ACAD_REACTORS
330
304F
102
}
330
304F
100
AcDbXrecord
280
     1
270
     1
271
     1
  0
XRECORD
  5
3050
102
{ACAD_REACTORS
330
304F
102
}
330
304F
100
AcDbXrecord
280
     1
270
     1
271
     1
  0
XRECORD
  5
3054
102
{ACAD_REACTORS
330
304F
102
}
330
304F
100
AcDbXrecord
280
     1
270
     1
271
     1
  0
XRECORD
  5
3053
102
{ACAD_REACTORS
330
304F
102
}
330
304F
100
AcDbXrecord
280
     1
270
     1
271
     1
  0
XRECORD
  5
3055
102
{ACAD_REACTORS
330
304F
102
}
330
304F
100
AcDbXrecord
280
     1
270
     1
271
     1
  0
XRECORD
  5
3052
102
{ACAD_REACTORS
330
304F
102
}
330
304F
100
AcDbXrecord
280
     1
270
     1
271
     1
  0
XRECORD
  5
32EF
102
{ACAD_REACTORS
330
32EE
102
}
330
32EE
100
AcDbXrecord
280
     1
102
DISPLAYNAME
  1
Imperial24
102
FLAGS
 90
        0
  0
CELLSTYLEMAP
  5
32B4
102
{ACAD_REACTORS
330
32B3
102
}
330
32B3
100
AcDbCellStyleMap
 90
        3
300
CELLSTYLE
  1
TABLEFORMAT_BEGIN
 90
        5
170
     1
 91
        0
 92
    32768
 62
   257
 93
        1
300
CONTENTFORMAT
  1
CONTENTFORMAT_BEGIN
 90
        0
 91
        0
 92
      512
 93
        0
300

 40
0.0
140
1.0
 94
        5
 62
     0
340
3082
144
0.25
309
CONTENTFORMAT_END
171
     0
 94
        0
309
TABLEFORMAT_END
  1
CELLSTYLE_BEGIN
 90
        1
 91
        1
300
_TITLE
309
CELLSTYLE_END
300
CELLSTYLE
  1
TABLEFORMAT_BEGIN
 90
        5
170
     1
 91
        0
 92
        0
 62
   257
 93
        1
300
CONTENTFORMAT
  1
CONTENTFORMAT_BEGIN
 90
        0
 91
        0
 92
      512
 93
        0
300

 40
0.0
140
1.0
 94
        5
 62
     0
340
3082
144
0.18
309
CONTENTFORMAT_END
171
     0
 94
        0
309
TABLEFORMAT_END
  1
CELLSTYLE_BEGIN
 90
        2
 91
        1
300
_HEADER
309
CELLSTYLE_END
300
CELLSTYLE
  1
TABLEFORMAT_BEGIN
 90
        5
170
     1
 91
        0
 92
        0
 62
   257
 93
        1
300
CONTENTFORMAT
  1
CONTENTFORMAT_BEGIN
 90
        0
 91
        0
 92
      512
 93
        0
300

 40
0.0
140
1.0
 94
        2
 62
     0
340
3082
144
0.18
309
CONTENTFORMAT_END
171
     0
 94
        0
309
TABLEFORMAT_END
  1
CELLSTYLE_BEGIN
 90
        3
 91
        2
300
_DATA
309
CELLSTYLE_END
  0
XRECORD
  5
32C9
102
{ACAD_REACTORS
330
32C8
102
}
330
32C8
100
AcDbXrecord
280
     1
102
RTVSPost2010Prop28
280
     1
102
RTVSPost2010PropOp28
 70
     1
102
RTVSPost2010Prop29
280
     1
102
RTVSPost2010PropOp29
 70
     1
102
RTVSPost2010Prop30
280
     0
102
RTVSPost2010PropOp30
 70
     1
102
RTVSPost2010Prop31
280
     0
102
RTVSPost2010PropOp31
 70
     1
102
RTVSPost2010Prop32
280
     0
102
RTVSPost2010PropOp32
 70
     1
102
RTVSPost2010Prop33
280
     0
102
RTVSPost2010PropOp33
 70
     1
102
RTVSPost2010Prop34
280
     0
102
RTVSPost2010PropOp34
 70
     1
102
RTVSPost2010Prop35
280
     0
102
RTVSPost2010PropOp35
 70
     1
102
RTVSPost2010Prop36
280
     0
102
RTVSPost2010PropOp36
 70
     1
102
RTVSPost2010Prop37
 90
       50
102
RTVSPost2010PropOp37
 70
     1
102
RTVSPost2010Prop38
140
0.0
102
RTVSPost2010PropOp38
 70
     1
102
RTVSPost2010Prop39
140
1.0
102
RTVSPost2010PropOp39
 70
     1
102
RTVSPost2010Prop40
 90
        0
102
RTVSPost2010PropOp40
 70
     1
102
RTVSPost2010Prop41ColorIndex
 90
       18
102
RTVSPost2010Prop41ColorRGB
 90
        0
102
RTVSPost2010PropOp41
 70
     1
102
RTVSPost2010Prop42
 90
       50
102
RTVSPost2010PropOp42
 70
     1
102
RTVSPost2010Prop43
 90
        3
102
RTVSPost2010PropOp43
 70
     1
102
RTVSPost2010Prop44ColorIndex
 90
        5
102
RTVSPost2010Prop44ColorRGB
 90
      255
102
RTVSPost2010PropOp44
 70
     1
102
RTVSPost2010Prop45
280
     0
102
RTVSPost2010PropOp45
 70
     1
102
RTVSPost2010Prop46
 90
       50
102
RTVSPost2010PropOp46
 70
     1
102
RTVSPost2010Prop47
 90
       50
102
RTVSPost2010PropOp47
 70
     1
102
RTVSPost2010Prop48
 90
       50
102
RTVSPost2010PropOp48
 70
     1
102
RTVSPost2010Prop49
280
     0
102
RTVSPost2010PropOp49
 70
     1
102
RTVSPost2010Prop50
 90
       50
102
RTVSPost2010PropOp50
 70
     1
102
RTVSPost2010Prop51ColorIndex
 90
      256
102
RTVSPost2010Prop51ColorRGB
 90
-16777216
102
RTVSPost2010PropOp51
 70
     0
102
RTVSPost2010Prop52
140
1.0
102
RTVSPost2010PropOp52
 70
     0
102
RTVSPost2010Prop53
 90
        2
102
RTVSPost2010PropOp53
 70
     1
102
RTVSPost2010Prop54
  1
strokes_ogs.tif
102
RTVSPost2010PropOp54
 70
     1
102
RTVSPost2010Prop55
280
     0
102
RTVSPost2010PropOp55
 70
     1
102
RTVSPost2010Prop56
140
1.0
102
RTVSPost2010PropOp56
 70
     1
102
RTVSPost2010Prop57
140
1.0
102
RTVSPost2010PropOp57
 70
     1
  0
XRECORD
  5
32C7
102
{ACAD_REACTORS
330
32C6
102
}
330
32C6
100
AcDbXrecord
280
     1
102
RTVSPost2010Prop28
280
     0
102
RTVSPost2010PropOp28
 70
     1
102
RTVSPost2010Prop29
280
     1
102
RTVSPost2010PropOp29
 70
     1
102
RTVSPost2010Prop30
280
     1
102
RTVSPost2010PropOp30
 70
     1
102
RTVSPost2010Prop31
280
     0
102
RTVSPost2010PropOp31
 70
     1
102
RTVSPost2010Prop32
280
     0
102
RTVSPost2010PropOp32
 70
     1
102
RTVSPost2010Prop33
280
     0
102
RTVSPost2010PropOp33
 70
     1
102
RTVSPost2010Prop34
280
     0
102
RTVSPost2010PropOp34
 70
     1
102
RTVSPost2010Prop35
280
     0
102
RTVSPost2010PropOp35
 70
     1
102
RTVSPost2010Prop36
280
     0
102
RTVSPost2010PropOp36
 70
     1
102
RTVSPost2010Prop37
 90
       50
102
RTVSPost2010PropOp37
 70
     1
102
RTVSPost2010Prop38
140
0.0
102
RTVSPost2010PropOp38
 70
     1
102
RTVSPost2010Prop39
140
1.0
102
RTVSPost2010PropOp39
 70
     1
102
RTVSPost2010Prop40
 90
        0
102
RTVSPost2010PropOp40
 70
     1
102
RTVSPost2010Prop41ColorIndex
 90
       18
102
RTVSPost2010Prop41ColorRGB
 90
        0
102
RTVSPost2010PropOp41
 70
     1
102
RTVSPost2010Prop42
 90
       50
102
RTVSPost2010PropOp42
 70
     1
102
RTVSPost2010Prop43
 90
        3
102
RTVSPost2010PropOp43
 70
     1
102
RTVSPost2010Prop44ColorIndex
 90
        5
102
RTVSPost2010Prop44ColorRGB
 90
      255
102
RTVSPost2010PropOp44
 70
     1
102
RTVSPost2010Prop45
280
     0
102
RTVSPost2010PropOp45
 70
     1
102
RTVSPost2010Prop46
 90
       50
102
RTVSPost2010PropOp46
 70
     1
102
RTVSPost2010Prop47
 90
       50
102
RTVSPost2010PropOp47
 70
     1
102
RTVSPost2010Prop48
 90
       50
102
RTVSPost2010PropOp48
 70
     1
102
RTVSPost2010Prop49
280
     0
102
RTVSPost2010PropOp49
 70
     1
102
RTVSPost2010Prop50
 90
       50
102
RTVSPost2010PropOp50
 70
     1
102
RTVSPost2010Prop51ColorIndex
 90
      256
102
RTVSPost2010Prop51ColorRGB
 90
-16777216
102
RTVSPost2010PropOp51
 70
     0
102
RTVSPost2010Prop52
140
1.0
102
RTVSPost2010PropOp52
 70
     0
102
RTVSPost2010Prop53
 90
        2
102
RTVSPost2010PropOp53
 70
     1
102
RTVSPost2010Prop54
  1
strokes_ogs.tif
102
RTVSPost2010PropOp54
 70
     1
102
RTVSPost2010Prop55
280
     0
102
RTVSPost2010PropOp55
 70
     1
102
RTVSPost2010Prop56
140
1.0
102
RTVSPost2010PropOp56
 70
     1
102
RTVSPost2010Prop57
140
1.0
102
RTVSPost2010PropOp57
 70
     1
  0
XRECORD
  5
32D5
102
{ACAD_REACTORS
330
32D4
102
}
330
32D4
100
AcDbXrecord
280
     1
102
RTVSPost2010Prop28
280
     0
102
RTVSPost2010PropOp28
 70
     1
102
RTVSPost2010Prop29
280
     1
102
RTVSPost2010PropOp29
 70
     1
102
RTVSPost2010Prop30
280
     1
102
RTVSPost2010PropOp30
 70
     1
102
RTVSPost2010Prop31
280
     0
102
RTVSPost2010PropOp31
 70
     1
102
RTVSPost2010Prop32
280
     0
102
RTVSPost2010PropOp32
 70
     1
102
RTVSPost2010Prop33
280
     0
102
RTVSPost2010PropOp33
 70
     1
102
RTVSPost2010Prop34
280
     0
102
RTVSPost2010PropOp34
 70
     1
102
RTVSPost2010Prop35
280
     0
102
RTVSPost2010PropOp35
 70
     1
102
RTVSPost2010Prop36
280
     0
102
RTVSPost2010PropOp36
 70
     1
102
RTVSPost2010Prop37
 90
       50
102
RTVSPost2010PropOp37
 70
     1
102
RTVSPost2010Prop38
140
0.0
102
RTVSPost2010PropOp38
 70
     1
102
RTVSPost2010Prop39
140
1.0
102
RTVSPost2010PropOp39
 70
     1
102
RTVSPost2010Prop40
 90
        0
102
RTVSPost2010PropOp40
 70
     1
102
RTVSPost2010Prop41ColorIndex
 90
       18
102
RTVSPost2010Prop41ColorRGB
 90
        0
102
RTVSPost2010PropOp41
 70
     1
102
RTVSPost2010Prop42
 90
       50
102
RTVSPost2010PropOp42
 70
     1
102
RTVSPost2010Prop43
 90
        3
102
RTVSPost2010PropOp43
 70
     1
102
RTVSPost2010Prop44ColorIndex
 90
        5
102
RTVSPost2010Prop44ColorRGB
 90
      255
102
RTVSPost2010PropOp44
 70
     1
102
RTVSPost2010Prop45
280
     0
102
RTVSPost2010PropOp45
 70
     1
102
RTVSPost2010Prop46
 90
       50
102
RTVSPost2010PropOp46
 70
     1
102
RTVSPost2010Prop47
 90
       50
102
RTVSPost2010PropOp47
 70
     1
102
RTVSPost2010Prop48
 90
       50
102
RTVSPost2010PropOp48
 70
     1
102
RTVSPost2010Prop49
280
     0
102
RTVSPost2010PropOp49
 70
     1
102
RTVSPost2010Prop50
 90
       50
102
RTVSPost2010PropOp50
 70
     1
102
RTVSPost2010Prop51ColorIndex
 90
      256
102
RTVSPost2010Prop51ColorRGB
 90
-16777216
102
RTVSPost2010PropOp51
 70
     0
102
RTVSPost2010Prop52
140
1.0
102
RTVSPost2010PropOp52
 70
     0
102
RTVSPost2010Prop53
 90
        2
102
RTVSPost2010PropOp53
 70
     1
102
RTVSPost2010Prop54
  1
strokes_ogs.tif
102
RTVSPost2010PropOp54
 70
     1
102
RTVSPost2010Prop55
280
     0
102
RTVSPost2010PropOp55
 70
     1
102
RTVSPost2010Prop56
140
1.0
102
RTVSPost2010PropOp56
 70
     1
102
RTVSPost2010Prop57
140
1.0
102
RTVSPost2010PropOp57
 70
     1
  0
XRECORD
  5
32DD
102
{ACAD_REACTORS
330
32DC
102
}
330
32DC
100
AcDbXrecord
280
     1
102
RTVSPost2010Prop28
280
     0
102
RTVSPost2010PropOp28
 70
     1
102
RTVSPost2010Prop29
280
     1
102
RTVSPost2010PropOp29
 70
     1
102
RTVSPost2010Prop30
280
     1
102
RTVSPost2010PropOp30
 70
     1
102
RTVSPost2010Prop31
280
     0
102
RTVSPost2010PropOp31
 70
     1
102
RTVSPost2010Prop32
280
     0
102
RTVSPost2010PropOp32
 70
     1
102
RTVSPost2010Prop33
280
     0
102
RTVSPost2010PropOp33
 70
     1
102
RTVSPost2010Prop34
280
     0
102
RTVSPost2010PropOp34
 70
     1
102
RTVSPost2010Prop35
280
     0
102
RTVSPost2010PropOp35
 70
     1
102
RTVSPost2010Prop36
280
     0
102
RTVSPost2010PropOp36
 70
     1
102
RTVSPost2010Prop37
 90
       50
102
RTVSPost2010PropOp37
 70
     1
102
RTVSPost2010Prop38
140
0.0
102
RTVSPost2010PropOp38
 70
     1
102
RTVSPost2010Prop39
140
1.0
102
RTVSPost2010PropOp39
 70
     1
102
RTVSPost2010Prop40
 90
        0
102
RTVSPost2010PropOp40
 70
     1
102
RTVSPost2010Prop41ColorIndex
 90
       18
102
RTVSPost2010Prop41ColorRGB
 90
        0
102
RTVSPost2010PropOp41
 70
     1
102
RTVSPost2010Prop42
 90
       50
102
RTVSPost2010PropOp42
 70
     1
102
RTVSPost2010Prop43
 90
        3
102
RTVSPost2010PropOp43
 70
     1
102
RTVSPost2010Prop44ColorIndex
 90
        5
102
RTVSPost2010Prop44ColorRGB
 90
      255
102
RTVSPost2010PropOp44
 70
     1
102
RTVSPost2010Prop45
280
     0
102
RTVSPost2010PropOp45
 70
     1
102
RTVSPost2010Prop46
 90
       50
102
RTVSPost2010PropOp46
 70
     1
102
RTVSPost2010Prop47
 90
       50
102
RTVSPost2010PropOp47
 70
     1
102
RTVSPost2010Prop48
 90
       50
102
RTVSPost2010PropOp48
 70
     1
102
RTVSPost2010Prop49
280
     0
102
RTVSPost2010PropOp49
 70
     1
102
RTVSPost2010Prop50
 90
       50
102
RTVSPost2010PropOp50
 70
     1
102
RTVSPost2010Prop51ColorIndex
 90
      256
102
RTVSPost2010Prop51ColorRGB
 90
-16777216
102
RTVSPost2010PropOp51
 70
     0
102
RTVSPost2010Prop52
140
1.0
102
RTVSPost2010PropOp52
 70
     0
102
RTVSPost2010Prop53
 90
        2
102
RTVSPost2010PropOp53
 70
     1
102
RTVSPost2010Prop54
  1
strokes_ogs.tif
102
RTVSPost2010PropOp54
 70
     1
102
RTVSPost2010Prop55
280
     0
102
RTVSPost2010PropOp55
 70
     1
102
RTVSPost2010Prop56
140
1.0
102
RTVSPost2010PropOp56
 70
     1
102
RTVSPost2010Prop57
140
1.0
102
RTVSPost2010PropOp57
 70
     1
  0
XRECORD
  5
32CF
102
{ACAD_REACTORS
330
32CE
102
}
330
32CE
100
AcDbXrecord
280
     1
102
RTVSPost2010Prop28
280
     0
102
RTVSPost2010PropOp28
 70
     1
102
RTVSPost2010Prop29
280
     1
102
RTVSPost2010PropOp29
 70
     1
102
RTVSPost2010Prop30
280
     1
102
RTVSPost2010PropOp30
 70
     1
102
RTVSPost2010Prop31
280
     0
102
RTVSPost2010PropOp31
 70
     1
102
RTVSPost2010Prop32
280
     0
102
RTVSPost2010PropOp32
 70
     1
102
RTVSPost2010Prop33
280
     0
102
RTVSPost2010PropOp33
 70
     1
102
RTVSPost2010Prop34
280
     0
102
RTVSPost2010PropOp34
 70
     1
102
RTVSPost2010Prop35
280
     0
102
RTVSPost2010PropOp35
 70
     1
102
RTVSPost2010Prop36
280
     0
102
RTVSPost2010PropOp36
 70
     1
102
RTVSPost2010Prop37
 90
       50
102
RTVSPost2010PropOp37
 70
     1
102
RTVSPost2010Prop38
140
0.0
102
RTVSPost2010PropOp38
 70
     1
102
RTVSPost2010Prop39
140
1.0
102
RTVSPost2010PropOp39
 70
     1
102
RTVSPost2010Prop40
 90
        0
102
RTVSPost2010PropOp40
 70
     1
102
RTVSPost2010Prop41ColorIndex
 90
       18
102
RTVSPost2010Prop41ColorRGB
 90
        0
102
RTVSPost2010PropOp41
 70
     1
102
RTVSPost2010Prop42
 90
       50
102
RTVSPost2010PropOp42
 70
     1
102
RTVSPost2010Prop43
 90
        3
102
RTVSPost2010PropOp43
 70
     1
102
RTVSPost2010Prop44ColorIndex
 90
        5
102
RTVSPost2010Prop44ColorRGB
 90
      255
102
RTVSPost2010PropOp44
 70
     1
102
RTVSPost2010Prop45
280
     0
102
RTVSPost2010PropOp45
 70
     1
102
RTVSPost2010Prop46
 90
       50
102
RTVSPost2010PropOp46
 70
     1
102
RTVSPost2010Prop47
 90
       50
102
RTVSPost2010PropOp47
 70
     1
102
RTVSPost2010Prop48
 90
       50
102
RTVSPost2010PropOp48
 70
     1
102
RTVSPost2010Prop49
280
     0
102
RTVSPost2010PropOp49
 70
     1
102
RTVSPost2010Prop50
 90
       50
102
RTVSPost2010PropOp50
 70
     1
102
RTVSPost2010Prop51ColorIndex
 90
      256
102
RTVSPost2010Prop51ColorRGB
 90
-16777216
102
RTVSPost2010PropOp51
 70
     0
102
RTVSPost2010Prop52
140
1.0
102
RTVSPost2010PropOp52
 70
     0
102
RTVSPost2010Prop53
 90
        2
102
RTVSPost2010PropOp53
 70
     1
102
RTVSPost2010Prop54
  1
strokes_ogs.tif
102
RTVSPost2010PropOp54
 70
     1
102
RTVSPost2010Prop55
280
     0
102
RTVSPost2010PropOp55
 70
     1
102
RTVSPost2010Prop56
140
1.0
102
RTVSPost2010PropOp56
 70
     1
102
RTVSPost2010Prop57
140
1.0
102
RTVSPost2010PropOp57
 70
     1
  0
XRECORD
  5
32D3
102
{ACAD_REACTORS
330
32D2
102
}
330
32D2
100
AcDbXrecord
280
     1
102
RTVSPost2010Prop28
280
     0
102
RTVSPost2010PropOp28
 70
     1
102
RTVSPost2010Prop29
280
     1
102
RTVSPost2010PropOp29
 70
     1
102
RTVSPost2010Prop30
280
     1
102
RTVSPost2010PropOp30
 70
     1
102
RTVSPost2010Prop31
280
     0
102
RTVSPost2010PropOp31
 70
     1
102
RTVSPost2010Prop32
280
     0
102
RTVSPost2010PropOp32
 70
     1
102
RTVSPost2010Prop33
280
     0
102
RTVSPost2010PropOp33
 70
     1
102
RTVSPost2010Prop34
280
     0
102
RTVSPost2010PropOp34
 70
     1
102
RTVSPost2010Prop35
280
     0
102
RTVSPost2010PropOp35
 70
     1
102
RTVSPost2010Prop36
280
     0
102
RTVSPost2010PropOp36
 70
     1
102
RTVSPost2010Prop37
 90
       50
102
RTVSPost2010PropOp37
 70
     1
102
RTVSPost2010Prop38
140
0.0
102
RTVSPost2010PropOp38
 70
     1
102
RTVSPost2010Prop39
140
1.0
102
RTVSPost2010PropOp39
 70
     1
102
RTVSPost2010Prop40
 90
        0
102
RTVSPost2010PropOp40
 70
     1
102
RTVSPost2010Prop41ColorIndex
 90
       18
102
RTVSPost2010Prop41ColorRGB
 90
        0
102
RTVSPost2010PropOp41
 70
     1
102
RTVSPost2010Prop42
 90
       50
102
RTVSPost2010PropOp42
 70
     1
102
RTVSPost2010Prop43
 90
        3
102
RTVSPost2010PropOp43
 70
     1
102
RTVSPost2010Prop44ColorIndex
 90
        5
102
RTVSPost2010Prop44ColorRGB
 90
      255
102
RTVSPost2010PropOp44
 70
     1
102
RTVSPost2010Prop45
280
     0
102
RTVSPost2010PropOp45
 70
     1
102
RTVSPost2010Prop46
 90
       50
102
RTVSPost2010PropOp46
 70
     1
102
RTVSPost2010Prop47
 90
       50
102
RTVSPost2010PropOp47
 70
     1
102
RTVSPost2010Prop48
 90
       50
102
RTVSPost2010PropOp48
 70
     1
102
RTVSPost2010Prop49
280
     0
102
RTVSPost2010PropOp49
 70
     1
102
RTVSPost2010Prop50
 90
       50
102
RTVSPost2010PropOp50
 70
     1
102
RTVSPost2010Prop51ColorIndex
 90
      256
102
RTVSPost2010Prop51ColorRGB
 90
-16777216
102
RTVSPost2010PropOp51
 70
     0
102
RTVSPost2010Prop52
140
1.0
102
RTVSPost2010PropOp52
 70
     0
102
RTVSPost2010Prop53
 90
        2
102
RTVSPost2010PropOp53
 70
     1
102
RTVSPost2010Prop54
  1
strokes_ogs.tif
102
RTVSPost2010PropOp54
 70
     1
102
RTVSPost2010Prop55
280
     0
102
RTVSPost2010PropOp55
 70
     1
102
RTVSPost2010Prop56
140
1.0
102
RTVSPost2010PropOp56
 70
     1
102
RTVSPost2010Prop57
140
1.0
102
RTVSPost2010PropOp57
 70
     1
  0
XRECORD
  5
32ED
102
{ACAD_REACTORS
330
32EC
102
}
330
32EC
100
AcDbXrecord
280
     1
102
RTVSPost2010Prop28
280
     0
102
RTVSPost2010PropOp28
 70
     1
102
RTVSPost2010Prop29
280
     1
102
RTVSPost2010PropOp29
 70
     1
102
RTVSPost2010Prop30
280
     1
102
RTVSPost2010PropOp30
 70
     1
102
RTVSPost2010Prop31
280
     0
102
RTVSPost2010PropOp31
 70
     1
102
RTVSPost2010Prop32
280
     0
102
RTVSPost2010PropOp32
 70
     1
102
RTVSPost2010Prop33
280
     0
102
RTVSPost2010PropOp33
 70
     1
102
RTVSPost2010Prop34
280
     0
102
RTVSPost2010PropOp34
 70
     1
102
RTVSPost2010Prop35
280
     0
102
RTVSPost2010PropOp35
 70
     1
102
RTVSPost2010Prop36
280
     0
102
RTVSPost2010PropOp36
 70
     1
102
RTVSPost2010Prop37
 90
       50
102
RTVSPost2010PropOp37
 70
     0
102
RTVSPost2010Prop38
140
0.0
102
RTVSPost2010PropOp38
 70
     0
102
RTVSPost2010Prop39
140
1.0
102
RTVSPost2010PropOp39
 70
     0
102
RTVSPost2010Prop40
 90
        0
102
RTVSPost2010PropOp40
 70
     0
102
RTVSPost2010Prop41ColorIndex
 90
       18
102
RTVSPost2010Prop41ColorRGB
 90
        0
102
RTVSPost2010PropOp41
 70
     0
102
RTVSPost2010Prop42
 90
       50
102
RTVSPost2010PropOp42
 70
     0
102
RTVSPost2010Prop43
 90
        3
102
RTVSPost2010PropOp43
 70
     0
102
RTVSPost2010Prop44ColorIndex
 90
        5
102
RTVSPost2010Prop44ColorRGB
 90
      255
102
RTVSPost2010PropOp44
 70
     0
102
RTVSPost2010Prop45
280
     0
102
RTVSPost2010PropOp45
 70
     1
102
RTVSPost2010Prop46
 90
       50
102
RTVSPost2010PropOp46
 70
     0
102
RTVSPost2010Prop47
 90
       50
102
RTVSPost2010PropOp47
 70
     0
102
RTVSPost2010Prop48
 90
       50
102
RTVSPost2010PropOp48
 70
     0
102
RTVSPost2010Prop49
280
     0
102
RTVSPost2010PropOp49
 70
     1
102
RTVSPost2010Prop50
 90
       50
102
RTVSPost2010PropOp50
 70
     0
102
RTVSPost2010Prop51ColorIndex
 90
      256
102
RTVSPost2010Prop51ColorRGB
 90
-16777216
102
RTVSPost2010PropOp51
 70
     0
102
RTVSPost2010Prop52
140
1.0
102
RTVSPost2010PropOp52
 70
     0
102
RTVSPost2010Prop53
 90
        2
102
RTVSPost2010PropOp53
 70
     0
102
RTVSPost2010Prop54
  1
strokes_ogs.tif
102
RTVSPost2010PropOp54
 70
     0
102
RTVSPost2010Prop55
280
     0
102
RTVSPost2010PropOp55
 70
     1
102
RTVSPost2010Prop56
140
1.0
102
RTVSPost2010PropOp56
 70
     0
102
RTVSPost2010Prop57
140
1.0
102
RTVSPost2010PropOp57
 70
     0
  0
XRECORD
  5
32DB
102
{ACAD_REACTORS
330
32DA
102
}
330
32DA
100
AcDbXrecord
280
     1
102
RTVSPost2010Prop28
280
     0
102
RTVSPost2010PropOp28
 70
     1
102
RTVSPost2010Prop29
280
     1
102
RTVSPost2010PropOp29
 70
     1
102
RTVSPost2010Prop30
280
     1
102
RTVSPost2010PropOp30
 70
     1
102
RTVSPost2010Prop31
280
     0
102
RTVSPost2010PropOp31
 70
     1
102
RTVSPost2010Prop32
280
     0
102
RTVSPost2010PropOp32
 70
     1
102
RTVSPost2010Prop33
280
     0
102
RTVSPost2010PropOp33
 70
     1
102
RTVSPost2010Prop34
280
     0
102
RTVSPost2010PropOp34
 70
     1
102
RTVSPost2010Prop35
280
     0
102
RTVSPost2010PropOp35
 70
     1
102
RTVSPost2010Prop36
280
     0
102
RTVSPost2010PropOp36
 70
     1
102
RTVSPost2010Prop37
 90
       50
102
RTVSPost2010PropOp37
 70
     1
102
RTVSPost2010Prop38
140
0.0
102
RTVSPost2010PropOp38
 70
     1
102
RTVSPost2010Prop39
140
1.0
102
RTVSPost2010PropOp39
 70
     1
102
RTVSPost2010Prop40
 90
        0
102
RTVSPost2010PropOp40
 70
     1
102
RTVSPost2010Prop41ColorIndex
 90
       18
102
RTVSPost2010Prop41ColorRGB
 90
        0
102
RTVSPost2010PropOp41
 70
     1
102
RTVSPost2010Prop42
 90
       50
102
RTVSPost2010PropOp42
 70
     1
102
RTVSPost2010Prop43
 90
        3
102
RTVSPost2010PropOp43
 70
     1
102
RTVSPost2010Prop44ColorIndex
 90
        5
102
RTVSPost2010Prop44ColorRGB
 90
      255
102
RTVSPost2010PropOp44
 70
     1
102
RTVSPost2010Prop45
280
     0
102
RTVSPost2010PropOp45
 70
     1
102
RTVSPost2010Prop46
 90
       50
102
RTVSPost2010PropOp46
 70
     1
102
RTVSPost2010Prop47
 90
       50
102
RTVSPost2010PropOp47
 70
     1
102
RTVSPost2010Prop48
 90
       50
102
RTVSPost2010PropOp48
 70
     1
102
RTVSPost2010Prop49
280
     0
102
RTVSPost2010PropOp49
 70
     1
102
RTVSPost2010Prop50
 90
       50
102
RTVSPost2010PropOp50
 70
     1
102
RTVSPost2010Prop51ColorIndex
 90
      256
102
RTVSPost2010Prop51ColorRGB
 90
-16777216
102
RTVSPost2010PropOp51
 70
     0
102
RTVSPost2010Prop52
140
1.0
102
RTVSPost2010PropOp52
 70
     0
102
RTVSPost2010Prop53
 90
        2
102
RTVSPost2010PropOp53
 70
     1
102
RTVSPost2010Prop54
  1
strokes_ogs.tif
102
RTVSPost2010PropOp54
 70
     1
102
RTVSPost2010Prop55
280
     0
102
RTVSPost2010PropOp55
 70
     1
102
RTVSPost2010Prop56
140
1.0
102
RTVSPost2010PropOp56
 70
     1
102
RTVSPost2010Prop57
140
1.0
102
RTVSPost2010PropOp57
 70
     1
  0
XRECORD
  5
32BF
102
{ACAD_REACTORS
330
32BE
102
}
330
32BE
100
AcDbXrecord
280
     1
102
RTVSPost2010Prop28
280
     0
102
RTVSPost2010PropOp28
 70
     1
102
RTVSPost2010Prop29
280
     1
102
RTVSPost2010PropOp29
 70
     1
102
RTVSPost2010Prop30
280
     1
102
RTVSPost2010PropOp30
 70
     1
102
RTVSPost2010Prop31
280
     0
102
RTVSPost2010PropOp31
 70
     1
102
RTVSPost2010Prop32
280
     0
102
RTVSPost2010PropOp32
 70
     1
102
RTVSPost2010Prop33
280
     0
102
RTVSPost2010PropOp33
 70
     1
102
RTVSPost2010Prop34
280
     0
102
RTVSPost2010PropOp34
 70
     1
102
RTVSPost2010Prop35
280
     0
102
RTVSPost2010PropOp35
 70
     1
102
RTVSPost2010Prop36
280
     0
102
RTVSPost2010PropOp36
 70
     1
102
RTVSPost2010Prop37
 90
       50
102
RTVSPost2010PropOp37
 70
     1
102
RTVSPost2010Prop38
140
0.0
102
RTVSPost2010PropOp38
 70
     1
102
RTVSPost2010Prop39
140
1.0
102
RTVSPost2010PropOp39
 70
     1
102
RTVSPost2010Prop40
 90
        0
102
RTVSPost2010PropOp40
 70
     1
102
RTVSPost2010Prop41ColorIndex
 90
       18
102
RTVSPost2010Prop41ColorRGB
 90
        0
102
RTVSPost2010PropOp41
 70
     1
102
RTVSPost2010Prop42
 90
       50
102
RTVSPost2010PropOp42
 70
     1
102
RTVSPost2010Prop43
 90
        3
102
RTVSPost2010PropOp43
 70
     1
102
RTVSPost2010Prop44ColorIndex
 90
        5
102
RTVSPost2010Prop44ColorRGB
 90
      255
102
RTVSPost2010PropOp44
 70
     1
102
RTVSPost2010Prop45
280
     0
102
RTVSPost2010PropOp45
 70
     1
102
RTVSPost2010Prop46
 90
       50
102
RTVSPost2010PropOp46
 70
     1
102
RTVSPost2010Prop47
 90
       50
102
RTVSPost2010PropOp47
 70
     1
102
RTVSPost2010Prop48
 90
       50
102
RTVSPost2010PropOp48
 70
     1
102
RTVSPost2010Prop49
280
     0
102
RTVSPost2010PropOp49
 70
     1
102
RTVSPost2010Prop50
 90
       50
102
RTVSPost2010PropOp50
 70
     1
102
RTVSPost2010Prop51ColorIndex
 90
      256
102
RTVSPost2010Prop51ColorRGB
 90
-16777216
102
RTVSPost2010PropOp51
 70
     0
102
RTVSPost2010Prop52
140
1.0
102
RTVSPost2010PropOp52
 70
     0
102
RTVSPost2010Prop53
 90
        2
102
RTVSPost2010PropOp53
 70
     1
102
RTVSPost2010Prop54
  1
strokes_ogs.tif
102
RTVSPost2010PropOp54
 70
     1
102
RTVSPost2010Prop55
280
     0
102
RTVSPost2010PropOp55
 70
     1
102
RTVSPost2010Prop56
140
1.0
102
RTVSPost2010PropOp56
 70
     1
102
RTVSPost2010Prop57
140
1.0
102
RTVSPost2010PropOp57
 70
     1
  0
XRECORD
  5
32C1
102
{ACAD_REACTORS
330
32C0
102
}
330
32C0
100
AcDbXrecord
280
     1
102
RTVSPost2010Prop28
280
     0
102
RTVSPost2010PropOp28
 70
     1
102
RTVSPost2010Prop29
280
     1
102
RTVSPost2010PropOp29
 70
     1
102
RTVSPost2010Prop30
280
     1
102
RTVSPost2010PropOp30
 70
     1
102
RTVSPost2010Prop31
280
     0
102
RTVSPost2010PropOp31
 70
     1
102
RTVSPost2010Prop32
280
     0
102
RTVSPost2010PropOp32
 70
     1
102
RTVSPost2010Prop33
280
     0
102
RTVSPost2010PropOp33
 70
     1
102
RTVSPost2010Prop34
280
     0
102
RTVSPost2010PropOp34
 70
     1
102
RTVSPost2010Prop35
280
     0
102
RTVSPost2010PropOp35
 70
     1
102
RTVSPost2010Prop36
280
     0
102
RTVSPost2010PropOp36
 70
     1
102
RTVSPost2010Prop37
 90
       50
102
RTVSPost2010PropOp37
 70
     1
102
RTVSPost2010Prop38
140
0.0
102
RTVSPost2010PropOp38
 70
     1
102
RTVSPost2010Prop39
140
1.0
102
RTVSPost2010PropOp39
 70
     1
102
RTVSPost2010Prop40
 90
        0
102
RTVSPost2010PropOp40
 70
     1
102
RTVSPost2010Prop41ColorIndex
 90
       18
102
RTVSPost2010Prop41ColorRGB
 90
        0
102
RTVSPost2010PropOp41
 70
     1
102
RTVSPost2010Prop42
 90
       50
102
RTVSPost2010PropOp42
 70
     1
102
RTVSPost2010Prop43
 90
        3
102
RTVSPost2010PropOp43
 70
     1
102
RTVSPost2010Prop44ColorIndex
 90
        5
102
RTVSPost2010Prop44ColorRGB
 90
      255
102
RTVSPost2010PropOp44
 70
     1
102
RTVSPost2010Prop45
280
     0
102
RTVSPost2010PropOp45
 70
     1
102
RTVSPost2010Prop46
 90
       50
102
RTVSPost2010PropOp46
 70
     1
102
RTVSPost2010Prop47
 90
       50
102
RTVSPost2010PropOp47
 70
     1
102
RTVSPost2010Prop48
 90
       50
102
RTVSPost2010PropOp48
 70
     1
102
RTVSPost2010Prop49
280
     0
102
RTVSPost2010PropOp49
 70
     1
102
RTVSPost2010Prop50
 90
       50
102
RTVSPost2010PropOp50
 70
     1
102
RTVSPost2010Prop51ColorIndex
 90
      256
102
RTVSPost2010Prop51ColorRGB
 90
-16777216
102
RTVSPost2010PropOp51
 70
     0
102
RTVSPost2010Prop52
140
1.0
102
RTVSPost2010PropOp52
 70
     0
102
RTVSPost2010Prop53
 90
        2
102
RTVSPost2010PropOp53
 70
     1
102
RTVSPost2010Prop54
  1
strokes_ogs.tif
102
RTVSPost2010PropOp54
 70
     1
102
RTVSPost2010Prop55
280
     0
102
RTVSPost2010PropOp55
 70
     1
102
RTVSPost2010Prop56
140
1.0
102
RTVSPost2010PropOp56
 70
     1
102
RTVSPost2010Prop57
140
1.0
102
RTVSPost2010PropOp57
 70
     1
  0
XRECORD
  5
32C3
102
{ACAD_REACTORS
330
32C2
102
}
330
32C2
100
AcDbXrecord
280
     1
102
RTVSPost2010Prop28
280
     0
102
RTVSPost2010PropOp28
 70
     1
102
RTVSPost2010Prop29
280
     1
102
RTVSPost2010PropOp29
 70
     1
102
RTVSPost2010Prop30
280
     1
102
RTVSPost2010PropOp30
 70
     1
102
RTVSPost2010Prop31
280
     0
102
RTVSPost2010PropOp31
 70
     1
102
RTVSPost2010Prop32
280
     0
102
RTVSPost2010PropOp32
 70
     1
102
RTVSPost2010Prop33
280
     0
102
RTVSPost2010PropOp33
 70
     1
102
RTVSPost2010Prop34
280
     0
102
RTVSPost2010PropOp34
 70
     1
102
RTVSPost2010Prop35
280
     0
102
RTVSPost2010PropOp35
 70
     1
102
RTVSPost2010Prop36
280
     0
102
RTVSPost2010PropOp36
 70
     1
102
RTVSPost2010Prop37
 90
       50
102
RTVSPost2010PropOp37
 70
     1
102
RTVSPost2010Prop38
140
0.0
102
RTVSPost2010PropOp38
 70
     1
102
RTVSPost2010Prop39
140
1.0
102
RTVSPost2010PropOp39
 70
     1
102
RTVSPost2010Prop40
 90
        0
102
RTVSPost2010PropOp40
 70
     1
102
RTVSPost2010Prop41ColorIndex
 90
       18
102
RTVSPost2010Prop41ColorRGB
 90
        0
102
RTVSPost2010PropOp41
 70
     1
102
RTVSPost2010Prop42
 90
       50
102
RTVSPost2010PropOp42
 70
     1
102
RTVSPost2010Prop43
 90
        3
102
RTVSPost2010PropOp43
 70
     1
102
RTVSPost2010Prop44ColorIndex
 90
        5
102
RTVSPost2010Prop44ColorRGB
 90
      255
102
RTVSPost2010PropOp44
 70
     1
102
RTVSPost2010Prop45
280
     0
102
RTVSPost2010PropOp45
 70
     1
102
RTVSPost2010Prop46
 90
       50
102
RTVSPost2010PropOp46
 70
     1
102
RTVSPost2010Prop47
 90
       50
102
RTVSPost2010PropOp47
 70
     1
102
RTVSPost2010Prop48
 90
       50
102
RTVSPost2010PropOp48
 70
     1
102
RTVSPost2010Prop49
280
     0
102
RTVSPost2010PropOp49
 70
     1
102
RTVSPost2010Prop50
 90
       50
102
RTVSPost2010PropOp50
 70
     1
102
RTVSPost2010Prop51ColorIndex
 90
      256
102
RTVSPost2010Prop51ColorRGB
 90
-16777216
102
RTVSPost2010PropOp51
 70
     0
102
RTVSPost2010Prop52
140
1.0
102
RTVSPost2010PropOp52
 70
     0
102
RTVSPost2010Prop53
 90
        2
102
RTVSPost2010PropOp53
 70
     1
102
RTVSPost2010Prop54
  1
strokes_ogs.tif
102
RTVSPost2010PropOp54
 70
     1
102
RTVSPost2010Prop55
280
     0
102
RTVSPost2010PropOp55
 70
     1
102
RTVSPost2010Prop56
140
1.0
102
RTVSPost2010PropOp56
 70
     1
102
RTVSPost2010Prop57
140
1.0
102
RTVSPost2010PropOp57
 70
     1
  0
XRECORD
  5
32C5
102
{ACAD_REACTORS
330
32C4
102
}
330
32C4
100
AcDbXrecord
280
     1
102
RTVSPost2010Prop28
280
     0
102
RTVSPost2010PropOp28
 70
     1
102
RTVSPost2010Prop29
280
     1
102
RTVSPost2010PropOp29
 70
     1
102
RTVSPost2010Prop30
280
     1
102
RTVSPost2010PropOp30
 70
     1
102
RTVSPost2010Prop31
280
     0
102
RTVSPost2010PropOp31
 70
     1
102
RTVSPost2010Prop32
280
     0
102
RTVSPost2010PropOp32
 70
     1
102
RTVSPost2010Prop33
280
     0
102
RTVSPost2010PropOp33
 70
     1
102
RTVSPost2010Prop34
280
     0
102
RTVSPost2010PropOp34
 70
     1
102
RTVSPost2010Prop35
280
     0
102
RTVSPost2010PropOp35
 70
     1
102
RTVSPost2010Prop36
280
     0
102
RTVSPost2010PropOp36
 70
     1
102
RTVSPost2010Prop37
 90
       50
102
RTVSPost2010PropOp37
 70
     1
102
RTVSPost2010Prop38
140
0.0
102
RTVSPost2010PropOp38
 70
     1
102
RTVSPost2010Prop39
140
1.0
102
RTVSPost2010PropOp39
 70
     1
102
RTVSPost2010Prop40
 90
        0
102
RTVSPost2010PropOp40
 70
     1
102
RTVSPost2010Prop41ColorIndex
 90
       18
102
RTVSPost2010Prop41ColorRGB
 90
        0
102
RTVSPost2010PropOp41
 70
     1
102
RTVSPost2010Prop42
 90
       50
102
RTVSPost2010PropOp42
 70
     1
102
RTVSPost2010Prop43
 90
        3
102
RTVSPost2010PropOp43
 70
     1
102
RTVSPost2010Prop44ColorIndex
 90
        5
102
RTVSPost2010Prop44ColorRGB
 90
      255
102
RTVSPost2010PropOp44
 70
     1
102
RTVSPost2010Prop45
280
     0
102
RTVSPost2010PropOp45
 70
     1
102
RTVSPost2010Prop46
 90
       50
102
RTVSPost2010PropOp46
 70
     1
102
RTVSPost2010Prop47
 90
       50
102
RTVSPost2010PropOp47
 70
     1
102
RTVSPost2010Prop48
 90
       50
102
RTVSPost2010PropOp48
 70
     1
102
RTVSPost2010Prop49
280
     0
102
RTVSPost2010PropOp49
 70
     1
102
RTVSPost2010Prop50
 90
       50
102
RTVSPost2010PropOp50
 70
     1
102
RTVSPost2010Prop51ColorIndex
 90
      256
102
RTVSPost2010Prop51ColorRGB
 90
-16777216
102
RTVSPost2010PropOp51
 70
     0
102
RTVSPost2010Prop52
140
1.0
102
RTVSPost2010PropOp52
 70
     0
102
RTVSPost2010Prop53
 90
        2
102
RTVSPost2010PropOp53
 70
     1
102
RTVSPost2010Prop54
  1
strokes_ogs.tif
102
RTVSPost2010PropOp54
 70
     1
102
RTVSPost2010Prop55
280
     0
102
RTVSPost2010PropOp55
 70
     1
102
RTVSPost2010Prop56
140
1.0
102
RTVSPost2010PropOp56
 70
     1
102
RTVSPost2010Prop57
140
1.0
102
RTVSPost2010PropOp57
 70
     1
  0
XRECORD
  5
32CD
102
{ACAD_REACTORS
330
32CC
102
}
330
32CC
100
AcDbXrecord
280
     1
102
RTVSPost2010Prop28
280
     0
102
RTVSPost2010PropOp28
 70
     1
102
RTVSPost2010Prop29
280
     1
102
RTVSPost2010PropOp29
 70
     1
102
RTVSPost2010Prop30
280
     1
102
RTVSPost2010PropOp30
 70
     1
102
RTVSPost2010Prop31
280
     0
102
RTVSPost2010PropOp31
 70
     1
102
RTVSPost2010Prop32
280
     0
102
RTVSPost2010PropOp32
 70
     1
102
RTVSPost2010Prop33
280
     0
102
RTVSPost2010PropOp33
 70
     1
102
RTVSPost2010Prop34
280
     0
102
RTVSPost2010PropOp34
 70
     1
102
RTVSPost2010Prop35
280
     0
102
RTVSPost2010PropOp35
 70
     1
102
RTVSPost2010Prop36
280
     0
102
RTVSPost2010PropOp36
 70
     1
102
RTVSPost2010Prop37
 90
       50
102
RTVSPost2010PropOp37
 70
     1
102
RTVSPost2010Prop38
140
0.0
102
RTVSPost2010PropOp38
 70
     1
102
RTVSPost2010Prop39
140
1.0
102
RTVSPost2010PropOp39
 70
     1
102
RTVSPost2010Prop40
 90
        0
102
RTVSPost2010PropOp40
 70
     1
102
RTVSPost2010Prop41ColorIndex
 90
       18
102
RTVSPost2010Prop41ColorRGB
 90
        0
102
RTVSPost2010PropOp41
 70
     1
102
RTVSPost2010Prop42
 90
       50
102
RTVSPost2010PropOp42
 70
     1
102
RTVSPost2010Prop43
 90
        3
102
RTVSPost2010PropOp43
 70
     1
102
RTVSPost2010Prop44ColorIndex
 90
        5
102
RTVSPost2010Prop44ColorRGB
 90
      255
102
RTVSPost2010PropOp44
 70
     1
102
RTVSPost2010Prop45
280
     0
102
RTVSPost2010PropOp45
 70
     1
102
RTVSPost2010Prop46
 90
       50
102
RTVSPost2010PropOp46
 70
     1
102
RTVSPost2010Prop47
 90
       50
102
RTVSPost2010PropOp47
 70
     1
102
RTVSPost2010Prop48
 90
       50
102
RTVSPost2010PropOp48
 70
     1
102
RTVSPost2010Prop49
280
     0
102
RTVSPost2010PropOp49
 70
     1
102
RTVSPost2010Prop50
 90
       50
102
RTVSPost2010PropOp50
 70
     1
102
RTVSPost2010Prop51ColorIndex
 90
      256
102
RTVSPost2010Prop51ColorRGB
 90
-16777216
102
RTVSPost2010PropOp51
 70
     0
102
RTVSPost2010Prop52
140
1.0
102
RTVSPost2010PropOp52
 70
     0
102
RTVSPost2010Prop53
 90
        2
102
RTVSPost2010PropOp53
 70
     1
102
RTVSPost2010Prop54
  1
strokes_ogs.tif
102
RTVSPost2010PropOp54
 70
     1
102
RTVSPost2010Prop55
280
     0
102
RTVSPost2010PropOp55
 70
     1
102
RTVSPost2010Prop56
140
1.0
102
RTVSPost2010PropOp56
 70
     1
102
RTVSPost2010Prop57
140
1.0
102
RTVSPost2010PropOp57
 70
     1
  0
XRECORD
  5
32E9
102
{ACAD_REACTORS
330
32E8
102
}
330
32E8
100
AcDbXrecord
280
     1
102
RTVSPost2010Prop28
280
     0
102
RTVSPost2010PropOp28
 70
     1
102
RTVSPost2010Prop29
280
     1
102
RTVSPost2010PropOp29
 70
     1
102
RTVSPost2010Prop30
280
     1
102
RTVSPost2010PropOp30
 70
     1
102
RTVSPost2010Prop31
280
     0
102
RTVSPost2010PropOp31
 70
     1
102
RTVSPost2010Prop32
280
     0
102
RTVSPost2010PropOp32
 70
     1
102
RTVSPost2010Prop33
280
     0
102
RTVSPost2010PropOp33
 70
     1
102
RTVSPost2010Prop34
280
     0
102
RTVSPost2010PropOp34
 70
     1
102
RTVSPost2010Prop35
280
     0
102
RTVSPost2010PropOp35
 70
     1
102
RTVSPost2010Prop36
280
     0
102
RTVSPost2010PropOp36
 70
     1
102
RTVSPost2010Prop37
 90
       50
102
RTVSPost2010PropOp37
 70
     0
102
RTVSPost2010Prop38
140
0.0
102
RTVSPost2010PropOp38
 70
     0
102
RTVSPost2010Prop39
140
1.0
102
RTVSPost2010PropOp39
 70
     0
102
RTVSPost2010Prop40
 90
        0
102
RTVSPost2010PropOp40
 70
     0
102
RTVSPost2010Prop41ColorIndex
 90
       18
102
RTVSPost2010Prop41ColorRGB
 90
        0
102
RTVSPost2010PropOp41
 70
     0
102
RTVSPost2010Prop42
 90
       50
102
RTVSPost2010PropOp42
 70
     0
102
RTVSPost2010Prop43
 90
        3
102
RTVSPost2010PropOp43
 70
     0
102
RTVSPost2010Prop44ColorIndex
 90
        5
102
RTVSPost2010Prop44ColorRGB
 90
      255
102
RTVSPost2010PropOp44
 70
     0
102
RTVSPost2010Prop45
280
     0
102
RTVSPost2010PropOp45
 70
     1
102
RTVSPost2010Prop46
 90
       50
102
RTVSPost2010PropOp46
 70
     0
102
RTVSPost2010Prop47
 90
       50
102
RTVSPost2010PropOp47
 70
     0
102
RTVSPost2010Prop48
 90
       50
102
RTVSPost2010PropOp48
 70
     0
102
RTVSPost2010Prop49
280
     0
102
RTVSPost2010PropOp49
 70
     1
102
RTVSPost2010Prop50
 90
       50
102
RTVSPost2010PropOp50
 70
     0
102
RTVSPost2010Prop51ColorIndex
 90
      256
102
RTVSPost2010Prop51ColorRGB
 90
-16777216
102
RTVSPost2010PropOp51
 70
     0
102
RTVSPost2010Prop52
140
1.0
102
RTVSPost2010PropOp52
 70
     0
102
RTVSPost2010Prop53
 90
        2
102
RTVSPost2010PropOp53
 70
     0
102
RTVSPost2010Prop54
  1
strokes_ogs.tif
102
RTVSPost2010PropOp54
 70
     0
102
RTVSPost2010Prop55
280
     0
102
RTVSPost2010PropOp55
 70
     1
102
RTVSPost2010Prop56
140
1.0
102
RTVSPost2010PropOp56
 70
     0
102
RTVSPost2010Prop57
140
1.0
102
RTVSPost2010PropOp57
 70
     0
  0
XRECORD
  5
32D9
102
{ACAD_REACTORS
330
32D8
102
}
330
32D8
100
AcDbXrecord
280
     1
102
RTVSPost2010Prop28
280
     0
102
RTVSPost2010PropOp28
 70
     1
102
RTVSPost2010Prop29
280
     1
102
RTVSPost2010PropOp29
 70
     1
102
RTVSPost2010Prop30
280
     1
102
RTVSPost2010PropOp30
 70
     1
102
RTVSPost2010Prop31
280
     0
102
RTVSPost2010PropOp31
 70
     1
102
RTVSPost2010Prop32
280
     0
102
RTVSPost2010PropOp32
 70
     1
102
RTVSPost2010Prop33
280
     0
102
RTVSPost2010PropOp33
 70
     1
102
RTVSPost2010Prop34
280
     0
102
RTVSPost2010PropOp34
 70
     1
102
RTVSPost2010Prop35
280
     0
102
RTVSPost2010PropOp35
 70
     1
102
RTVSPost2010Prop36
280
     0
102
RTVSPost2010PropOp36
 70
     1
102
RTVSPost2010Prop37
 90
       50
102
RTVSPost2010PropOp37
 70
     1
102
RTVSPost2010Prop38
140
0.0
102
RTVSPost2010PropOp38
 70
     1
102
RTVSPost2010Prop39
140
1.0
102
RTVSPost2010PropOp39
 70
     1
102
RTVSPost2010Prop40
 90
        0
102
RTVSPost2010PropOp40
 70
     1
102
RTVSPost2010Prop41ColorIndex
 90
       18
102
RTVSPost2010Prop41ColorRGB
 90
        0
102
RTVSPost2010PropOp41
 70
     1
102
RTVSPost2010Prop42
 90
       50
102
RTVSPost2010PropOp42
 70
     1
102
RTVSPost2010Prop43
 90
        3
102
RTVSPost2010PropOp43
 70
     1
102
RTVSPost2010Prop44ColorIndex
 90
        5
102
RTVSPost2010Prop44ColorRGB
 90
      255
102
RTVSPost2010PropOp44
 70
     1
102
RTVSPost2010Prop45
280
     0
102
RTVSPost2010PropOp45
 70
     1
102
RTVSPost2010Prop46
 90
       50
102
RTVSPost2010PropOp46
 70
     1
102
RTVSPost2010Prop47
 90
       50
102
RTVSPost2010PropOp47
 70
     1
102
RTVSPost2010Prop48
 90
       50
102
RTVSPost2010PropOp48
 70
     1
102
RTVSPost2010Prop49
280
     0
102
RTVSPost2010PropOp49
 70
     1
102
RTVSPost2010Prop50
 90
       50
102
RTVSPost2010PropOp50
 70
     1
102
RTVSPost2010Prop51ColorIndex
 90
      256
102
RTVSPost2010Prop51ColorRGB
 90
-16777216
102
RTVSPost2010PropOp51
 70
     0
102
RTVSPost2010Prop52
140
1.0
102
RTVSPost2010PropOp52
 70
     0
102
RTVSPost2010Prop53
 90
        2
102
RTVSPost2010PropOp53
 70
     1
102
RTVSPost2010Prop54
  1
strokes_ogs.tif
102
RTVSPost2010PropOp54
 70
     1
102
RTVSPost2010Prop55
280
     0
102
RTVSPost2010PropOp55
 70
     1
102
RTVSPost2010Prop56
140
1.0
102
RTVSPost2010PropOp56
 70
     1
102
RTVSPost2010Prop57
140
1.0
102
RTVSPost2010PropOp57
 70
     1
  0
XRECORD
  5
32EB
102
{ACAD_REACTORS
330
32EA
102
}
330
32EA
100
AcDbXrecord
280
     1
102
RTVSPost2010Prop28
280
     0
102
RTVSPost2010PropOp28
 70
     1
102
RTVSPost2010Prop29
280
     1
102
RTVSPost2010PropOp29
 70
     1
102
RTVSPost2010Prop30
280
     1
102
RTVSPost2010PropOp30
 70
     1
102
RTVSPost2010Prop31
280
     0
102
RTVSPost2010PropOp31
 70
     1
102
RTVSPost2010Prop32
280
     0
102
RTVSPost2010PropOp32
 70
     1
102
RTVSPost2010Prop33
280
     0
102
RTVSPost2010PropOp33
 70
     1
102
RTVSPost2010Prop34
280
     0
102
RTVSPost2010PropOp34
 70
     1
102
RTVSPost2010Prop35
280
     0
102
RTVSPost2010PropOp35
 70
     1
102
RTVSPost2010Prop36
280
     0
102
RTVSPost2010PropOp36
 70
     1
102
RTVSPost2010Prop37
 90
       50
102
RTVSPost2010PropOp37
 70
     0
102
RTVSPost2010Prop38
140
0.0
102
RTVSPost2010PropOp38
 70
     0
102
RTVSPost2010Prop39
140
1.0
102
RTVSPost2010PropOp39
 70
     0
102
RTVSPost2010Prop40
 90
        0
102
RTVSPost2010PropOp40
 70
     0
102
RTVSPost2010Prop41ColorIndex
 90
       18
102
RTVSPost2010Prop41ColorRGB
 90
        0
102
RTVSPost2010PropOp41
 70
     0
102
RTVSPost2010Prop42
 90
       50
102
RTVSPost2010PropOp42
 70
     0
102
RTVSPost2010Prop43
 90
        3
102
RTVSPost2010PropOp43
 70
     0
102
RTVSPost2010Prop44ColorIndex
 90
        5
102
RTVSPost2010Prop44ColorRGB
 90
      255
102
RTVSPost2010PropOp44
 70
     0
102
RTVSPost2010Prop45
280
     0
102
RTVSPost2010PropOp45
 70
     1
102
RTVSPost2010Prop46
 90
       50
102
RTVSPost2010PropOp46
 70
     0
102
RTVSPost2010Prop47
 90
       50
102
RTVSPost2010PropOp47
 70
     0
102
RTVSPost2010Prop48
 90
       50
102
RTVSPost2010PropOp48
 70
     0
102
RTVSPost2010Prop49
280
     0
102
RTVSPost2010PropOp49
 70
     1
102
RTVSPost2010Prop50
 90
       50
102
RTVSPost2010PropOp50
 70
     0
102
RTVSPost2010Prop51ColorIndex
 90
      256
102
RTVSPost2010Prop51ColorRGB
 90
-16777216
102
RTVSPost2010PropOp51
 70
     0
102
RTVSPost2010Prop52
140
1.0
102
RTVSPost2010PropOp52
 70
     0
102
RTVSPost2010Prop53
 90
        2
102
RTVSPost2010PropOp53
 70
     0
102
RTVSPost2010Prop54
  1
strokes_ogs.tif
102
RTVSPost2010PropOp54
 70
     0
102
RTVSPost2010Prop55
280
     0
102
RTVSPost2010PropOp55
 70
     1
102
RTVSPost2010Prop56
140
1.0
102
RTVSPost2010PropOp56
 70
     0
102
RTVSPost2010Prop57
140
1.0
102
RTVSPost2010PropOp57
 70
     0
  0
XRECORD
  5
32D1
102
{ACAD_REACTORS
330
32D0
102
}
330
32D0
100
AcDbXrecord
280
     1
102
RTVSPost2010Prop28
280
     0
102
RTVSPost2010PropOp28
 70
     1
102
RTVSPost2010Prop29
280
     1
102
RTVSPost2010PropOp29
 70
     1
102
RTVSPost2010Prop30
280
     1
102
RTVSPost2010PropOp30
 70
     1
102
RTVSPost2010Prop31
280
     0
102
RTVSPost2010PropOp31
 70
     1
102
RTVSPost2010Prop32
280
     0
102
RTVSPost2010PropOp32
 70
     1
102
RTVSPost2010Prop33
280
     0
102
RTVSPost2010PropOp33
 70
     1
102
RTVSPost2010Prop34
280
     0
102
RTVSPost2010PropOp34
 70
     1
102
RTVSPost2010Prop35
280
     0
102
RTVSPost2010PropOp35
 70
     1
102
RTVSPost2010Prop36
280
     0
102
RTVSPost2010PropOp36
 70
     1
102
RTVSPost2010Prop37
 90
       50
102
RTVSPost2010PropOp37
 70
     1
102
RTVSPost2010Prop38
140
0.0
102
RTVSPost2010PropOp38
 70
     1
102
RTVSPost2010Prop39
140
1.0
102
RTVSPost2010PropOp39
 70
     1
102
RTVSPost2010Prop40
 90
        0
102
RTVSPost2010PropOp40
 70
     1
102
RTVSPost2010Prop41ColorIndex
 90
       18
102
RTVSPost2010Prop41ColorRGB
 90
        0
102
RTVSPost2010PropOp41
 70
     1
102
RTVSPost2010Prop42
 90
       50
102
RTVSPost2010PropOp42
 70
     1
102
RTVSPost2010Prop43
 90
        3
102
RTVSPost2010PropOp43
 70
     1
102
RTVSPost2010Prop44ColorIndex
 90
        5
102
RTVSPost2010Prop44ColorRGB
 90
      255
102
RTVSPost2010PropOp44
 70
     1
102
RTVSPost2010Prop45
280
     0
102
RTVSPost2010PropOp45
 70
     1
102
RTVSPost2010Prop46
 90
       50
102
RTVSPost2010PropOp46
 70
     1
102
RTVSPost2010Prop47
 90
       50
102
RTVSPost2010PropOp47
 70
     1
102
RTVSPost2010Prop48
 90
       50
102
RTVSPost2010PropOp48
 70
     1
102
RTVSPost2010Prop49
280
     0
102
RTVSPost2010PropOp49
 70
     1
102
RTVSPost2010Prop50
 90
       50
102
RTVSPost2010PropOp50
 70
     1
102
RTVSPost2010Prop51ColorIndex
 90
      256
102
RTVSPost2010Prop51ColorRGB
 90
-16777216
102
RTVSPost2010PropOp51
 70
     0
102
RTVSPost2010Prop52
140
1.0
102
RTVSPost2010PropOp52
 70
     0
102
RTVSPost2010Prop53
 90
        2
102
RTVSPost2010PropOp53
 70
     1
102
RTVSPost2010Prop54
  1
strokes_ogs.tif
102
RTVSPost2010PropOp54
 70
     1
102
RTVSPost2010Prop55
280
     0
102
RTVSPost2010PropOp55
 70
     1
102
RTVSPost2010Prop56
140
1.0
102
RTVSPost2010PropOp56
 70
     1
102
RTVSPost2010Prop57
140
1.0
102
RTVSPost2010PropOp57
 70
     1
  0
XRECORD
  5
32E7
102
{ACAD_REACTORS
330
32E6
102
}
330
32E6
100
AcDbXrecord
280
     1
102
RTVSPost2010Prop28
280
     0
102
RTVSPost2010PropOp28
 70
     1
102
RTVSPost2010Prop29
280
     1
102
RTVSPost2010PropOp29
 70
     1
102
RTVSPost2010Prop30
280
     1
102
RTVSPost2010PropOp30
 70
     1
102
RTVSPost2010Prop31
280
     0
102
RTVSPost2010PropOp31
 70
     1
102
RTVSPost2010Prop32
280
     0
102
RTVSPost2010PropOp32
 70
     1
102
RTVSPost2010Prop33
280
     0
102
RTVSPost2010PropOp33
 70
     1
102
RTVSPost2010Prop34
280
     0
102
RTVSPost2010PropOp34
 70
     1
102
RTVSPost2010Prop35
280
     0
102
RTVSPost2010PropOp35
 70
     1
102
RTVSPost2010Prop36
280
     0
102
RTVSPost2010PropOp36
 70
     1
102
RTVSPost2010Prop37
 90
       50
102
RTVSPost2010PropOp37
 70
     1
102
RTVSPost2010Prop38
140
0.0
102
RTVSPost2010PropOp38
 70
     1
102
RTVSPost2010Prop39
140
1.0
102
RTVSPost2010PropOp39
 70
     1
102
RTVSPost2010Prop40
 90
        0
102
RTVSPost2010PropOp40
 70
     1
102
RTVSPost2010Prop41ColorIndex
 90
       18
102
RTVSPost2010Prop41ColorRGB
 90
        0
102
RTVSPost2010PropOp41
 70
     1
102
RTVSPost2010Prop42
 90
       50
102
RTVSPost2010PropOp42
 70
     1
102
RTVSPost2010Prop43
 90
        3
102
RTVSPost2010PropOp43
 70
     1
102
RTVSPost2010Prop44ColorIndex
 90
        5
102
RTVSPost2010Prop44ColorRGB
 90
      255
102
RTVSPost2010PropOp44
 70
     1
102
RTVSPost2010Prop45
280
     0
102
RTVSPost2010PropOp45
 70
     1
102
RTVSPost2010Prop46
 90
       50
102
RTVSPost2010PropOp46
 70
     1
102
RTVSPost2010Prop47
 90
       50
102
RTVSPost2010PropOp47
 70
     1
102
RTVSPost2010Prop48
 90
       50
102
RTVSPost2010PropOp48
 70
     1
102
RTVSPost2010Prop49
280
     0
102
RTVSPost2010PropOp49
 70
     1
102
RTVSPost2010Prop50
 90
       50
102
RTVSPost2010PropOp50
 70
     1
102
RTVSPost2010Prop51ColorIndex
 90
      256
102
RTVSPost2010Prop51ColorRGB
 90
-16777216
102
RTVSPost2010PropOp51
 70
     0
102
RTVSPost2010Prop52
140
1.0
102
RTVSPost2010PropOp52
 70
     0
102
RTVSPost2010Prop53
 90
        2
102
RTVSPost2010PropOp53
 70
     1
102
RTVSPost2010Prop54
  1
strokes_ogs.tif
102
RTVSPost2010PropOp54
 70
     1
102
RTVSPost2010Prop55
280
     0
102
RTVSPost2010PropOp55
 70
     1
102
RTVSPost2010Prop56
140
1.0
102
RTVSPost2010PropOp56
 70
     1
102
RTVSPost2010Prop57
140
1.0
102
RTVSPost2010PropOp57
 70
     1
  0
XRECORD
  5
32E5
102
{ACAD_REACTORS
330
32E4
102
}
330
32E4
100
AcDbXrecord
280
     1
102
RTVSPost2010Prop28
280
     0
102
RTVSPost2010PropOp28
 70
     1
102
RTVSPost2010Prop29
280
     1
102
RTVSPost2010PropOp29
 70
     1
102
RTVSPost2010Prop30
280
     1
102
RTVSPost2010PropOp30
 70
     1
102
RTVSPost2010Prop31
280
     0
102
RTVSPost2010PropOp31
 70
     1
102
RTVSPost2010Prop32
280
     0
102
RTVSPost2010PropOp32
 70
     1
102
RTVSPost2010Prop33
280
     0
102
RTVSPost2010PropOp33
 70
     1
102
RTVSPost2010Prop34
280
     0
102
RTVSPost2010PropOp34
 70
     1
102
RTVSPost2010Prop35
280
     0
102
RTVSPost2010PropOp35
 70
     1
102
RTVSPost2010Prop36
280
     0
102
RTVSPost2010PropOp36
 70
     1
102
RTVSPost2010Prop37
 90
       50
102
RTVSPost2010PropOp37
 70
     1
102
RTVSPost2010Prop38
140
0.0
102
RTVSPost2010PropOp38
 70
     1
102
RTVSPost2010Prop39
140
1.0
102
RTVSPost2010PropOp39
 70
     1
102
RTVSPost2010Prop40
 90
        0
102
RTVSPost2010PropOp40
 70
     1
102
RTVSPost2010Prop41ColorIndex
 90
       18
102
RTVSPost2010Prop41ColorRGB
 90
        0
102
RTVSPost2010PropOp41
 70
     1
102
RTVSPost2010Prop42
 90
       50
102
RTVSPost2010PropOp42
 70
     1
102
RTVSPost2010Prop43
 90
        3
102
RTVSPost2010PropOp43
 70
     1
102
RTVSPost2010Prop44ColorIndex
 90
        5
102
RTVSPost2010Prop44ColorRGB
 90
      255
102
RTVSPost2010PropOp44
 70
     1
102
RTVSPost2010Prop45
280
     0
102
RTVSPost2010PropOp45
 70
     1
102
RTVSPost2010Prop46
 90
       50
102
RTVSPost2010PropOp46
 70
     1
102
RTVSPost2010Prop47
 90
       50
102
RTVSPost2010PropOp47
 70
     1
102
RTVSPost2010Prop48
 90
       50
102
RTVSPost2010PropOp48
 70
     1
102
RTVSPost2010Prop49
280
     0
102
RTVSPost2010PropOp49
 70
     1
102
RTVSPost2010Prop50
 90
       50
102
RTVSPost2010PropOp50
 70
     1
102
RTVSPost2010Prop51ColorIndex
 90
      256
102
RTVSPost2010Prop51ColorRGB
 90
-16777216
102
RTVSPost2010PropOp51
 70
     0
102
RTVSPost2010Prop52
140
1.0
102
RTVSPost2010PropOp52
 70
     0
102
RTVSPost2010Prop53
 90
        2
102
RTVSPost2010PropOp53
 70
     1
102
RTVSPost2010Prop54
  1
strokes_ogs.tif
102
RTVSPost2010PropOp54
 70
     1
102
RTVSPost2010Prop55
280
     0
102
RTVSPost2010PropOp55
 70
     1
102
RTVSPost2010Prop56
140
1.0
102
RTVSPost2010PropOp56
 70
     1
102
RTVSPost2010Prop57
140
1.0
102
RTVSPost2010PropOp57
 70
     1
  0
XRECORD
  5
32DF
102
{ACAD_REACTORS
330
32DE
102
}
330
32DE
100
AcDbXrecord
280
     1
102
RTVSPost2010Prop28
280
     0
102
RTVSPost2010PropOp28
 70
     1
102
RTVSPost2010Prop29
280
     1
102
RTVSPost2010PropOp29
 70
     1
102
RTVSPost2010Prop30
280
     1
102
RTVSPost2010PropOp30
 70
     1
102
RTVSPost2010Prop31
280
     0
102
RTVSPost2010PropOp31
 70
     1
102
RTVSPost2010Prop32
280
     0
102
RTVSPost2010PropOp32
 70
     1
102
RTVSPost2010Prop33
280
     0
102
RTVSPost2010PropOp33
 70
     1
102
RTVSPost2010Prop34
280
     0
102
RTVSPost2010PropOp34
 70
     1
102
RTVSPost2010Prop35
280
     0
102
RTVSPost2010PropOp35
 70
     1
102
RTVSPost2010Prop36
280
     0
102
RTVSPost2010PropOp36
 70
     1
102
RTVSPost2010Prop37
 90
       50
102
RTVSPost2010PropOp37
 70
     1
102
RTVSPost2010Prop38
140
0.0
102
RTVSPost2010PropOp38
 70
     1
102
RTVSPost2010Prop39
140
1.0
102
RTVSPost2010PropOp39
 70
     1
102
RTVSPost2010Prop40
 90
        0
102
RTVSPost2010PropOp40
 70
     1
102
RTVSPost2010Prop41ColorIndex
 90
       18
102
RTVSPost2010Prop41ColorRGB
 90
        0
102
RTVSPost2010PropOp41
 70
     1
102
RTVSPost2010Prop42
 90
       50
102
RTVSPost2010PropOp42
 70
     1
102
RTVSPost2010Prop43
 90
        3
102
RTVSPost2010PropOp43
 70
     1
102
RTVSPost2010Prop44ColorIndex
 90
        5
102
RTVSPost2010Prop44ColorRGB
 90
      255
102
RTVSPost2010PropOp44
 70
     1
102
RTVSPost2010Prop45
280
     0
102
RTVSPost2010PropOp45
 70
     1
102
RTVSPost2010Prop46
 90
       50
102
RTVSPost2010PropOp46
 70
     1
102
RTVSPost2010Prop47
 90
       50
102
RTVSPost2010PropOp47
 70
     1
102
RTVSPost2010Prop48
 90
       50
102
RTVSPost2010PropOp48
 70
     1
102
RTVSPost2010Prop49
280
     0
102
RTVSPost2010PropOp49
 70
     1
102
RTVSPost2010Prop50
 90
       50
102
RTVSPost2010PropOp50
 70
     1
102
RTVSPost2010Prop51ColorIndex
 90
      256
102
RTVSPost2010Prop51ColorRGB
 90
-16777216
102
RTVSPost2010PropOp51
 70
     0
102
RTVSPost2010Prop52
140
1.0
102
RTVSPost2010PropOp52
 70
     0
102
RTVSPost2010Prop53
 90
        2
102
RTVSPost2010PropOp53
 70
     1
102
RTVSPost2010Prop54
  1
strokes_ogs.tif
102
RTVSPost2010PropOp54
 70
     1
102
RTVSPost2010Prop55
280
     0
102
RTVSPost2010PropOp55
 70
     1
102
RTVSPost2010Prop56
140
1.0
102
RTVSPost2010PropOp56
 70
     1
102
RTVSPost2010Prop57
140
1.0
102
RTVSPost2010PropOp57
 70
     1
  0
XRECORD
  5
32E1
102
{ACAD_REACTORS
330
32E0
102
}
330
32E0
100
AcDbXrecord
280
     1
102
RTVSPost2010Prop28
280
     0
102
RTVSPost2010PropOp28
 70
     1
102
RTVSPost2010Prop29
280
     1
102
RTVSPost2010PropOp29
 70
     1
102
RTVSPost2010Prop30
280
     1
102
RTVSPost2010PropOp30
 70
     1
102
RTVSPost2010Prop31
280
     0
102
RTVSPost2010PropOp31
 70
     1
102
RTVSPost2010Prop32
280
     0
102
RTVSPost2010PropOp32
 70
     1
102
RTVSPost2010Prop33
280
     0
102
RTVSPost2010PropOp33
 70
     1
102
RTVSPost2010Prop34
280
     0
102
RTVSPost2010PropOp34
 70
     1
102
RTVSPost2010Prop35
280
     0
102
RTVSPost2010PropOp35
 70
     1
102
RTVSPost2010Prop36
280
     0
102
RTVSPost2010PropOp36
 70
     1
102
RTVSPost2010Prop37
 90
       50
102
RTVSPost2010PropOp37
 70
     1
102
RTVSPost2010Prop38
140
0.0
102
RTVSPost2010PropOp38
 70
     1
102
RTVSPost2010Prop39
140
1.0
102
RTVSPost2010PropOp39
 70
     1
102
RTVSPost2010Prop40
 90
        0
102
RTVSPost2010PropOp40
 70
     1
102
RTVSPost2010Prop41ColorIndex
 90
       18
102
RTVSPost2010Prop41ColorRGB
 90
        0
102
RTVSPost2010PropOp41
 70
     1
102
RTVSPost2010Prop42
 90
       50
102
RTVSPost2010PropOp42
 70
     1
102
RTVSPost2010Prop43
 90
        3
102
RTVSPost2010PropOp43
 70
     1
102
RTVSPost2010Prop44ColorIndex
 90
        5
102
RTVSPost2010Prop44ColorRGB
 90
      255
102
RTVSPost2010PropOp44
 70
     1
102
RTVSPost2010Prop45
280
     0
102
RTVSPost2010PropOp45
 70
     1
102
RTVSPost2010Prop46
 90
       50
102
RTVSPost2010PropOp46
 70
     1
102
RTVSPost2010Prop47
 90
       50
102
RTVSPost2010PropOp47
 70
     1
102
RTVSPost2010Prop48
 90
       50
102
RTVSPost2010PropOp48
 70
     1
102
RTVSPost2010Prop49
280
     0
102
RTVSPost2010PropOp49
 70
     1
102
RTVSPost2010Prop50
 90
       50
102
RTVSPost2010PropOp50
 70
     1
102
RTVSPost2010Prop51ColorIndex
 90
      256
102
RTVSPost2010Prop51ColorRGB
 90
-16777216
102
RTVSPost2010PropOp51
 70
     0
102
RTVSPost2010Prop52
140
1.0
102
RTVSPost2010PropOp52
 70
     0
102
RTVSPost2010Prop53
 90
        2
102
RTVSPost2010PropOp53
 70
     1
102
RTVSPost2010Prop54
  1
strokes_ogs.tif
102
RTVSPost2010PropOp54
 70
     1
102
RTVSPost2010Prop55
280
     0
102
RTVSPost2010PropOp55
 70
     1
102
RTVSPost2010Prop56
140
1.0
102
RTVSPost2010PropOp56
 70
     1
102
RTVSPost2010Prop57
140
1.0
102
RTVSPost2010PropOp57
 70
     1
  0
XRECORD
  5
32D7
102
{ACAD_REACTORS
330
32D6
102
}
330
32D6
100
AcDbXrecord
280
     1
102
RTVSPost2010Prop28
280
     0
102
RTVSPost2010PropOp28
 70
     1
102
RTVSPost2010Prop29
280
     1
102
RTVSPost2010PropOp29
 70
     1
102
RTVSPost2010Prop30
280
     1
102
RTVSPost2010PropOp30
 70
     1
102
RTVSPost2010Prop31
280
     0
102
RTVSPost2010PropOp31
 70
     1
102
RTVSPost2010Prop32
280
     0
102
RTVSPost2010PropOp32
 70
     1
102
RTVSPost2010Prop33
280
     0
102
RTVSPost2010PropOp33
 70
     1
102
RTVSPost2010Prop34
280
     0
102
RTVSPost2010PropOp34
 70
     1
102
RTVSPost2010Prop35
280
     0
102
RTVSPost2010PropOp35
 70
     1
102
RTVSPost2010Prop36
280
     0
102
RTVSPost2010PropOp36
 70
     1
102
RTVSPost2010Prop37
 90
       50
102
RTVSPost2010PropOp37
 70
     1
102
RTVSPost2010Prop38
140
0.0
102
RTVSPost2010PropOp38
 70
     1
102
RTVSPost2010Prop39
140
1.0
102
RTVSPost2010PropOp39
 70
     1
102
RTVSPost2010Prop40
 90
        0
102
RTVSPost2010PropOp40
 70
     1
102
RTVSPost2010Prop41ColorIndex
 90
       18
102
RTVSPost2010Prop41ColorRGB
 90
        0
102
RTVSPost2010PropOp41
 70
     1
102
RTVSPost2010Prop42
 90
       50
102
RTVSPost2010PropOp42
 70
     1
102
RTVSPost2010Prop43
 90
        3
102
RTVSPost2010PropOp43
 70
     1
102
RTVSPost2010Prop44ColorIndex
 90
        5
102
RTVSPost2010Prop44ColorRGB
 90
      255
102
RTVSPost2010PropOp44
 70
     1
102
RTVSPost2010Prop45
280
     0
102
RTVSPost2010PropOp45
 70
     1
102
RTVSPost2010Prop46
 90
       50
102
RTVSPost2010PropOp46
 70
     1
102
RTVSPost2010Prop47
 90
       50
102
RTVSPost2010PropOp47
 70
     1
102
RTVSPost2010Prop48
 90
       50
102
RTVSPost2010PropOp48
 70
     1
102
RTVSPost2010Prop49
280
     0
102
RTVSPost2010PropOp49
 70
     1
102
RTVSPost2010Prop50
 90
       50
102
RTVSPost2010PropOp50
 70
     1
102
RTVSPost2010Prop51ColorIndex
 90
      256
102
RTVSPost2010Prop51ColorRGB
 90
-16777216
102
RTVSPost2010PropOp51
 70
     0
102
RTVSPost2010Prop52
140
1.0
102
RTVSPost2010PropOp52
 70
     0
102
RTVSPost2010Prop53
 90
        2
102
RTVSPost2010PropOp53
 70
     1
102
RTVSPost2010Prop54
  1
strokes_ogs.tif
102
RTVSPost2010PropOp54
 70
     1
102
RTVSPost2010Prop55
280
     0
102
RTVSPost2010PropOp55
 70
     1
102
RTVSPost2010Prop56
140
1.0
102
RTVSPost2010PropOp56
 70
     1
102
RTVSPost2010Prop57
140
1.0
102
RTVSPost2010PropOp57
 70
     1
  0
XRECORD
  5
32CB
102
{ACAD_REACTORS
330
32CA
102
}
330
32CA
100
AcDbXrecord
280
     1
102
RTVSPost2010Prop28
280
     0
102
RTVSPost2010PropOp28
 70
     1
102
RTVSPost2010Prop29
280
     1
102
RTVSPost2010PropOp29
 70
     1
102
RTVSPost2010Prop30
280
     1
102
RTVSPost2010PropOp30
 70
     1
102
RTVSPost2010Prop31
280
     0
102
RTVSPost2010PropOp31
 70
     1
102
RTVSPost2010Prop32
280
     0
102
RTVSPost2010PropOp32
 70
     1
102
RTVSPost2010Prop33
280
     0
102
RTVSPost2010PropOp33
 70
     1
102
RTVSPost2010Prop34
280
     0
102
RTVSPost2010PropOp34
 70
     1
102
RTVSPost2010Prop35
280
     0
102
RTVSPost2010PropOp35
 70
     1
102
RTVSPost2010Prop36
280
     0
102
RTVSPost2010PropOp36
 70
     1
102
RTVSPost2010Prop37
 90
       50
102
RTVSPost2010PropOp37
 70
     1
102
RTVSPost2010Prop38
140
0.0
102
RTVSPost2010PropOp38
 70
     1
102
RTVSPost2010Prop39
140
1.0
102
RTVSPost2010PropOp39
 70
     1
102
RTVSPost2010Prop40
 90
        0
102
RTVSPost2010PropOp40
 70
     1
102
RTVSPost2010Prop41ColorIndex
 90
       18
102
RTVSPost2010Prop41ColorRGB
 90
        0
102
RTVSPost2010PropOp41
 70
     1
102
RTVSPost2010Prop42
 90
       50
102
RTVSPost2010PropOp42
 70
     1
102
RTVSPost2010Prop43
 90
        3
102
RTVSPost2010PropOp43
 70
     1
102
RTVSPost2010Prop44ColorIndex
 90
        5
102
RTVSPost2010Prop44ColorRGB
 90
      255
102
RTVSPost2010PropOp44
 70
     1
102
RTVSPost2010Prop45
280
     0
102
RTVSPost2010PropOp45
 70
     1
102
RTVSPost2010Prop46
 90
       50
102
RTVSPost2010PropOp46
 70
     1
102
RTVSPost2010Prop47
 90
       50
102
RTVSPost2010PropOp47
 70
     1
102
RTVSPost2010Prop48
 90
       50
102
RTVSPost2010PropOp48
 70
     1
102
RTVSPost2010Prop49
280
     0
102
RTVSPost2010PropOp49
 70
     1
102
RTVSPost2010Prop50
 90
       50
102
RTVSPost2010PropOp50
 70
     1
102
RTVSPost2010Prop51ColorIndex
 90
      256
102
RTVSPost2010Prop51ColorRGB
 90
-16777216
102
RTVSPost2010PropOp51
 70
     0
102
RTVSPost2010Prop52
140
1.0
102
RTVSPost2010PropOp52
 70
     0
102
RTVSPost2010Prop53
 90
        2
102
RTVSPost2010PropOp53
 70
     1
102
RTVSPost2010Prop54
  1
strokes_ogs.tif
102
RTVSPost2010PropOp54
 70
     1
102
RTVSPost2010Prop55
280
     0
102
RTVSPost2010PropOp55
 70
     1
102
RTVSPost2010Prop56
140
1.0
102
RTVSPost2010PropOp56
 70
     1
102
RTVSPost2010Prop57
140
1.0
102
RTVSPost2010PropOp57
 70
     1
  0
XRECORD
  5
32E3
102
{ACAD_REACTORS
330
32E2
102
}
330
32E2
100
AcDbXrecord
280
     1
102
RTVSPost2010Prop28
280
     0
102
RTVSPost2010PropOp28
 70
     1
102
RTVSPost2010Prop29
280
     1
102
RTVSPost2010PropOp29
 70
     1
102
RTVSPost2010Prop30
280
     1
102
RTVSPost2010PropOp30
 70
     1
102
RTVSPost2010Prop31
280
     0
102
RTVSPost2010PropOp31
 70
     1
102
RTVSPost2010Prop32
280
     0
102
RTVSPost2010PropOp32
 70
     1
102
RTVSPost2010Prop33
280
     0
102
RTVSPost2010PropOp33
 70
     1
102
RTVSPost2010Prop34
280
     0
102
RTVSPost2010PropOp34
 70
     1
102
RTVSPost2010Prop35
280
     0
102
RTVSPost2010PropOp35
 70
     1
102
RTVSPost2010Prop36
280
     0
102
RTVSPost2010PropOp36
 70
     1
102
RTVSPost2010Prop37
 90
       50
102
RTVSPost2010PropOp37
 70
     1
102
RTVSPost2010Prop38
140
0.0
102
RTVSPost2010PropOp38
 70
     1
102
RTVSPost2010Prop39
140
1.0
102
RTVSPost2010PropOp39
 70
     1
102
RTVSPost2010Prop40
 90
        0
102
RTVSPost2010PropOp40
 70
     1
102
RTVSPost2010Prop41ColorIndex
 90
       18
102
RTVSPost2010Prop41ColorRGB
 90
        0
102
RTVSPost2010PropOp41
 70
     1
102
RTVSPost2010Prop42
 90
       50
102
RTVSPost2010PropOp42
 70
     1
102
RTVSPost2010Prop43
 90
        3
102
RTVSPost2010PropOp43
 70
     1
102
RTVSPost2010Prop44ColorIndex
 90
        5
102
RTVSPost2010Prop44ColorRGB
 90
      255
102
RTVSPost2010PropOp44
 70
     1
102
RTVSPost2010Prop45
280
     0
102
RTVSPost2010PropOp45
 70
     1
102
RTVSPost2010Prop46
 90
       50
102
RTVSPost2010PropOp46
 70
     1
102
RTVSPost2010Prop47
 90
       50
102
RTVSPost2010PropOp47
 70
     1
102
RTVSPost2010Prop48
 90
       50
102
RTVSPost2010PropOp48
 70
     1
102
RTVSPost2010Prop49
280
     0
102
RTVSPost2010PropOp49
 70
     1
102
RTVSPost2010Prop50
 90
       50
102
RTVSPost2010PropOp50
 70
     1
102
RTVSPost2010Prop51ColorIndex
 90
      256
102
RTVSPost2010Prop51ColorRGB
 90
-16777216
102
RTVSPost2010PropOp51
 70
     0
102
RTVSPost2010Prop52
140
1.0
102
RTVSPost2010PropOp52
 70
     0
102
RTVSPost2010Prop53
 90
        2
102
RTVSPost2010PropOp53
 70
     1
102
RTVSPost2010Prop54
  1
strokes_ogs.tif
102
RTVSPost2010PropOp54
 70
     1
102
RTVSPost2010Prop55
280
     0
102
RTVSPost2010PropOp55
 70
     1
102
RTVSPost2010Prop56
140
1.0
102
RTVSPost2010PropOp56
 70
     1
102
RTVSPost2010Prop57
140
1.0
102
RTVSPost2010PropOp57
 70
     1
  0
ENDSEC
  0
EOF
