  0
SECTION
  2
HEADER
  9
$ACADVER
  1
AC1009
  9
$INSBASE
 10
0.0
 20
0.0
 30
0.0
  9
$EXTMIN
 10
219.9431264318327
 20
234.588784724335
 30
-0.0000000000112498
  9
$EXTMAX
 10
1231.642420997543
 20
979.62828635430674
 30
0.0000000000002956
  9
$LIMMIN
 10
0.0
 20
0.0
  9
$LIMMAX
 10
1422.5
 20
925.0
  9
$ORTHOMODE
 70
     0
  9
$REGENMODE
 70
     1
  9
$FILLMODE
 70
     1
  9
$QTEXTMODE
 70
     0
  9
$MIRRTEXT
 70
     1
  9
$DRAGMODE
 70
     2
  9
$LTSCALE
 40
5.0
  9
$OSMODE
 70
   551
  9
$ATTMODE
 70
     1
  9
$TEXTSIZE
 40
2.5
  9
$TRACEWID
 40
1.0
  9
$TEXTSTYLE
  7
STANDARD
  9
$CLAYER
  8
AM_0
  9
$CELTYPE
  6
BYLAYER
  9
$CECOLOR
 62
   256
  9
$DIMSCALE
 40
1.0
  9
$DIMASZ
 40
2.5
  9
$DIMEXO
 40
1.0
  9
$DIMDLI
 40
8.0
  9
$DIMRND
 40
0.0
  9
$DIMDLE
 40
0.0
  9
$DIMEXE
 40
0.6
  9
$DIMTP
 40
0.1
  9
$DIMTM
 40
0.1
  9
$DIMTXT
 40
2.5
  9
$DIMCEN
 40
0.0
  9
$DIMTSZ
 40
0.0
  9
$DIMTOL
 70
     0
  9
$DIMLIM
 70
     0
  9
$DIMTIH
 70
     0
  9
$DIMTOH
 70
     0
  9
$DIMSE1
 70
     0
  9
$DIMSE2
 70
     0
  9
$DIMTAD
 70
     1
  9
$DIMZIN
 70
     8
  9
$DIMBLK
  1

  9
$DIMASO
 70
     1
  9
$DIMSHO
 70
     1
  9
$DIMPOST
  1

  9
$DIMAPOST
  1
"
  9
$DIMALT
 70
     0
  9
$DIMALTD
 70
     2
  9
$DIMALTF
 40
0.0393701
  9
$DIMLFAC
 40
1.0
  9
$DIMTOFL
 70
     1
  9
$DIMTVP
 40
0.0
  9
$DIMTIX
 70
     0
  9
$DIMSOXD
 70
     0
  9
$DIMSAH
 70
     0
  9
$DIMBLK1
  1

  9
$DIMBLK2
  1

  9
$DIMSTYLE
  2
AM_ISO
  9
$DIMCLRD
 70
   256
  9
$DIMCLRE
 70
   256
  9
$DIMCLRT
 70
     4
  9
$DIMTFAC
 40
0.71
  9
$DIMGAP
 40
0.8
  9
$LUNITS
 70
     2
  9
$LUPREC
 70
     2
  9
$SKETCHINC
 40
1.0
  9
$FILLETRAD
 40
25.0
  9
$AUNITS
 70
     0
  9
$AUPREC
 70
     0
  9
$MENU
  1
.
  9
$ELEVATION
 40
0.0
  9
$PELEVATION
 40
0.0
  9
$THICKNESS
 40
0.0
  9
$LIMCHECK
 70
     0
  9
$BLIPMODE
 70
     0
  9
$CHAMFERA
 40
10.0
  9
$CHAMFERB
 40
5.0
  9
$SKPOLY
 70
     0
  9
$TDCREATE
 40
2452066.7678694562
  9
$TDUPDATE
 40
2458541.450956204
  9
$TDINDWG
 40
0.0407890278
  9
$TDUSRTIMER
 40
0.0407888426
  9
$USRTIMER
 70
     1
  9
$ANGBASE
 50
0.0
  9
$ANGDIR
 70
     0
  9
$PDMODE
 70
     0
  9
$PDSIZE
 40
0.0
  9
$PLINEWID
 40
0.0
  9
$COORDS
 70
     1
  9
$SPLFRAME
 70
     0
  9
$SPLINETYPE
 70
     6
  9
$SPLINESEGS
 70
     8
  9
$ATTDIA
 70
     1
  9
$ATTREQ
 70
     1
  9
$HANDLING
 70
     1
  9
$HANDSEED
  5
311B
  9
$SURFTAB1
 70
     6
  9
$SURFTAB2
 70
     6
  9
$SURFTYPE
 70
     6
  9
$SURFU
 70
     6
  9
$SURFV
 70
     6
  9
$UCSNAME
  2

  9
$UCSORG
 10
0.0
 20
0.0
 30
0.0
  9
$UCSXDIR
 10
1.0
 20
0.0
 30
0.0
  9
$UCSYDIR
 10
0.0
 20
1.0
 30
0.0
  9
$PUCSNAME
  2

  9
$PUCSORG
 10
0.0
 20
0.0
 30
0.0
  9
$PUCSXDIR
 10
1.0
 20
0.0
 30
0.0
  9
$PUCSYDIR
 10
0.0
 20
1.0
 30
0.0
  9
$USERI1
 70
     0
  9
$USERI2
 70
     0
  9
$USERI3
 70
     0
  9
$USERI4
 70
     0
  9
$USERI5
 70
     0
  9
$USERR1
 40
0.0
  9
$USERR2
 40
0.0
  9
$USERR3
 40
0.0
  9
$USERR4
 40
0.0
  9
$USERR5
 40
0.0
  9
$WORLDVIEW
 70
     1
  9
$SHADEDGE
 70
     3
  9
$SHADEDIF
 70
    70
  9
$TILEMODE
 70
     1
  9
$MAXACTVP
 70
    64
  9
$PLIMCHECK
 70
     0
  9
$PEXTMIN
 10
1.0000000000000000E+020
 20
1.0000000000000000E+020
 30
1.0000000000000000E+020
  9
$PEXTMAX
 10
-1.0000000000000000E+020
 20
-1.0000000000000000E+020
 30
-1.0000000000000000E+020
  9
$PLIMMIN
 10
0.0
 20
0.0
  9
$PLIMMAX
 10
420.0
 20
297.0
  9
$UNITMODE
 70
     0
  9
$VISRETAIN
 70
     1
  9
$PLINEGEN
 70
     0
  9
$PSLTSCALE
 70
     1
  0
ENDSEC
  0
SECTION
  2
TABLES
  0
TABLE
  2
VPORT
 70
     1
  0
VPORT
  2
*ACTIVE
 70
     0
 10
0.0
 20
0.0
 11
1.0
 21
1.0
 12
725.79277371468788
 22
607.10853553932088
 13
0.0
 23
0.0
 14
12.5
 24
12.5
 15
50.0
 25
50.0
 16
0.0
 26
0.0
 36
1.0
 17
0.0
 27
0.0
 37
0.0
 40
750.15418928418194
 41
1.7571592210767459
 42
50.0
 43
0.0
 44
0.0
 50
0.0
 51
0.0
 71
     0
 72
   100
 73
     1
 74
     3
 75
     0
 76
     0
 77
     0
 78
     0
  0
ENDTAB
  0
TABLE
  2
LTYPE
 70
    26
  0
LTYPE
  2
CONTINUOUS
 70
     0
  3
Solid line
 72
    65
 73
     0
 40
0.0
  0
LTYPE
  2
AM_ISO02W050
 70
     0
  3
__ __ __ __ __ __ __ __ __ __ __ __ __ __ __
 72
    65
 73
     2
 40
7.5
 49
6.0
 49
-1.5
  0
LTYPE
  2
AM_ISO08W050
 70
     0
  3
____ . ____ . ____ . ____ . ____ . ____ . ____
 72
    65
 73
     4
 40
18.0
 49
12.0
 49
-1.5
 49
3.0
 49
-1.5
  0
LTYPE
  2
AM_ISO09W050
 70
     0
  3
_____ . . _____ . . _____ . . ____ .. ____
 72
    65
 73
     6
 40
22.5
 49
12.0
 49
-1.5
 49
3.0
 49
-1.5
 49
3.0
 49
-1.5
  0
LTYPE
  2
AMCONSTR
 70
     0
  3
_______________________
 72
    65
 73
     2
 40
9999.0
 49
9999.0
 49
0.0
  0
LTYPE
  2
AM_ISO08W050X2
 70
     0
  3
__ . __ . __ . __ . __ . __
 72
    65
 73
     4
 40
9.0
 49
6.0
 49
-0.75
 49
1.5
 49
-0.75
  0
LTYPE
  2
AM_ISO02W050X2
 70
     0
  3
 _ _ _ _ _ _ _ _ _ _ _ _
 72
    65
 73
     2
 40
3.75
 49
3.0
 49
-0.75
  0
LTYPE
  2
AMZIGZAG
 70
     0
  3
/\/-/\/-/\/-/\/-/\/-/\/
 72
    65
 73
     2
 40
11.000099999999991
 49
0.0001
 49
-11.0
  0
LTYPE
  2
ACISOWELD
 70
     0
  3
_ _ _ _ _
 72
    65
 73
     2
 40
2.0
 49
2.0
 49
-1.0
  0
LTYPE
  2
ACISOTGB
 70
     0
  3
__ . . __ . .
 72
    65
 73
     6
 40
9.0
 49
4.0
 49
-1.0
 49
1.0
 49
-1.0
 49
1.0
 49
-1.0
  0
LTYPE
  2
ACISOTGL
 70
     0
  3
_ _ _ _ _
 72
    65
 73
     2
 40
3.0
 49
2.0
 49
-1.0
  0
LTYPE
  2
CENTER
 70
     0
  3
__ . __
 72
    65
 73
     4
 40
7.0
 49
4.0
 49
-1.0
 49
1.0
 49
-1.0
  0
LTYPE
  2
PHANTOM2
 70
     0
  3
Phantom (.5x) ___ _ _ ___ _ _ ___ _ _ ___ _ _
 72
    65
 73
     6
 40
31.75
 49
15.875
 49
-3.174999999999998
 49
3.174999999999998
 49
-3.174999999999998
 49
3.174999999999998
 49
-3.174999999999998
  0
LTYPE
  2
ACANSTGBM
 70
     0
  3
__ . . __ . .
 72
    65
 73
     6
 40
9.0
 49
4.0
 49
-1.0
 49
1.0
 49
-1.0
 49
1.0
 49
-1.0
  0
LTYPE
  2
ACANSTGLM
 70
     0
  3
_ _ _ _ _
 72
    65
 73
     2
 40
3.0
 49
2.0
 49
-1.0
  0
LTYPE
  2
GEN7
 70
     0
  3
____ . ____ . ____ . ____ . ____ . ____ . ____
 72
    65
 73
     4
 40
14.25
 49
9.75
 49
-1.5
 49
1.5
 49
-1.5
  0
LTYPE
  2
GEN7A
 70
     0
  3
__ . __ . __
 72
    65
 73
     4
 40
7.375
 49
4.75
 49
-0.875
 49
0.875
 49
-0.875
  0
LTYPE
  2
ACJISTGB
 70
     0
  3
__ . . __ . .
 72
    65
 73
     6
 40
9.0
 49
4.0
 49
-1.0
 49
1.0
 49
-1.0
 49
1.0
 49
-1.0
  0
LTYPE
  2
ACJISTGL
 70
     0
  3
_ _ _ _ _
 72
    65
 73
     2
 40
3.0
 49
2.0
 49
-1.0
  0
LTYPE
  2
HIDDEN
 70
     0
  3
Hidden __ __ __ __ __ __ __ __ __ __ __ __ __ _
 72
    65
 73
     2
 40
0.375
 49
0.25
 49
-0.125
  0
LTYPE
  2
CENTER2
 70
     0
  3
Center (.5x) ___ _ ___ _ ___ _ ___ _ ___ _ ___
 72
    65
 73
     4
 40
1.125
 49
0.75
 49
-0.125
 49
0.125
 49
-0.125
  0
LTYPE
  2
HIDDEN2
 70
     0
  3
Hidden (.5x) _ _ _ _ _ _ _ _ _ _ _ _ _ _ _ _ _
 72
    65
 73
     2
 40
0.1875
 49
0.125
 49
-0.0625
  0
LTYPE
  2
AMZIGZAG2
 70
     0
  3
/\/-/\/-/\/-/\/-/\/-/\/
 72
    65
 73
     2
 40
0.4401
 49
0.0001
 49
-0.4400000000000002
  0
LTYPE
  2
ACANSTGB
 70
     0
  3
__ . . __ . .
 72
    65
 73
     6
 40
0.35433070866
 49
0.15748031496
 49
-0.03937007874
 49
0.03937007874
 49
-0.03937007874
 49
0.03937007874
 49
-0.03937007874
  0
LTYPE
  2
ACANSTGL
 70
     0
  3
_ _ _ _ _
 72
    65
 73
     2
 40
0.11811023622
 49
0.07874015748
 49
-0.03937007874
  0
ENDTAB
  0
TABLE
  2
LAYER
 70
     6
  0
LAYER
  2
0
 70
     0
 62
     7
  6
CONTINUOUS
  0
LAYER
  2
AM_0
 70
     0
 62
     7
  6
CONTINUOUS
  0
LAYER
  2
AM_5
 70
     0
 62
     2
  6
CONTINUOUS
  0
LAYER
  2
DEFPOINTS
 70
     0
 62
     7
  6
CONTINUOUS
  0
LAYER
  2
ﾁｭｳｼﾝｾﾝ
 70
     0
 62
     1
  6
GEN7
  0
LAYER
  2
ﾁｭｳｼﾝｾﾝ1
 70
     0
 62
     1
  6
GEN7A
  0
ENDTAB
  0
TABLE
  2
STYLE
 70
     9
  0
STYLE
  2
STANDARD
 70
     0
 40
0.0
 41
0.8299999999999999
 50
0.0
 71
     0
 42
2.5
  3
txt.shx
  4
bigfont.shx
  0
STYLE
  2
ANNOTATIVE
 70
     0
 40
0.0
 41
1.0
 50
0.0
 71
     0
 42
0.2
  3
txt
  4

  0
STYLE
  2

 70
     1
 40
0.0
 41
1.0
 50
0.0
 71
     0
 42
2.5
  3
ltypeshp.shx
  4

  0
STYLE
  2
ACISOTS
 70
     0
 40
1.0
 41
1.0
 50
0.0
 71
     0
 42
2.5
  3
isocp.shx
  4
extfont.shx
  0
STYLE
  2
ACISOGDT
 70
     0
 40
0.0
 41
1.0
 50
0.0
 71
     0
 42
2.5
  3
amgdt.shx
  4

  0
STYLE
  2
ACANSTS
 70
     0
 40
1.0
 41
1.0
 50
0.0
 71
     0
 42
2.5
  3
romans.shx
  4
bigfont.shx
  0
STYLE
  2
ACANSGDT
 70
     0
 40
0.0
 41
1.0
 50
0.0
 71
     0
 42
2.5
  3
amgdt.shx
  4

  0
STYLE
  2
ACJISTS
 70
     0
 40
1.0
 41
1.0
 50
0.0
 71
     0
 42
2.5
  3
isocp.shx
  4
bigfont.shx
  0
STYLE
  2
ACJISGDT
 70
     0
 40
0.0
 41
1.0
 50
0.0
 71
     0
 42
2.5
  3
amgdt.shx
  4

  0
ENDTAB
  0
TABLE
  2
VIEW
 70
     6
  0
VIEW
  2
AM_VIEW1
 70
     0
 40
462.5
 10
416.07965009208078
 20
693.75
 41
832.15930018416213
 11
0.0
 21
0.0
 31
1.0
 12
0.0
 22
0.0
 32
0.0
 42
50.0
 43
0.0
 44
0.0
 50
0.0
 71
     0
  0
VIEW
  2
AM_VIEW2
 70
     0
 40
462.5
 10
1006.420349907918
 20
693.75
 41
832.15930018416213
 11
0.0
 21
0.0
 31
1.0
 12
0.0
 22
0.0
 32
0.0
 42
50.0
 43
0.0
 44
0.0
 50
0.0
 71
     0
  0
VIEW
  2
AM_VIEW3
 70
     0
 40
462.5
 10
416.07965009208078
 20
231.25
 41
832.15930018416213
 11
0.0
 21
0.0
 31
1.0
 12
0.0
 22
0.0
 32
0.0
 42
50.0
 43
0.0
 44
0.0
 50
0.0
 71
     0
  0
VIEW
  2
AM_VIEW4
 70
     0
 40
462.5
 10
1006.420349907918
 20
231.25
 41
832.15930018416213
 11
0.0
 21
0.0
 31
1.0
 12
0.0
 22
0.0
 32
0.0
 42
50.0
 43
0.0
 44
0.0
 50
0.0
 71
     0
  0
VIEW
  2
AM_VIEW5
 70
     0
 40
462.5
 10
711.24999999999966
 20
462.5
 41
832.15930018416179
 11
0.0
 21
0.0
 31
1.0
 12
0.0
 22
0.0
 32
0.0
 42
50.0
 43
0.0
 44
0.0
 50
0.0
 71
     0
  0
VIEW
  2
AM_VIEW6
 70
     0
 40
924.99075000000005
 10
711.24999999999966
 20
462.5
 41
1664.3019571823199
 11
0.0
 21
0.0
 31
1.0
 12
0.0
 22
0.0
 32
0.0
 42
50.0
 43
0.0
 44
0.0
 50
0.0
 71
     0
  0
ENDTAB
  0
TABLE
  2
UCS
 70
     0
  0
ENDTAB
  0
TABLE
  2
APPID
 70
    95
  0
APPID
  2
ACAD
 70
     0
  0
APPID
  2
ACADANNOTATIVE
 70
     0
  0
APPID
  2
MCAD_NO_VIS
 70
     0
  0
APPID
  2
ACAD_TEMP_GRAPHIC
 70
     0
  0
APPID
  2
ACATTRIBSERVICES
 70
     0
  0
APPID
  2
GENIUS_GENREC_14
 70
     0
  0
APPID
  2
GENIUS_GENOBJ-N-REC_13
 70
     0
  0
APPID
  2
GENIUS_GENODEF_13
 70
     0
  0
APPID
  2
GENIUS_GENOLIS_13
 70
     0
  0
APPID
  2
GENIUS_GENOBJ-N-TIT_13
 70
     0
  0
APPID
  2
GENIUS_GENOENT_13
 70
     0
  0
APPID
  2
GENIUS_GENTITLE_13
 70
     0
  0
APPID
  2
GENIUS_GENOREF_13
 70
     0
  0
APPID
  2
GENIUS_GENSCREG_15
 70
     0
  0
APPID
  2
GENIUS_GENOBJ-N-SDF_13
 70
     0
  0
APPID
  2
GENIUS_GENFIL_13
 70
     0
  0
APPID
  2
GENIUS_GENOBJ-N-CHA_13
 70
     0
  0
APPID
  2
GENIUS_GENDTOL_13
 70
     0
  0
APPID
  2
GENIUS_GENOBJ-N-FIL_13
 70
     0
  0
APPID
  2
AD_DRAW
 70
     0
  0
APPID
  2
DESIGNERASSEMBLIES
 70
     0
  0
APPID
  2
ASURF_PCURVE_APPNAME
 70
     0
  0
APPID
  2
GENIUS_GE3SECT_13
 70
     0
  0
APPID
  2
GENIUS_GENCFG_13
 70
     0
  0
APPID
  2
GENIUS_GE3CFG0_13
 70
     0
  0
APPID
  2
GENIUS_GENCFG0_13
 70
     0
  0
APPID
  2
GENIUS_GENCFG1_13
 70
     0
  0
APPID
  2
GENIUS_GENCFG2_13
 70
     0
  0
APPID
  2
GENIUS_GENCFG3_13
 70
     0
  0
APPID
  2
GENIUS_GENCFG4_13
 70
     0
  0
APPID
  2
GENIUS_GEVCFG0_13
 70
     0
  0
APPID
  2
GENIUS_GENHINW_13
 70
     0
  0
APPID
  2
GENIUS_FIRSTVISTXT_14
 70
     0
  0
APPID
  2
GENIUS_GENOBJ-N-LEADER_13
 70
     0
  0
APPID
  2
GEV_VCCNULL_SWITCH_OFF
 70
     0
  0
APPID
  2
GENIUS_GEFCFG0_13
 70
     0
  0
APPID
  2
GENIUS_GENZVEED_13
 70
     0
  0
APPID
  2
GENIUS_GENSCREG_13
 70
     0
  0
APPID
  2
GENIUS_DUMCFG0_13
 70
     0
  0
APPID
  2
GEVID936201362
 70
     0
  0
APPID
  2
GEVDC
 70
     0
  0
APPID
  2
GEVCON
 70
     0
  0
APPID
  2
VCC
 70
     0
  0
APPID
  2
GEVPT
 70
     0
  0
APPID
  2
GEVIT
 70
     0
  0
APPID
  2
GENBH
 70
     0
  0
APPID
  2
GEVMK
 70
     0
  0
APPID
  2
GENIUS_GENBH_13
 70
     0
  0
APPID
  2
GENIUS_GENOBJ-NBEHI-BHF_13
 70
     0
  0
APPID
  2
GENIUS_GENOBJ-NBEHI-BHB_13
 70
     0
  0
APPID
  2
GENIUS_GENOBJ-F-DESC_13
 70
     0
  0
APPID
  2
GENIUS_GEFDESC_14
 70
     0
  0
APPID
  2
GENIUS_GENOBJ-F-PART_13
 70
     0
  0
APPID
  2
GENIUS_GEFSTDP_13
 70
     0
  0
APPID
  2
GENIUS_GEFPARTINS_13
 70
     0
  0
APPID
  2
GENIUS_GENTRA_14
 70
     0
  0
APPID
  2
GENIUS_GENINF13_13
 70
     0
  0
APPID
  2
GENIUS_GENOBJ-N-INFOPT_13
 70
     0
  0
APPID
  2
GENIUS_GENOBJ-N-RSSYM_13
 70
     0
  0
APPID
  2
GENIUS_GENSYMENT_13
 70
     0
  0
APPID
  2
GENIUS_GENSCSYM_13
 70
     0
  0
APPID
  2
GENIUS_GEFINFNAM_13
 70
     0
  0
APPID
  2
GENIUS_GENOBJ-N-CEN_13
 70
     0
  0
APPID
  2
GENIUS_GENOBJ-N-CRS_13
 70
     0
  0
APPID
  2
GENIUS_GENOBJ-N-CRC_13
 70
     0
  0
APPID
  2
GENIUS_GENCRC_14
 70
     0
  0
APPID
  2
GEVID942827039
 70
     0
  0
APPID
  2
GEVID942827040
 70
     0
  0
APPID
  2
GEVID942827041
 70
     0
  0
APPID
  2
GENIUS_GENOBJ-F-SCPASSM_13
 70
     0
  0
APPID
  2
GENIUS_GENDIMSH_14
 70
     0
  0
APPID
  2
GEVID942827042
 70
     0
  0
APPID
  2
GEVID946020473
 70
     0
  0
APPID
  2
GEVID946020474
 70
     0
  0
APPID
  2
GEVID946020475
 70
     0
  0
APPID
  2
GENIUS_GENOBJ-N-HTC_13
 70
     0
  0
APPID
  2
GENIUS_GENHATCH_13
 70
     0
  0
APPID
  2
GEVID948854295
 70
     0
  0
APPID
  2
GEVID939402019
 70
     0
  0
APPID
  2
GEVID952919491
 70
     0
  0
APPID
  2
GEVID952919492
 70
     0
  0
APPID
  2
GENIUS_GEFWELD_13
 70
     0
  0
APPID
  2
GENIUS_GENOBJ-F-WELS_13
 70
     0
  0
APPID
  2
GEVID952919493
 70
     0
  0
APPID
  2
GENIUS_GENOBJ-N-RSBK_13
 70
     0
  0
APPID
  2
GENIUS_GENOBJ-N-LIB_13
 70
     0
  0
APPID
  2
GENIUS_GENSCALE_13
 70
     0
  0
APPID
  2
GEVID986376691
 70
     0
  0
APPID
  2
DCO15
 70
     0
  0
APPID
  2
ACAD_DSTYLE_DIMBREAK
 70
     0
  0
APPID
  2
ACAD_DSTYLE_DIMJAG
 70
     0
  0
APPID
  2
ACAD_NAV_VCDISPLAY
 70
     0
  0
APPID
  2
ACADANNOPO
 70
     0
  0
APPID
  2
ACAD_EXEMPT_FROM_CAD_STANDARDS
 70
     0
  0
APPID
  2
ACAD_MLEADERVER
 70
     0
  0
ENDTAB
  0
TABLE
  2
DIMSTYLE
 70
    22
  0
DIMSTYLE
  2
STANDARD
 70
     0
  3

  4

  5

  6

  7

 40
1.0
 41
0.18
 42
0.0625
 43
0.38
 44
0.18
 45
0.0
 46
0.0
 47
0.0
 48
0.0
140
0.18
141
0.09
142
0.0
143
25.399999999999999
144
1.0
145
0.0
146
1.0
147
0.09
 71
     0
 72
     0
 73
     1
 74
     1
 75
     0
 76
     0
 77
     0
 78
     0
170
     0
171
     2
172
     0
173
     0
174
     0
175
     0
176
     0
177
     0
178
     0
  0
DIMSTYLE
  2
ANNOTATIVE
 70
     0
  3

  4

  5

  6

  7

 40
1.0
 41
0.18
 42
0.0625
 43
0.38
 44
0.18
 45
0.0
 46
0.0
 47
0.0
 48
0.0
140
0.18
141
0.09
142
0.0
143
25.399999999999999
144
1.0
145
0.0
146
1.0
147
0.09
 71
     0
 72
     0
 73
     1
 74
     1
 75
     0
 76
     0
 77
     0
 78
     0
170
     0
171
     2
172
     0
173
     0
174
     0
175
     0
176
     0
177
     0
178
     0
  0
DIMSTYLE
  2
AM_ISO
 70
     0
  3

  4
"
  5

  6

  7

 40
1.0
 41
2.5
 42
1.0
 43
8.0
 44
0.6
 45
0.0
 46
0.0
 47
0.1
 48
0.1
140
2.5
141
0.0
142
0.0
143
0.0393701
144
1.0
145
0.0
146
0.71
147
0.8
 71
     0
 72
     0
 73
     0
 74
     0
 75
     0
 76
     0
 77
     1
 78
     8
170
     0
171
     2
172
     1
173
     0
174
     0
175
     0
176
   256
177
   256
178
     4
  0
DIMSTYLE
  2
AM_ISO$3
 70
     0
  3

  4
"
  5

  6

  7

 40
1.0
 41
2.5
 42
1.0
 43
8.0
 44
0.6
 45
0.0
 46
0.0
 47
0.1
 48
0.1
140
2.5
141
0.0
142
0.0
143
0.0393701
144
1.0
145
0.0
146
0.71
147
0.8
 71
     0
 72
     0
 73
     0
 74
     1
 75
     0
 76
     0
 77
     1
 78
     8
170
     0
171
     2
172
     0
173
     0
174
     0
175
     0
176
   256
177
   256
178
     4
  0
DIMSTYLE
  2
AM_ISO$4
 70
     0
  3

  4
"
  5

  6

  7

 40
1.0
 41
2.5
 42
1.0
 43
8.0
 44
0.6
 45
0.0
 46
0.0
 47
0.1
 48
0.1
140
2.5
141
0.0
142
0.0
143
0.0393701
144
1.0
145
0.0
146
0.71
147
0.8
 71
     0
 72
     0
 73
     0
 74
     1
 75
     0
 76
     0
 77
     1
 78
     8
170
     0
171
     2
172
     0
173
     0
174
     0
175
     0
176
   256
177
   256
178
     4
  0
DIMSTYLE
  2
AM_ISO$6
 70
     0
  3

  4
"
  5

  6

  7

 40
1.0
 41
2.5
 42
1.0
 43
8.0
 44
0.6
 45
0.0
 46
0.0
 47
0.1
 48
0.1
140
2.5
141
0.0
142
0.0
143
0.0393701
144
1.0
145
0.0
146
0.71
147
0.8
 71
     0
 72
     0
 73
     0
 74
     0
 75
     0
 76
     0
 77
     0
 78
     8
170
     0
171
     2
172
     1
173
     0
174
     0
175
     0
176
   256
177
   256
178
     4
  0
DIMSTYLE
  2
AM_ISO$7
 70
     0
  3

  4
"
  5

  6

  7

 40
1.0
 41
2.5
 42
1.0
 43
8.0
 44
0.6
 45
0.0
 46
0.0
 47
0.1
 48
0.1
140
2.5
141
0.0
142
0.0
143
0.0393701
144
1.0
145
0.0
146
0.71
147
0.8
 71
     0
 72
     0
 73
     0
 74
     0
 75
     0
 76
     0
 77
     1
 78
     8
170
     0
171
     2
172
     1
173
     0
174
     0
175
     0
176
   256
177
   256
178
     4
  0
DIMSTYLE
  2
AM_ISO$SF
 70
     0
  3

  4
"
  5

  6

  7

 40
1.0
 41
2.5
 42
1.0
 43
10.0
 44
1.0
 45
0.0
 46
0.0
 47
0.1
 48
0.1
140
3.5
141
0.0
142
0.0
143
0.0393701
144
1.0
145
0.0
146
0.71
147
1.5
 71
     0
 72
     0
 73
     0
 74
     0
 75
     1
 76
     1
 77
     1
 78
     8
170
     0
171
     2
172
     1
173
     0
174
     0
175
     0
176
   256
177
   256
178
     2
  0
DIMSTYLE
  2
AM_ISO$SH
 70
     0
  3

  4
"
  5

  6

  7

 40
1.0
 41
2.5
 42
1.0
 43
10.0
 44
1.0
 45
0.0
 46
0.0
 47
0.1
 48
0.1
140
3.5
141
0.0
142
0.0
143
0.0393701
144
2.0
145
0.0
146
0.71
147
1.5
 71
     0
 72
     0
 73
     0
 74
     0
 75
     1
 76
     1
 77
     1
 78
     8
170
     0
171
     2
172
     1
173
     1
174
     0
175
     0
176
   256
177
   256
178
     2
  0
DIMSTYLE
  2
AM_JIS
 70
     0
  3

  4
"
  5

  6

  7

 40
1.0
 41
2.5
 42
1.0
 43
7.0
 44
1.0
 45
0.0
 46
0.0
 47
0.1
 48
0.1000000001
140
2.5
141
0.0
142
0.0
143
0.0393701
144
1.0
145
0.0
146
0.71
147
1.0
 71
     0
 72
     0
 73
     0
 74
     0
 75
     0
 76
     0
 77
     3
 78
     8
170
     0
171
     2
172
     1
173
     0
174
     0
175
     0
176
   256
177
   256
178
     4
  0
DIMSTYLE
  2
AM_JIS$3
 70
     0
  3

  4
"
  5

  6

  7

 40
1.0
 41
2.5
 42
1.0
 43
7.0
 44
1.0
 45
0.0
 46
0.0
 47
0.1
 48
0.1000000001
140
2.5
141
0.0
142
0.0
143
0.0393701
144
1.0
145
0.0
146
0.71
147
1.0
 71
     0
 72
     0
 73
     0
 74
     1
 75
     0
 76
     0
 77
     3
 78
     8
170
     0
171
     2
172
     0
173
     0
174
     0
175
     0
176
   256
177
   256
178
     4
  0
DIMSTYLE
  2
AM_JIS$4
 70
     0
  3

  4
"
  5

  6

  7

 40
1.0
 41
2.5
 42
1.0
 43
7.0
 44
1.0
 45
0.0
 46
0.0
 47
0.1
 48
0.1000000001
140
2.5
141
0.0
142
0.0
143
0.0393701
144
1.0
145
0.0
146
0.71
147
1.0
 71
     0
 72
     0
 73
     0
 74
     0
 75
     0
 76
     0
 77
     3
 78
     8
170
     0
171
     2
172
     0
173
     0
174
     0
175
     0
176
   256
177
   256
178
     4
  0
DIMSTYLE
  2
AM_JIS$6
 70
     0
  3

  4
"
  5

  6

  7

 40
1.0
 41
2.5
 42
1.0
 43
7.0
 44
1.0
 45
0.0
 46
0.0
 47
0.1
 48
0.1000000001
140
2.5
141
0.0
142
0.0
143
0.0393701
144
1.0
145
0.0
146
0.71
147
1.0
 71
     0
 72
     0
 73
     0
 74
     0
 75
     0
 76
     0
 77
     0
 78
     8
170
     0
171
     2
172
     1
173
     0
174
     0
175
     0
176
   256
177
   256
178
     4
  0
DIMSTYLE
  2
AM_JIS$7
 70
     0
  3

  4
"
  5

  6

  7

 40
1.0
 41
2.5
 42
1.0
 43
7.0
 44
1.0
 45
0.0
 46
0.0
 47
0.1
 48
0.1000000001
140
2.5
141
0.0
142
0.0
143
0.0393701
144
1.0
145
0.0
146
0.71
147
1.0
 71
     0
 72
     0
 73
     0
 74
     0
 75
     0
 76
     0
 77
     3
 78
     8
170
     0
171
     2
172
     1
173
     0
174
     0
175
     0
176
   256
177
   256
178
     4
  0
DIMSTYLE
  2
AM_JIS$SF
 70
     0
  3

  4
"
  5

  6

  7

 40
1.0
 41
2.5
 42
1.0
 43
10.0
 44
1.0
 45
0.0
 46
0.0
 47
0.1
 48
0.1
140
3.5
141
0.0
142
0.0
143
0.0393701
144
1.0
145
0.0
146
0.71
147
1.5
 71
     0
 72
     0
 73
     0
 74
     0
 75
     1
 76
     1
 77
     3
 78
     8
170
     0
171
     2
172
     1
173
     0
174
     0
175
     0
176
   256
177
   256
178
     4
  0
DIMSTYLE
  2
AM_JIS$SH
 70
     0
  3

  4
"
  5

  6

  7

 40
1.0
 41
2.5
 42
1.0
 43
10.0
 44
1.0
 45
0.0
 46
0.0
 47
0.1
 48
0.1
140
3.5
141
0.0
142
0.0
143
0.0393701
144
1.0
145
0.0
146
0.71
147
1.5
 71
     0
 72
     0
 73
     0
 74
     0
 75
     1
 76
     0
 77
     3
 78
     8
170
     0
171
     2
172
     1
173
     1
174
     0
175
     0
176
   256
177
   256
178
     4
  0
DIMSTYLE
  2
AM_ANSI
 70
     0
  3

  4
mm
  5

  6

  7

 40
1.0
 41
0.1
 42
0.05
 43
0.5
 44
0.1
 45
0.0
 46
0.0
 47
0.1
 48
0.1
140
0.12
141
0.0
142
0.0
143
25.399999999999999
144
1.0
145
0.0
146
0.71
147
0.06
 71
     0
 72
     0
 73
     1
 74
     1
 75
     0
 76
     0
 77
     0
 78
     7
170
     0
171
     2
172
     0
173
     0
174
     0
175
     0
176
   256
177
   256
178
     2
  0
DIMSTYLE
  2
AM_ANSI$3
 70
     0
  3

  4
mm
  5

  6

  7

 40
1.0
 41
0.1
 42
0.05
 43
0.5
 44
0.1
 45
0.0
 46
0.0
 47
0.1
 48
0.1
140
0.12
141
0.0
142
0.0
143
25.399999999999999
144
1.0
145
0.0
146
0.71
147
0.06
 71
     0
 72
     0
 73
     1
 74
     1
 75
     0
 76
     0
 77
     0
 78
     7
170
     0
171
     2
172
     0
173
     0
174
     0
175
     0
176
   256
177
   256
178
     2
  0
DIMSTYLE
  2
AM_ANSI$4
 70
     0
  3

  4
mm
  5

  6

  7

 40
1.0
 41
0.1
 42
0.05
 43
0.5
 44
0.1
 45
0.0
 46
0.0
 47
0.1
 48
0.1
140
0.12
141
0.0
142
0.0
143
25.399999999999999
144
1.0
145
0.0
146
0.71
147
0.06
 71
     0
 72
     0
 73
     1
 74
     1
 75
     0
 76
     0
 77
     0
 78
     7
170
     0
171
     2
172
     0
173
     0
174
     0
175
     0
176
   256
177
   256
178
     2
  0
DIMSTYLE
  2
AM_ANSI$7
 70
     0
  3

  4
mm
  5

  6

  7

 40
1.0
 41
0.1
 42
0.05
 43
0.5
 44
0.1
 45
0.0
 46
0.0
 47
0.1
 48
0.1
140
0.24
141
0.0
142
0.0
143
25.399999999999999
144
1.0
145
0.0
146
0.71
147
0.06
 71
     0
 72
     0
 73
     1
 74
     1
 75
     0
 76
     0
 77
     0
 78
     7
170
     0
171
     2
172
     0
173
     0
174
     0
175
     0
176
   256
177
   256
178
     2
  0
DIMSTYLE
  2
AM_ANSI$SF
 70
     0
  3

  4
mm
  5

  6

  7

 40
1.0
 41
0.1
 42
0.05
 43
0.5
 44
0.1
 45
0.0
 46
0.0
 47
0.1
 48
0.1
140
0.12
141
0.0
142
0.0
143
25.399999999999999
144
1.0
145
0.0
146
0.71
147
0.06
 71
     0
 72
     0
 73
     1
 74
     1
 75
     1
 76
     1
 77
     0
 78
     7
170
     0
171
     2
172
     0
173
     0
174
     0
175
     0
176
   256
177
   256
178
     2
  0
DIMSTYLE
  2
AM_ANSI$SH
 70
     0
  3

  4
mm
  5

  6

  7

 40
1.0
 41
0.1
 42
0.05
 43
0.5
 44
0.1
 45
0.0
 46
0.0
 47
0.1
 48
0.1
140
0.12
141
0.0
142
0.0
143
25.399999999999999
144
1.0
145
0.0
146
0.71
147
0.06
 71
     0
 72
     0
 73
     1
 74
     1
 75
     1
 76
     1
 77
     0
 78
     7
170
     0
171
     2
172
     0
173
     1
174
     0
175
     0
176
   256
177
   256
178
     2
  0
ENDTAB
  0
ENDSEC
  0
SECTION
  2
BLOCKS
  0
BLOCK
  8
0
  2
$MODEL_SPACE
 70
     0
 10
0.0
 20
0.0
 30
0.0
  3
$MODEL_SPACE
  1

  0
ENDBLK
  5
2F8B
  8
0
  0
BLOCK
 67
     1
  8
0
  2
$PAPER_SPACE
 70
     0
 10
0.0
 20
0.0
 30
0.0
  3
$PAPER_SPACE
  1

  0
ENDBLK
  5
2F87
 67
     1
  8
0
  0
BLOCK
  8
0
  2
GENAXEH
 70
     0
 10
0.0
 20
0.0
 30
0.0
  3
GENAXEH
  1

  0
LINE
  5
2CF5
  8
0
 10
-1.0
 20
0.0
 30
0.0
 11
1.0
 21
0.0
 31
0.0
  0
ENDBLK
  5
2CF6
  8
0
  0
BLOCK
  8
0
  2
_OPEN30
 70
     0
 10
0.0
 20
0.0
 30
0.0
  3
_OPEN30
  1

  0
LINE
  5
2CF9
  8
0
 62
     0
 10
-1.0
 20
0.26794919
 30
0.0
 11
0.0
 21
0.0
 31
0.0
  0
LINE
  5
2CFA
  8
0
 62
     0
 10
0.0
 20
0.0
 30
0.0
 11
-1.0
 21
-0.26794919
 31
0.0
  0
LINE
  5
2CFB
  8
0
 62
     0
 10
0.0
 20
0.0
 30
0.0
 11
-1.0
 21
0.0
 31
0.0
  0
ENDBLK
  5
2CFC
  8
0
  0
BLOCK
  8
0
  2
_NONE
 70
     0
 10
0.0
 20
0.0
 30
0.0
  3
_NONE
  1

  0
ENDBLK
  5
2CFF
  8
0
  0
BLOCK
  8
0
  2
*U5
 70
     1
 10
0.0
 20
0.0
 30
0.0
  3
*U5
  1

  0
TEXT
  5
2D02
  8
AM_0
 62
     4
 10
755.9454250970648
 20
383.75810260639503
 30
0.0
 40
12.5
  1
\U+2205
 50
90.0
 41
0.8299999999999999
  0
TEXT
  5
2D03
  8
AM_0
 62
     4
 10
755.9454250970648
 20
394.13310260639503
 30
0.0
 40
12.5
  1
240
 50
90.0
 41
0.8299999999999999
  0
TEXT
  5
2D04
  8
AM_0
 62
     4
 10
755.9454250970648
 20
423.52893593972811
 30
0.0
 40
10.0
  1
h7
 50
90.0
 41
0.8299999999999999
  0
ENDBLK
  5
2D05
  8
0
  0
BLOCK
  8
0
  2
*U6
 70
     1
 10
0.0
 20
0.0
 30
0.0
  3
*U6
  1

  0
TEXT
  5
2D08
  8
AM_0
 62
     4
 10
1025.149313203166
 20
623.8361780794794
 30
0.0
 40
12.5
  1
o
 41
0.8299999999999999
  0
TEXT
  5
2D09
  8
AM_0
 62
     4
 10
1037.5005036793571
 20
623.8361780794794
 30
0.0
 40
12.5
  1
 285
 41
0.8299999999999999
  0
ENDBLK
  5
2D0A
  8
0
  0
BLOCK
  8
0
  2
_ACMFILLEDHALF
 70
     0
 10
0.0
 20
0.0
 30
0.0
  3
_ACMFILLEDHALF
  1

  0
TRACE
  5
3085
  8
AM_0
 62
     0
 10
-0.8
 20
0.0
 30
0.0
 11
-1.0
 21
0.166666666
 31
0.0
 12
0.0
 22
0.0
 32
0.0
 13
0.0
 23
0.0
 33
0.0
  0
LINE
  5
3086
  8
AM_0
 62
     0
 10
-1.0
 20
0.0
 30
0.0
 11
-0.8
 21
0.0
 31
0.0
  0
ENDBLK
  5
3084
  8
0
  0
ENDSEC
  0
SECTION
  2
ENTITIES
  0
LINE
  5
2D0B
  8
AM_0
 10
478.63100502163462
 20
484.20615593972838
 30
0.0
 11
478.63100502163462
 21
260.91422093972818
 31
0.0
  0
LINE
  5
2D0C
  8
AM_0
 10
395.39525502163491
 20
253.0601859397282
 30
0.0
 11
395.39525502163491
 21
492.0601909397281
 31
0.0
  0
LINE
  5
2D0D
  8
AM_0
 10
408.39520502163481
 20
255.06018593972831
 30
0.0
 11
408.39520502163481
 21
490.5601909397281
 31
0.0
  0
LINE
  5
2D0E
  8
AM_0
 10
481.89520502163458
 20
244.9455159397281
 30
0.0
 11
481.89520502163458
 21
500.17488593972831
 31
0.0
  0
LINE
  5
2D0F
  8
AM_0
 10
614.89520502163475
 20
410.5601909397281
 30
0.0
 11
614.89520502163475
 21
530.5601859397284
 31
0.0
  0
LINE
  5
2D10
  8
AM_0
 10
600.89520502163487
 20
410.5601909397281
 30
0.0
 11
600.89520502163487
 21
521.51748593972843
 31
0.0
  0
LINE
  5
2D11
  8
AM_0
 10
591.76065502163488
 20
428.91318593972812
 30
0.0
 11
575.50775502163515
 21
478.04914093972832
 31
0.0
  0
LINE
  5
2D12
  8
AM_0
 10
610.89520502163475
 20
268.06018593972823
 30
0.0
 11
610.89520502163475
 21
553.06018593972817
 31
0.0
  0
LINE
  5
2D13
  8
AM_0
 10
592.89525502163485
 20
432.04703593972812
 30
0.0
 11
592.89525502163485
 21
549.53453593972813
 31
0.0
  0
LINE
  5
2D14
  8
AM_0
 10
494.89520502163452
 20
242.56018593972831
 30
0.0
 11
494.89520502163452
 21
502.56018593972823
 31
0.0
  0
LINE
  5
2D15
  8
AM_0
 10
373.93078902163512
 20
483.0957199397281
 30
0.0
 11
324.75845902163479
 21
433.92338993972822
 31
0.0
  0
LINE
  5
2D16
  8
AM_0
 10
367.39525502163491
 20
457.08585793972838
 30
0.0
 11
368.51666802163481
 21
469.90367393972838
 31
0.0
  0
LINE
  5
2D17
  8
AM_0
 10
371.49299102163491
 20
469.72547393972809
 30
0.0
 11
371.44977502163482
 21
459.44586393972833
 31
0.0
  0
LINE
  5
2D18
  8
AM_0
 10
228.8952550216348
 20
393.06018593972823
 30
0.0
 11
273.89525502163491
 21
393.06018593972823
 31
0.0
  0
LINE
  5
2D19
  8
AM_0
 10
286.89525502163491
 20
355.06018593972829
 30
0.0
 11
228.8952550216348
 21
355.06018593972829
 31
0.0
  0
LINE
  5
2D1A
  8
AM_0
 10
228.8952550216348
 20
390.06018593972823
 30
0.0
 11
286.89525502163491
 21
390.06018593972823
 31
0.0
  0
LINE
  5
2D1B
  8
ﾁｭｳｼﾝｾﾝ
 10
219.9621065741988
 20
372.5601859397284
 30
0.0
 11
447.63463608919062
 21
372.56018593972823
 31
0.0
  0
LINE
  5
2D1C
  8
AM_0
 10
228.8952550216348
 20
390.06018593972823
 30
0.0
 11
228.8952550216348
 21
393.06018593972823
 31
0.0
  0
LINE
  5
2D1D
  8
AM_0
 10
228.8952550216348
 20
355.06018593972829
 30
0.0
 11
228.8952550216348
 21
390.06018593972823
 31
0.0
  0
LINE
  5
2D1E
  8
AM_0
 10
481.89520502163458
 20
387.57196593972822
 30
0.0
 11
494.89520502163452
 21
387.57196593972822
 31
0.0
  0
LINE
  5
2D1F
  8
AM_0
 10
481.89520502163458
 20
355.94989593972832
 30
0.0
 11
494.89520502163452
 21
355.94989593972832
 31
0.0
  0
LINE
  5
2D20
  8
AM_0
 10
481.89520502163458
 20
268.23593593972822
 30
0.0
 11
494.89520502163452
 21
268.23593593972822
 31
0.0
  0
LINE
  5
2D21
  8
AM_0
 10
494.89520502163452
 20
249.9768759397283
 30
0.0
 11
481.89520502163458
 21
249.9768759397283
 31
0.0
  0
LINE
  5
2D22
  8
AM_0
 10
483.82535502163478
 20
242.9467509397283
 30
0.0
 11
494.89520502163452
 21
242.56018593972831
 31
0.0
  0
LINE
  5
2D23
  8
ﾁｭｳｼﾝｾﾝ
 10
425.88305701772242
 20
410.5601909397281
 30
0.0
 11
694.83960502163507
 21
410.5601909397281
 31
0.0
  0
LINE
  5
2D24
  8
AM_0
 10
393.39525502163508
 20
442.27702293972811
 30
0.0
 11
393.39525502163508
 21
289.03451493972818
 31
0.0
  0
LINE
  5
2D25
  8
AM_0
 10
292.89525502163491
 20
372.56018593972823
 30
0.0
 11
292.89525502163491
 21
317.50827793972832
 31
0.0
  0
LINE
  5
2D26
  8
AM_0
 10
321.90156202163507
 20
316.39237593972831
 30
0.0
 11
321.90156202163507
 21
372.56018593972823
 31
0.0
  0
LINE
  5
2D27
  8
AM_0
 10
375.39525502163491
 20
372.56018593972823
 30
0.0
 11
375.39525502163491
 21
289.03451493972818
 31
0.0
  0
ARC
  5
2D28
  8
AM_0
 10
378.39525502163491
 20
255.56018593972831
 30
0.0
 40
3.0
 50
180.0
 51
270.0
  0
LINE
  5
2D29
  8
AM_0
 10
371.50525302163481
 20
272.47816593972829
 30
0.0
 11
395.39525502163491
 21
272.47816593972829
 31
0.0
  0
ARC
  5
2D2A
  8
AM_0
 10
317.68739102163488
 20
304.12591493972832
 30
0.0
 40
10.0
 50
45.0
 51
89.000000000001506
  0
ARC
  5
2D2B
  8
AM_0
 10
295.8952550216348
 20
317.50827793972832
 30
0.0
 40
3.0
 50
180.0
 51
268.99999999999812
  0
LINE
  5
2D2C
  8
AM_0
 10
295.84289802163482
 20
314.50873493972807
 30
0.0
 11
317.86191502163501
 21
314.12439193972818
 31
0.0
  0
LINE
  5
2D2D
  8
AM_0
 10
367.39525502163491
 20
288.0345149397283
 30
0.0
 11
368.51666802163481
 21
275.21669793972831
 31
0.0
  0
LINE
  5
2D2E
  8
AM_0
 10
371.49299102163491
 20
275.39489893972831
 30
0.0
 11
371.44977502163482
 21
285.67450893972818
 31
0.0
  0
LINE
  5
2D2F
  8
AM_0
 10
373.93078902163512
 20
262.0246519397283
 30
0.0
 11
324.75845902163479
 21
311.19698293972817
 31
0.0
  0
LINE
  5
2D30
  8
AM_0
 10
375.39525502163491
 20
272.47816593972829
 30
0.0
 11
375.39525502163491
 21
255.56018593972831
 31
0.0
  0
ARC
  5
2D31
  8
AM_0
 10
370.39525502163491
 20
258.48911893972831
 30
0.0
 40
5.0
 50
0.0
 51
45.0
  0
ARC
  5
2D32
  8
AM_0
 10
371.50525302163481
 20
275.47816593972823
 30
0.0
 40
3.0
 50
184.99999999999969
 51
270.0
  0
LINE
  5
2D33
  8
AM_0
 10
367.39525502163491
 20
302.84334893972817
 30
0.0
 11
368.45126902163491
 21
290.77304793972831
 31
0.0
  0
ARC
  5
2D34
  8
AM_0
 10
374.39525502163491
 20
289.03451493972818
 30
0.0
 40
1.0
 50
270.0
 51
0.0
  0
LINE
  5
2D35
  8
AM_0
 10
371.4398540216348
 20
288.0345149397283
 30
0.0
 11
374.39525502163491
 21
288.0345149397283
 31
0.0
  0
ARC
  5
2D36
  8
AM_0
 10
371.4398540216348
 20
291.0345149397283
 30
0.0
 40
3.0
 50
184.99999999999969
 51
270.0
  0
LINE
  5
2D37
  8
AM_0
 10
375.39525502163491
 20
302.84334893972817
 30
0.0
 11
368.43328602163513
 21
302.84334893972817
 31
0.0
  0
ARC
  5
2D38
  8
AM_0
 10
483.89520502163481
 20
244.9455159397281
 30
0.0
 40
2.0000000500000001
 50
179.99998999999991
 51
268.00000999999992
  0
LINE
  5
2D39
  8
AM_0
 10
408.39520502163481
 20
285.88526093972843
 30
0.0
 11
478.63100502163462
 21
285.88526093972843
 31
0.0
  0
LINE
  5
2D3A
  8
AM_0
 10
408.39520502163481
 20
301.6273859397283
 30
0.0
 11
478.63100502163462
 21
301.6273859397283
 31
0.0
  0
LINE
  5
2D3B
  8
AM_0
 10
413.39520502163492
 20
262.06018593972823
 30
0.0
 11
475.44565502163488
 21
262.06018593972823
 31
0.0
  0
LINE
  5
2D3C
  8
AM_0
 10
395.39525502163491
 20
272.83298093972832
 30
0.0
 11
406.39515502163488
 21
272.83298093972832
 31
0.0
  0
LINE
  5
2D3D
  8
AM_0
 10
395.39525502163491
 20
253.0601859397282
 30
0.0
 11
406.39515502163488
 21
253.0601859397282
 31
0.0
  0
LINE
  5
2D3E
  8
AM_0
 10
378.39525502163491
 20
252.56018593972831
 30
0.0
 11
393.39525502163508
 21
252.56018593972831
 31
0.0
  0
LINE
  5
2D3F
  8
AM_0
 10
395.39525502163491
 20
254.56018593972831
 30
0.0
 11
393.39525502163508
 21
252.56018593972831
 31
0.0
  0
ARC
  5
2D40
  8
AM_0
 10
406.39515502163488
 20
255.06018593972831
 30
0.0
 40
2.0000000500000001
 50
270.0
 51
0.0
  0
ARC
  5
2D41
  8
AM_0
 10
413.39520502163492
 20
257.06018593972829
 30
0.0
 40
5.0
 50
90.000003000000007
 51
180.00001
  0
ARC
  5
2D42
  8
AM_0
 10
406.39515502163488
 20
274.83295093972828
 30
0.0
 40
2.0000000500000001
 50
270.0
 51
0.0
  0
LINE
  5
2D43
  8
AM_0
 10
395.39525502163491
 20
288.38932093972818
 30
0.0
 11
406.39515502163488
 21
288.38932093972818
 31
0.0
  0
LINE
  5
2D44
  8
AM_0
 10
396.374055021635
 20
298.12323593972832
 30
0.0
 11
407.40300502163478
 21
298.12323593972832
 31
0.0
  0
ARC
  5
2D45
  8
AM_0
 10
394.39525502163491
 20
289.03451493972818
 30
0.0
 40
1.0
 50
180.0
 51
270.0
  0
LINE
  5
2D46
  8
AM_0
 10
394.39525502163491
 20
288.0345149397283
 30
0.0
 11
395.39525502163491
 21
288.0345149397283
 31
0.0
  0
LINE
  5
2D47
  8
AM_0
 10
395.39525502163491
 20
302.84334893972817
 30
0.0
 11
393.39525502163508
 21
302.84334893972817
 31
0.0
  0
ARC
  5
2D48
  8
AM_0
 10
406.39515502163488
 20
290.38932093972818
 30
0.0
 40
2.0000000500000001
 50
270.0
 51
0.0
  0
ARC
  5
2D49
  8
AM_0
 10
478.89520502163481
 20
254.39510093972831
 30
0.0
 40
3.0000000500000001
 50
0.0
 51
25.0
  0
ARC
  5
2D4A
  8
AM_0
 10
475.44565502163488
 20
257.06018593972829
 30
0.0
 40
5.0
 50
25.0
 51
90.000003000000007
  0
LINE
  5
2D4B
  8
AM_0
 10
479.97720502163452
 20
259.17328593972832
 30
0.0
 11
481.61410502163471
 21
255.6629409397282
 31
0.0
  0
LINE
  5
2D4C
  8
AM_0
 10
394.21504002163482
 20
442.27702293972811
 30
0.0
 11
368.43328602163513
 21
442.27702293972811
 31
0.0
  0
LINE
  5
2D4D
  8
AM_0
 10
371.4398540216348
 20
457.08585793972838
 30
0.0
 11
395.39525502163491
 21
457.08585793972838
 31
0.0
  0
ARC
  5
2D4E
  8
AM_0
 10
378.39525502163491
 20
323.48137293972832
 30
0.0
 40
3.0
 50
180.0
 51
270.0
  0
LINE
  5
2D4F
  8
AM_0
 10
377.50390802163491
 20
331.64543893972831
 30
0.0
 11
391.1617120216348
 21
331.64543893972831
 31
0.0
  0
LINE
  5
2D50
  8
AM_0
 10
375.39525502163491
 20
372.56018593972823
 30
0.0
 11
375.39525502163491
 21
442.27702293972811
 31
0.0
  0
LINE
  5
2D51
  8
AM_0
 10
321.90156202163507
 20
428.72799693972843
 30
0.0
 11
321.90156202163507
 21
372.56018593972823
 31
0.0
  0
LINE
  5
2D52
  8
AM_0
 10
290.89525502163491
 20
372.56018593972823
 30
0.0
 11
290.89525502163491
 21
407.56018593972823
 31
0.0
  0
LINE
  5
2D53
  8
AM_0
 10
292.89525502163491
 20
372.56018593972823
 30
0.0
 11
292.89525502163491
 21
427.61209493972842
 31
0.0
  0
LINE
  5
2D54
  8
AM_0
 10
286.89525502163491
 20
392.56018593972823
 30
0.0
 11
286.89525502163491
 21
352.56018593972823
 31
0.0
  0
LINE
  5
2D55
  8
AM_0
 10
273.89525502163491
 20
393.06018593972823
 30
0.0
 11
273.89525502163491
 21
390.06018593972823
 31
0.0
  0
LINE
  5
2D56
  8
AM_0
 10
290.89525502163491
 20
372.56018593972823
 30
0.0
 11
290.89525502163491
 21
337.56018593972823
 31
0.0
  0
LINE
  5
2D57
  8
AM_0
 10
290.89525502163491
 20
337.56018593972823
 30
0.0
 11
292.89525502163491
 21
335.56018593972823
 31
0.0
  0
LINE
  5
2D58
  8
AM_0
 10
286.89525502163491
 20
352.56018593972823
 30
0.0
 11
290.89525502163491
 21
352.56018593972823
 31
0.0
  0
ARC
  5
2D59
  8
AM_0
 10
317.68739102163488
 20
440.99445793972831
 30
0.0
 40
10.0
 50
270.99999999999841
 51
315.0
  0
LINE
  5
2D5A
  8
AM_0
 10
290.89525502163491
 20
407.56018593972823
 30
0.0
 11
292.89525502163491
 21
409.56018593972811
 31
0.0
  0
LINE
  5
2D5B
  8
AM_0
 10
286.89525502163491
 20
392.56018593972823
 30
0.0
 11
290.89525502163491
 21
392.56018593972823
 31
0.0
  0
ARC
  5
2D5C
  8
AM_0
 10
295.8952550216348
 20
427.61209493972842
 30
0.0
 40
3.0
 50
90.999999999998465
 51
180.0
  0
LINE
  5
2D5D
  8
AM_0
 10
295.84289802163482
 20
430.61163793972798
 30
0.0
 11
317.86191502163501
 21
430.99598093972833
 31
0.0
  0
LINE
  5
2D5E
  8
AM_0
 10
367.39525502163491
 20
442.27702293972811
 30
0.0
 11
368.45126902163491
 21
454.34732493972808
 31
0.0
  0
ARC
  5
2D5F
  8
AM_0
 10
371.4398540216348
 20
454.08585793972833
 30
0.0
 40
3.0
 50
90.0
 51
175.00000000000011
  0
ARC
  5
2D60
  8
AM_0
 10
390.39525502163491
 20
323.48137293972832
 30
0.0
 40
3.0
 50
270.0
 51
0.0
  0
LINE
  5
2D61
  8
AM_0
 10
378.39525502163491
 20
320.48137293972832
 30
0.0
 11
390.39525502163491
 21
320.48137293972832
 31
0.0
  0
LINE
  5
2D62
  8
AM_0
 10
408.39520502163481
 20
443.49299093972809
 30
0.0
 11
478.63100502163462
 21
443.49299093972809
 31
0.0
  0
LINE
  5
2D63
  8
AM_0
 10
408.39520502163481
 20
459.23508593972832
 30
0.0
 11
478.63100502163462
 21
459.23508593972832
 31
0.0
  0
LINE
  5
2D64
  8
AM_0
 10
396.374055021635
 20
446.9971409397283
 30
0.0
 11
407.40300502163478
 21
446.9971409397283
 31
0.0
  0
LINE
  5
2D65
  8
AM_0
 10
395.39525502163491
 20
456.73102593972811
 30
0.0
 11
406.39515502163488
 21
456.73102593972811
 31
0.0
  0
ARC
  5
2D66
  8
AM_0
 10
406.39515502163488
 20
454.73102593972811
 30
0.0
 40
2.0000000500000001
 50
0.0
 51
90.000003000000007
  0
LINE
  5
2D67
  8
AM_0
 10
600.89520502163487
 20
410.5601909397281
 30
0.0
 11
600.89520502163487
 21
299.60288093972832
 31
0.0
  0
LINE
  5
2D68
  8
AM_0
 10
614.89520502163475
 20
410.5601909397281
 30
0.0
 11
614.89520502163475
 21
290.56018593972823
 31
0.0
  0
LINE
  5
2D69
  8
AM_0
 10
592.89525502163485
 20
270.53821593972822
 30
0.0
 11
592.89525502163485
 21
319.05335093972832
 31
0.0
  0
ARC
  5
2D6A
  8
AM_0
 10
595.89520502163475
 20
299.60288093972832
 30
0.0
 40
5.0
 50
268.0
 51
0.0
  0
LINE
  5
2D6B
  8
AM_0
 10
595.99985502163508
 20
267.54004593972832
 30
0.0
 11
610.89520502163475
 21
268.06018593972823
 31
0.0
  0
LINE
  5
2D6C
  8
AM_0
 10
554.62375502163445
 20
240.9961159397283
 30
0.0
 11
600.89520502163487
 21
267.71097593972831
 31
0.0
  0
LINE
  5
2D6D
  8
AM_0
 10
494.89520502163452
 20
242.56020093972811
 30
0.0
 11
554.62370502163503
 21
240.9961609397283
 31
0.0
  0
LINE
  5
2D6E
  8
AM_0
 10
522.89525502163485
 20
289.75592593972829
 30
0.0
 11
592.89525502163485
 21
289.75592593972829
 31
0.0
  0
LINE
  5
2D6F
  8
AM_0
 10
522.89525502163485
 20
309.1982159397283
 30
0.0
 11
592.89525502163485
 21
309.1982159397283
 31
0.0
  0
LINE
  5
2D70
  8
AM_0
 10
494.89520502163452
 20
265.29972093972822
 30
0.0
 11
596.71865502163473
 21
265.29972093972822
 31
0.0
  0
LINE
  5
2D71
  8
AM_0
 10
494.89520502163452
 20
250.8429159397281
 30
0.0
 11
571.67885502163506
 21
250.8429159397281
 31
0.0
  0
ARC
  5
2D72
  8
AM_0
 10
522.89525502163485
 20
299.47708593972823
 30
0.0
 40
9.7211409999999994
 50
90.000003000000007
 51
270.0
  0
LINE
  5
2D73
  8
AM_0
 10
522.89525502163485
 20
291.60257593972841
 30
0.0
 11
522.89525502163485
 21
307.70258093972831
 31
0.0
  0
ARC
  5
2D74
  8
AM_0
 10
595.89520502163475
 20
270.53821593972822
 30
0.0
 40
3.0000000500000001
 50
179.99998999999991
 51
271.99998999999991
  0
LINE
  5
2D75
  8
AM_0
 10
610.89520502163475
 20
290.56018593972823
 30
0.0
 11
614.89520502163475
 21
290.56018593972823
 31
0.0
  0
LINE
  5
2D76
  8
AM_0
 10
596.50775502163435
 20
425.483345939728
 30
0.0
 11
600.89520502163487
 21
425.483345939728
 31
0.0
  0
LINE
  5
2D77
  8
AM_0
 10
494.89520502163452
 20
382.54120593972817
 30
0.0
 11
600.89520502163487
 21
382.54120593972817
 31
0.0
  0
LINE
  5
2D78
  8
AM_0
 10
494.89520502163452
 20
362.57920093972831
 30
0.0
 11
600.89520502163487
 21
362.57920093972831
 31
0.0
  0
ARC
  5
2D79
  8
AM_0
 10
597.89525502163485
 20
319.05335093972832
 30
0.0
 40
5.0
 50
90.000003000000007
 51
180.00001
  0
ARC
  5
2D7A
  8
AM_0
 10
596.50775502163435
 20
430.48334593972811
 30
0.0
 40
5.0
 50
198.30292
 51
270.0
  0
LINE
  5
2D7B
  8
AM_0
 10
686.89520502163475
 20
389.56019093972822
 30
0.0
 11
686.89520502163475
 21
434.5601909397281
 31
0.0
  0
LINE
  5
2D7C
  8
AM_0
 10
616.89520502163475
 20
388.06019093972822
 30
0.0
 11
616.89520502163475
 21
433.0601909397281
 31
0.0
  0
LINE
  5
2D7D
  8
AM_0
 10
616.89520502163475
 20
389.56019093972822
 30
0.0
 11
686.89520502163475
 21
389.56019093972822
 31
0.0
  0
LINE
  5
2D7E
  8
AM_0
 10
614.89520502163475
 20
388.06019093972822
 30
0.0
 11
616.89520502163475
 21
388.06019093972822
 31
0.0
  0
LINE
  5
2D7F
  8
AM_0
 10
616.89520502163475
 20
431.56022093972808
 30
0.0
 11
686.89520502163475
 21
431.56022093972808
 31
0.0
  0
LINE
  5
2D80
  8
AM_0
 10
630.89520502163475
 20
434.5601909397281
 30
0.0
 11
686.89520502163475
 21
434.5601909397281
 31
0.0
  0
LINE
  5
2D81
  8
AM_0
 10
614.89520502163475
 20
433.0601909397281
 30
0.0
 11
616.89520502163475
 21
433.0601909397281
 31
0.0
  0
LINE
  5
2D82
  8
AM_0
 10
630.89520502163475
 20
434.5601909397281
 30
0.0
 11
630.89520502163475
 21
431.56022093972808
 31
0.0
  0
LINE
  5
2D83
  8
AM_0
 10
483.82535502163478
 20
502.17363593972811
 30
0.0
 11
494.89520502163452
 21
502.56023593972799
 31
0.0
  0
ARC
  5
2D84
  8
AM_0
 10
492.81210502163492
 20
503.39668593972812
 30
0.0
 40
4.000000049999997
 50
124.61365000000001
 51
187.86822000000001
  0
LINE
  5
2D85
  8
AM_0
 10
468.89510502163461
 20
502.56018593972823
 30
0.0
 11
494.89520502163452
 21
502.56018593972823
 31
0.0
  0
LINE
  5
2D86
  8
AM_0
 10
494.89520502163452
 20
495.14350093972809
 30
0.0
 11
481.89520502163458
 21
495.14350093972809
 31
0.0
  0
LINE
  5
2D87
  8
AM_0
 10
481.89520502163458
 20
476.88447093972832
 30
0.0
 11
494.89520502163452
 21
476.88447093972832
 31
0.0
  0
CIRCLE
  5
2D88
  8
AM_0
 10
478.89520502163481
 20
523.56018593972829
 30
0.0
 40
12.5
  0
ARC
  5
2D89
  8
AM_0
 10
478.89520502163481
 20
523.56018593972829
 30
0.0
 40
20.500000499999992
 50
304.61363999999992
 51
235.38634999999999
  0
ARC
  5
2D8A
  8
AM_0
 10
378.39525502163491
 20
499.69857393972802
 30
0.0
 40
3.0
 50
90.0
 51
180.0
  0
LINE
  5
2D8B
  8
AM_0
 10
371.50525302163481
 20
472.64220693972823
 30
0.0
 11
395.39525502163491
 21
472.64220693972823
 31
0.0
  0
LINE
  5
2D8C
  8
AM_0
 10
376.52900902163492
 20
483.30868693972809
 30
0.0
 11
392.2248680216349
 21
483.30868693972809
 31
0.0
  0
LINE
  5
2D8D
  8
AM_0
 10
375.39525502163491
 20
472.64220693972823
 30
0.0
 11
375.39525502163491
 21
499.69857393972802
 31
0.0
  0
ARC
  5
2D8E
  8
AM_0
 10
371.50525302163481
 20
469.64220693972811
 30
0.0
 40
3.0
 50
90.0
 51
175.00000000000011
  0
ARC
  5
2D8F
  8
AM_0
 10
370.39525502163491
 20
486.63125393972831
 30
0.0
 40
5.0
 50
315.0
 51
0.0
  0
LINE
  5
2D90
  8
AM_0
 10
413.39520502163492
 20
483.0601909397281
 30
0.0
 11
475.44565502163488
 21
483.0601909397281
 31
0.0
  0
LINE
  5
2D91
  8
AM_0
 10
393.39525502163508
 20
472.64220693972823
 30
0.0
 11
393.39525502163508
 21
499.69857393972802
 31
0.0
  0
LINE
  5
2D92
  8
AM_0
 10
395.39525502163491
 20
492.0601909397281
 30
0.0
 11
406.39515502163488
 21
492.0601909397281
 31
0.0
  0
LINE
  5
2D93
  8
AM_0
 10
395.39525502163491
 20
472.28739093972831
 30
0.0
 11
406.39515502163488
 21
472.28739093972831
 31
0.0
  0
LINE
  5
2D94
  8
AM_0
 10
393.39525502163508
 20
492.5601859397284
 30
0.0
 11
395.39525502163491
 21
490.56018593972823
 31
0.0
  0
ARC
  5
2D95
  8
AM_0
 10
406.39515502163488
 20
470.28739093972843
 30
0.0
 40
2.0000000500000001
 50
0.0
 51
90.000003000000007
  0
ARC
  5
2D96
  8
AM_0
 10
406.39515502163488
 20
490.0601909397281
 30
0.0
 40
2.0000000500000001
 50
0.0
 51
90.000003000000007
  0
ARC
  5
2D97
  8
AM_0
 10
413.39520502163492
 20
488.0601909397281
 30
0.0
 40
5.0
 50
179.99998999999991
 51
270.0
  0
ARC
  5
2D98
  8
AM_0
 10
390.39525502163491
 20
499.69857393972802
 30
0.0
 40
3.0
 50
0.0
 51
90.0
  0
LINE
  5
2D99
  8
AM_0
 10
378.39525502163491
 20
502.69857393972802
 30
0.0
 11
390.39525502163491
 21
502.69857393972802
 31
0.0
  0
LINE
  5
2D9A
  8
AM_0
 10
467.89525502163491
 20
488.0601909397281
 30
0.0
 11
467.89525502163491
 21
500.56018593972811
 31
0.0
  0
ARC
  5
2D9B
  8
AM_0
 10
462.8952550216348
 20
488.0601909397281
 30
0.0
 40
5.0
 50
270.0
 51
0.0
  0
ARC
  5
2D9C
  8
AM_0
 10
475.44565502163488
 20
488.0601909397281
 30
0.0
 40
5.0
 50
270.0
 51
335.0
  0
ARC
  5
2D9D
  8
AM_0
 10
478.89520502163481
 20
490.72529093972798
 30
0.0
 40
3.0000000500000001
 50
335.0
 51
0.0
  0
LINE
  5
2D9E
  8
AM_0
 10
479.97725502163479
 20
485.94709093972801
 30
0.0
 11
481.61410502163471
 21
489.45740593972818
 31
0.0
  0
LINE
  5
2D9F
  8
AM_0
 10
471.39180502163521
 20
509.6748859397282
 30
0.0
 11
478.89525502163491
 21
511.0602359397281
 31
0.0
  0
LINE
  5
2DA0
  8
AM_0
 10
471.07805502163501
 20
509.56018593972811
 30
0.0
 11
486.71225502163492
 21
509.56018593972811
 31
0.0
  0
ARC
  5
2DA1
  8
AM_0
 10
471.57335502163488
 20
508.69143593972808
 30
0.0
 40
1.0
 50
100.4607199999999
 51
164.99999
  0
LINE
  5
2DA2
  8
AM_0
 10
468.8950550216349
 20
502.5601359397283
 30
0.0
 11
470.6073550216351
 21
508.9502859397283
 31
0.0
  0
ARC
  5
2DA3
  8
AM_0
 10
469.89520502163452
 20
500.56018593972811
 30
0.0
 40
2.0000000500000001
 50
90.000003000000007
 51
180.00001
  0
ARC
  5
2DA4
  8
AM_0
 10
464.97820502163489
 20
503.39668593972812
 30
0.0
 40
4.000000049999997
 50
347.92932999999999
 51
55.386358999999992
  0
LINE
  5
2DA5
  8
AM_0
 10
488.89520502163492
 20
502.56023593972799
 30
0.0
 11
487.18295502163483
 21
508.95023593972832
 31
0.0
  0
ARC
  5
2DA6
  8
AM_0
 10
486.21710502163472
 20
508.69143593972808
 30
0.0
 40
1.0
 50
15.0
 51
79.539281000000003
  0
ARC
  5
2DA7
  8
AM_0
 10
483.89520502163481
 20
500.17488593972831
 30
0.0
 40
2.0000000500000001
 50
91.999997999999948
 51
180.00001
  0
LINE
  5
2DA8
  8
AM_0
 10
478.89505502163502
 20
511.06018593972823
 30
0.0
 11
486.39845502163507
 21
509.67483593972833
 31
0.0
  0
LINE
  5
2DA9
  8
AM_0
 10
595.790505021635
 20
552.53273593972835
 30
0.0
 11
610.89520502163475
 21
553.06018593972817
 31
0.0
  0
ARC
  5
2DAA
  8
AM_0
 10
595.89520502163475
 20
521.51748593972843
 30
0.0
 40
5.0
 50
0.0
 51
91.999997999999948
  0
ARC
  5
2DAB
  8
AM_0
 10
546.39520502163475
 20
483.04911093972811
 30
0.0
 40
5.0
 50
229.76332999999991
 51
270.0
  0
LINE
  5
2DAC
  8
AM_0
 10
494.89520502163452
 20
494.27750593972831
 30
0.0
 11
557.80570502163482
 21
494.27750593972831
 31
0.0
  0
LINE
  5
2DAD
  8
AM_0
 10
494.89525502163502
 20
502.56023593972799
 30
0.0
 11
564.78335502163452
 21
504.39028593972841
 31
0.0
  0
ARC
  5
2DAE
  8
AM_0
 10
525.09500502163519
 20
504.35533593972832
 30
0.0
 40
30.946884499999999
 50
307.55230999999992
 51
335.5961299999999
  0
LINE
  5
2DAF
  8
AM_0
 10
494.89520502163452
 20
479.82072093972818
 30
0.0
 11
543.95670502163512
 21
479.82072093972818
 31
0.0
  0
LINE
  5
2DB0
  8
AM_0
 10
590.46150502163516
 20
513.80683593972844
 30
0.0
 11
553.40260502163483
 21
491.64420593972812
 31
0.0
  0
LINE
  5
2DB1
  8
AM_0
 10
590.74785502163445
 20
507.56383593972811
 30
0.0
 11
548.98980502163522
 21
482.59095093972832
 31
0.0
  0
LINE
  5
2DB2
  8
AM_0
 10
546.39520502163475
 20
478.04911093972811
 30
0.0
 11
573.84820502163495
 21
478.04911093972811
 31
0.0
  0
LINE
  5
2DB3
  8
AM_0
 10
576.83795502163503
 20
479.0414809397281
 30
0.0
 11
592.89520502163487
 21
491.02030593972802
 31
0.0
  0
ARC
  5
2DB4
  8
AM_0
 10
573.84820502163495
 20
483.04911093972811
 30
0.0
 40
5.0
 50
270.0
 51
306.72320999999999
  0
LINE
  5
2DB5
  8
AM_0
 10
568.18800502163504
 20
505.8530359397281
 30
0.0
 11
591.43070502163471
 21
529.09573593972846
 31
0.0
  0
LINE
  5
2DB6
  8
AM_0
 10
568.1029050216348
 20
500.43553593972808
 30
0.0
 11
566.77750502163485
 21
504.4424859397281
 31
0.0
  0
ARC
  5
2DB7
  8
AM_0
 10
564.65250502163485
 20
509.3885859397281
 30
0.0
 40
5.0
 50
271.49999999999972
 51
315.0
  0
ARC
  5
2DB8
  8
AM_0
 10
587.89525502163485
 20
518.09798593972835
 30
0.0
 40
5.0
 50
300.88097999999979
 51
0.0
  0
ARC
  5
2DB9
  8
AM_0
 10
587.89525502163485
 20
532.63123593972841
 30
0.0
 40
5.0
 50
315.0
 51
0.0
  0
ARC
  5
2DBA
  8
AM_0
 10
595.89520502163475
 20
549.53453593972813
 30
0.0
 40
3.0000000500000001
 50
91.999997999999948
 51
180.00001
  0
LINE
  5
2DBB
  8
AM_0
 10
610.89520502163475
 20
530.5601859397284
 30
0.0
 11
614.89520502163475
 21
530.5601859397284
 31
0.0
  0
CIRCLE
  5
2DBC
  8
AM_0
 10
1005.750095029453
 20
410.56019843972808
 30
0.0
 40
120.0
  0
CIRCLE
  5
2DBD
  8
AM_0
 10
1005.750095029453
 20
410.56019843972808
 30
0.0
 40
113.0
  0
ARC
  5
2DBE
  8
AM_0
 10
1005.750095029453
 20
410.56019843972808
 30
0.0
 40
61.999994999999998
 50
53.583680999999999
 51
126.41632
  0
ARC
  5
2DBF
  8
AM_0
 10
1005.750095029453
 20
372.5601934397281
 30
0.0
 40
122.0
 50
22.571981999999991
 51
55.326820000000012
  0
ARC
  5
2DC0
  8
AM_0
 10
1005.750095029453
 20
372.5601934397281
 30
0.0
 40
122.0
 50
124.67318
 51
157.42802
  0
LINE
  5
2DC1
  8
ﾁｭｳｼﾝｾﾝ
 10
1005.750095029453
 20
559.3603747956962
 30
0.0
 11
1005.750095029453
 21
234.5906034397282
 31
0.0
  0
LINE
  5
2DC2
  8
AM_0
 10
933.24615502945323
 20
490.1352084397281
 30
0.0
 11
962.44015502945285
 21
460.94120843972831
 31
0.0
  0
LINE
  5
2DC3
  8
AM_0
 10
1085.3251050294521
 20
483.06413343972832
 30
0.0
 11
1056.131105029453
 21
453.87016343972812
 31
0.0
  0
LINE
  5
2DC4
  8
AM_0
 10
926.17508002945317
 20
483.06413343972832
 30
0.0
 11
955.36908002945302
 21
453.87013343972808
 31
0.0
  0
LINE
  5
2DC5
  8
AM_0
 10
865.75293002945341
 20
532.23199343972829
 30
0.0
 11
863.25009002945319
 21
460.56019843972808
 31
0.0
  0
LINE
  5
2DC6
  8
AM_0
 10
1078.254030029452
 20
490.1352084397281
 30
0.0
 11
1049.0600600294531
 21
460.94123843972801
 31
0.0
  0
LINE
  5
2DC7
  8
AM_0
 10
1145.747260029452
 20
532.23199343972829
 30
0.0
 11
1148.250095029452
 21
460.56016843972822
 31
0.0
  0
ARC
  5
2DC8
  8
AM_0
 10
1111.2726000294531
 20
387.56019843972808
 30
0.0
 40
5.0
 50
270.0
 51
347.70395000000002
  0
LINE
  5
2DC9
  8
ﾁｭｳｼﾝｾﾝ
 10
849.38406502945293
 20
410.56019843972808
 30
0.0
 11
1154.049506997055
 21
410.56019843972808
 31
0.0
  0
LINE
  5
2DCA
  8
AM_0
 10
1127.421940029453
 20
270.56306343972818
 30
0.0
 11
1055.750095029453
 21
268.06022343972802
 31
0.0
  0
CIRCLE
  5
2DCB
  8
AM_0
 10
885.54193002945306
 20
290.35206343972823
 30
0.0
 40
9.5
  0
ARC
  5
2DCC
  8
ﾁｭｳｼﾝｾﾝ1
 10
1005.750095029445
 20
410.56019843972092
 30
0.0
 40
170.00000499998939
 50
218.57805559680861
 51
231.01461000000049
  0
LINE
  5
2DCD
  8
ﾁｭｳｼﾝｾﾝ1
 10
874.50096673959399
 20
279.31107014986918
 30
0.0
 11
898.80575704131877
 21
303.61586045159419
 31
0.0
  0
LINE
  5
2DCE
  8
AM_0
 10
884.07824502945346
 20
270.5630334397282
 30
0.0
 11
955.75006002945315
 21
268.06019343972821
 31
0.0
  0
LINE
  5
2DCF
  8
AM_0
 10
865.75293002945341
 20
288.8884134397282
 30
0.0
 11
863.25009002945319
 21
360.56016343972811
 31
0.0
  0
ARC
  5
2DD0
  8
AM_0
 10
884.74133502945301
 20
289.55146843972813
 30
0.0
 40
19.000000499999999
 50
182.0
 51
268.0
  0
LINE
  5
2DD1
  8
AM_0
 10
863.25009002945319
 20
360.5601934397281
 30
0.0
 11
863.25009002945319
 21
410.56019843972808
 31
0.0
  0
LINE
  5
2DD2
  8
AM_0
 10
863.25009002945319
 20
460.56019843972808
 30
0.0
 11
863.25009002945319
 21
410.56019843972808
 31
0.0
  0
LINE
  5
2DD3
  8
AM_0
 10
955.75009502945318
 20
268.06019343972821
 30
0.0
 11
1005.750095029453
 21
268.06019343972821
 31
0.0
  0
ARC
  5
2DD4
  8
AM_0
 10
1005.750095029453
 20
372.5601934397281
 30
0.0
 40
130.0
 50
246.6310399999999
 51
293.36896000000002
  0
LINE
  5
2DD5
  8
AM_0
 10
943.33826002945341
 20
250.31763843972811
 30
0.0
 11
954.18548502945316
 21
253.22414843972811
 31
0.0
  0
LINE
  5
2DD6
  8
AM_0
 10
931.09085002945301
 20
257.38871343972829
 30
0.0
 11
927.9715000294533
 21
269.03028843972822
 31
0.0
  0
ARC
  5
2DD7
  8
AM_0
 10
940.75009502945284
 20
259.97688343972823
 30
0.0
 40
10.0
 50
195.00001
 51
285.0
  0
LINE
  5
2DD8
  8
AM_0
 10
1055.750095029453
 20
268.06019343972821
 30
0.0
 11
1005.750095029453
 21
268.06019343972821
 31
0.0
  0
LINE
  5
2DD9
  8
AM_0
 10
1080.409380029452
 20
257.38871343972829
 30
0.0
 11
1083.5287200294531
 21
269.03025843972819
 31
0.0
  0
ARC
  5
2DDA
  8
AM_0
 10
1070.750095029452
 20
259.97688343972823
 30
0.0
 40
10.0
 50
255.0
 51
345.0
  0
LINE
  5
2DDB
  8
AM_0
 10
1068.1619300294531
 20
250.31763843972811
 30
0.0
 11
1057.3147000294521
 21
253.22414843972811
 31
0.0
  0
CIRCLE
  5
2DDC
  8
AM_5
 10
1005.750095029453
 20
410.56019843972808
 30
0.0
 40
5.0
  0
LINE
  5
2DDD
  8
AM_0
 10
999.75009502945284
 20
434.56019843972831
 30
0.0
 11
1011.750095029452
 21
434.56019843972831
 31
0.0
  0
LINE
  5
2DDE
  8
AM_0
 10
999.75009502945284
 20
426.56022843972818
 30
0.0
 11
1011.750095029452
 21
426.56022843972818
 31
0.0
  0
CIRCLE
  5
2DDF
  8
AM_0
 10
1005.750095029453
 20
410.56019843972808
 30
0.0
 40
41.000000499999992
  0
ARC
  5
2DE0
  8
AM_0
 10
1005.750095029453
 20
410.56019843972808
 30
0.0
 40
20.9999985
 50
106.60155
 51
73.398452000000006
  0
LINE
  5
2DE1
  8
ﾁｭｳｼﾝｾﾝ
 10
933.35845950721421
 20
372.5601934397281
 30
0.0
 11
1078.14173055169
 21
372.5601934397281
 31
0.0
  0
ARC
  5
2DE2
  8
AM_0
 10
935.75009502945318
 20
390.56019843972808
 30
0.0
 40
8.0
 50
270.0
 51
0.0
  0
LINE
  5
2DE3
  8
AM_0
 10
900.22760002945301
 20
382.56019843972808
 30
0.0
 11
935.75009502945318
 21
382.56019843972808
 31
0.0
  0
ARC
  5
2DE4
  8
AM_0
 10
900.22760002945301
 20
387.56019843972808
 30
0.0
 40
5.0
 50
192.29603999999981
 51
270.0
  0
ARC
  5
2DE5
  8
AM_0
 10
1005.750095029453
 20
410.56019843972808
 30
0.0
 40
61.999994999999998
 50
142.11498999999981
 51
180.00001
  0
LINE
  5
2DE6
  8
AM_0
 10
943.75009502945318
 20
410.56019843972808
 30
0.0
 11
943.75009502945318
 21
390.56019843972808
 31
0.0
  0
ARC
  5
2DE7
  8
AM_0
 10
951.83356002945266
 20
450.33464343972832
 30
0.0
 40
5.0
 50
323.5836799999999
 51
45.00000099999999
  0
ARC
  5
2DE8
  8
AM_0
 10
965.9756800294532
 20
464.47679343972823
 30
0.0
 40
5.0
 50
225.0
 51
306.41631999999993
  0
LINE
  5
2DE9
  8
AM_0
 10
999.75009502945284
 20
434.56019843972831
 30
0.0
 11
999.75009502945284
 21
426.56022843972818
 31
0.0
  0
ARC
  5
2DEA
  8
AM_0
 10
1075.750095029452
 20
390.56019843972808
 30
0.0
 40
8.0
 50
179.99998999999991
 51
270.0
  0
LINE
  5
2DEB
  8
AM_0
 10
1111.2726000294531
 20
382.56019843972808
 30
0.0
 11
1075.750095029452
 21
382.56019843972808
 31
0.0
  0
ARC
  5
2DEC
  8
AM_0
 10
1005.750095029453
 20
410.56019843972808
 30
0.0
 40
61.999994999999998
 50
0.0
 51
36.416317999999983
  0
CIRCLE
  5
2DED
  8
AM_0
 10
1005.750095029453
 20
410.56019843972808
 30
0.0
 40
3.5000000500000001
  0
POINT
  5
2DEE
  8
AM_0
 10
1005.750095029453
 20
410.56019843972808
 30
0.0
  0
LINE
  5
2DEF
  8
AM_0
 10
1011.750095029452
 20
434.56019843972831
 30
0.0
 11
1011.750095029452
 21
426.56022843972818
 31
0.0
  0
ARC
  5
2DF0
  8
AM_0
 10
1045.524510029453
 20
464.47679343972823
 30
0.0
 40
5.0
 50
233.5836799999999
 51
315.0
  0
ARC
  5
2DF1
  8
AM_0
 10
1059.666660029452
 20
450.33464343972832
 30
0.0
 40
5.0
 50
135.0
 51
216.41632000000001
  0
LINE
  5
2DF2
  8
AM_0
 10
1067.750095029452
 20
410.56019843972808
 30
0.0
 11
1067.750095029452
 21
390.56019843972808
 31
0.0
  0
LINE
  5
2DF3
  8
AM_0
 10
1145.747275029453
 20
288.88837843972823
 30
0.0
 11
1148.250110029453
 21
360.56022843972812
 31
0.0
  0
ARC
  5
2DF4
  8
AM_0
 10
1126.758840029453
 20
289.55146843972813
 30
0.0
 40
19.000000499999999
 50
272.0
 51
358.0
  0
CIRCLE
  5
2DF5
  8
AM_0
 10
1125.9582550294531
 20
290.35206343972823
 30
0.0
 40
9.5
  0
LINE
  5
2DF6
  8
AM_0
 10
1148.250110029453
 20
360.5601934397281
 30
0.0
 11
1148.250110029453
 21
410.56019843972808
 31
0.0
  0
LINE
  5
2DF7
  8
AM_0
 10
1148.250110029453
 20
460.56019843972808
 30
0.0
 11
1148.250110029453
 21
410.56019843972808
 31
0.0
  0
ARC
  5
2DF8
  8
ﾁｭｳｼﾝｾﾝ1
 10
1005.750095029447
 20
410.56019843972291
 30
0.0
 40
170.00000500000741
 50
38.565441519409831
 51
51.014603999999778
  0
LINE
  5
2DF9
  8
ﾁｭｳｼﾝｾﾝ1
 10
1138.268813354003
 20
543.07894812821974
 30
0.0
 11
1112.36463734417
 21
517.17474760333289
 31
0.0
  0
LINE
  5
2DFA
  8
AM_0
 10
1127.421940029453
 20
550.55739343972812
 30
0.0
 11
1055.750095029453
 21
553.06019343972821
 31
0.0
  0
CIRCLE
  5
2DFB
  8
AM_0
 10
885.54193002945306
 20
530.76834343972814
 30
0.0
 40
9.5
  0
LINE
  5
2DFC
  8
AM_0
 10
884.07824502945346
 20
550.55734343972836
 30
0.0
 11
955.75009502945318
 21
553.06014343972834
 31
0.0
  0
ARC
  5
2DFD
  8
AM_0
 10
884.74133502945301
 20
531.56894343972795
 30
0.0
 40
19.000000499999999
 50
91.999997999999948
 51
178.0
  0
LINE
  5
2DFE
  8
AM_0
 10
955.75009502945318
 20
553.06019343972821
 30
0.0
 11
1005.750095029453
 21
553.06019343972821
 31
0.0
  0
ARC
  5
2DFF
  8
AM_0
 10
997.25009502945295
 20
518.22519343972829
 30
0.0
 40
5.0
 50
0.0
 51
94.514060999999984
  0
ARC
  5
2E00
  8
AM_0
 10
997.25009502945295
 20
499.27544343972818
 30
0.0
 40
5.0
 50
273.83762999999999
 51
0.0
  0
ARC
  5
2E01
  8
AM_0
 10
936.78171002945282
 20
493.67073343972811
 30
0.0
 40
5.0
 50
129.68721999999991
 51
225.0
  0
ARC
  5
2E02
  8
AM_0
 10
922.63956002945315
 20
479.52858343972798
 30
0.0
 40
5.0
 50
45.00000099999999
 51
140.31278
  0
ARC
  5
2E03
  8
AM_0
 10
1005.75009502945
 20
372.56019843975258
 30
0.0
 40
121.9999999999761
 50
93.837626000003567
 51
119.8569400000037
  0
ARC
  5
2E04
  8
AM_0
 10
1005.750095029453
 20
372.5601934397281
 30
0.0
 40
122.0
 50
60.143059999999998
 51
86.162371999999962
  0
ARC
  5
2E05
  8
AM_0
 10
1014.250095029453
 20
499.27544343972818
 30
0.0
 40
5.0
 50
179.99998999999991
 51
266.16235999999992
  0
LINE
  5
2E06
  8
AM_0
 10
1009.250095029453
 20
518.22519343972829
 30
0.0
 11
1009.250095029453
 21
499.27544343972818
 31
0.0
  0
LINE
  5
2E07
  8
AM_0
 10
1002.250095029453
 20
518.22519343972829
 30
0.0
 11
1002.250095029453
 21
499.27544343972818
 31
0.0
  0
ARC
  5
2E08
  8
AM_0
 10
1014.250095029453
 20
518.22519343972829
 30
0.0
 40
5.0
 50
85.485943999999975
 51
180.00001
  0
ARC
  5
2E09
  8
AM_0
 10
1074.7185100294521
 20
493.67073343972811
 30
0.0
 40
5.0
 50
315.0
 51
50.312775000000002
  0
ARC
  5
2E0A
  8
AM_0
 10
1088.8606300294521
 20
479.52858343972798
 30
0.0
 40
5.0
 50
39.687224000000001
 51
135.0
  0
LINE
  5
2E0B
  8
AM_0
 10
1055.750095029453
 20
553.06019343972821
 30
0.0
 11
1005.750095029453
 21
553.06019343972821
 31
0.0
  0
CIRCLE
  5
2E0C
  8
AM_0
 10
1125.9582550294531
 20
530.76834343972814
 30
0.0
 40
9.5
  0
ARC
  5
2E0D
  8
AM_0
 10
1126.758840029453
 20
531.56894343972795
 30
0.0
 40
19.000000499999999
 50
2.0
 51
88.0
  0
LINE
  5
2E0E
  8
AM_0
 10
630.8952750216348
 20
831.05578215831838
 30
0.0
 11
686.89520502163475
 21
831.05578215831838
 31
0.0
  0
LINE
  5
2E0F
  8
AM_0
 10
630.8952750216348
 20
843.05578215831849
 30
0.0
 11
686.89520502163475
 21
843.05578215831849
 31
0.0
  0
LINE
  5
2E10
  8
AM_0
 10
616.8952750216348
 20
816.05590215831864
 30
0.0
 11
686.89520502163475
 21
816.05590215831864
 31
0.0
  0
LINE
  5
2E11
  8
AM_0
 10
616.8952750216348
 20
858.05590215831853
 30
0.0
 11
686.89520502163475
 21
858.05590215831853
 31
0.0
  0
LINE
  5
2E12
  8
ﾁｭｳｼﾝｾﾝ
 10
219.962106574199
 20
837.05590215831853
 30
0.0
 11
698.40924502163455
 21
837.05590215831853
 31
0.0
  0
POLYLINE
  5
2E13
  8
AM_0
 66
     1
 10
0.0
 20
0.0
 30
0.0
  0
VERTEX
  5
2E14
  8
AM_0
 10
571.75947502163456
 20
888.62037215831845
 30
0.0
 42
0.030646541
  0
VERTEX
  5
2E15
  8
AM_0
 10
567.34992502163448
 20
854.33698215831851
 30
0.0
 42
0.064801578
  0
VERTEX
  5
2E16
  8
AM_0
 10
571.75947502163456
 20
785.4913921583186
 30
0.0
  0
SEQEND
  5
2E17
  8
AM_0
  0
LINE
  5
2E18
  8
AM_0
 10
478.63098502163479
 20
821.94671215831863
 30
0.0
 11
478.63098502163479
 21
725.40997215831851
 31
0.0
  0
LINE
  5
2E19
  8
AM_0
 10
408.39514502163439
 20
719.55590215831853
 30
0.0
 11
408.39514502163439
 21
955.0559021583183
 31
0.0
  0
LINE
  5
2E1A
  8
AM_0
 10
395.39520502163481
 20
717.55590215831853
 30
0.0
 11
395.39520502163481
 21
956.5559021583183
 31
0.0
  0
LINE
  5
2E1B
  8
AM_0
 10
481.89514502163462
 20
700.84606215831832
 30
0.0
 11
481.89514502163462
 21
827.51647215831838
 31
0.0
  0
LINE
  5
2E1C
  8
AM_0
 10
614.89514502163479
 20
717.05590215831853
 30
0.0
 11
614.89514502163479
 21
957.05578215831838
 31
0.0
  0
LINE
  5
2E1D
  8
AM_0
 10
600.89514502163479
 20
726.0985121583185
 30
0.0
 11
600.89514502163479
 21
948.01318215831816
 31
0.0
  0
LINE
  5
2E1E
  8
AM_0
 10
610.89514502163479
 20
694.55590215831853
 30
0.0
 11
610.89514502163479
 21
979.55578215831849
 31
0.0
  0
LINE
  5
2E1F
  8
AM_0
 10
592.8952750216348
 20
698.06481215831832
 30
0.0
 11
592.8952750216348
 21
976.03027215831833
 31
0.0
  0
LINE
  5
2E20
  8
AM_0
 10
494.89527502163457
 20
697.31787215831832
 30
0.0
 11
494.89527502163457
 21
833.05584215831846
 31
0.0
  0
LINE
  5
2E21
  8
AM_0
 10
413.39514502163479
 20
726.55590215831853
 30
0.0
 11
475.4456250216349
 21
726.55590215831853
 31
0.0
  0
LINE
  5
2E22
  8
AM_0
 10
408.39514502163439
 20
766.12310215831815
 30
0.0
 11
478.63098502163479
 21
766.12310215831815
 31
0.0
  0
LINE
  5
2E23
  8
AM_0
 10
408.39514502163439
 20
750.38098215831815
 30
0.0
 11
478.63098502163479
 21
750.38098215831815
 31
0.0
  0
LINE
  5
2E24
  8
AM_0
 10
395.39520502163481
 20
717.55590215831853
 30
0.0
 11
406.39520502163458
 21
717.55590215831853
 31
0.0
  0
ARC
  5
2E25
  8
AM_0
 10
406.39520502163458
 20
719.55590215831853
 30
0.0
 40
2.0
 50
270.0
 51
0.0
  0
ARC
  5
2E26
  8
AM_0
 10
406.39520502163458
 20
754.88507215831851
 30
0.0
 40
2.0
 50
270.0
 51
0.0
  0
LINE
  5
2E27
  8
AM_0
 10
395.39520502163481
 20
737.32867215831823
 30
0.0
 11
406.39520502163458
 21
737.32867215831823
 31
0.0
  0
LINE
  5
2E28
  8
AM_0
 10
395.39520502163481
 20
752.88500215831823
 30
0.0
 11
406.39520502163458
 21
752.88500215831823
 31
0.0
  0
ARC
  5
2E29
  8
AM_0
 10
406.39520502163458
 20
739.32867215831823
 30
0.0
 40
2.0
 50
270.0
 51
0.0
  0
ARC
  5
2E2A
  8
AM_0
 10
413.39514502163479
 20
721.55590215831853
 30
0.0
 40
5.0
 50
90.00000299999769
 51
180.00001000000091
  0
LINE
  5
2E2B
  8
AM_0
 10
396.37409502163479
 20
762.61895215831851
 30
0.0
 11
407.40296502163483
 21
762.61895215831851
 31
0.0
  0
LINE
  5
2E2C
  8
AM_0
 10
494.89527502163457
 20
785.49133215831853
 30
0.0
 11
592.8952750216348
 21
785.49133215831853
 31
0.0
  0
LINE
  5
2E2D
  8
AM_0
 10
590.46149502163485
 20
733.8092021583185
 30
0.0
 11
549.04291502163483
 21
758.57904215831832
 31
0.0
  0
LINE
  5
2E2E
  8
AM_0
 10
590.74780502163446
 20
740.05218215831815
 30
0.0
 11
558.24506502163479
 21
759.49005215831812
 31
0.0
  0
LINE
  5
2E2F
  8
AM_0
 10
494.89520502163452
 20
697.31787215831832
 30
0.0
 11
595.82874502163475
 21
695.08221215831838
 31
0.0
  0
LINE
  5
2E30
  8
AM_0
 10
494.89527502163457
 20
707.92553215831845
 30
0.0
 11
592.8952750216348
 21
704.50329215831835
 31
0.0
  0
LINE
  5
2E31
  8
AM_0
 10
550.58277502163446
 20
764.15380215831851
 30
0.0
 11
592.8952750216348
 21
764.15380215831851
 31
0.0
  0
LINE
  5
2E32
  8
AM_0
 10
479.97717502163482
 20
723.66900215831834
 30
0.0
 11
481.61408502163482
 21
720.15869215831833
 31
0.0
  0
LINE
  5
2E33
  8
AM_0
 10
483.8255050216348
 20
708.31207215831853
 30
0.0
 11
494.89527502163457
 21
707.92553215831845
 31
0.0
  0
LINE
  5
2E34
  8
AM_0
 10
484.71716502163451
 20
697.85131215831825
 30
0.0
 11
494.89527502163457
 21
697.31793215831829
 31
0.0
  0
ARC
  5
2E35
  8
AM_0
 10
484.89514502163479
 20
700.84606215831832
 30
0.0
 40
3.0
 50
180.00001000000091
 51
266.99999000000008
  0
ARC
  5
2E36
  8
AM_0
 10
478.89520502163481
 20
718.89080215831825
 30
0.0
 40
3.0
 50
0.0
 51
24.99999999999935
  0
ARC
  5
2E37
  8
AM_0
 10
483.8952750216348
 20
710.3109121583185
 30
0.0
 40
2.0
 50
179.9999899999988
 51
268.00000999999861
  0
LINE
  5
2E38
  8
AM_0
 10
494.89527502163457
 20
759.49011215831831
 30
0.0
 11
546.69092502163483
 21
759.49011215831831
 31
0.0
  0
ARC
  5
2E39
  8
AM_0
 10
475.4456250216349
 20
721.55590215831853
 30
0.0
 40
5.0
 50
24.99999999999935
 51
90.00000299999769
  0
LINE
  5
2E3A
  8
AM_0
 10
481.89514502163462
 20
759.49011215831831
 30
0.0
 11
494.89527502163457
 21
759.49011215831831
 31
0.0
  0
LINE
  5
2E3B
  8
AM_0
 10
481.89514502163462
 20
785.49133215831853
 30
0.0
 11
494.89527502163457
 21
785.49133215831853
 31
0.0
  0
ARC
  5
2E3C
  8
AM_0
 10
546.69092502163483
 20
756.49011215831831
 30
0.0
 40
3.0
 50
59.11902300000196
 51
90.00000299999769
  0
ARC
  5
2E3D
  8
AM_0
 10
550.58277502163446
 20
761.15380215831851
 30
0.0
 40
3.0
 50
90.00000299999769
 51
239.11901999999981
  0
POLYLINE
  5
2E3E
  8
AM_0
 66
     1
 10
0.0
 20
0.0
 30
0.0
  0
VERTEX
  5
2E3F
  8
AM_0
 10
585.2363750216349
 20
736.93392215831852
 30
0.0
 42
0.0052467293
  0
VERTEX
  5
2E40
  8
AM_0
 10
587.65659502163442
 20
730.52409215831869
 30
0.0
 42
0.0052066122
  0
VERTEX
  5
2E41
  8
AM_0
 10
590.21026502163454
 20
724.1662621583182
 30
0.0
 42
0.0051740405
  0
VERTEX
  5
2E42
  8
AM_0
 10
592.8952750216348
 20
717.86303215831845
 30
0.0
  0
SEQEND
  5
2E43
  8
AM_0
  0
ARC
  5
2E44
  8
AM_0
 10
595.89514502163445
 20
726.0985121583185
 30
0.0
 40
5.0
 50
268.00000000000261
 51
0.0
  0
LINE
  5
2E45
  8
AM_0
 10
610.89514502163479
 20
717.05590215831853
 30
0.0
 11
614.89514502163479
 21
717.05590215831853
 31
0.0
  0
LINE
  5
2E46
  8
AM_0
 10
595.79053502163447
 20
695.0832521583186
 30
0.0
 11
610.89520502163475
 21
694.55578215831849
 31
0.0
  0
ARC
  5
2E47
  8
AM_0
 10
595.89514502163445
 20
698.08142215831845
 30
0.0
 40
3.0
 50
179.9999899999988
 51
268.00000999999861
  0
ARC
  5
2E48
  8
AM_0
 10
587.8952750216348
 20
729.51806215831834
 30
0.0
 40
5.0
 50
0.0
 51
59.11901699999779
  0
LINE
  5
2E49
  8
AM_0
 10
582.76380502163465
 20
764.15374215831832
 30
0.0
 11
592.89520502163487
 21
756.59570215831832
 31
0.0
  0
ARC
  5
2E4A
  8
AM_0
 10
597.8952750216348
 20
770.92138215831812
 30
0.0
 40
5.0
 50
90.00000299999769
 51
180.00001000000091
  0
ARC
  5
2E4B
  8
AM_0
 10
478.89527502163457
 20
837.05590215831853
 30
0.0
 40
11.0
 50
97.181194999997686
 51
158.67647999999841
  0
ARC
  5
2E4C
  8
AM_0
 10
478.89527502163457
 20
837.05590215831853
 30
0.0
 40
11.0
 50
201.32377999999761
 51
262.81880000000041
  0
LINE
  5
2E4D
  8
AM_0
 10
413.39514502163479
 20
947.5559021583183
 30
0.0
 11
475.4456250216349
 21
947.5559021583183
 31
0.0
  0
LINE
  5
2E4E
  8
AM_0
 10
408.39514502163439
 20
923.73077215831825
 30
0.0
 11
478.63098502163479
 21
923.73077215831825
 31
0.0
  0
LINE
  5
2E4F
  8
AM_0
 10
408.39514502163439
 20
907.98870215831835
 30
0.0
 11
478.63098502163479
 21
907.98870215831835
 31
0.0
  0
LINE
  5
2E50
  8
AM_0
 10
462.39527502163452
 20
833.05584215831846
 30
0.0
 11
495.39527502163457
 21
833.05584215831846
 31
0.0
  0
LINE
  5
2E51
  8
AM_0
 10
462.39527502163452
 20
841.05584215831846
 30
0.0
 11
495.39527502163457
 21
841.05584215831846
 31
0.0
  0
ARC
  5
2E52
  8
AM_0
 10
462.39527502163452
 20
837.05584215831811
 30
0.0
 40
3.9999962
 50
90.00000299999769
 51
270.0
  0
LINE
  5
2E53
  8
AM_0
 10
396.37409502163479
 20
911.49285215831821
 30
0.0
 11
407.40296502163483
 21
911.49285215831821
 31
0.0
  0
LINE
  5
2E54
  8
AM_0
 10
395.39520502163481
 20
921.2267421583183
 30
0.0
 11
406.39520502163458
 21
921.2267421583183
 31
0.0
  0
ARC
  5
2E55
  8
AM_0
 10
406.39520502163458
 20
919.2267421583183
 30
0.0
 40
2.0
 50
0.0
 51
90.00000299999769
  0
LINE
  5
2E56
  8
AM_0
 10
395.39520502163481
 20
956.5559021583183
 30
0.0
 11
406.39520502163458
 21
956.5559021583183
 31
0.0
  0
LINE
  5
2E57
  8
AM_0
 10
395.39520502163481
 20
936.78314215831836
 30
0.0
 11
406.39520502163458
 21
936.78314215831836
 31
0.0
  0
ARC
  5
2E58
  8
AM_0
 10
406.39520502163458
 20
934.78308215831828
 30
0.0
 40
2.0
 50
0.0
 51
90.00000299999769
  0
ARC
  5
2E59
  8
AM_0
 10
413.39514502163479
 20
952.55590215831864
 30
0.0
 40
5.0
 50
179.9999899999988
 51
270.0
  0
ARC
  5
2E5A
  8
AM_0
 10
406.39520502163458
 20
954.55590215831842
 30
0.0
 40
2.0
 50
0.0
 51
90.00000299999769
  0
LINE
  5
2E5B
  8
AM_0
 10
478.63098502163479
 20
948.7018421583183
 30
0.0
 11
478.63098502163479
 21
852.16509215831843
 31
0.0
  0
LINE
  5
2E5C
  8
AM_0
 10
481.89514502163462
 20
846.59527215831849
 30
0.0
 11
481.89514502163462
 21
973.26562215831837
 31
0.0
  0
LINE
  5
2E5D
  8
AM_0
 10
590.74780502163446
 20
934.05950215831831
 30
0.0
 11
558.24500502163482
 21
914.62170215831827
 31
0.0
  0
LINE
  5
2E5E
  8
AM_0
 10
590.46143502163454
 20
940.30249215831827
 30
0.0
 11
549.04291502163483
 21
915.53265215831846
 31
0.0
  0
LINE
  5
2E5F
  8
AM_0
 10
494.89527502163457
 20
841.05584215831846
 30
0.0
 11
494.89527502163457
 21
976.79382215831822
 31
0.0
  0
LINE
  5
2E60
  8
AM_0
 10
494.89527502163457
 20
888.62036215831881
 30
0.0
 11
592.8952750216348
 21
888.62036215831881
 31
0.0
  0
LINE
  5
2E61
  8
AM_0
 10
550.58277502163446
 20
909.95788215831817
 30
0.0
 11
592.8952750216348
 21
909.95788215831817
 31
0.0
  0
ARC
  5
2E62
  8
AM_0
 10
473.63098502163479
 20
821.94671215831863
 30
0.0
 40
5.0
 50
0.0
 51
70.790840000000372
  0
ARC
  5
2E63
  8
AM_0
 10
476.89514502163479
 20
821.1813921583182
 30
0.0
 40
5.0
 50
0.0
 51
82.818803000003214
  0
ARC
  5
2E64
  8
AM_0
 10
495.39527502163457
 20
837.05584215831811
 30
0.0
 40
3.9999962
 50
270.0
 51
90.00000299999769
  0
ARC
  5
2E65
  8
AM_0
 10
478.89527502163457
 20
837.05590215831853
 30
0.0
 40
10.0
 50
203.5782699999985
 51
336.4217200000013
  0
ARC
  5
2E66
  8
AM_0
 10
476.89514502163479
 20
852.93035215831844
 30
0.0
 40
5.0
 50
277.18119999999942
 51
0.0
  0
ARC
  5
2E67
  8
AM_0
 10
478.89527502163457
 20
837.05590215831853
 30
0.0
 40
10.0
 50
23.578037000000361
 51
156.42196000000081
  0
ARC
  5
2E68
  8
AM_0
 10
473.63098502163479
 20
852.16509215831843
 30
0.0
 40
5.0
 50
289.2091599999996
 51
0.0
  0
LINE
  5
2E69
  8
AM_0
 10
494.89527502163457
 20
914.62158215831835
 30
0.0
 11
546.69092502163483
 21
914.62158215831835
 31
0.0
  0
LINE
  5
2E6A
  8
AM_0
 10
481.89514502163462
 20
888.62042215831832
 30
0.0
 11
494.89527502163457
 21
888.62042215831832
 31
0.0
  0
LINE
  5
2E6B
  8
AM_0
 10
481.89514502163462
 20
914.62164215831831
 30
0.0
 11
494.89527502163457
 21
914.62164215831831
 31
0.0
  0
ARC
  5
2E6C
  8
AM_0
 10
546.69092502163483
 20
917.62158215831812
 30
0.0
 40
3.0
 50
270.0
 51
300.88098000000002
  0
ARC
  5
2E6D
  8
AM_0
 10
550.58277502163446
 20
912.95788215831817
 30
0.0
 40
3.0
 50
120.8809699999987
 51
270.0
  0
LINE
  5
2E6E
  8
AM_0
 10
616.8952750216348
 20
814.55590215831853
 30
0.0
 11
616.8952750216348
 21
859.55590215831819
 31
0.0
  0
LINE
  5
2E6F
  8
AM_0
 10
614.89514502163479
 20
814.55590215831853
 30
0.0
 11
616.8952750216348
 21
814.55590215831853
 31
0.0
  0
ARC
  5
2E70
  8
AM_0
 10
630.8952750216348
 20
837.05578215831883
 30
0.0
 40
6.0000037999999991
 50
90.00000299999769
 51
270.0
  0
LINE
  5
2E71
  8
AM_0
 10
630.8952750216348
 20
843.05578215831849
 30
0.0
 11
630.8952750216348
 21
831.05578215831838
 31
0.0
  0
LINE
  5
2E72
  8
AM_0
 10
582.76386502163496
 20
909.95788215831817
 30
0.0
 11
592.89520502163487
 21
917.51599215831834
 31
0.0
  0
ARC
  5
2E73
  8
AM_0
 10
597.8952750216348
 20
903.19030215831833
 30
0.0
 40
5.0
 50
179.9999899999988
 51
270.0
  0
LINE
  5
2E74
  8
AM_0
 10
614.89514502163479
 20
859.55590215831819
 30
0.0
 11
616.8952750216348
 21
859.55590215831819
 31
0.0
  0
LINE
  5
2E75
  8
AM_0
 10
494.89520502163452
 20
966.18621215831831
 30
0.0
 11
592.89520502163487
 21
969.60845215831864
 31
0.0
  0
LINE
  5
2E76
  8
AM_0
 10
494.89527502163457
 20
976.79382215831822
 30
0.0
 11
595.82880502163471
 21
979.0294721583183
 31
0.0
  0
ARC
  5
2E77
  8
AM_0
 10
475.4456250216349
 20
952.55590215831864
 30
0.0
 40
5.0
 50
270.0
 51
335.00000000000063
  0
LINE
  5
2E78
  8
AM_0
 10
479.97717502163482
 20
950.44280215831816
 30
0.0
 11
481.61408502163482
 21
953.95312215831837
 31
0.0
  0
ARC
  5
2E79
  8
AM_0
 10
478.89520502163481
 20
955.22100215831836
 30
0.0
 40
3.0
 50
335.00000000000063
 51
0.0
  0
LINE
  5
2E7A
  8
AM_0
 10
484.73816502163459
 20
976.26153215831835
 30
0.0
 11
494.89533502163482
 21
976.79382215831822
 31
0.0
  0
LINE
  5
2E7B
  8
AM_0
 10
483.82544502163478
 20
965.79968215831821
 30
0.0
 11
494.89527502163457
 21
966.18621215831831
 31
0.0
  0
ARC
  5
2E7C
  8
AM_0
 10
484.89514502163479
 20
973.26562215831837
 30
0.0
 40
3.0
 50
92.999999000001679
 51
180.00001000000091
  0
ARC
  5
2E7D
  8
AM_0
 10
483.8952750216348
 20
963.80084215831835
 30
0.0
 40
2.0
 50
91.999998000000545
 51
180.00001000000091
  0
LINE
  5
2E7E
  8
AM_0
 10
610.89514502163479
 20
957.05578215831838
 30
0.0
 11
614.89514502163479
 21
957.05578215831838
 31
0.0
  0
POLYLINE
  5
2E7F
  8
AM_0
 66
     1
 10
0.0
 20
0.0
 30
0.0
  0
VERTEX
  5
2E80
  8
AM_0
 10
592.8952750216348
 20
956.24865215831835
 30
0.0
  0
VERTEX
  5
2E81
  8
AM_0
 10
585.23644502163495
 20
937.1779721583182
 30
0.0
 42
-1.0
  0
SEQEND
  5
2E82
  8
AM_0
  0
ARC
  5
2E83
  8
AM_0
 10
587.8952750216348
 20
944.59362215831834
 30
0.0
 40
5.0
 50
300.88098000000002
 51
0.0
  0
ARC
  5
2E84
  8
AM_0
 10
595.89514502163445
 20
948.01318215831816
 30
0.0
 40
5.0
 50
0.0
 51
91.999998000000545
  0
ARC
  5
2E85
  8
AM_0
 10
595.89514502163445
 20
976.03027215831833
 30
0.0
 40
3.0
 50
91.999998000000545
 51
180.00001000000091
  0
LINE
  5
2E86
  8
AM_0
 10
595.79047502163485
 20
979.02844215831817
 30
0.0
 11
610.89514502163479
 21
979.55590215831842
 31
0.0
  0
LINE
  5
2E87
  8
AM_0
 10
686.89520502163475
 20
816.05590215831864
 30
0.0
 11
686.89520502163475
 21
858.05590215831853
 31
0.0
  0
LINE
  5
2E88
  8
AM_0
 10
228.89520502163481
 20
832.05590215831864
 30
0.0
 11
273.89520502163481
 21
832.05590215831864
 31
0.0
  0
LINE
  5
2E89
  8
AM_0
 10
228.89520502163481
 20
842.05590215831853
 30
0.0
 11
273.89520502163481
 21
842.05590215831842
 31
0.0
  0
LINE
  5
2E8A
  8
AM_0
 10
228.89520502163481
 20
854.55590715831818
 30
0.0
 11
286.89520502163481
 21
854.55590715831818
 31
0.0
  0
LINE
  5
2E8B
  8
AM_0
 10
286.89520502163481
 20
819.55590715831829
 30
0.0
 11
228.89520502163481
 21
819.55590715831829
 31
0.0
  0
LINE
  5
2E8C
  8
AM_0
 10
228.89520502163481
 20
819.55590715831829
 30
0.0
 11
228.89520502163481
 21
854.55590715831818
 31
0.0
  0
LINE
  5
2E8D
  8
AM_0
 10
375.39520502163481
 20
767.3390601583186
 30
0.0
 11
375.39520502163481
 21
906.77274415831835
 31
0.0
  0
LINE
  5
2E8E
  8
AM_0
 10
393.39520502163481
 20
906.77274415831835
 30
0.0
 11
393.39520502163481
 21
767.3390601583186
 31
0.0
  0
LINE
  5
2E8F
  8
AM_0
 10
292.89520502163481
 20
837.05590715831852
 30
0.0
 11
292.89520502163481
 21
782.00399915831827
 31
0.0
  0
LINE
  5
2E90
  8
AM_0
 10
321.9015120216348
 20
780.8880971583186
 30
0.0
 11
321.9015120216348
 21
837.05590715831852
 31
0.0
  0
LINE
  5
2E91
  8
AM_0
 10
371.49294102163481
 20
739.89060915831851
 30
0.0
 11
371.44972502163478
 21
750.17021915831822
 31
0.0
  0
LINE
  5
2E92
  8
AM_0
 10
371.43980402163481
 20
752.53022515831822
 30
0.0
 11
395.39520502163481
 21
752.53022515831822
 31
0.0
  0
LINE
  5
2E93
  8
AM_0
 10
394.21499002163478
 20
767.3390601583186
 30
0.0
 11
368.43323602163491
 21
767.3390601583186
 31
0.0
  0
ARC
  5
2E94
  8
AM_0
 10
371.50520302163483
 20
739.97387615831849
 30
0.0
 40
3.0
 50
184.99999999999969
 51
270.0
  0
LINE
  5
2E95
  8
AM_0
 10
373.93073902163491
 20
726.52037315831853
 30
0.0
 11
324.75840902163469
 21
775.69270415831852
 31
0.0
  0
LINE
  5
2E96
  8
AM_0
 10
295.84284802163478
 20
779.00445615831813
 30
0.0
 11
317.8618650216348
 21
778.62011315831853
 31
0.0
  0
ARC
  5
2E97
  8
AM_0
 10
295.89520502163481
 20
782.00399915831827
 30
0.0
 40
3.0
 50
180.0
 51
268.99999999999812
  0
LINE
  5
2E98
  8
AM_0
 10
367.39520502163481
 20
752.53022515831822
 30
0.0
 11
368.51661802163483
 21
739.71240915831822
 31
0.0
  0
ARC
  5
2E99
  8
AM_0
 10
317.68734102163478
 20
768.62163615831832
 30
0.0
 40
10.0
 50
45.0
 51
89.000000000001506
  0
LINE
  5
2E9A
  8
AM_0
 10
367.39520502163481
 20
767.3390601583186
 30
0.0
 11
368.45121902163481
 21
755.26875815831852
 31
0.0
  0
ARC
  5
2E9B
  8
AM_0
 10
371.43980402163481
 20
755.53022515831822
 30
0.0
 40
3.0
 50
184.99999999999969
 51
270.0
  0
LINE
  5
2E9C
  8
AM_0
 10
393.39520502163481
 20
736.97387615831815
 30
0.0
 11
393.39520502163481
 21
717.05590715831806
 31
0.0
  0
LINE
  5
2E9D
  8
AM_0
 10
375.39520502163481
 20
736.97388715831812
 30
0.0
 11
375.39520502163481
 21
720.05590715831852
 31
0.0
  0
LINE
  5
2E9E
  8
AM_0
 10
378.39520502163481
 20
717.05590715831852
 30
0.0
 11
393.39520502163492
 21
717.05590715831852
 31
0.0
  0
ARC
  5
2E9F
  8
AM_0
 10
370.39520502163481
 20
722.98484015831832
 30
0.0
 40
5.0
 50
0.0
 51
45.0
  0
ARC
  5
2EA0
  8
AM_0
 10
378.39520502163481
 20
720.05590715831852
 30
0.0
 40
3.0
 50
180.0
 51
270.0
  0
LINE
  5
2EA1
  8
AM_0
 10
395.39520502163481
 20
719.05590715831852
 30
0.0
 11
393.39520502163492
 21
717.05590715831852
 31
0.0
  0
LINE
  5
2EA2
  8
AM_0
 10
371.50520302163483
 20
736.97387615831815
 30
0.0
 11
395.39520502163481
 21
736.97387615831815
 31
0.0
  0
LINE
  5
2EA3
  8
AM_0
 10
393.39520502163492
 20
937.13792815831835
 30
0.0
 11
393.39520502163492
 21
957.05589715831832
 31
0.0
  0
LINE
  5
2EA4
  8
AM_0
 10
375.39520502163481
 20
954.0558971583182
 30
0.0
 11
375.39520502163481
 21
937.13792815831835
 31
0.0
  0
LINE
  5
2EA5
  8
AM_0
 10
373.93073902163491
 20
947.59144115831839
 30
0.0
 11
324.75840902163469
 21
898.41911115831817
 31
0.0
  0
LINE
  5
2EA6
  8
AM_0
 10
371.49294102163481
 20
934.22119515831821
 30
0.0
 11
371.44972502163478
 21
923.94158515831828
 31
0.0
  0
ARC
  5
2EA7
  8
AM_0
 10
371.50520302163483
 20
934.13792815831835
 30
0.0
 40
3.0
 50
90.0
 51
175.00000000000011
  0
LINE
  5
2EA8
  8
AM_0
 10
394.21499002163478
 20
906.77274415831835
 30
0.0
 11
368.43323602163491
 21
906.77274415831835
 31
0.0
  0
LINE
  5
2EA9
  8
AM_0
 10
371.43980402163481
 20
921.58157915831816
 30
0.0
 11
395.39520502163481
 21
921.58157915831816
 31
0.0
  0
LINE
  5
2EAA
  8
AM_0
 10
321.9015120216348
 20
893.22371815831821
 30
0.0
 11
321.9015120216348
 21
837.05590715831852
 31
0.0
  0
LINE
  5
2EAB
  8
AM_0
 10
290.89520502163481
 20
837.05590715831852
 30
0.0
 11
290.89520502163481
 21
872.05590715831852
 31
0.0
  0
LINE
  5
2EAC
  8
AM_0
 10
292.89520502163481
 20
837.05590715831852
 30
0.0
 11
292.89520502163481
 21
892.1078161583182
 31
0.0
  0
LINE
  5
2EAD
  8
AM_0
 10
290.89520502163481
 20
837.05590715831852
 30
0.0
 11
290.89520502163481
 21
802.05590715831863
 31
0.0
  0
LINE
  5
2EAE
  8
AM_0
 10
286.89520502163481
 20
857.05590715831829
 30
0.0
 11
286.89520502163481
 21
817.05590715831806
 31
0.0
  0
LINE
  5
2EAF
  8
AM_0
 10
286.89520502163481
 20
817.05590715831806
 30
0.0
 11
290.89520502163481
 21
817.05590715831806
 31
0.0
  0
LINE
  5
2EB0
  8
AM_0
 10
290.89520502163481
 20
802.05590715831863
 30
0.0
 11
292.89520502163481
 21
800.05590715831806
 31
0.0
  0
LINE
  5
2EB1
  8
AM_0
 10
286.89520502163481
 20
857.05590715831829
 30
0.0
 11
290.89520502163481
 21
857.05590715831829
 31
0.0
  0
ARC
  5
2EB2
  8
AM_0
 10
273.89520502163481
 20
837.05590215831853
 30
0.0
 40
5.0
 50
270.0
 51
90.0
  0
LINE
  5
2EB3
  8
AM_0
 10
273.89520502163481
 20
842.05590215831853
 30
0.0
 11
273.89520502163481
 21
832.05590215831864
 31
0.0
  0
LINE
  5
2EB4
  8
AM_0
 10
295.84284802163478
 20
895.1073591583181
 30
0.0
 11
317.8618650216348
 21
895.4917021583185
 31
0.0
  0
LINE
  5
2EB5
  8
AM_0
 10
290.89520502163481
 20
872.05590715831852
 30
0.0
 11
292.89520502163481
 21
874.05590715831829
 31
0.0
  0
ARC
  5
2EB6
  8
AM_0
 10
295.89520502163481
 20
892.1078161583182
 30
0.0
 40
3.0
 50
90.999999999998494
 51
180.0
  0
LINE
  5
2EB7
  8
AM_0
 10
367.39520502163481
 20
906.77274415831835
 30
0.0
 11
368.45121902163481
 21
918.8430461583182
 31
0.0
  0
ARC
  5
2EB8
  8
AM_0
 10
317.68734102163478
 20
905.49017915831826
 30
0.0
 40
10.0
 50
270.99999999999841
 51
315.0
  0
LINE
  5
2EB9
  8
AM_0
 10
367.39520502163481
 20
921.58157915831816
 30
0.0
 11
368.51661802163483
 21
934.39939515831838
 31
0.0
  0
ARC
  5
2EBA
  8
AM_0
 10
371.43980402163481
 20
918.58157915831839
 30
0.0
 40
3.0
 50
90.0
 51
175.00000000000011
  0
LINE
  5
2EBB
  8
AM_0
 10
393.39520502163481
 20
820.48110621485182
 30
0.0
 11
375.39520502163481
 21
820.48110621485182
 31
0.0
  0
LINE
  5
2EBC
  8
AM_0
 10
375.39520502163481
 20
822.05590215831819
 30
0.0
 11
393.39520502163481
 21
822.05590215831808
 31
0.0
  0
LINE
  5
2EBD
  8
AM_0
 10
393.39520502163481
 20
853.63069810178536
 30
0.0
 11
375.39520502163481
 21
853.63069810178536
 31
0.0
  0
LINE
  5
2EBE
  8
AM_0
 10
375.39520502163481
 20
852.05590215831808
 30
0.0
 11
393.39520502163481
 21
852.05590215831808
 31
0.0
  0
LINE
  5
2EBF
  8
AM_0
 10
371.50520302163483
 20
937.13792815831835
 30
0.0
 11
395.39520502163481
 21
937.13792815831835
 31
0.0
  0
LINE
  5
2EC0
  8
AM_0
 10
378.39520502163481
 20
957.05589715831832
 30
0.0
 11
393.39520502163492
 21
957.05589715831832
 31
0.0
  0
ARC
  5
2EC1
  8
AM_0
 10
370.39520502163481
 20
951.12696415831829
 30
0.0
 40
5.0
 50
315.0
 51
0.0
  0
ARC
  5
2EC2
  8
AM_0
 10
378.39520502163481
 20
954.0558971583182
 30
0.0
 40
3.0
 50
90.0
 51
180.0
  0
LINE
  5
2EC3
  8
AM_0
 10
395.39520502163481
 20
955.05589715831843
 30
0.0
 11
393.39520502163492
 21
957.05589715831832
 31
0.0
  0
LINE
  5
2EC5
  8
ﾁｭｳｼﾝｾﾝ1
 10
1136.999223319312
 20
279.31107014986918
 30
0.0
 11
1112.694433017587
 21
303.61586045159419
 31
0.0
  0
ARC
  5
2EC6
  8
ﾁｭｳｼﾝｾﾝ1
 10
1005.75009502946
 20
410.56019843972092
 30
0.0
 40
170.00000499998939
 50
308.98538999999943
 51
321.42194440319122
  0
LINE
  5
2EC7
  8
ﾁｭｳｼﾝｾﾝ1
 10
873.23137670490325
 20
543.07894812821974
 30
0.0
 11
899.13555271473479
 21
517.17474760333289
 31
0.0
  0
ARC
  5
2EC8
  8
ﾁｭｳｼﾝｾﾝ1
 10
1005.750095029458
 20
410.56019843972291
 30
0.0
 40
170.00000500000741
 50
128.98539600000021
 51
141.43455848059011
  0
TEXT
  5
30AC
  8
AM_0
 10
824.90317316838707
 20
866.79625819616331
 30
0.0
 40
20.0
  1
VX55-003GF~VX55-010GF
  0
ENDSEC
  0
EOF
