  0
SECTION
  2
HEADER
  9
$ACADVER
  1
AC1009
  9
$INSBASE
 10
0.0
 20
0.0
 30
0.0
  9
$EXTMIN
 10
196.9915966109738
 20
213.88366982560089
 30
-0.0000000000112498
  9
$EXTMAX
 10
1247.3269077361631
 20
1047.4507166229309
 30
0.0000000000002956
  9
$LIMMIN
 10
0.0
 20
0.0
  9
$LIMMAX
 10
1707.0
 20
1110.0
  9
$ORTHOMODE
 70
     0
  9
$REGENMODE
 70
     1
  9
$FILLMODE
 70
     1
  9
$QTEXTMODE
 70
     0
  9
$MIRRTEXT
 70
     1
  9
$DRAGMODE
 70
     2
  9
$LTSCALE
 40
6.0
  9
$OSMODE
 70
   551
  9
$ATTMODE
 70
     1
  9
$TEXTSIZE
 40
2.5
  9
$TRACEWID
 40
1.0
  9
$TEXTSTYLE
  7
STANDARD
  9
$CLAYER
  8
AM_0
  9
$CELTYPE
  6
BYLAYER
  9
$CECOLOR
 62
   256
  9
$DIMSCALE
 40
1.0
  9
$DIMASZ
 40
2.5
  9
$DIMEXO
 40
1.0
  9
$DIMDLI
 40
8.0
  9
$DIMRND
 40
0.0
  9
$DIMDLE
 40
0.0
  9
$DIMEXE
 40
0.6
  9
$DIMTP
 40
0.1
  9
$DIMTM
 40
0.1
  9
$DIMTXT
 40
2.5
  9
$DIMCEN
 40
0.0
  9
$DIMTSZ
 40
0.0
  9
$DIMTOL
 70
     0
  9
$DIMLIM
 70
     0
  9
$DIMTIH
 70
     0
  9
$DIMTOH
 70
     0
  9
$DIMSE1
 70
     0
  9
$DIMSE2
 70
     0
  9
$DIMTAD
 70
     1
  9
$DIMZIN
 70
     8
  9
$DIMBLK
  1

  9
$DIMASO
 70
     1
  9
$DIMSHO
 70
     1
  9
$DIMPOST
  1

  9
$DIMAPOST
  1
"
  9
$DIMALT
 70
     0
  9
$DIMALTD
 70
     2
  9
$DIMALTF
 40
0.0393701
  9
$DIMLFAC
 40
1.0
  9
$DIMTOFL
 70
     1
  9
$DIMTVP
 40
0.0
  9
$DIMTIX
 70
     0
  9
$DIMSOXD
 70
     0
  9
$DIMSAH
 70
     0
  9
$DIMBLK1
  1

  9
$DIMBLK2
  1

  9
$DIMSTYLE
  2
AM_ISO
  9
$DIMCLRD
 70
   256
  9
$DIMCLRE
 70
   256
  9
$DIMCLRT
 70
     4
  9
$DIMTFAC
 40
0.71
  9
$DIMGAP
 40
0.8
  9
$LUNITS
 70
     2
  9
$LUPREC
 70
     2
  9
$SKETCHINC
 40
1.0
  9
$FILLETRAD
 40
30.0
  9
$AUNITS
 70
     0
  9
$AUPREC
 70
     0
  9
$MENU
  1
.
  9
$ELEVATION
 40
0.0
  9
$PELEVATION
 40
0.0
  9
$THICKNESS
 40
0.0
  9
$LIMCHECK
 70
     0
  9
$BLIPMODE
 70
     0
  9
$CHAMFERA
 40
12.0
  9
$CHAMFERB
 40
6.0
  9
$SKPOLY
 70
     0
  9
$TDCREATE
 40
2452066.7771334262
  9
$TDUPDATE
 40
2458541.4513305901
  9
$TDINDWG
 40
0.0511946065
  9
$TDUSRTIMER
 40
0.0511942361
  9
$USRTIMER
 70
     1
  9
$ANGBASE
 50
0.0
  9
$ANGDIR
 70
     0
  9
$PDMODE
 70
     0
  9
$PDSIZE
 40
0.0
  9
$PLINEWID
 40
0.0
  9
$COORDS
 70
     1
  9
$SPLFRAME
 70
     0
  9
$SPLINETYPE
 70
     6
  9
$SPLINESEGS
 70
     8
  9
$ATTDIA
 70
     1
  9
$ATTREQ
 70
     1
  9
$HANDLING
 70
     1
  9
$HANDSEED
  5
30D6
  9
$SURFTAB1
 70
     6
  9
$SURFTAB2
 70
     6
  9
$SURFTYPE
 70
     6
  9
$SURFU
 70
     6
  9
$SURFV
 70
     6
  9
$UCSNAME
  2

  9
$UCSORG
 10
0.0
 20
0.0
 30
0.0
  9
$UCSXDIR
 10
1.0
 20
0.0
 30
0.0
  9
$UCSYDIR
 10
0.0
 20
1.0
 30
0.0
  9
$PUCSNAME
  2

  9
$PUCSORG
 10
0.0
 20
0.0
 30
0.0
  9
$PUCSXDIR
 10
1.0
 20
0.0
 30
0.0
  9
$PUCSYDIR
 10
0.0
 20
1.0
 30
0.0
  9
$USERI1
 70
     0
  9
$USERI2
 70
     0
  9
$USERI3
 70
     0
  9
$USERI4
 70
     0
  9
$USERI5
 70
     0
  9
$USERR1
 40
0.0
  9
$USERR2
 40
0.0
  9
$USERR3
 40
0.0
  9
$USERR4
 40
0.0
  9
$USERR5
 40
0.0
  9
$WORLDVIEW
 70
     1
  9
$SHADEDGE
 70
     3
  9
$SHADEDIF
 70
    70
  9
$TILEMODE
 70
     1
  9
$MAXACTVP
 70
    64
  9
$PLIMCHECK
 70
     0
  9
$PEXTMIN
 10
1.0000000000000000E+020
 20
1.0000000000000000E+020
 30
1.0000000000000000E+020
  9
$PEXTMAX
 10
-1.0000000000000000E+020
 20
-1.0000000000000000E+020
 30
-1.0000000000000000E+020
  9
$PLIMMIN
 10
0.0
 20
0.0
  9
$PLIMMAX
 10
420.0
 20
297.0
  9
$UNITMODE
 70
     0
  9
$VISRETAIN
 70
     1
  9
$PLINEGEN
 70
     0
  9
$PSLTSCALE
 70
     1
  0
ENDSEC
  0
SECTION
  2
TABLES
  0
TABLE
  2
VPORT
 70
     1
  0
VPORT
  2
*ACTIVE
 70
     0
 10
0.0
 20
0.0
 11
1.0
 21
1.0
 12
722.15925217356869
 22
630.66719322426604
 13
0.0
 23
0.0
 14
15.0
 24
15.0
 15
60.0
 25
60.0
 16
0.0
 26
0.0
 36
1.0
 17
0.0
 27
0.0
 37
0.0
 40
839.28947503621384
 41
1.7571592210767459
 42
50.0
 43
0.0
 44
0.0
 50
0.0
 51
0.0
 71
     0
 72
   100
 73
     1
 74
     3
 75
     0
 76
     0
 77
     0
 78
     0
  0
ENDTAB
  0
TABLE
  2
LTYPE
 70
    26
  0
LTYPE
  2
CONTINUOUS
 70
     0
  3
Solid line
 72
    65
 73
     0
 40
0.0
  0
LTYPE
  2
AM_ISO02W050
 70
     0
  3
__ __ __ __ __ __ __ __ __ __ __ __ __ __ __
 72
    65
 73
     2
 40
7.5
 49
6.0
 49
-1.5
  0
LTYPE
  2
AM_ISO08W050
 70
     0
  3
____ . ____ . ____ . ____ . ____ . ____ . ____
 72
    65
 73
     4
 40
18.0
 49
12.0
 49
-1.5
 49
3.0
 49
-1.5
  0
LTYPE
  2
AM_ISO09W050
 70
     0
  3
_____ . . _____ . . _____ . . ____ .. ____
 72
    65
 73
     6
 40
22.5
 49
12.0
 49
-1.5
 49
3.0
 49
-1.5
 49
3.0
 49
-1.5
  0
LTYPE
  2
AMCONSTR
 70
     0
  3
_______________________
 72
    65
 73
     2
 40
9999.0
 49
9999.0
 49
0.0
  0
LTYPE
  2
AM_ISO08W050X2
 70
     0
  3
__ . __ . __ . __ . __ . __
 72
    65
 73
     4
 40
9.0
 49
6.0
 49
-0.75
 49
1.5
 49
-0.75
  0
LTYPE
  2
AM_ISO02W050X2
 70
     0
  3
 _ _ _ _ _ _ _ _ _ _ _ _
 72
    65
 73
     2
 40
3.75
 49
3.0
 49
-0.75
  0
LTYPE
  2
AMZIGZAG
 70
     0
  3
/\/-/\/-/\/-/\/-/\/-/\/
 72
    65
 73
     2
 40
11.000099999999991
 49
0.0001
 49
-11.0
  0
LTYPE
  2
ACISOWELD
 70
     0
  3
_ _ _ _ _
 72
    65
 73
     2
 40
2.0
 49
2.0
 49
-1.0
  0
LTYPE
  2
ACISOTGB
 70
     0
  3
__ . . __ . .
 72
    65
 73
     6
 40
9.0
 49
4.0
 49
-1.0
 49
1.0
 49
-1.0
 49
1.0
 49
-1.0
  0
LTYPE
  2
ACISOTGL
 70
     0
  3
_ _ _ _ _
 72
    65
 73
     2
 40
3.0
 49
2.0
 49
-1.0
  0
LTYPE
  2
CENTER
 70
     0
  3
__ . __
 72
    65
 73
     4
 40
7.0
 49
4.0
 49
-1.0
 49
1.0
 49
-1.0
  0
LTYPE
  2
PHANTOM2
 70
     0
  3
Phantom (.5x) ___ _ _ ___ _ _ ___ _ _ ___ _ _
 72
    65
 73
     6
 40
31.75
 49
15.875
 49
-3.174999999999998
 49
3.174999999999998
 49
-3.174999999999998
 49
3.174999999999998
 49
-3.174999999999998
  0
LTYPE
  2
ACANSTGBM
 70
     0
  3
__ . . __ . .
 72
    65
 73
     6
 40
9.0
 49
4.0
 49
-1.0
 49
1.0
 49
-1.0
 49
1.0
 49
-1.0
  0
LTYPE
  2
ACANSTGLM
 70
     0
  3
_ _ _ _ _
 72
    65
 73
     2
 40
3.0
 49
2.0
 49
-1.0
  0
LTYPE
  2
GEN7
 70
     0
  3
____ . ____ . ____ . ____ . ____ . ____ . ____
 72
    65
 73
     4
 40
14.25
 49
9.75
 49
-1.5
 49
1.5
 49
-1.5
  0
LTYPE
  2
GEN7A
 70
     0
  3
__ . __ . __
 72
    65
 73
     4
 40
7.375
 49
4.75
 49
-0.875
 49
0.875
 49
-0.875
  0
LTYPE
  2
ACJISTGB
 70
     0
  3
__ . . __ . .
 72
    65
 73
     6
 40
9.0
 49
4.0
 49
-1.0
 49
1.0
 49
-1.0
 49
1.0
 49
-1.0
  0
LTYPE
  2
ACJISTGL
 70
     0
  3
_ _ _ _ _
 72
    65
 73
     2
 40
3.0
 49
2.0
 49
-1.0
  0
LTYPE
  2
HIDDEN
 70
     0
  3
Hidden __ __ __ __ __ __ __ __ __ __ __ __ __ _
 72
    65
 73
     2
 40
0.375
 49
0.25
 49
-0.125
  0
LTYPE
  2
CENTER2
 70
     0
  3
Center (.5x) ___ _ ___ _ ___ _ ___ _ ___ _ ___
 72
    65
 73
     4
 40
1.125
 49
0.75
 49
-0.125
 49
0.125
 49
-0.125
  0
LTYPE
  2
HIDDEN2
 70
     0
  3
Hidden (.5x) _ _ _ _ _ _ _ _ _ _ _ _ _ _ _ _ _
 72
    65
 73
     2
 40
0.1875
 49
0.125
 49
-0.0625
  0
LTYPE
  2
AMZIGZAG2
 70
     0
  3
/\/-/\/-/\/-/\/-/\/-/\/
 72
    65
 73
     2
 40
0.4401
 49
0.0001
 49
-0.4400000000000002
  0
LTYPE
  2
ACANSTGB
 70
     0
  3
__ . . __ . .
 72
    65
 73
     6
 40
0.35433070866
 49
0.15748031496
 49
-0.03937007874
 49
0.03937007874
 49
-0.03937007874
 49
0.03937007874
 49
-0.03937007874
  0
LTYPE
  2
ACANSTGL
 70
     0
  3
_ _ _ _ _
 72
    65
 73
     2
 40
0.11811023622
 49
0.07874015748
 49
-0.03937007874
  0
ENDTAB
  0
TABLE
  2
LAYER
 70
     6
  0
LAYER
  2
0
 70
     0
 62
     7
  6
CONTINUOUS
  0
LAYER
  2
AM_0
 70
     0
 62
     7
  6
CONTINUOUS
  0
LAYER
  2
AM_5
 70
     0
 62
     2
  6
CONTINUOUS
  0
LAYER
  2
DEFPOINTS
 70
     0
 62
     7
  6
CONTINUOUS
  0
LAYER
  2
ﾁｭｳｼﾝｾﾝ
 70
     0
 62
     1
  6
GEN7
  0
LAYER
  2
ﾁｭｳｼﾝｾﾝ1
 70
     0
 62
     1
  6
GEN7A
  0
ENDTAB
  0
TABLE
  2
STYLE
 70
     9
  0
STYLE
  2
STANDARD
 70
     0
 40
0.0
 41
0.8299999999999999
 50
0.0
 71
     0
 42
2.5
  3
txt.shx
  4
bigfont.shx
  0
STYLE
  2
ANNOTATIVE
 70
     0
 40
0.0
 41
1.0
 50
0.0
 71
     0
 42
0.2
  3
txt
  4

  0
STYLE
  2

 70
     1
 40
0.0
 41
1.0
 50
0.0
 71
     0
 42
2.5
  3
ltypeshp.shx
  4

  0
STYLE
  2
ACISOTS
 70
     0
 40
1.0
 41
1.0
 50
0.0
 71
     0
 42
2.5
  3
isocp.shx
  4
extfont.shx
  0
STYLE
  2
ACISOGDT
 70
     0
 40
0.0
 41
1.0
 50
0.0
 71
     0
 42
2.5
  3
amgdt.shx
  4

  0
STYLE
  2
ACANSTS
 70
     0
 40
1.0
 41
1.0
 50
0.0
 71
     0
 42
2.5
  3
romans.shx
  4
bigfont.shx
  0
STYLE
  2
ACANSGDT
 70
     0
 40
0.0
 41
1.0
 50
0.0
 71
     0
 42
2.5
  3
amgdt.shx
  4

  0
STYLE
  2
ACJISTS
 70
     0
 40
1.0
 41
1.0
 50
0.0
 71
     0
 42
2.5
  3
isocp.shx
  4
bigfont.shx
  0
STYLE
  2
ACJISGDT
 70
     0
 40
0.0
 41
1.0
 50
0.0
 71
     0
 42
2.5
  3
amgdt.shx
  4

  0
ENDTAB
  0
TABLE
  2
VIEW
 70
     6
  0
VIEW
  2
AM_VIEW1
 70
     0
 40
555.00000000000011
 10
499.2955801104971
 20
832.50000000000011
 41
998.59116022099431
 11
0.0
 21
0.0
 31
1.0
 12
0.0
 22
0.0
 32
0.0
 42
50.0
 43
0.0
 44
0.0
 50
0.0
 71
     0
  0
VIEW
  2
AM_VIEW2
 70
     0
 40
555.00000000000011
 10
1207.704419889501
 20
832.50000000000011
 41
998.59116022099431
 11
0.0
 21
0.0
 31
1.0
 12
0.0
 22
0.0
 32
0.0
 42
50.0
 43
0.0
 44
0.0
 50
0.0
 71
     0
  0
VIEW
  2
AM_VIEW3
 70
     0
 40
555.00000000000011
 10
499.2955801104971
 20
277.49999999999989
 41
998.59116022099431
 11
0.0
 21
0.0
 31
1.0
 12
0.0
 22
0.0
 32
0.0
 42
50.0
 43
0.0
 44
0.0
 50
0.0
 71
     0
  0
VIEW
  2
AM_VIEW4
 70
     0
 40
555.00000000000011
 10
1207.704419889501
 20
277.49999999999989
 41
998.59116022099431
 11
0.0
 21
0.0
 31
1.0
 12
0.0
 22
0.0
 32
0.0
 42
50.0
 43
0.0
 44
0.0
 50
0.0
 71
     0
  0
VIEW
  2
AM_VIEW5
 70
     0
 40
555.00000000000011
 10
853.5
 20
555.00000000000011
 41
998.59116022099431
 11
0.0
 21
0.0
 31
1.0
 12
0.0
 22
0.0
 32
0.0
 42
50.0
 43
0.0
 44
0.0
 50
0.0
 71
     0
  0
VIEW
  2
AM_VIEW6
 70
     0
 40
1109.9889000000001
 10
853.5
 20
555.0
 41
1997.162348618785
 11
0.0
 21
0.0
 31
1.0
 12
0.0
 22
0.0
 32
0.0
 42
50.0
 43
0.0
 44
0.0
 50
0.0
 71
     0
  0
ENDTAB
  0
TABLE
  2
UCS
 70
     0
  0
ENDTAB
  0
TABLE
  2
APPID
 70
    95
  0
APPID
  2
ACAD
 70
     0
  0
APPID
  2
ACADANNOTATIVE
 70
     0
  0
APPID
  2
MCAD_NO_VIS
 70
     0
  0
APPID
  2
ACAD_TEMP_GRAPHIC
 70
     0
  0
APPID
  2
ACATTRIBSERVICES
 70
     0
  0
APPID
  2
GENIUS_GENREC_14
 70
     0
  0
APPID
  2
GENIUS_GENOBJ-N-REC_13
 70
     0
  0
APPID
  2
GENIUS_GENODEF_13
 70
     0
  0
APPID
  2
GENIUS_GENOLIS_13
 70
     0
  0
APPID
  2
GENIUS_GENOBJ-N-TIT_13
 70
     0
  0
APPID
  2
GENIUS_GENOENT_13
 70
     0
  0
APPID
  2
GENIUS_GENTITLE_13
 70
     0
  0
APPID
  2
GENIUS_GENOREF_13
 70
     0
  0
APPID
  2
GENIUS_GENSCREG_15
 70
     0
  0
APPID
  2
GENIUS_GENOBJ-N-SDF_13
 70
     0
  0
APPID
  2
GENIUS_GENFIL_13
 70
     0
  0
APPID
  2
GENIUS_GENOBJ-N-CHA_13
 70
     0
  0
APPID
  2
GENIUS_GENDTOL_13
 70
     0
  0
APPID
  2
GENIUS_GENOBJ-N-FIL_13
 70
     0
  0
APPID
  2
AD_DRAW
 70
     0
  0
APPID
  2
DESIGNERASSEMBLIES
 70
     0
  0
APPID
  2
ASURF_PCURVE_APPNAME
 70
     0
  0
APPID
  2
GENIUS_GE3SECT_13
 70
     0
  0
APPID
  2
GENIUS_GENCFG_13
 70
     0
  0
APPID
  2
GENIUS_GE3CFG0_13
 70
     0
  0
APPID
  2
GENIUS_GENCFG0_13
 70
     0
  0
APPID
  2
GENIUS_GENCFG1_13
 70
     0
  0
APPID
  2
GENIUS_GENCFG2_13
 70
     0
  0
APPID
  2
GENIUS_GENCFG3_13
 70
     0
  0
APPID
  2
GENIUS_GENCFG4_13
 70
     0
  0
APPID
  2
GENIUS_GEVCFG0_13
 70
     0
  0
APPID
  2
GENIUS_GENHINW_13
 70
     0
  0
APPID
  2
GENIUS_FIRSTVISTXT_14
 70
     0
  0
APPID
  2
GENIUS_GENOBJ-N-LEADER_13
 70
     0
  0
APPID
  2
GEV_VCCNULL_SWITCH_OFF
 70
     0
  0
APPID
  2
GENIUS_GEFCFG0_13
 70
     0
  0
APPID
  2
GENIUS_GENZVEED_13
 70
     0
  0
APPID
  2
GENIUS_GENSCREG_13
 70
     0
  0
APPID
  2
GENIUS_DUMCFG0_13
 70
     0
  0
APPID
  2
GEVID936201362
 70
     0
  0
APPID
  2
GEVDC
 70
     0
  0
APPID
  2
GEVCON
 70
     0
  0
APPID
  2
VCC
 70
     0
  0
APPID
  2
GEVPT
 70
     0
  0
APPID
  2
GEVIT
 70
     0
  0
APPID
  2
GENBH
 70
     0
  0
APPID
  2
GEVMK
 70
     0
  0
APPID
  2
GENIUS_GENBH_13
 70
     0
  0
APPID
  2
GENIUS_GENOBJ-NBEHI-BHF_13
 70
     0
  0
APPID
  2
GENIUS_GENOBJ-NBEHI-BHB_13
 70
     0
  0
APPID
  2
GENIUS_GENOBJ-F-DESC_13
 70
     0
  0
APPID
  2
GENIUS_GEFDESC_14
 70
     0
  0
APPID
  2
GENIUS_GENOBJ-F-PART_13
 70
     0
  0
APPID
  2
GENIUS_GEFSTDP_13
 70
     0
  0
APPID
  2
GENIUS_GEFPARTINS_13
 70
     0
  0
APPID
  2
GENIUS_GENTRA_14
 70
     0
  0
APPID
  2
GENIUS_GENINF13_13
 70
     0
  0
APPID
  2
GENIUS_GENOBJ-N-INFOPT_13
 70
     0
  0
APPID
  2
GENIUS_GENOBJ-N-RSSYM_13
 70
     0
  0
APPID
  2
GENIUS_GENSYMENT_13
 70
     0
  0
APPID
  2
GENIUS_GENSCSYM_13
 70
     0
  0
APPID
  2
GENIUS_GEFINFNAM_13
 70
     0
  0
APPID
  2
GENIUS_GENOBJ-N-CEN_13
 70
     0
  0
APPID
  2
GENIUS_GENOBJ-N-CRS_13
 70
     0
  0
APPID
  2
GENIUS_GENOBJ-N-CRC_13
 70
     0
  0
APPID
  2
GENIUS_GENCRC_14
 70
     0
  0
APPID
  2
GEVID942827039
 70
     0
  0
APPID
  2
GEVID942827040
 70
     0
  0
APPID
  2
GEVID942827041
 70
     0
  0
APPID
  2
GENIUS_GENOBJ-F-SCPASSM_13
 70
     0
  0
APPID
  2
GENIUS_GENDIMSH_14
 70
     0
  0
APPID
  2
GEVID942827042
 70
     0
  0
APPID
  2
GEVID946020473
 70
     0
  0
APPID
  2
GEVID946020474
 70
     0
  0
APPID
  2
GEVID946020475
 70
     0
  0
APPID
  2
GENIUS_GENOBJ-N-HTC_13
 70
     0
  0
APPID
  2
GENIUS_GENHATCH_13
 70
     0
  0
APPID
  2
GEVID948854295
 70
     0
  0
APPID
  2
GEVID939402019
 70
     0
  0
APPID
  2
GEVID952919491
 70
     0
  0
APPID
  2
GEVID952919492
 70
     0
  0
APPID
  2
GENIUS_GEFWELD_13
 70
     0
  0
APPID
  2
GENIUS_GENOBJ-F-WELS_13
 70
     0
  0
APPID
  2
GEVID952919493
 70
     0
  0
APPID
  2
GENIUS_GENOBJ-N-RSBK_13
 70
     0
  0
APPID
  2
GENIUS_GENOBJ-N-LIB_13
 70
     0
  0
APPID
  2
GENIUS_GENSCALE_13
 70
     0
  0
APPID
  2
GEVID986376691
 70
     0
  0
APPID
  2
DCO15
 70
     0
  0
APPID
  2
ACAD_DSTYLE_DIMBREAK
 70
     0
  0
APPID
  2
ACAD_DSTYLE_DIMJAG
 70
     0
  0
APPID
  2
ACAD_NAV_VCDISPLAY
 70
     0
  0
APPID
  2
ACADANNOPO
 70
     0
  0
APPID
  2
ACAD_EXEMPT_FROM_CAD_STANDARDS
 70
     0
  0
APPID
  2
ACAD_MLEADERVER
 70
     0
  0
ENDTAB
  0
TABLE
  2
DIMSTYLE
 70
    22
  0
DIMSTYLE
  2
STANDARD
 70
     0
  3

  4

  5

  6

  7

 40
1.0
 41
0.18
 42
0.0625
 43
0.38
 44
0.18
 45
0.0
 46
0.0
 47
0.0
 48
0.0
140
0.18
141
0.09
142
0.0
143
25.399999999999999
144
1.0
145
0.0
146
1.0
147
0.09
 71
     0
 72
     0
 73
     1
 74
     1
 75
     0
 76
     0
 77
     0
 78
     0
170
     0
171
     2
172
     0
173
     0
174
     0
175
     0
176
     0
177
     0
178
     0
  0
DIMSTYLE
  2
ANNOTATIVE
 70
     0
  3

  4

  5

  6

  7

 40
1.0
 41
0.18
 42
0.0625
 43
0.38
 44
0.18
 45
0.0
 46
0.0
 47
0.0
 48
0.0
140
0.18
141
0.09
142
0.0
143
25.399999999999999
144
1.0
145
0.0
146
1.0
147
0.09
 71
     0
 72
     0
 73
     1
 74
     1
 75
     0
 76
     0
 77
     0
 78
     0
170
     0
171
     2
172
     0
173
     0
174
     0
175
     0
176
     0
177
     0
178
     0
  0
DIMSTYLE
  2
AM_ISO
 70
     0
  3

  4
"
  5

  6

  7

 40
1.0
 41
2.5
 42
1.0
 43
8.0
 44
0.6
 45
0.0
 46
0.0
 47
0.1
 48
0.1
140
2.5
141
0.0
142
0.0
143
0.0393701
144
1.0
145
0.0
146
0.71
147
0.8
 71
     0
 72
     0
 73
     0
 74
     0
 75
     0
 76
     0
 77
     1
 78
     8
170
     0
171
     2
172
     1
173
     0
174
     0
175
     0
176
   256
177
   256
178
     4
  0
DIMSTYLE
  2
AM_ISO$3
 70
     0
  3

  4
"
  5

  6

  7

 40
1.0
 41
2.5
 42
1.0
 43
8.0
 44
0.6
 45
0.0
 46
0.0
 47
0.1
 48
0.1
140
2.5
141
0.0
142
0.0
143
0.0393701
144
1.0
145
0.0
146
0.71
147
0.8
 71
     0
 72
     0
 73
     0
 74
     1
 75
     0
 76
     0
 77
     1
 78
     8
170
     0
171
     2
172
     0
173
     0
174
     0
175
     0
176
   256
177
   256
178
     4
  0
DIMSTYLE
  2
AM_ISO$4
 70
     0
  3

  4
"
  5

  6

  7

 40
1.0
 41
2.5
 42
1.0
 43
8.0
 44
0.6
 45
0.0
 46
0.0
 47
0.1
 48
0.1
140
2.5
141
0.0
142
0.0
143
0.0393701
144
1.0
145
0.0
146
0.71
147
0.8
 71
     0
 72
     0
 73
     0
 74
     1
 75
     0
 76
     0
 77
     1
 78
     8
170
     0
171
     2
172
     0
173
     0
174
     0
175
     0
176
   256
177
   256
178
     4
  0
DIMSTYLE
  2
AM_ISO$6
 70
     0
  3

  4
"
  5

  6

  7

 40
1.0
 41
2.5
 42
1.0
 43
8.0
 44
0.6
 45
0.0
 46
0.0
 47
0.1
 48
0.1
140
2.5
141
0.0
142
0.0
143
0.0393701
144
1.0
145
0.0
146
0.71
147
0.8
 71
     0
 72
     0
 73
     0
 74
     0
 75
     0
 76
     0
 77
     0
 78
     8
170
     0
171
     2
172
     1
173
     0
174
     0
175
     0
176
   256
177
   256
178
     4
  0
DIMSTYLE
  2
AM_ISO$7
 70
     0
  3

  4
"
  5

  6

  7

 40
1.0
 41
2.5
 42
1.0
 43
8.0
 44
0.6
 45
0.0
 46
0.0
 47
0.1
 48
0.1
140
2.5
141
0.0
142
0.0
143
0.0393701
144
1.0
145
0.0
146
0.71
147
0.8
 71
     0
 72
     0
 73
     0
 74
     0
 75
     0
 76
     0
 77
     1
 78
     8
170
     0
171
     2
172
     1
173
     0
174
     0
175
     0
176
   256
177
   256
178
     4
  0
DIMSTYLE
  2
AM_ISO$SF
 70
     0
  3

  4
"
  5

  6

  7

 40
1.0
 41
2.5
 42
1.0
 43
10.0
 44
1.0
 45
0.0
 46
0.0
 47
0.1
 48
0.1
140
3.5
141
0.0
142
0.0
143
0.0393701
144
1.0
145
0.0
146
0.71
147
1.5
 71
     0
 72
     0
 73
     0
 74
     0
 75
     1
 76
     1
 77
     1
 78
     8
170
     0
171
     2
172
     1
173
     0
174
     0
175
     0
176
   256
177
   256
178
     2
  0
DIMSTYLE
  2
AM_ISO$SH
 70
     0
  3

  4
"
  5

  6

  7

 40
1.0
 41
2.5
 42
1.0
 43
10.0
 44
1.0
 45
0.0
 46
0.0
 47
0.1
 48
0.1
140
3.5
141
0.0
142
0.0
143
0.0393701
144
2.0
145
0.0
146
0.71
147
1.5
 71
     0
 72
     0
 73
     0
 74
     0
 75
     1
 76
     1
 77
     1
 78
     8
170
     0
171
     2
172
     1
173
     1
174
     0
175
     0
176
   256
177
   256
178
     2
  0
DIMSTYLE
  2
AM_JIS
 70
     0
  3

  4
"
  5

  6

  7

 40
1.0
 41
2.5
 42
1.0
 43
7.0
 44
1.0
 45
0.0
 46
0.0
 47
0.1
 48
0.1000000001
140
2.5
141
0.0
142
0.0
143
0.0393701
144
1.0
145
0.0
146
0.71
147
1.0
 71
     0
 72
     0
 73
     0
 74
     0
 75
     0
 76
     0
 77
     3
 78
     8
170
     0
171
     2
172
     1
173
     0
174
     0
175
     0
176
   256
177
   256
178
     4
  0
DIMSTYLE
  2
AM_JIS$3
 70
     0
  3

  4
"
  5

  6

  7

 40
1.0
 41
2.5
 42
1.0
 43
7.0
 44
1.0
 45
0.0
 46
0.0
 47
0.1
 48
0.1000000001
140
2.5
141
0.0
142
0.0
143
0.0393701
144
1.0
145
0.0
146
0.71
147
1.0
 71
     0
 72
     0
 73
     0
 74
     1
 75
     0
 76
     0
 77
     3
 78
     8
170
     0
171
     2
172
     0
173
     0
174
     0
175
     0
176
   256
177
   256
178
     4
  0
DIMSTYLE
  2
AM_JIS$4
 70
     0
  3

  4
"
  5

  6

  7

 40
1.0
 41
2.5
 42
1.0
 43
7.0
 44
1.0
 45
0.0
 46
0.0
 47
0.1
 48
0.1000000001
140
2.5
141
0.0
142
0.0
143
0.0393701
144
1.0
145
0.0
146
0.71
147
1.0
 71
     0
 72
     0
 73
     0
 74
     0
 75
     0
 76
     0
 77
     3
 78
     8
170
     0
171
     2
172
     0
173
     0
174
     0
175
     0
176
   256
177
   256
178
     4
  0
DIMSTYLE
  2
AM_JIS$6
 70
     0
  3

  4
"
  5

  6

  7

 40
1.0
 41
2.5
 42
1.0
 43
7.0
 44
1.0
 45
0.0
 46
0.0
 47
0.1
 48
0.1000000001
140
2.5
141
0.0
142
0.0
143
0.0393701
144
1.0
145
0.0
146
0.71
147
1.0
 71
     0
 72
     0
 73
     0
 74
     0
 75
     0
 76
     0
 77
     0
 78
     8
170
     0
171
     2
172
     1
173
     0
174
     0
175
     0
176
   256
177
   256
178
     4
  0
DIMSTYLE
  2
AM_JIS$7
 70
     0
  3

  4
"
  5

  6

  7

 40
1.0
 41
2.5
 42
1.0
 43
7.0
 44
1.0
 45
0.0
 46
0.0
 47
0.1
 48
0.1000000001
140
2.5
141
0.0
142
0.0
143
0.0393701
144
1.0
145
0.0
146
0.71
147
1.0
 71
     0
 72
     0
 73
     0
 74
     0
 75
     0
 76
     0
 77
     3
 78
     8
170
     0
171
     2
172
     1
173
     0
174
     0
175
     0
176
   256
177
   256
178
     4
  0
DIMSTYLE
  2
AM_JIS$SF
 70
     0
  3

  4
"
  5

  6

  7

 40
1.0
 41
2.5
 42
1.0
 43
10.0
 44
1.0
 45
0.0
 46
0.0
 47
0.1
 48
0.1
140
3.5
141
0.0
142
0.0
143
0.0393701
144
1.0
145
0.0
146
0.71
147
1.5
 71
     0
 72
     0
 73
     0
 74
     0
 75
     1
 76
     1
 77
     3
 78
     8
170
     0
171
     2
172
     1
173
     0
174
     0
175
     0
176
   256
177
   256
178
     4
  0
DIMSTYLE
  2
AM_JIS$SH
 70
     0
  3

  4
"
  5

  6

  7

 40
1.0
 41
2.5
 42
1.0
 43
10.0
 44
1.0
 45
0.0
 46
0.0
 47
0.1
 48
0.1
140
3.5
141
0.0
142
0.0
143
0.0393701
144
1.0
145
0.0
146
0.71
147
1.5
 71
     0
 72
     0
 73
     0
 74
     0
 75
     1
 76
     0
 77
     3
 78
     8
170
     0
171
     2
172
     1
173
     1
174
     0
175
     0
176
   256
177
   256
178
     4
  0
DIMSTYLE
  2
AM_ANSI
 70
     0
  3

  4
mm
  5

  6

  7

 40
1.0
 41
0.1
 42
0.05
 43
0.5
 44
0.1
 45
0.0
 46
0.0
 47
0.1
 48
0.1
140
0.12
141
0.0
142
0.0
143
25.399999999999999
144
1.0
145
0.0
146
0.71
147
0.06
 71
     0
 72
     0
 73
     1
 74
     1
 75
     0
 76
     0
 77
     0
 78
     7
170
     0
171
     2
172
     0
173
     0
174
     0
175
     0
176
   256
177
   256
178
     2
  0
DIMSTYLE
  2
AM_ANSI$3
 70
     0
  3

  4
mm
  5

  6

  7

 40
1.0
 41
0.1
 42
0.05
 43
0.5
 44
0.1
 45
0.0
 46
0.0
 47
0.1
 48
0.1
140
0.12
141
0.0
142
0.0
143
25.399999999999999
144
1.0
145
0.0
146
0.71
147
0.06
 71
     0
 72
     0
 73
     1
 74
     1
 75
     0
 76
     0
 77
     0
 78
     7
170
     0
171
     2
172
     0
173
     0
174
     0
175
     0
176
   256
177
   256
178
     2
  0
DIMSTYLE
  2
AM_ANSI$4
 70
     0
  3

  4
mm
  5

  6

  7

 40
1.0
 41
0.1
 42
0.05
 43
0.5
 44
0.1
 45
0.0
 46
0.0
 47
0.1
 48
0.1
140
0.12
141
0.0
142
0.0
143
25.399999999999999
144
1.0
145
0.0
146
0.71
147
0.06
 71
     0
 72
     0
 73
     1
 74
     1
 75
     0
 76
     0
 77
     0
 78
     7
170
     0
171
     2
172
     0
173
     0
174
     0
175
     0
176
   256
177
   256
178
     2
  0
DIMSTYLE
  2
AM_ANSI$7
 70
     0
  3

  4
mm
  5

  6

  7

 40
1.0
 41
0.1
 42
0.05
 43
0.5
 44
0.1
 45
0.0
 46
0.0
 47
0.1
 48
0.1
140
0.24
141
0.0
142
0.0
143
25.399999999999999
144
1.0
145
0.0
146
0.71
147
0.06
 71
     0
 72
     0
 73
     1
 74
     1
 75
     0
 76
     0
 77
     0
 78
     7
170
     0
171
     2
172
     0
173
     0
174
     0
175
     0
176
   256
177
   256
178
     2
  0
DIMSTYLE
  2
AM_ANSI$SF
 70
     0
  3

  4
mm
  5

  6

  7

 40
1.0
 41
0.1
 42
0.05
 43
0.5
 44
0.1
 45
0.0
 46
0.0
 47
0.1
 48
0.1
140
0.12
141
0.0
142
0.0
143
25.399999999999999
144
1.0
145
0.0
146
0.71
147
0.06
 71
     0
 72
     0
 73
     1
 74
     1
 75
     1
 76
     1
 77
     0
 78
     7
170
     0
171
     2
172
     0
173
     0
174
     0
175
     0
176
   256
177
   256
178
     2
  0
DIMSTYLE
  2
AM_ANSI$SH
 70
     0
  3

  4
mm
  5

  6

  7

 40
1.0
 41
0.1
 42
0.05
 43
0.5
 44
0.1
 45
0.0
 46
0.0
 47
0.1
 48
0.1
140
0.12
141
0.0
142
0.0
143
25.399999999999999
144
1.0
145
0.0
146
0.71
147
0.06
 71
     0
 72
     0
 73
     1
 74
     1
 75
     1
 76
     1
 77
     0
 78
     7
170
     0
171
     2
172
     0
173
     1
174
     0
175
     0
176
   256
177
   256
178
     2
  0
ENDTAB
  0
ENDSEC
  0
SECTION
  2
BLOCKS
  0
BLOCK
  8
0
  2
$MODEL_SPACE
 70
     0
 10
0.0
 20
0.0
 30
0.0
  3
$MODEL_SPACE
  1

  0
ENDBLK
  5
2F46
  8
0
  0
BLOCK
 67
     1
  8
0
  2
$PAPER_SPACE
 70
     0
 10
0.0
 20
0.0
 30
0.0
  3
$PAPER_SPACE
  1

  0
ENDBLK
  5
2F42
 67
     1
  8
0
  0
BLOCK
  8
0
  2
GENAXEH
 70
     0
 10
0.0
 20
0.0
 30
0.0
  3
GENAXEH
  1

  0
LINE
  5
2CC5
  8
0
 10
-1.0
 20
0.0
 30
0.0
 11
1.0
 21
0.0
 31
0.0
  0
ENDBLK
  5
2CC6
  8
0
  0
BLOCK
  8
0
  2
_OPEN30
 70
     0
 10
0.0
 20
0.0
 30
0.0
  3
_OPEN30
  1

  0
LINE
  5
2CC9
  8
0
 62
     0
 10
-1.0
 20
0.26794919
 30
0.0
 11
0.0
 21
0.0
 31
0.0
  0
LINE
  5
2CCA
  8
0
 62
     0
 10
0.0
 20
0.0
 30
0.0
 11
-1.0
 21
-0.26794919
 31
0.0
  0
LINE
  5
2CCB
  8
0
 62
     0
 10
0.0
 20
0.0
 30
0.0
 11
-1.0
 21
0.0
 31
0.0
  0
ENDBLK
  5
2CCC
  8
0
  0
BLOCK
  8
0
  2
_NONE
 70
     0
 10
0.0
 20
0.0
 30
0.0
  3
_NONE
  1

  0
ENDBLK
  5
2CCF
  8
0
  0
BLOCK
  8
0
  2
*U5
 70
     1
 10
0.0
 20
0.0
 30
0.0
  3
*U5
  1

  0
TEXT
  5
2CD2
  8
AM_0
 62
     4
 10
774.86237463926864
 20
388.76548744548552
 30
0.0
 40
15.0
  1
\U+2205
 50
90.0
 41
0.8299999999999999
  0
TEXT
  5
2CD3
  8
AM_0
 62
     4
 10
774.86237463926864
 20
401.21548744548539
 30
0.0
 40
15.0
  1
280
 50
90.0
 41
0.8299999999999999
  0
TEXT
  5
2CD4
  8
AM_0
 62
     4
 10
774.86237463926864
 20
436.49048744548548
 30
0.0
 40
12.0
  1
h7
 50
90.0
 41
0.8299999999999999
  0
ENDBLK
  5
2CD5
  8
0
  0
BLOCK
  8
0
  2
*U6
 70
     1
 10
0.0
 20
0.0
 30
0.0
  3
*U6
  1

  0
TEXT
  5
2CD8
  8
AM_0
 62
     4
 10
1006.82312920224
 20
661.07870036590953
 30
0.0
 40
15.0
  1
o
 41
0.8299999999999999
  0
TEXT
  5
2CD9
  8
AM_0
 62
     4
 10
1021.644557773669
 20
661.07870036590953
 30
0.0
 40
15.0
  1
 330
 41
0.8299999999999999
  0
ENDBLK
  5
2CDA
  8
0
  0
BLOCK
  8
0
  2
_ACMFILLEDHALF
 70
     0
 10
0.0
 20
0.0
 30
0.0
  3
_ACMFILLEDHALF
  1

  0
TRACE
  5
3040
  8
AM_0
 62
     0
 10
-0.8
 20
0.0
 30
0.0
 11
-1.0
 21
0.166666666
 31
0.0
 12
0.0
 22
0.0
 32
0.0
 13
0.0
 23
0.0
 33
0.0
  0
LINE
  5
3041
  8
AM_0
 62
     0
 10
-1.0
 20
0.0
 30
0.0
 11
-0.8
 21
0.0
 31
0.0
  0
ENDBLK
  5
303F
  8
0
  0
ENDSEC
  0
SECTION
  2
ENTITIES
  0
LINE
  5
2CDB
  8
AM_0
 10
601.24621730906233
 20
560.92800744548515
 30
0.0
 11
601.24621730906233
 21
280.92796744548542
 31
0.0
  0
LINE
  5
2CDC
  8
AM_0
 10
559.83696730906286
 20
548.51870744548535
 30
0.0
 11
574.24626730906255
 21
562.92795744548516
 31
0.0
  0
LINE
  5
2CDD
  8
AM_0
 10
574.24621730906233
 20
580.33125744548556
 30
0.0
 11
574.24621730906233
 21
386.66460244548517
 31
0.0
  0
LINE
  5
2CDE
  8
AM_0
 10
596.24621730906233
 20
585.92800744548515
 30
0.0
 11
596.24621730906233
 21
255.92796744548519
 31
0.0
  0
ARC
  5
2CDF
  8
AM_0
 10
433.24621730906227
 20
568.9279574454855
 30
0.0
 40
25.000000499999999
 50
306.46672000000001
 51
233.53328999999999
  0
CIRCLE
  5
2CE0
  8
AM_0
 10
433.24621730906227
 20
568.9279574454855
 30
0.0
 40
15.0
  0
LINE
  5
2CE1
  8
AM_0
 10
350.78180130906259
 20
265.39243344548532
 30
0.0
 11
301.60947130906243
 21
314.56476444548542
 31
0.0
  0
LINE
  5
2CE2
  8
ﾁｭｳｼﾝｾﾝ
 10
197.0964701508322
 20
375.92796744548548
 30
0.0
 11
436.81926686491761
 21
375.92796744548548
 31
0.0
  0
LINE
  5
2CE3
  8
AM_0
 10
350.78180130906259
 20
486.46350144548541
 30
0.0
 11
301.60947130906243
 21
437.29117144548542
 31
0.0
  0
LINE
  5
2CE4
  8
AM_0
 10
263.7462673090626
 20
395.92796744548548
 30
0.0
 11
263.7462673090626
 21
355.92796744548548
 31
0.0
  0
LINE
  5
2CE5
  8
AM_0
 10
205.74626730906249
 20
358.42796744548548
 30
0.0
 11
205.74626730906249
 21
393.42796744548548
 31
0.0
  0
LINE
  5
2CE6
  8
AM_0
 10
298.75257430906282
 20
432.09577844548522
 30
0.0
 11
298.75257430906282
 21
375.92796744548548
 31
0.0
  0
LINE
  5
2CE7
  8
AM_0
 10
269.7462673090626
 20
375.92796744548548
 30
0.0
 11
269.7462673090626
 21
430.97987644548522
 31
0.0
  0
LINE
  5
2CE8
  8
AM_0
 10
267.7462673090626
 20
375.92796744548548
 30
0.0
 11
267.7462673090626
 21
410.92796744548542
 31
0.0
  0
LINE
  5
2CE9
  8
AM_0
 10
263.7462673090626
 20
358.42796744548548
 30
0.0
 11
205.74626730906249
 21
358.42796744548548
 31
0.0
  0
LINE
  5
2CEA
  8
AM_0
 10
298.75257430906282
 20
319.76015744548539
 30
0.0
 11
298.75257430906282
 21
375.92796744548548
 31
0.0
  0
LINE
  5
2CEB
  8
AM_0
 10
269.7462673090626
 20
375.92796744548548
 30
0.0
 11
269.7462673090626
 21
320.8760594454854
 31
0.0
  0
LINE
  5
2CEC
  8
AM_0
 10
272.69391030906252
 20
317.87651644548538
 30
0.0
 11
294.71292730906282
 21
317.49217344548549
 31
0.0
  0
ARC
  5
2CED
  8
AM_0
 10
272.74626730906249
 20
320.8760594454854
 30
0.0
 40
3.0
 50
180.0
 51
268.99999999999812
  0
ARC
  5
2CEE
  8
AM_0
 10
294.53840330906252
 20
307.49369644548528
 30
0.0
 40
10.0
 50
45.0
 51
89.000000000001506
  0
LINE
  5
2CEF
  8
AM_0
 10
267.7462673090626
 20
375.92796744548548
 30
0.0
 11
267.7462673090626
 21
340.92796744548542
 31
0.0
  0
LINE
  5
2CF0
  8
AM_0
 10
263.7462673090626
 20
355.92796744548548
 30
0.0
 11
267.7462673090626
 21
355.92796744548548
 31
0.0
  0
LINE
  5
2CF1
  8
AM_0
 10
267.7462673090626
 20
340.92796744548542
 30
0.0
 11
269.7462673090626
 21
338.92796744548542
 31
0.0
  0
LINE
  5
2CF2
  8
AM_0
 10
205.74626730906249
 20
393.42796744548548
 30
0.0
 11
263.7462673090626
 21
393.42796744548548
 31
0.0
  0
LINE
  5
2CF3
  8
AM_0
 10
205.74626730906249
 20
396.42796744548548
 30
0.0
 11
250.74626730906249
 21
396.42796744548548
 31
0.0
  0
LINE
  5
2CF4
  8
AM_0
 10
205.74626730906249
 20
393.42796744548548
 30
0.0
 11
205.74626730906249
 21
396.42796744548548
 31
0.0
  0
LINE
  5
2CF5
  8
AM_0
 10
250.74626730906249
 20
396.42796744548548
 30
0.0
 11
250.74626730906249
 21
393.42796744548548
 31
0.0
  0
LINE
  5
2CF6
  8
AM_0
 10
263.7462673090626
 20
395.92796744548548
 30
0.0
 11
267.7462673090626
 21
395.92796744548548
 31
0.0
  0
LINE
  5
2CF7
  8
AM_0
 10
267.7462673090626
 20
410.92796744548542
 30
0.0
 11
269.7462673090626
 21
412.92796744548542
 31
0.0
  0
LINE
  5
2CF8
  8
AM_0
 10
272.69391030906252
 20
433.97941944548541
 30
0.0
 11
294.71292730906282
 21
434.36376244548552
 31
0.0
  0
ARC
  5
2CF9
  8
AM_0
 10
272.74626730906249
 20
430.97987644548522
 30
0.0
 40
3.0
 50
90.999999999998465
 51
180.0
  0
ARC
  5
2CFA
  8
AM_0
 10
294.53840330906252
 20
444.36223944548539
 30
0.0
 40
10.0
 50
270.99999999999841
 51
315.0
  0
LINE
  5
2CFB
  8
AM_0
 10
579.24621730906233
 20
255.92796744548519
 30
0.0
 11
596.24621730906233
 21
255.92796744548519
 31
0.0
  0
LINE
  5
2CFC
  8
AM_0
 10
538.35131730906255
 20
227.1211574454853
 30
0.0
 11
588.24621730906233
 21
255.92798244548541
 31
0.0
  0
LINE
  5
2CFD
  8
ﾁｭｳｼﾝｾﾝ
 10
413.83791730906228
 20
420.92796744548548
 30
0.0
 11
691.6750673090628
 21
420.92796744548548
 31
0.0
  0
LINE
  5
2CFE
  8
AM_0
 10
451.24621730906227
 20
542.92795744548505
 30
0.0
 11
451.24621730906227
 21
227.92796744548519
 31
0.0
  0
LINE
  5
2CFF
  8
AM_0
 10
583.24621730906233
 20
545.27710744548529
 30
0.0
 11
583.24621730906233
 21
296.5788174454853
 31
0.0
  0
LINE
  5
2D00
  8
AM_0
 10
441.2462173090625
 20
540.64735744548557
 30
0.0
 11
441.2462173090625
 21
230.20854744548541
 31
0.0
  0
LINE
  5
2D01
  8
AM_0
 10
370.2462673090626
 20
445.64480444548508
 30
0.0
 11
370.2462673090626
 21
292.40229644548532
 31
0.0
  0
LINE
  5
2D02
  8
AM_0
 10
431.7462173090625
 20
505.4778074454851
 30
0.0
 11
431.7462173090625
 21
251.3781174454854
 31
0.0
  0
LINE
  5
2D03
  8
AM_0
 10
372.2462673090626
 20
495.92797244548541
 30
0.0
 11
372.2462673090626
 21
255.92796744548519
 31
0.0
  0
LINE
  5
2D04
  8
AM_0
 10
385.2462173090625
 20
493.92797244548558
 30
0.0
 11
385.2462173090625
 21
257.92796744548519
 31
0.0
  0
LINE
  5
2D05
  8
AM_0
 10
352.24626730906272
 20
375.92796744548548
 30
0.0
 11
352.24626730906272
 21
445.64480444548508
 31
0.0
  0
LINE
  5
2D06
  8
AM_0
 10
573.57286730906253
 20
378.43987244548521
 30
0.0
 11
561.66911730906224
 21
506.80153744548511
 31
0.0
  0
LINE
  5
2D07
  8
AM_0
 10
441.2462173090625
 20
327.59877744548533
 30
0.0
 11
574.24621730906233
 21
327.59877744548533
 31
0.0
  0
LINE
  5
2D08
  8
AM_0
 10
451.2462673090626
 20
227.9279824454853
 30
0.0
 11
533.08956730906255
 21
225.78483744548541
 31
0.0
  0
LINE
  5
2D09
  8
AM_0
 10
344.24626730906272
 20
306.21113044548542
 30
0.0
 11
345.30228130906272
 21
294.14082944548528
 31
0.0
  0
LINE
  5
2D0A
  8
AM_0
 10
352.24626730906272
 20
375.92796744548548
 30
0.0
 11
352.24626730906272
 21
292.40229644548532
 31
0.0
  0
ARC
  5
2D0B
  8
AM_0
 10
387.24626730906272
 20
261.92796744548542
 30
0.0
 40
2.0000000500000001
 50
90.000003000000007
 51
180.00001
  0
LINE
  5
2D0C
  8
AM_0
 10
385.2462173090625
 20
289.25307244548549
 30
0.0
 11
431.7462173090625
 21
289.25307244548549
 31
0.0
  0
LINE
  5
2D0D
  8
AM_0
 10
348.35626530906251
 20
275.84594744548542
 30
0.0
 11
372.2462673090626
 21
275.84594744548542
 31
0.0
  0
ARC
  5
2D0E
  8
AM_0
 10
355.24626730906272
 20
258.92796744548542
 30
0.0
 40
3.0
 50
180.0
 51
270.0
  0
LINE
  5
2D0F
  8
AM_0
 10
352.24626730906272
 20
275.84594744548542
 30
0.0
 11
352.24626730906272
 21
258.92796744548542
 31
0.0
  0
ARC
  5
2D10
  8
AM_0
 10
347.2462673090626
 20
261.85690044548539
 30
0.0
 40
5.0
 50
0.0
 51
45.0
  0
ARC
  5
2D11
  8
AM_0
 10
351.2462673090626
 20
292.40229644548532
 30
0.0
 40
1.0
 50
270.0
 51
0.0
  0
ARC
  5
2D12
  8
AM_0
 10
348.29086630906249
 20
294.40229644548549
 30
0.0
 40
3.0
 50
184.99999999999969
 51
270.0
  0
LINE
  5
2D13
  8
AM_0
 10
348.29086630906249
 20
291.40229644548521
 30
0.0
 11
351.2462673090626
 21
291.40229644548521
 31
0.0
  0
ARC
  5
2D14
  8
AM_0
 10
348.35626530906251
 20
278.84594744548542
 30
0.0
 40
3.0
 50
184.99999999999969
 51
270.0
  0
LINE
  5
2D15
  8
AM_0
 10
348.34400330906283
 20
278.76268044548527
 30
0.0
 11
348.30078730906263
 21
289.04229044548532
 31
0.0
  0
LINE
  5
2D16
  8
AM_0
 10
344.24626730906272
 20
291.40229644548521
 30
0.0
 11
345.36768030906251
 21
278.58447944548527
 31
0.0
  0
LINE
  5
2D17
  8
AM_0
 10
355.24626730906272
 20
255.92796744548531
 30
0.0
 11
370.2462673090626
 21
255.92796744548531
 31
0.0
  0
LINE
  5
2D18
  8
AM_0
 10
372.2462673090626
 20
257.92796744548542
 30
0.0
 11
370.2462673090626
 21
255.92796744548531
 31
0.0
  0
LINE
  5
2D19
  8
AM_0
 10
372.2462673090626
 20
255.92796744548519
 30
0.0
 11
383.24621730906227
 21
255.92796744548519
 31
0.0
  0
ARC
  5
2D1A
  8
AM_0
 10
383.24621730906227
 20
257.92796744548519
 30
0.0
 40
2.0000000500000001
 50
270.0
 51
0.0
  0
ARC
  5
2D1B
  8
AM_0
 10
383.24621730906227
 20
293.7571024454852
 30
0.0
 40
2.0000000500000001
 50
270.0
 51
0.0
  0
ARC
  5
2D1C
  8
AM_0
 10
371.24626730906272
 20
292.40229644548532
 30
0.0
 40
1.0
 50
180.0
 51
270.0
  0
LINE
  5
2D1D
  8
AM_0
 10
372.2462673090626
 20
291.7571024454852
 30
0.0
 11
383.24621730906227
 21
291.7571024454852
 31
0.0
  0
ARC
  5
2D1E
  8
AM_0
 10
383.24621730906227
 20
278.2007624454854
 30
0.0
 40
2.0000000500000001
 50
270.0
 51
0.0
  0
LINE
  5
2D1F
  8
AM_0
 10
372.2462673090626
 20
276.20073244548541
 30
0.0
 11
383.24621730906227
 21
276.20073244548541
 31
0.0
  0
ARC
  5
2D20
  8
AM_0
 10
443.2462173090625
 20
230.20854744548541
 30
0.0
 40
2.0000000500000001
 50
179.99998999999991
 51
268.00000999999992
  0
LINE
  5
2D21
  8
AM_0
 10
443.1764173090628
 20
228.20975244548541
 30
0.0
 11
451.24616730906268
 21
227.9279524454854
 31
0.0
  0
LINE
  5
2D22
  8
AM_0
 10
440.47026730906282
 20
236.15312744548541
 30
0.0
 11
432.52216730906252
 21
248.7028824454853
 31
0.0
  0
ARC
  5
2D23
  8
AM_0
 10
436.74621730906262
 20
251.3781174454854
 30
0.0
 40
5.0
 50
179.99998999999991
 51
212.34744000000001
  0
ARC
  5
2D24
  8
AM_0
 10
436.24621730906262
 20
233.47781744548541
 30
0.0
 40
5.0
 50
0.0
 51
32.347445
  0
LINE
  5
2D25
  8
AM_0
 10
387.24626730906272
 20
263.92796744548519
 30
0.0
 11
429.3747673090628
 21
263.92796744548519
 31
0.0
  0
ARC
  5
2D26
  8
AM_0
 10
429.74626730906272
 20
261.92796744548542
 30
0.0
 40
2.0000000500000001
 50
0.0
 51
90.000003000000007
  0
LINE
  5
2D27
  8
AM_0
 10
385.2462173090625
 20
304.99513744548528
 30
0.0
 11
431.7462173090625
 21
304.99513744548528
 31
0.0
  0
ARC
  5
2D28
  8
AM_0
 10
355.24626730906272
 20
326.8491544454854
 30
0.0
 40
3.0
 50
180.0
 51
270.0
  0
LINE
  5
2D29
  8
AM_0
 10
352.24626730906272
 20
306.21113044548542
 30
0.0
 11
345.28429830906271
 21
306.21113044548542
 31
0.0
  0
LINE
  5
2D2A
  8
AM_0
 10
372.2462673090626
 20
306.21113044548542
 30
0.0
 11
370.2462673090626
 21
306.21113044548542
 31
0.0
  0
LINE
  5
2D2B
  8
AM_0
 10
373.22511730906251
 20
301.4910174454854
 30
0.0
 11
384.25401730906287
 21
301.4910174454854
 31
0.0
  0
ARC
  5
2D2C
  8
AM_0
 10
367.24626730906272
 20
326.8491544454854
 30
0.0
 40
3.0
 50
270.0
 51
0.0
  0
LINE
  5
2D2D
  8
AM_0
 10
354.35492030906232
 20
335.01322044548527
 30
0.0
 11
368.01272430906278
 21
335.01322044548527
 31
0.0
  0
LINE
  5
2D2E
  8
AM_0
 10
355.24626730906272
 20
323.84915444548528
 30
0.0
 11
367.24626730906272
 21
323.84915444548528
 31
0.0
  0
ARC
  5
2D2F
  8
AM_0
 10
575.24621730906233
 20
296.5788174454853
 30
0.0
 40
8.0
 50
270.0
 51
0.0
  0
LINE
  5
2D30
  8
AM_0
 10
491.2462173090625
 20
296.1738774454854
 30
0.0
 11
491.2462173090625
 21
281.5290424454854
 31
0.0
  0
LINE
  5
2D31
  8
AM_0
 10
574.24621730906233
 20
328.65407244548533
 30
0.0
 11
574.24621730906233
 21
260.92796744548519
 31
0.0
  0
LINE
  5
2D32
  8
AM_0
 10
496.24621730906227
 20
276.5290424454854
 30
0.0
 11
574.24621730906233
 21
276.5290424454854
 31
0.0
  0
ARC
  5
2D33
  8
AM_0
 10
496.24621730906227
 20
281.5290424454854
 30
0.0
 40
5.0
 50
179.99998999999991
 51
270.0
  0
ARC
  5
2D34
  8
AM_0
 10
533.35136730906265
 20
235.7814074454854
 30
0.0
 40
10.0
 50
268.5
 51
300.0
  0
ARC
  5
2D35
  8
AM_0
 10
579.24621730906233
 20
260.92796744548519
 30
0.0
 40
5.0
 50
179.99998999999991
 51
270.0
  0
LINE
  5
2D36
  8
AM_0
 10
496.24621730906227
 20
301.1738774454854
 30
0.0
 11
574.24621730906233
 21
301.1738774454854
 31
0.0
  0
ARC
  5
2D37
  8
AM_0
 10
496.24621730906227
 20
296.1738774454854
 30
0.0
 40
5.0
 50
90.000003000000007
 51
180.00001
  0
ARC
  5
2D38
  8
AM_0
 10
575.24621730906233
 20
336.59132744548521
 30
0.0
 40
8.0
 50
270.0
 51
0.0
  0
ARC
  5
2D39
  8
AM_0
 10
581.53861730906272
 20
379.17861244548538
 30
0.0
 40
8.0
 50
185.29823999999991
 51
270.0
  0
LINE
  5
2D3A
  8
AM_0
 10
441.2462173090625
 20
429.39437244548509
 30
0.0
 11
568.84751730906271
 21
429.39437244548509
 31
0.0
  0
LINE
  5
2D3B
  8
AM_0
 10
451.24621730906227
 20
542.92795744548505
 30
0.0
 11
553.02766730906296
 21
545.59320744548495
 31
0.0
  0
LINE
  5
2D3C
  8
AM_0
 10
348.34400330906283
 20
473.09325544548551
 30
0.0
 11
348.30078730906263
 21
462.81364544548541
 31
0.0
  0
LINE
  5
2D3D
  8
AM_0
 10
344.24626730906272
 20
460.45363944548541
 30
0.0
 11
345.36768030906251
 21
473.27145544548551
 31
0.0
  0
LINE
  5
2D3E
  8
AM_0
 10
385.2462173090625
 20
446.86080244548521
 30
0.0
 11
431.7462173090625
 21
446.86080244548521
 31
0.0
  0
LINE
  5
2D3F
  8
AM_0
 10
385.2462173090625
 20
462.6028674454854
 30
0.0
 11
431.7462173090625
 21
462.6028674454854
 31
0.0
  0
LINE
  5
2D40
  8
AM_0
 10
371.06605230906263
 20
445.64480444548508
 30
0.0
 11
345.28429830906271
 21
445.64480444548508
 31
0.0
  0
LINE
  5
2D41
  8
AM_0
 10
348.29086630906249
 20
460.45363944548541
 30
0.0
 11
372.2462673090626
 21
460.45363944548541
 31
0.0
  0
LINE
  5
2D42
  8
AM_0
 10
344.24626730906272
 20
445.64480444548508
 30
0.0
 11
345.30228130906272
 21
457.71510644548511
 31
0.0
  0
ARC
  5
2D43
  8
AM_0
 10
348.29086630906249
 20
457.45363944548552
 30
0.0
 40
3.0
 50
90.0
 51
175.00000000000011
  0
ARC
  5
2D44
  8
AM_0
 10
383.24621730906227
 20
458.09880744548548
 30
0.0
 40
2.0000000500000001
 50
0.0
 51
90.000003000000007
  0
LINE
  5
2D45
  8
AM_0
 10
373.22511730906251
 20
450.36492244548538
 30
0.0
 11
384.25401730906287
 21
450.36492244548538
 31
0.0
  0
LINE
  5
2D46
  8
AM_0
 10
372.2462673090626
 20
460.09880744548542
 30
0.0
 11
383.24621730906227
 21
460.09880744548542
 31
0.0
  0
ARC
  5
2D47
  8
AM_0
 10
387.24626730906272
 20
489.9279724454853
 30
0.0
 40
2.0000000500000001
 50
179.99998999999991
 51
270.0
  0
ARC
  5
2D48
  8
AM_0
 10
355.24626730906272
 20
503.06635544548539
 30
0.0
 40
3.0
 50
90.0
 51
180.0
  0
LINE
  5
2D49
  8
AM_0
 10
348.35626530906251
 20
476.00998844548548
 30
0.0
 11
372.2462673090626
 21
476.00998844548548
 31
0.0
  0
ARC
  5
2D4A
  8
AM_0
 10
347.2462673090626
 20
489.9990354454855
 30
0.0
 40
5.0
 50
315.0
 51
0.0
  0
LINE
  5
2D4B
  8
AM_0
 10
352.24626730906272
 20
476.00998844548548
 30
0.0
 11
352.24626730906272
 21
503.06635544548539
 31
0.0
  0
ARC
  5
2D4C
  8
AM_0
 10
348.35626530906251
 20
473.00998844548548
 30
0.0
 40
3.0
 50
90.0
 51
175.00000000000011
  0
LINE
  5
2D4D
  8
AM_0
 10
370.2462673090626
 20
476.00998844548548
 30
0.0
 11
370.2462673090626
 21
503.06635544548539
 31
0.0
  0
LINE
  5
2D4E
  8
AM_0
 10
353.38002130906273
 20
486.6764684454854
 30
0.0
 11
369.07588030906243
 21
486.6764684454854
 31
0.0
  0
ARC
  5
2D4F
  8
AM_0
 10
383.24621730906227
 20
473.65517244548522
 30
0.0
 40
2.0000000500000001
 50
0.0
 51
90.000003000000007
  0
LINE
  5
2D50
  8
AM_0
 10
372.2462673090626
 20
475.65520244548549
 30
0.0
 11
383.24621730906227
 21
475.65520244548549
 31
0.0
  0
ARC
  5
2D51
  8
AM_0
 10
367.24626730906272
 20
503.06635544548539
 30
0.0
 40
3.0
 50
0.0
 51
90.0
  0
LINE
  5
2D52
  8
AM_0
 10
355.24626730906272
 20
506.06635544548539
 30
0.0
 11
367.24626730906272
 21
506.06635544548539
 31
0.0
  0
ARC
  5
2D53
  8
AM_0
 10
383.24621730906227
 20
493.92797244548558
 30
0.0
 40
2.0000000500000001
 50
0.0
 51
90.000003000000007
  0
LINE
  5
2D54
  8
AM_0
 10
370.2462673090626
 20
495.92796744548548
 30
0.0
 11
372.2462673090626
 21
493.92796744548559
 31
0.0
  0
LINE
  5
2D55
  8
AM_0
 10
372.2462673090626
 20
495.92797244548541
 30
0.0
 11
383.24621730906227
 21
495.92797244548541
 31
0.0
  0
LINE
  5
2D56
  8
AM_0
 10
440.47026730906282
 20
520.70285744548505
 30
0.0
 11
432.52211730906259
 21
508.15309744548551
 31
0.0
  0
LINE
  5
2D57
  8
AM_0
 10
418.2462173090625
 20
537.92795744548516
 30
0.0
 11
418.2462173090625
 21
489.9279724454853
 31
0.0
  0
LINE
  5
2D58
  8
AM_0
 10
416.2462173090625
 20
487.92794244548543
 30
0.0
 11
429.74626730906272
 21
487.92794244548543
 31
0.0
  0
LINE
  5
2D59
  8
AM_0
 10
387.24626730906272
 20
487.92794244548543
 30
0.0
 11
416.2462173090625
 21
487.92794244548543
 31
0.0
  0
ARC
  5
2D5A
  8
AM_0
 10
416.2462173090625
 20
489.9279724454853
 30
0.0
 40
2.0000000500000001
 50
270.0
 51
0.0
  0
ARC
  5
2D5B
  8
AM_0
 10
429.74626730906272
 20
489.9279724454853
 30
0.0
 40
2.0000000500000001
 50
270.0
 51
0.0
  0
ARC
  5
2D5C
  8
AM_0
 10
436.74621730906262
 20
505.4778074454851
 30
0.0
 40
5.0
 50
147.65255999999991
 51
180.00001
  0
ARC
  5
2D5D
  8
AM_0
 10
414.8211673090625
 20
543.99770744548505
 30
0.0
 40
6.0
 50
349.72994999999997
 51
53.533291000000013
  0
ARC
  5
2D5E
  8
AM_0
 10
423.2462173090625
 20
537.92795744548516
 30
0.0
 40
5.0
 50
90.000003000000007
 51
180.00001
  0
ARC
  5
2D5F
  8
AM_0
 10
436.24621730906262
 20
523.37815744548527
 30
0.0
 40
5.0
 50
327.65255999999982
 51
0.0
  0
LINE
  5
2D60
  8
AM_0
 10
433.24621730906227
 20
553.92795744548528
 30
0.0
 11
442.72431730906283
 21
552.0489074454855
 31
0.0
  0
LINE
  5
2D61
  8
AM_0
 10
423.45216730906299
 20
551.92795744548505
 30
0.0
 11
443.04021730906283
 21
551.92795744548505
 31
0.0
  0
LINE
  5
2D62
  8
AM_0
 10
423.2462173090625
 20
542.92795744548505
 30
0.0
 11
450.94621730906277
 21
542.92795744548505
 31
0.0
  0
ARC
  5
2D63
  8
AM_0
 10
423.96266730906279
 20
551.06805744548546
 30
0.0
 40
1.0
 50
101.21329
 51
164.99999
  0
LINE
  5
2D64
  8
AM_0
 10
423.76811730906252
 20
552.0489074454855
 30
0.0
 11
433.2461673090628
 21
553.92795744548528
 31
0.0
  0
LINE
  5
2D65
  8
AM_0
 10
420.53156730906238
 20
542.12685744548514
 30
0.0
 11
422.9967173090626
 21
551.32685744548542
 31
0.0
  0
ARC
  5
2D66
  8
AM_0
 10
442.52986730906292
 20
551.06805744548546
 30
0.0
 40
1.0
 50
15.0
 51
78.786709999999999
  0
LINE
  5
2D67
  8
AM_0
 10
450.94621730906277
 20
542.92795744548505
 30
0.0
 11
451.24621730906227
 21
542.92795744548505
 31
0.0
  0
ARC
  5
2D68
  8
AM_0
 10
443.2462173090625
 20
540.64735744548557
 30
0.0
 40
2.0000000500000001
 50
91.999997999999948
 51
180.00001
  0
LINE
  5
2D69
  8
AM_0
 10
443.17646730906267
 20
542.64615744548541
 30
0.0
 11
450.94626730906282
 21
542.91750744548551
 31
0.0
  0
ARC
  5
2D6A
  8
AM_0
 10
451.67121730906251
 20
543.99770744548505
 30
0.0
 40
6.0
 50
126.4666999999999
 51
190.27006
  0
LINE
  5
2D6B
  8
AM_0
 10
445.74621730906227
 20
542.92795744548505
 30
0.0
 11
443.49571730906229
 21
551.3269074454854
 31
0.0
  0
LINE
  5
2D6C
  8
AM_0
 10
562.89636730906295
 20
507.76958244548541
 30
0.0
 11
574.24626730906255
 21
516.09335744548525
 31
0.0
  0
ARC
  5
2D6D
  8
AM_0
 10
536.18461730906245
 20
511.80150744548553
 30
0.0
 40
5.0
 50
179.99998999999991
 51
270.0
  0
LINE
  5
2D6E
  8
AM_0
 10
536.17531730906285
 20
508.57839244548552
 30
0.0
 11
571.74436730906268
 21
530.10485744548544
 31
0.0
  0
LINE
  5
2D6F
  8
AM_0
 10
536.18461730906245
 20
506.80150744548553
 30
0.0
 11
559.93946730906259
 21
506.80150744548553
 31
0.0
  0
ARC
  5
2D70
  8
AM_0
 10
575.24621730906233
 20
487.26461244548523
 30
0.0
 40
8.0
 50
0.0
 51
90.000003000000007
  0
ARC
  5
2D71
  8
AM_0
 10
559.93946730906259
 20
511.80150744548553
 30
0.0
 40
5.0
 50
270.0
 51
306.25555000000008
  0
ARC
  5
2D72
  8
AM_0
 10
552.76586730906274
 20
555.58975744548525
 30
0.0
 40
10.0
 50
271.49999999999972
 51
315.0
  0
LINE
  5
2D73
  8
AM_0
 10
533.59571730906282
 20
518.29200744548541
 30
0.0
 11
571.83501730906278
 21
541.43445744548546
 31
0.0
  0
ARC
  5
2D74
  8
AM_0
 10
536.18461730906245
 20
514.01435744548542
 30
0.0
 40
5.0
 50
121.18236
 51
180.00001
  0
LINE
  5
2D75
  8
AM_0
 10
531.18461730906245
 20
514.01435744548542
 30
0.0
 11
531.18461730906245
 21
511.80150744548553
 31
0.0
  0
LINE
  5
2D76
  8
AM_0
 10
559.04411730906224
 20
535.10730744548539
 30
0.0
 11
557.97326730906229
 21
546.65490744548549
 31
0.0
  0
ARC
  5
2D77
  8
AM_0
 10
569.24621730906233
 20
545.71205744548536
 30
0.0
 40
5.0
 50
301.18236000000002
 51
0.0
  0
ARC
  5
2D78
  8
AM_0
 10
575.24621730906233
 20
545.27710744548529
 30
0.0
 40
8.0
 50
0.0
 51
90.000003000000007
  0
LINE
  5
2D79
  8
AM_0
 10
596.24621730906233
 20
280.92796744548542
 30
0.0
 11
601.24621730906233
 21
280.92796744548542
 31
0.0
  0
LINE
  5
2D7A
  8
AM_0
 10
604.24621730906233
 20
448.42797244548552
 30
0.0
 11
686.24621730906233
 21
448.42797244548552
 31
0.0
  0
LINE
  5
2D7B
  8
AM_0
 10
624.24621730906233
 20
452.4279724454853
 30
0.0
 11
686.24621730906233
 21
452.4279724454853
 31
0.0
  0
LINE
  5
2D7C
  8
AM_0
 10
604.24621730906233
 20
393.42796744548548
 30
0.0
 11
686.24621730906233
 21
393.42796744548548
 31
0.0
  0
LINE
  5
2D7D
  8
AM_0
 10
604.24621730906233
 20
450.92797244548541
 30
0.0
 11
604.24621730906233
 21
390.92796744548548
 31
0.0
  0
LINE
  5
2D7E
  8
AM_0
 10
601.24621730906233
 20
390.92796744548548
 30
0.0
 11
604.24621730906233
 21
390.92796744548548
 31
0.0
  0
LINE
  5
2D7F
  8
AM_0
 10
601.24621730906233
 20
450.92797244548541
 30
0.0
 11
604.24621730906233
 21
450.92797244548541
 31
0.0
  0
LINE
  5
2D80
  8
AM_0
 10
624.24621730906233
 20
452.4279724454853
 30
0.0
 11
624.24621730906233
 21
448.42797244548552
 31
0.0
  0
LINE
  5
2D81
  8
AM_0
 10
686.24621730906233
 20
452.4279724454853
 30
0.0
 11
686.24621730906233
 21
393.42796744548548
 31
0.0
  0
LINE
  5
2D82
  8
AM_0
 10
579.07171730906248
 20
585.32825744548552
 30
0.0
 11
596.24621730906233
 21
585.92800744548515
 31
0.0
  0
ARC
  5
2D83
  8
AM_0
 10
579.24621730906233
 20
580.33125744548556
 30
0.0
 40
5.0
 50
91.999997999999948
 51
180.00001
  0
LINE
  5
2D84
  8
AM_0
 10
596.24621730906233
 20
560.92800744548515
 30
0.0
 11
601.24621730906233
 21
560.92800744548515
 31
0.0
  0
CIRCLE
  5
2D85
  8
AM_0
 10
1135.287437783094
 20
558.81380744548505
 30
0.0
 40
9.5
  0
LINE
  5
2D86
  8
AM_0
 10
1162.4016077830941
 20
475.92794244548543
 30
0.0
 11
1157.8662977830941
 21
562.46675744548565
 31
0.0
  0
CIRCLE
  5
2D87
  8
AM_0
 10
859.51579778309519
 20
558.81380744548505
 30
0.0
 40
9.5
  0
LINE
  5
2D88
  8
AM_0
 10
832.40161278309472
 20
475.92797244548541
 30
0.0
 11
836.93696278309483
 21
562.46675744548565
 31
0.0
  0
CIRCLE
  5
2D89
  8
AM_0
 10
997.40163278309478
 20
420.92796744548548
 30
0.0
 40
140.0
  0
LINE
  5
2D8A
  8
ﾁｭｳｼﾝｾﾝ
 10
997.40163278309478
 20
213.90278744548519
 30
0.0
 11
997.40163278309478
 21
599.12318713743957
 31
0.0
  0
LINE
  5
2D8B
  8
ﾁｭｳｼﾝｾﾝ1
 10
1119.980112783094
 20
543.50640744548548
 30
0.0
 11
1149.5181377830941
 21
573.04445744548525
 31
0.0
  0
ARC
  5
2D8C
  8
ﾁｭｳｼﾝｾﾝ1
 10
997.40163278309478
 20
420.92796744548548
 30
0.0
 40
195.0000049999999
 50
39.367218999999999
 51
50.896189000000007
  0
CIRCLE
  5
2D8D
  8
AM_0
 10
997.40163278309478
 20
420.92796744548548
 30
0.0
 40
132.0
  0
ARC
  5
2D8E
  8
AM_0
 10
1079.088522783095
 20
518.17120744548527
 30
0.0
 40
5.0
 50
315.0
 51
49.968851000000001
  0
LINE
  5
2D8F
  8
AM_0
 10
1057.6754977830949
 20
472.71657744548548
 30
0.0
 11
1091.1093077830949
 21
506.15038244548521
 31
0.0
  0
LINE
  5
2D90
  8
AM_0
 10
1124.007302783094
 20
405.92796744548542
 30
0.0
 11
1077.4016027830951
 21
405.92796744548542
 31
0.0
  0
LINE
  5
2D91
  8
AM_0
 10
1066.6018627830931
 20
227.42644244548529
 30
0.0
 11
1089.3767327830949
 21
243.37356744548521
 31
0.0
  0
LINE
  5
2D92
  8
AM_0
 10
1052.4016027830951
 20
255.92796744548519
 30
0.0
 11
1138.9404227830951
 21
260.46327744548518
 31
0.0
  0
LINE
  5
2D93
  8
ﾁｭｳｼﾝｾﾝ
 10
821.41991278309479
 20
420.92796744548548
 30
0.0
 11
1174.828197783095
 21
420.92796744548548
 31
0.0
  0
ARC
  5
2D94
  8
AM_0
 10
997.40163278309478
 20
420.92796744548548
 30
0.0
 40
60.0
 50
90.000003000000007
 51
270.0
  0
ARC
  5
2D95
  8
AM_0
 10
997.40163278309478
 20
420.92796744548548
 30
0.0
 40
60.0
 50
270.0
 51
90.000003000000007
  0
LINE
  5
2D96
  8
AM_0
 10
832.40161278309472
 20
365.92796744548548
 30
0.0
 11
832.40161278309472
 21
475.92797244548541
 31
0.0
  0
LINE
  5
2D97
  8
AM_0
 10
935.5545877830948
 20
225.1079724454853
 30
0.0
 11
1059.2486177830931
 21
225.1079724454853
 31
0.0
  0
LINE
  5
2D98
  8
AM_0
 10
942.40163278309478
 20
255.92796744548519
 30
0.0
 11
1052.4016027830951
 21
255.92796744548519
 31
0.0
  0
LINE
  5
2D99
  8
ﾁｭｳｼﾝｾﾝ
 10
908.09627221165044
 20
375.92796744548548
 30
0.0
 11
1086.706993354539
 21
375.92796744548548
 31
0.0
  0
LINE
  5
2D9A
  8
ﾁｭｳｼﾝｾﾝ1
 10
875.72514778309483
 20
299.25148244548541
 30
0.0
 11
845.2850627830951
 21
268.8114224454855
 31
0.0
  0
ARC
  5
2D9B
  8
ﾁｭｳｼﾝｾﾝ1
 10
997.40163278309478
 20
420.92796744548548
 30
0.0
 40
195.0000049999999
 50
218.16531999999989
 51
232.12885999999989
  0
LINE
  5
2D9C
  8
AM_0
 10
832.40161278309472
 20
365.92793744548521
 30
0.0
 11
836.93691278309484
 21
279.38914744548521
 31
0.0
  0
LINE
  5
2D9D
  8
AM_0
 10
942.40160278309509
 20
255.92796744548519
 30
0.0
 11
855.86281278309491
 21
260.46327744548518
 31
0.0
  0
CIRCLE
  5
2D9E
  8
AM_0
 10
859.51579778309519
 20
283.04213244548532
 30
0.0
 40
9.5
  0
ARC
  5
2D9F
  8
AM_0
 10
856.90953778309472
 20
280.43587244548542
 30
0.0
 40
20.000000499999999
 50
183.00001
 51
267.0
  0
ARC
  5
2DA0
  8
AM_0
 10
964.40160278309475
 20
327.59877744548533
 30
0.0
 40
102.81999499999991
 50
222.01517999999999
 51
235.0
  0
LINE
  5
2DA1
  8
AM_0
 10
928.20137778309493
 20
227.42642744548539
 30
0.0
 11
905.42647278309494
 21
243.37356744548521
 31
0.0
  0
ARC
  5
2DA2
  8
AM_0
 10
935.5545877830948
 20
237.92796744548519
 30
0.0
 40
12.82
 50
235.0
 51
270.0
  0
ARC
  5
2DA3
  8
AM_0
 10
1059.2486177830931
 20
237.92796744548519
 30
0.0
 40
12.82
 50
270.0
 51
305.0
  0
ARC
  5
2DA4
  8
AM_0
 10
949.14852278309468
 20
484.73738744548552
 30
0.0
 40
5.0
 50
225.0
 51
307.09678999999983
  0
ARC
  5
2DA5
  8
AM_0
 10
933.59218278309527
 20
469.18105244548548
 30
0.0
 40
5.0
 50
322.90320999999989
 51
45.00000099999999
  0
LINE
  5
2DA6
  8
AM_0
 10
870.79594778309479
 20
405.92796744548542
 30
0.0
 11
917.40163278309478
 21
405.92796744548542
 31
0.0
  0
ARC
  5
2DA7
  8
AM_0
 10
870.79594778309479
 20
410.92796744548542
 30
0.0
 40
5.0
 50
184.51616000000001
 51
270.0
  0
ARC
  5
2DA8
  8
AM_0
 10
997.40163278309478
 20
420.92796744548548
 30
0.0
 40
75.0
 50
142.90321
 51
180.00001
  0
ARC
  5
2DA9
  8
AM_0
 10
917.40163278309478
 20
410.92796744548542
 30
0.0
 40
5.0
 50
270.0
 51
0.0
  0
LINE
  5
2DAA
  8
AM_0
 10
922.40163278309478
 20
420.92796744548548
 30
0.0
 11
922.40163278309478
 21
410.92796744548542
 31
0.0
  0
LINE
  5
2DAB
  8
AM_0
 10
945.61302778309494
 20
481.20183744548541
 30
0.0
 11
912.17918778309468
 21
514.63565744548544
 31
0.0
  0
LINE
  5
2DAC
  8
AM_0
 10
937.12773778309474
 20
472.71657744548548
 30
0.0
 11
903.69389778309471
 21
506.15038244548521
 31
0.0
  0
ARC
  5
2DAD
  8
AM_0
 10
900.15834778309477
 20
502.6148924454854
 30
0.0
 40
5.0
 50
45.00000099999999
 51
139.96885
  0
ARC
  5
2DAE
  8
AM_0
 10
915.71471278309525
 20
518.17120744548527
 30
0.0
 40
5.0
 50
130.03115
 51
225.0
  0
ARC
  5
2DAF
  8
AM_0
 10
1061.2110227830931
 20
469.18105244548548
 30
0.0
 40
5.0
 50
135.0
 51
217.0967999999998
  0
ARC
  5
2DB0
  8
AM_0
 10
997.40163278309478
 20
420.92796744548548
 30
0.0
 40
27.500000499999999
 50
106.91239
 51
73.087597000000002
  0
CIRCLE
  5
2DB1
  8
AM_0
 10
997.40163278309478
 20
420.92796744548548
 30
0.0
 40
4.500000049999997
  0
CIRCLE
  5
2DB2
  8
AM_5
 10
997.40163278309478
 20
420.92796744548548
 30
0.0
 40
6.0
  0
LINE
  5
2DB3
  8
AM_0
 10
1005.401602783095
 20
442.42797244548512
 30
0.0
 11
1005.401602783095
 21
452.4279724454853
 31
0.0
  0
LINE
  5
2DB4
  8
AM_0
 10
989.40160278309475
 20
442.42797244548512
 30
0.0
 11
989.40160278309475
 21
452.4279724454853
 31
0.0
  0
LINE
  5
2DB5
  8
AM_0
 10
989.40160278309475
 20
442.42797244548512
 30
0.0
 11
1005.401602783095
 21
442.42797244548512
 31
0.0
  0
LINE
  5
2DB6
  8
AM_0
 10
989.40160278309475
 20
452.4279724454853
 30
0.0
 11
1005.401602783095
 21
452.4279724454853
 31
0.0
  0
ARC
  5
2DB7
  8
AM_0
 10
997.40163278309478
 20
420.92796744548548
 30
0.0
 40
75.0
 50
0.0
 51
37.096792999999991
  0
ARC
  5
2DB8
  8
AM_0
 10
1077.4016027830951
 20
410.92796744548542
 30
0.0
 40
5.0
 50
179.99998999999991
 51
270.0
  0
LINE
  5
2DB9
  8
AM_0
 10
1072.4016027830951
 20
420.92796744548548
 30
0.0
 11
1072.4016027830951
 21
410.92796744548542
 31
0.0
  0
ARC
  5
2DBA
  8
AM_0
 10
997.40163278309478
 20
420.92796744548548
 30
0.0
 40
75.0
 50
52.903206000000019
 51
127.0967899999999
  0
LINE
  5
2DBB
  8
AM_0
 10
1049.190237783095
 20
481.20183744548541
 30
0.0
 11
1082.624047783095
 21
514.63565744548544
 31
0.0
  0
ARC
  5
2DBC
  8
AM_0
 10
1045.654687783094
 20
484.73738744548552
 30
0.0
 40
5.0
 50
232.9032099999998
 51
315.0
  0
LINE
  5
2DBD
  8
AM_0
 10
1162.4016077830941
 20
365.92796744548548
 30
0.0
 11
1162.4016077830941
 21
475.92797244548541
 31
0.0
  0
LINE
  5
2DBE
  8
AM_0
 10
1162.4016077830941
 20
365.92796744548548
 30
0.0
 11
1157.8662977830941
 21
279.38914744548521
 31
0.0
  0
ARC
  5
2DBF
  8
AM_0
 10
1137.8937177830951
 20
280.43587244548542
 30
0.0
 40
20.000000499999999
 50
273.0
 51
357.0
  0
ARC
  5
2DC0
  8
AM_0
 10
1030.4016027830951
 20
327.59877744548533
 30
0.0
 40
102.81999499999991
 50
305.0
 51
317.98482000000001
  0
CIRCLE
  5
2DC1
  8
AM_0
 10
1135.287437783094
 20
283.04213244548532
 30
0.0
 40
9.5
  0
ARC
  5
2DC2
  8
AM_0
 10
1124.007302783094
 20
410.92796744548542
 30
0.0
 40
5.0
 50
270.0
 51
355.48385000000002
  0
ARC
  5
2DC3
  8
AM_0
 10
1094.6448627830939
 20
502.6148924454854
 30
0.0
 40
5.0
 50
40.031147999999973
 51
135.0
  0
LINE
  5
2DC4
  8
AM_0
 10
1052.4016327830941
 20
585.9279574454855
 30
0.0
 11
1138.9404227830951
 21
581.39265744548516
 31
0.0
  0
LINE
  5
2DC5
  8
AM_0
 10
942.40163278309478
 20
585.92800744548515
 30
0.0
 11
1052.4016027830951
 21
585.92800744548515
 31
0.0
  0
LINE
  5
2DC6
  8
AM_0
 10
942.40157278309482
 20
585.9279574454855
 30
0.0
 11
855.86278278309476
 21
581.39265744548516
 31
0.0
  0
ARC
  5
2DC7
  8
AM_0
 10
856.90953778309472
 20
561.42005744548544
 30
0.0
 40
20.000000499999999
 50
92.999999000000017
 51
176.99999
  0
ARC
  5
2DC8
  8
AM_0
 10
997.40163278309478
 20
588.9279574454855
 30
0.0
 40
5.0
 50
359.99998999999991
 51
179.99998999999991
  0
LINE
  5
2DC9
  8
AM_0
 10
992.40163278309478
 20
588.9279574454855
 30
0.0
 11
992.40163278309478
 21
585.92800744548515
 31
0.0
  0
LINE
  5
2DCA
  8
AM_0
 10
1002.401632783094
 20
588.9279574454855
 30
0.0
 11
1002.401632783094
 21
585.92800744548515
 31
0.0
  0
ARC
  5
2DCB
  8
AM_0
 10
1137.8937177830951
 20
561.42005744548544
 30
0.0
 40
20.000000499999999
 50
3.0000000999999981
 51
86.999998999999988
  0
LINE
  5
2DCC
  8
AM_0
 10
263.74627730906241
 20
864.94382100348002
 30
0.0
 11
205.74627730906241
 21
864.94382100348002
 31
0.0
  0
LINE
  5
2DCD
  8
AM_0
 10
205.74627730906241
 20
899.94382100347991
 30
0.0
 11
263.74627730906241
 21
899.94382100347991
 31
0.0
  0
LINE
  5
2DCE
  8
AM_0
 10
205.74627730906241
 20
887.44381600348015
 30
0.0
 11
250.74627730906241
 21
887.4438160034797
 31
0.0
  0
LINE
  5
2DCF
  8
AM_0
 10
205.74627730906241
 20
877.44381600348015
 30
0.0
 11
250.74627730906241
 21
877.44381600348015
 31
0.0
  0
LINE
  5
2DD0
  8
AM_0
 10
205.74627730906241
 20
864.94382100348002
 30
0.0
 11
205.74627730906241
 21
899.94382100347991
 31
0.0
  0
LINE
  5
2DD1
  8
AM_0
 10
344.24627730906252
 20
797.91813900347995
 30
0.0
 11
345.36769030906243
 21
785.10032300347984
 31
0.0
  0
LINE
  5
2DD2
  8
AM_0
 10
350.7818113090625
 20
771.90828700348004
 30
0.0
 11
301.60948130906252
 21
821.08061800348014
 31
0.0
  0
LINE
  5
2DD3
  8
AM_0
 10
348.35627530906248
 20
782.36179000348
 30
0.0
 11
372.24627730906252
 21
782.36179000348
 31
0.0
  0
ARC
  5
2DD4
  8
AM_0
 10
355.24627730906252
 20
765.44382100347991
 30
0.0
 40
3.0
 50
180.0
 51
270.0
  0
LINE
  5
2DD5
  8
AM_0
 10
352.24627730906252
 20
782.36180100347997
 30
0.0
 11
352.24627730906252
 21
765.44382100347991
 31
0.0
  0
ARC
  5
2DD6
  8
AM_0
 10
347.24627730906252
 20
768.37275400348005
 30
0.0
 40
5.0
 50
0.0
 51
45.0
  0
ARC
  5
2DD7
  8
AM_0
 10
348.35627530906248
 20
785.36179000348011
 30
0.0
 40
3.0
 50
184.99999999999969
 51
270.0
  0
LINE
  5
2DD8
  8
AM_0
 10
348.34401330906229
 20
785.27852300348002
 30
0.0
 11
348.30079730906249
 21
795.55813300347995
 31
0.0
  0
LINE
  5
2DD9
  8
AM_0
 10
370.24627730906252
 20
782.36179000348
 30
0.0
 11
370.24627730906252
 21
762.4438210034798
 31
0.0
  0
LINE
  5
2DDA
  8
AM_0
 10
355.24627730906252
 20
762.4438210034798
 30
0.0
 11
370.24627730906252
 21
762.4438210034798
 31
0.0
  0
LINE
  5
2DDB
  8
AM_0
 10
372.24627730906252
 20
764.44382100347991
 30
0.0
 11
370.24627730906252
 21
762.4438210034798
 31
0.0
  0
ARC
  5
2DDC
  8
AM_0
 10
294.53841330906232
 20
950.87809300347999
 30
0.0
 40
10.0
 50
270.99999999999841
 51
315.0
  0
LINE
  5
2DDD
  8
AM_0
 10
370.24627730906252
 20
952.16065800347985
 30
0.0
 11
370.24627730906252
 21
812.72697400348011
 31
0.0
  0
LINE
  5
2DDE
  8
AM_0
 10
352.24627730906252
 20
812.72697400348011
 30
0.0
 11
352.24627730906252
 21
952.16065800347985
 31
0.0
  0
LINE
  5
2DDF
  8
AM_0
 10
352.24627730906252
 20
897.44381600347981
 30
0.0
 11
370.24627730906252
 21
897.44381600347981
 31
0.0
  0
LINE
  5
2DE0
  8
AM_0
 10
370.24627730906252
 20
899.01861194694641
 30
0.0
 11
352.24627730906252
 21
899.01861194694641
 31
0.0
  0
LINE
  5
2DE1
  8
AM_0
 10
352.24627730906252
 20
867.44381600347992
 30
0.0
 11
370.24627730906252
 21
867.44381600347992
 31
0.0
  0
LINE
  5
2DE2
  8
AM_0
 10
370.24627730906252
 20
865.86902006001321
 30
0.0
 11
352.24627730906252
 21
865.86902006001321
 31
0.0
  0
LINE
  5
2DE3
  8
AM_0
 10
371.06606230906249
 20
812.72697400348011
 30
0.0
 11
345.28430830906228
 21
812.72697400348011
 31
0.0
  0
LINE
  5
2DE4
  8
AM_0
 10
348.29087630906241
 20
797.91813900347995
 30
0.0
 11
372.24627730906252
 21
797.91813900347995
 31
0.0
  0
LINE
  5
2DE5
  8
AM_0
 10
263.74627730906241
 20
902.44382100348002
 30
0.0
 11
263.74627730906241
 21
862.44382100347991
 31
0.0
  0
LINE
  5
2DE6
  8
AM_0
 10
267.74627730906241
 20
882.44382100347991
 30
0.0
 11
267.74627730906241
 21
847.44382100347991
 31
0.0
  0
LINE
  5
2DE7
  8
AM_0
 10
298.7525843090624
 20
826.27601100347999
 30
0.0
 11
298.7525843090624
 21
882.44382100347991
 31
0.0
  0
LINE
  5
2DE8
  8
AM_0
 10
269.74627730906241
 20
882.44382100347991
 30
0.0
 11
269.74627730906241
 21
827.39191300347954
 31
0.0
  0
ARC
  5
2DE9
  8
AM_0
 10
294.53841330906232
 20
814.00955000347994
 30
0.0
 40
10.0
 50
45.0
 51
89.000000000001506
  0
ARC
  5
2DEA
  8
AM_0
 10
272.74627730906252
 20
827.39191300347954
 30
0.0
 40
3.0
 50
180.0
 51
268.99999999999812
  0
LINE
  5
2DEB
  8
AM_0
 10
272.69392030906238
 20
824.39237000347964
 30
0.0
 11
294.71293730906223
 21
824.00802700347981
 31
0.0
  0
LINE
  5
2DEC
  8
AM_0
 10
267.74627730906241
 20
847.44382100347991
 30
0.0
 11
269.74627730906241
 21
845.44382100347991
 31
0.0
  0
LINE
  5
2DED
  8
AM_0
 10
263.74627730906241
 20
862.44382100347991
 30
0.0
 11
267.74627730906241
 21
862.44382100347991
 31
0.0
  0
ARC
  5
2DEE
  8
AM_0
 10
348.29087630906241
 20
800.91813900347995
 30
0.0
 40
3.0
 50
184.99999999999969
 51
270.0
  0
LINE
  5
2DEF
  8
AM_0
 10
344.24627730906252
 20
812.72697400348011
 30
0.0
 11
345.30229130906241
 21
800.65667200348003
 31
0.0
  0
LINE
  5
2DF0
  8
AM_0
 10
269.74627730906241
 20
882.44382100347991
 30
0.0
 11
269.74627730906241
 21
937.49573000347982
 31
0.0
  0
LINE
  5
2DF1
  8
AM_0
 10
267.74627730906241
 20
882.44382100347991
 30
0.0
 11
267.74627730906241
 21
917.4438210034798
 31
0.0
  0
LINE
  5
2DF2
  8
AM_0
 10
298.7525843090624
 20
938.61163200347994
 30
0.0
 11
298.7525843090624
 21
882.44382100347991
 31
0.0
  0
LINE
  5
2DF3
  8
AM_0
 10
250.74627730906241
 20
887.44381600348015
 30
0.0
 11
250.74627730906241
 21
877.44381600348015
 31
0.0
  0
ARC
  5
2DF4
  8
AM_0
 10
250.74627730906241
 20
882.44381600348004
 30
0.0
 40
5.0
 50
270.0
 51
90.0
  0
LINE
  5
2DF5
  8
AM_0
 10
263.74627730906241
 20
902.44382100348002
 30
0.0
 11
267.74627730906241
 21
902.44382100348002
 31
0.0
  0
ARC
  5
2DF6
  8
AM_0
 10
272.74627730906252
 20
937.49573000347982
 30
0.0
 40
3.0
 50
90.999999999998494
 51
180.0
  0
LINE
  5
2DF7
  8
AM_0
 10
267.74627730906241
 20
917.4438210034798
 30
0.0
 11
269.74627730906241
 21
919.44382100348002
 31
0.0
  0
LINE
  5
2DF8
  8
AM_0
 10
272.69392030906238
 20
940.49527300347995
 30
0.0
 11
294.71293730906223
 21
940.87961600348024
 31
0.0
  0
ARC
  5
2DF9
  8
AM_0
 10
355.24627730906252
 20
999.44381100348005
 30
0.0
 40
3.0
 50
90.0
 51
180.0
  0
LINE
  5
2DFA
  8
AM_0
 10
348.35627530906248
 20
982.52584200348008
 30
0.0
 11
372.24627730906252
 21
982.52584200348008
 31
0.0
  0
LINE
  5
2DFB
  8
AM_0
 10
348.29087630906241
 20
966.96949300348001
 30
0.0
 11
372.24627730906252
 21
966.96949300348001
 31
0.0
  0
LINE
  5
2DFC
  8
AM_0
 10
371.06606230906249
 20
952.16065800347985
 30
0.0
 11
345.28430830906228
 21
952.16065800347985
 31
0.0
  0
LINE
  5
2DFD
  8
AM_0
 10
344.24627730906252
 20
966.96949300348001
 30
0.0
 11
345.36769030906243
 21
979.78730900348012
 31
0.0
  0
LINE
  5
2DFE
  8
AM_0
 10
348.34401330906229
 20
979.60910900348006
 30
0.0
 11
348.30079730906249
 21
969.32949900348001
 31
0.0
  0
LINE
  5
2DFF
  8
AM_0
 10
350.7818113090625
 20
992.97935500348012
 30
0.0
 11
301.60948130906252
 21
943.80702500347991
 31
0.0
  0
LINE
  5
2E00
  8
AM_0
 10
344.24627730906252
 20
952.16065800347985
 30
0.0
 11
345.30229130906241
 21
964.23096000348005
 31
0.0
  0
ARC
  5
2E01
  8
AM_0
 10
348.29087630906241
 20
963.96949300348012
 30
0.0
 40
3.0
 50
90.0
 51
175.00000000000011
  0
ARC
  5
2E02
  8
AM_0
 10
347.24627730906252
 20
996.51487800348002
 30
0.0
 40
5.0
 50
315.0
 51
0.0
  0
LINE
  5
2E03
  8
AM_0
 10
352.24627730906252
 20
999.44381100348005
 30
0.0
 11
352.24627730906252
 21
982.52584200348008
 31
0.0
  0
ARC
  5
2E04
  8
AM_0
 10
348.35627530906248
 20
979.52584200347997
 30
0.0
 40
3.0
 50
90.0
 51
175.00000000000011
  0
LINE
  5
2E05
  8
AM_0
 10
370.24627730906252
 20
982.52584200348008
 30
0.0
 11
370.24627730906252
 21
1002.443811003479
 31
0.0
  0
LINE
  5
2E06
  8
AM_0
 10
355.24627730906252
 20
1002.443811003479
 30
0.0
 11
370.24627730906252
 21
1002.443811003479
 31
0.0
  0
LINE
  5
2E07
  8
AM_0
 10
372.24627730906252
 20
1000.443811003479
 30
0.0
 11
370.24627730906252
 21
1002.443811003479
 31
0.0
  0
LINE
  5
2E09
  8
AM_0
 10
579.07183730906252
 20
718.04354600347995
 30
0.0
 11
596.24633730906226
 21
717.44381600348004
 31
0.0
  0
LINE
  5
2E0A
  8
AM_0
 10
579.07189730906236
 20
1046.84401600348
 30
0.0
 11
596.24633730906226
 21
1047.4438160034799
 31
0.0
  0
LINE
  5
2E0B
  8
ﾁｭｳｼﾝｾﾝ
 10
197.0964701508322
 20
882.44381600348004
 30
0.0
 11
696.86346730906234
 21
882.44381600348004
 31
0.0
  0
POLYLINE
  5
2E0C
  8
AM_0
 66
     1
 10
0.0
 20
0.0
 30
0.0
  0
VERTEX
  5
2E0D
  8
AM_0
 10
562.1491073090624
 20
968.83206600348012
 30
0.0
 42
0.01720808
  0
VERTEX
  5
2E0E
  8
AM_0
 10
557.73283730906235
 20
911.45687600347992
 30
0.0
 42
0.0088311605
  0
VERTEX
  5
2E0F
  8
AM_0
 10
557.01598730906255
 20
882.44381600348004
 30
0.0
 42
0.025919753
  0
VERTEX
  5
2E10
  8
AM_0
 10
560.88481730906256
 20
796.48012600348011
 30
0.0
  0
SEQEND
  5
2E11
  8
AM_0
  0
ARC
  5
2E12
  8
AM_0
 10
453.24627730906252
 20
882.44381600348004
 30
0.0
 40
5.0
 50
270.0
 51
90.00000299999769
  0
ARC
  5
2E13
  8
AM_0
 10
413.24627730906252
 20
882.44381600348004
 30
0.0
 40
5.0
 50
90.00000299999769
 51
270.0
  0
LINE
  5
2E14
  8
AM_0
 10
583.24633730906226
 20
1006.79293600348
 30
0.0
 11
583.24633730906226
 21
758.09469600347995
 31
0.0
  0
LINE
  5
2E15
  8
AM_0
 10
574.24627730906252
 20
1041.84707600348
 30
0.0
 11
574.24627730906252
 21
723.04055600347999
 31
0.0
  0
LINE
  5
2E16
  8
AM_0
 10
372.24627730906252
 20
1002.44381600348
 30
0.0
 11
372.24627730906252
 21
762.44381600348004
 31
0.0
  0
LINE
  5
2E17
  8
AM_0
 10
385.2462173090625
 20
1000.44381600348
 30
0.0
 11
385.2462173090625
 21
764.44381600348004
 31
0.0
  0
LINE
  5
2E18
  8
AM_0
 10
372.24627730906252
 20
762.44381600348004
 30
0.0
 11
383.24627730906252
 21
762.44381600348004
 31
0.0
  0
LINE
  5
2E19
  8
AM_0
 10
372.24627730906252
 20
782.7165760034801
 30
0.0
 11
383.24627730906252
 21
782.7165760034801
 31
0.0
  0
LINE
  5
2E1A
  8
AM_0
 10
372.24627730906252
 20
798.27291600348042
 30
0.0
 11
383.24627730906252
 21
798.27291600348042
 31
0.0
  0
LINE
  5
2E1B
  8
AM_0
 10
373.22515730906252
 20
808.00686600348001
 30
0.0
 11
384.25402730906251
 21
808.00686600348001
 31
0.0
  0
ARC
  5
2E1C
  8
AM_0
 10
579.24627730906252
 20
723.04055600347999
 30
0.0
 40
5.0
 50
179.9999899999988
 51
268.00000999999861
  0
LINE
  5
2E1D
  8
AM_0
 10
451.24627730906252
 20
749.44375600348019
 30
0.0
 11
567.40301730906253
 21
745.38747600347995
 31
0.0
  0
LINE
  5
2E1E
  8
AM_0
 10
431.74627730906252
 20
782.01485600348019
 30
0.0
 11
431.74627730906252
 21
863.52950600348015
 31
0.0
  0
LINE
  5
2E1F
  8
AM_0
 10
441.2462173090625
 20
752.69008600348002
 30
0.0
 11
441.2462173090625
 21
859.44381600347992
 31
0.0
  0
LINE
  5
2E20
  8
AM_0
 10
451.24627730906252
 20
877.44381600348015
 30
0.0
 11
451.24627730906252
 21
749.44381600348004
 31
0.0
  0
LINE
  5
2E21
  8
AM_0
 10
385.2462173090625
 20
795.76888600348002
 30
0.0
 11
431.74627730906252
 21
795.76888600348002
 31
0.0
  0
LINE
  5
2E22
  8
AM_0
 10
387.24627730906252
 20
770.44381600348004
 30
0.0
 11
439.2462173090625
 21
770.44381600348004
 31
0.0
  0
ARC
  5
2E23
  8
AM_0
 10
387.24627730906252
 20
768.44381600348004
 30
0.0
 40
2.0
 50
90.00000299999769
 51
180.00001000000091
  0
ARC
  5
2E24
  8
AM_0
 10
383.24627730906252
 20
764.44381600348004
 30
0.0
 40
2.0
 50
269.999989999999
 51
0.0000006832495047
  0
ARC
  5
2E25
  8
AM_0
 10
383.24627730906252
 20
784.71651600348002
 30
0.0
 40
2.0
 50
269.999989999999
 51
0.0000006832495047
  0
ARC
  5
2E26
  8
AM_0
 10
383.24627730906252
 20
800.27291600347996
 30
0.0
 40
2.0
 50
269.999989999999
 51
0.0000006832495047
  0
ARC
  5
2E27
  8
AM_0
 10
439.2462173090625
 20
768.44381600348004
 30
0.0
 40
2.0
 50
0.0
 51
90.00000299999769
  0
ARC
  5
2E28
  8
AM_0
 10
436.24621730906262
 20
768.37276600348002
 30
0.0
 40
5.0
 50
0.0
 51
44.999998000001611
  0
ARC
  5
2E29
  8
AM_0
 10
444.2462173090625
 20
752.69008600348002
 30
0.0
 40
3.0
 50
180.00001000000091
 51
268.00000000000261
  0
LINE
  5
2E2A
  8
AM_0
 10
451.24627730906252
 20
749.44381600348004
 30
0.0
 11
444.14153730906253
 21
749.69191600347995
 31
0.0
  0
ARC
  5
2E2B
  8
AM_0
 10
436.74627730906252
 20
782.01485600348019
 30
0.0
 40
5.0
 50
180.00001000000091
 51
225.0
  0
LINE
  5
2E2C
  8
AM_0
 10
439.78173730906241
 20
771.90828600348004
 30
0.0
 11
433.21068730906262
 21
778.47927600347998
 31
0.0
  0
ARC
  5
2E2D
  8
AM_0
 10
433.24627730906229
 20
882.44381600348004
 30
0.0
 40
15.0
 50
199.4712300000005
 51
269.99984999999782
  0
ARC
  5
2E2E
  8
AM_0
 10
433.24627730906229
 20
882.44381600348004
 30
0.0
 40
12.5
 50
203.5781799999973
 51
336.42183000000068
  0
LINE
  5
2E2F
  8
AM_0
 10
385.2462173090625
 20
811.51095600348015
 30
0.0
 11
431.74627730906252
 21
811.51095600348015
 31
0.0
  0
LINE
  5
2E30
  8
AM_0
 10
413.24627730906252
 20
877.44381600348015
 30
0.0
 11
453.24627730906252
 21
877.44381600348015
 31
0.0
  0
ARC
  5
2E31
  8
AM_0
 10
426.74627730906252
 20
863.52950600348015
 30
0.0
 40
5.0
 50
0.0
 51
71.034342999998159
  0
ARC
  5
2E32
  8
AM_0
 10
433.24621730906227
 20
859.44381600347992
 30
0.0
 40
8.0
 50
0.0
 51
89.999858999997556
  0
ARC
  5
2E33
  8
AM_0
 10
575.24627730906252
 20
816.10714600348012
 30
0.0
 40
8.0
 50
270.0
 51
0.0
  0
LINE
  5
2E34
  8
AM_0
 10
536.17547730906222
 20
794.79329600348012
 30
0.0
 11
571.74450730906256
 21
773.26687600347998
 31
0.0
  0
LINE
  5
2E35
  8
AM_0
 10
536.1846873090625
 20
796.5702760034801
 30
0.0
 11
559.93950730906249
 21
796.5702760034801
 31
0.0
  0
LINE
  5
2E36
  8
AM_0
 10
533.5958873090625
 20
785.07973600348009
 30
0.0
 11
571.83513730906247
 21
761.93728600348004
 31
0.0
  0
ARC
  5
2E37
  8
AM_0
 10
536.1846873090625
 20
789.3573860034802
 30
0.0
 40
5.0
 50
179.9999899999988
 51
238.81764999999689
  0
ARC
  5
2E38
  8
AM_0
 10
536.1846873090625
 20
791.57027600347999
 30
0.0
 40
5.0
 50
90.00000299999769
 51
180.00001000000091
  0
LINE
  5
2E39
  8
AM_0
 10
531.18468730906227
 20
789.3573860034802
 30
0.0
 11
531.18468730906227
 21
791.57027600347999
 31
0.0
  0
POLYLINE
  5
2E3A
  8
AM_0
 66
     1
 10
0.0
 20
0.0
 30
0.0
  0
VERTEX
  5
2E3B
  8
AM_0
 10
564.32981730906249
 20
766.47951600347994
 30
0.0
 42
0.0020909347
  0
VERTEX
  5
2E3C
  8
AM_0
 10
565.29566730906254
 20
759.4390060034799
 30
0.0
 42
0.0020881749
  0
VERTEX
  5
2E3D
  8
AM_0
 10
566.32024730906255
 20
752.40738600348004
 30
0.0
 42
0.0020849591
  0
VERTEX
  5
2E3E
  8
AM_0
 10
567.40301730906253
 20
745.38753600348002
 30
0.0
  0
SEQEND
  5
2E3F
  8
AM_0
  0
ARC
  5
2E40
  8
AM_0
 10
575.24627730906252
 20
758.09469600347995
 30
0.0
 40
8.0
 50
270.0
 51
0.0
  0
ARC
  5
2E41
  8
AM_0
 10
567.22851730906245
 20
740.39058600348005
 30
0.0
 40
5.0
 50
45.000001000003799
 51
88.000000000002785
  0
LINE
  5
2E42
  8
AM_0
 10
570.76409730906255
 20
743.9260560034802
 30
0.0
 11
574.24633730906237
 21
740.44381600348004
 31
0.0
  0
ARC
  5
2E43
  8
AM_0
 10
569.24627730906252
 20
757.65969600348012
 30
0.0
 40
5.0
 50
0.0
 51
58.817640999998339
  0
LINE
  5
2E44
  8
AM_0
 10
562.89641730906249
 20
795.60213600348004
 30
0.0
 11
574.24633730906237
 21
787.27834600348012
 31
0.0
  0
ARC
  5
2E45
  8
AM_0
 10
559.93950730906249
 20
791.57027600347999
 30
0.0
 40
5.0
 50
53.744453000003212
 51
90.00000299999769
  0
LINE
  5
2E46
  8
AM_0
 10
372.24627730906252
 20
1002.44381600348
 30
0.0
 11
383.24627730906252
 21
1002.44381600348
 31
0.0
  0
LINE
  5
2E47
  8
AM_0
 10
373.22515730906252
 20
956.88076600348006
 30
0.0
 11
384.25402730906251
 21
956.88076600348006
 31
0.0
  0
LINE
  5
2E48
  8
AM_0
 10
372.24627730906252
 20
982.17098600348004
 30
0.0
 11
383.24627730906252
 21
982.17098600348004
 31
0.0
  0
LINE
  5
2E49
  8
AM_0
 10
372.24627730906252
 20
966.61464600347995
 30
0.0
 11
383.24627730906252
 21
966.61464600347995
 31
0.0
  0
LINE
  5
2E4A
  8
AM_0
 10
451.24627730906252
 20
1015.44375600348
 30
0.0
 11
567.40301730906253
 21
1019.50002600348
 31
0.0
  0
LINE
  5
2E4B
  8
AM_0
 10
431.74627730906252
 20
901.3580560034801
 30
0.0
 11
431.74627730906252
 21
982.87276600348002
 31
0.0
  0
LINE
  5
2E4C
  8
AM_0
 10
441.2462173090625
 20
905.44381600348004
 30
0.0
 11
441.2462173090625
 21
1012.19753600348
 31
0.0
  0
LINE
  5
2E4D
  8
AM_0
 10
451.24627730906252
 20
1015.443816003479
 30
0.0
 11
451.24627730906252
 21
887.44381600348015
 31
0.0
  0
ARC
  5
2E4E
  8
AM_0
 10
433.24627730906229
 20
882.44381600348004
 30
0.0
 40
12.5
 50
23.578179999997531
 51
156.42182000000241
  0
ARC
  5
2E4F
  8
AM_0
 10
433.24627730906229
 20
882.44381600348004
 30
0.0
 40
15.0
 50
90.000146000002943
 51
160.52876999999901
  0
LINE
  5
2E50
  8
AM_0
 10
385.2462173090625
 20
953.37661600348008
 30
0.0
 11
431.74627730906252
 21
953.37661600348008
 31
0.0
  0
LINE
  5
2E51
  8
AM_0
 10
413.24627730906252
 20
887.44381600348015
 30
0.0
 11
453.24627730906252
 21
887.44381600348015
 31
0.0
  0
ARC
  5
2E52
  8
AM_0
 10
433.24621730906227
 20
905.44381600348004
 30
0.0
 40
8.0
 50
270.0001500000019
 51
0.0
  0
ARC
  5
2E53
  8
AM_0
 10
426.74627730906252
 20
901.3580560034801
 30
0.0
 40
5.0
 50
288.96566000000053
 51
0.0
  0
LINE
  5
2E54
  8
AM_0
 10
385.2462173090625
 20
969.11867600348035
 30
0.0
 11
431.74627730906252
 21
969.11867600348035
 31
0.0
  0
LINE
  5
2E55
  8
AM_0
 10
387.24627730906252
 20
994.44375600348008
 30
0.0
 11
439.2462173090625
 21
994.44375600348008
 31
0.0
  0
ARC
  5
2E56
  8
AM_0
 10
383.24627730906252
 20
1000.44381600348
 30
0.0
 40
2.0
 50
0.0
 51
90.00000299999769
  0
ARC
  5
2E57
  8
AM_0
 10
383.24627730906252
 20
980.17098600348015
 30
0.0
 40
2.0
 50
0.0
 51
90.00000299999769
  0
ARC
  5
2E58
  8
AM_0
 10
383.24627730906252
 20
964.61458600348033
 30
0.0
 40
2.0
 50
0.0
 51
90.00000299999769
  0
ARC
  5
2E59
  8
AM_0
 10
387.24627730906252
 20
996.44375600347996
 30
0.0
 40
2.0
 50
179.9999899999988
 51
270.0
  0
ARC
  5
2E5A
  8
AM_0
 10
439.2462173090625
 20
996.44375600347996
 30
0.0
 40
2.0
 50
270.0
 51
0.0
  0
ARC
  5
2E5B
  8
AM_0
 10
436.24621730906262
 20
996.5148560034803
 30
0.0
 40
5.0
 50
315.0
 51
0.0
  0
ARC
  5
2E5C
  8
AM_0
 10
436.74627730906252
 20
982.87276600348002
 30
0.0
 40
5.0
 50
135.0
 51
180.00001000000091
  0
LINE
  5
2E5D
  8
AM_0
 10
433.2107573090625
 20
986.40828600348004
 30
0.0
 11
439.78179730906231
 21
992.97933600347994
 31
0.0
  0
ARC
  5
2E5E
  8
AM_0
 10
444.2462173090625
 20
1012.19753600348
 30
0.0
 40
3.0
 50
91.999998000000545
 51
180.00001000000091
  0
LINE
  5
2E5F
  8
AM_0
 10
451.24621730906227
 20
1015.443816003479
 30
0.0
 11
444.14153730906253
 21
1015.19570600348
 31
0.0
  0
ARC
  5
2E60
  8
AM_0
 10
575.24627730906252
 20
948.78042600348033
 30
0.0
 40
8.0
 50
0.0
 51
90.00000299999769
  0
LINE
  5
2E61
  8
AM_0
 10
533.59582730906254
 20
979.80782600348005
 30
0.0
 11
571.83507730906251
 21
1002.95028600348
 31
0.0
  0
LINE
  5
2E62
  8
AM_0
 10
536.17541730906225
 20
970.09420600348005
 30
0.0
 11
571.74450730906256
 21
991.62063600347994
 31
0.0
  0
LINE
  5
2E63
  8
AM_0
 10
536.1846873090625
 20
968.31734600348034
 30
0.0
 11
559.93950730906249
 21
968.31734600348034
 31
0.0
  0
ARC
  5
2E64
  8
AM_0
 10
536.1846873090625
 20
973.31734600348022
 30
0.0
 40
5.0
 50
179.9999899999988
 51
270.0
  0
ARC
  5
2E65
  8
AM_0
 10
536.1846873090625
 20
975.53017600348005
 30
0.0
 40
5.0
 50
121.18235999999619
 51
180.00001000000091
  0
LINE
  5
2E66
  8
AM_0
 10
531.18468730906227
 20
975.53017600348005
 30
0.0
 11
531.18468730906227
 21
973.31734600348022
 31
0.0
  0
POLYLINE
  5
2E67
  8
AM_0
 66
     1
 10
0.0
 20
0.0
 30
0.0
  0
VERTEX
  5
2E68
  8
AM_0
 10
569.37139730906222
 20
1019.56881600348
 30
0.0
  0
VERTEX
  5
2E69
  8
AM_0
 10
566.14113730906251
 20
999.50430600348011
 30
0.0
 42
-1.0
  0
SEQEND
  5
2E6A
  8
AM_0
  0
LINE
  5
2E6B
  8
AM_0
 10
562.89648730906254
 20
969.28536600347991
 30
0.0
 11
574.24633730906237
 21
977.60909600348009
 31
0.0
  0
ARC
  5
2E6C
  8
AM_0
 10
559.93950730906249
 20
973.31734600348022
 30
0.0
 40
5.0
 50
270.0
 51
306.25554999999889
  0
LINE
  5
2E6D
  8
AM_0
 10
570.76409730906255
 20
1020.96145600348
 30
0.0
 11
574.24639730906233
 21
1024.44368600348
 31
0.0
  0
ARC
  5
2E6E
  8
AM_0
 10
575.24627730906252
 20
1006.79293600348
 30
0.0
 40
8.0
 50
0.0
 51
90.00000299999769
  0
ARC
  5
2E6F
  8
AM_0
 10
569.24627730906252
 20
1007.22786600348
 30
0.0
 40
5.0
 50
301.18235999999632
 51
0.0
  0
ARC
  5
2E70
  8
AM_0
 10
567.22851730906245
 20
1024.4970360034799
 30
0.0
 40
5.0
 50
271.9999999999971
 51
315.0
  0
ARC
  5
2E71
  8
AM_0
 10
579.24627730906252
 20
1041.84707600348
 30
0.0
 40
5.0
 50
91.999998000000545
 51
180.00001000000091
  0
ARC
  5
2E72
  8
AM_0
 10
624.24627730906252
 20
882.44375600348019
 30
0.0
 40
8.0000113999999982
 50
90.00000299999769
 51
270.0
  0
LINE
  5
2E73
  8
AM_0
 10
601.24627730906252
 20
1022.44381600348
 30
0.0
 11
601.24627730906252
 21
742.44381600348004
 31
0.0
  0
LINE
  5
2E74
  8
AM_0
 10
596.24627730906252
 20
1047.4438160034799
 30
0.0
 11
596.24627730906252
 21
717.44375600347996
 31
0.0
  0
LINE
  5
2E75
  8
AM_0
 10
686.24621730906233
 20
909.94381600348004
 30
0.0
 11
686.24621730906233
 21
854.94381600347992
 31
0.0
  0
LINE
  5
2E76
  8
AM_0
 10
624.24621730906233
 20
890.44375600348042
 30
0.0
 11
624.24621730906233
 21
874.44375600348019
 31
0.0
  0
LINE
  5
2E77
  8
AM_0
 10
604.24621730906233
 20
912.44381600348015
 30
0.0
 11
604.24621730906233
 21
852.44381600348015
 31
0.0
  0
LINE
  5
2E78
  8
AM_0
 10
596.24627730906252
 20
742.44381600348004
 30
0.0
 11
601.24627730906252
 21
742.44381600348004
 31
0.0
  0
LINE
  5
2E79
  8
AM_0
 10
604.24621730906233
 20
854.94381600347992
 30
0.0
 11
686.24621730906233
 21
854.94381600347992
 31
0.0
  0
LINE
  5
2E7A
  8
AM_0
 10
624.24627730906252
 20
874.44375600348019
 30
0.0
 11
686.24621730906233
 21
874.44375600348019
 31
0.0
  0
LINE
  5
2E7B
  8
AM_0
 10
601.24627730906252
 20
852.44381600348015
 30
0.0
 11
604.24621730906233
 21
852.44381600348015
 31
0.0
  0
LINE
  5
2E7C
  8
AM_0
 10
604.24621730906233
 20
909.94381600348004
 30
0.0
 11
686.24621730906233
 21
909.94381600348004
 31
0.0
  0
LINE
  5
2E7D
  8
AM_0
 10
624.24627730906252
 20
890.44375600348042
 30
0.0
 11
686.24621730906233
 21
890.44375600348042
 31
0.0
  0
LINE
  5
2E7E
  8
AM_0
 10
601.24627730906252
 20
912.44381600348015
 30
0.0
 11
604.24621730906233
 21
912.44381600348015
 31
0.0
  0
LINE
  5
2E7F
  8
AM_0
 10
596.24627730906252
 20
1022.44381600348
 30
0.0
 11
601.24627730906252
 21
1022.44381600348
 31
0.0
  0
ARC
  5
2E80
  8
ﾁｭｳｼﾝｾﾝ1
 10
997.40163278309478
 20
420.92796744548548
 30
0.0
 40
195.0000049999999
 50
129.10381099999981
 51
140.63278099999999
  0
LINE
  5
2E81
  8
ﾁｭｳｼﾝｾﾝ1
 10
874.8231527830942
 20
543.50640744548548
 30
0.0
 11
845.28512778309414
 21
573.04445744548525
 31
0.0
  0
ARC
  5
2E82
  8
ﾁｭｳｼﾝｾﾝ1
 10
997.40163278309478
 20
420.92796744548548
 30
0.0
 40
195.0000049999999
 50
307.87114000000008
 51
321.83467999999988
  0
LINE
  5
2E83
  8
ﾁｭｳｼﾝｾﾝ1
 10
1119.0781177830941
 20
299.25148244548541
 30
0.0
 11
1149.518202783094
 21
268.8114224454855
 31
0.0
  0
TEXT
  5
3067
  8
AM_0
 10
837.32358516136708
 20
923.41649487384518
 30
0.0
 40
20.0
  1
VX55-015GF~VX55-030GF
  0
ENDSEC
  0
EOF
