  0
SECTION
  2
HEADER
  9
$ACADVER
  1
AC1009
  9
$INSBASE
 10
0.0
 20
0.0
 30
0.0
  9
$EXTMIN
 10
254.9456219469962
 20
267.68188224288269
 30
-0.0000000000112498
  9
$EXTMAX
 10
1369.355945353811
 20
1171.73212355642
 30
0.0000000000002956
  9
$LIMMIN
 10
0.0
 20
0.0
  9
$LIMMAX
 10
1707.0
 20
1110.0
  9
$ORTHOMODE
 70
     0
  9
$REGENMODE
 70
     1
  9
$FILLMODE
 70
     1
  9
$QTEXTMODE
 70
     0
  9
$MIRRTEXT
 70
     1
  9
$DRAGMODE
 70
     2
  9
$LTSCALE
 40
6.0
  9
$OSMODE
 70
   551
  9
$ATTMODE
 70
     1
  9
$TEXTSIZE
 40
2.5
  9
$TRACEWID
 40
1.0
  9
$TEXTSTYLE
  7
STANDARD
  9
$CLAYER
  8
AM_0
  9
$CELTYPE
  6
BYLAYER
  9
$CECOLOR
 62
   256
  9
$DIMSCALE
 40
1.0
  9
$DIMASZ
 40
2.5
  9
$DIMEXO
 40
1.0
  9
$DIMDLI
 40
8.0
  9
$DIMRND
 40
0.0
  9
$DIMDLE
 40
0.0
  9
$DIMEXE
 40
0.6
  9
$DIMTP
 40
0.1
  9
$DIMTM
 40
0.1
  9
$DIMTXT
 40
2.5
  9
$DIMCEN
 40
0.0
  9
$DIMTSZ
 40
0.0
  9
$DIMTOL
 70
     0
  9
$DIMLIM
 70
     0
  9
$DIMTIH
 70
     0
  9
$DIMTOH
 70
     0
  9
$DIMSE1
 70
     0
  9
$DIMSE2
 70
     0
  9
$DIMTAD
 70
     1
  9
$DIMZIN
 70
     8
  9
$DIMBLK
  1

  9
$DIMASO
 70
     1
  9
$DIMSHO
 70
     1
  9
$DIMPOST
  1

  9
$DIMAPOST
  1
"
  9
$DIMALT
 70
     0
  9
$DIMALTD
 70
     2
  9
$DIMALTF
 40
0.0393701
  9
$DIMLFAC
 40
1.0
  9
$DIMTOFL
 70
     1
  9
$DIMTVP
 40
0.0
  9
$DIMTIX
 70
     0
  9
$DIMSOXD
 70
     0
  9
$DIMSAH
 70
     0
  9
$DIMBLK1
  1

  9
$DIMBLK2
  1

  9
$DIMSTYLE
  2
AM_ISO
  9
$DIMCLRD
 70
   256
  9
$DIMCLRE
 70
   256
  9
$DIMCLRT
 70
     4
  9
$DIMTFAC
 40
0.71
  9
$DIMGAP
 40
0.8
  9
$LUNITS
 70
     2
  9
$LUPREC
 70
     2
  9
$SKETCHINC
 40
1.0
  9
$FILLETRAD
 40
30.0
  9
$AUNITS
 70
     0
  9
$AUPREC
 70
     0
  9
$MENU
  1
.
  9
$ELEVATION
 40
0.0
  9
$PELEVATION
 40
0.0
  9
$THICKNESS
 40
0.0
  9
$LIMCHECK
 70
     0
  9
$BLIPMODE
 70
     0
  9
$CHAMFERA
 40
12.0
  9
$CHAMFERB
 40
6.0
  9
$SKPOLY
 70
     0
  9
$TDCREATE
 40
2452066.7877873611
  9
$TDUPDATE
 40
2458541.451766945
  9
$TDINDWG
 40
0.0725512616
  9
$TDUSRTIMER
 40
0.07255125
  9
$USRTIMER
 70
     1
  9
$ANGBASE
 50
0.0
  9
$ANGDIR
 70
     0
  9
$PDMODE
 70
     0
  9
$PDSIZE
 40
0.0
  9
$PLINEWID
 40
0.0
  9
$COORDS
 70
     1
  9
$SPLFRAME
 70
     0
  9
$SPLINETYPE
 70
     6
  9
$SPLINESEGS
 70
     8
  9
$ATTDIA
 70
     1
  9
$ATTREQ
 70
     1
  9
$HANDLING
 70
     1
  9
$HANDSEED
  5
314C
  9
$SURFTAB1
 70
     6
  9
$SURFTAB2
 70
     6
  9
$SURFTYPE
 70
     6
  9
$SURFU
 70
     6
  9
$SURFV
 70
     6
  9
$UCSNAME
  2

  9
$UCSORG
 10
0.0
 20
0.0
 30
0.0
  9
$UCSXDIR
 10
1.0
 20
0.0
 30
0.0
  9
$UCSYDIR
 10
0.0
 20
1.0
 30
0.0
  9
$PUCSNAME
  2

  9
$PUCSORG
 10
0.0
 20
0.0
 30
0.0
  9
$PUCSXDIR
 10
1.0
 20
0.0
 30
0.0
  9
$PUCSYDIR
 10
0.0
 20
1.0
 30
0.0
  9
$USERI1
 70
     0
  9
$USERI2
 70
     0
  9
$USERI3
 70
     0
  9
$USERI4
 70
     0
  9
$USERI5
 70
     0
  9
$USERR1
 40
0.0
  9
$USERR2
 40
0.0
  9
$USERR3
 40
0.0
  9
$USERR4
 40
0.0
  9
$USERR5
 40
0.0
  9
$WORLDVIEW
 70
     1
  9
$SHADEDGE
 70
     3
  9
$SHADEDIF
 70
    70
  9
$TILEMODE
 70
     1
  9
$MAXACTVP
 70
    64
  9
$PLIMCHECK
 70
     0
  9
$PEXTMIN
 10
1.0000000000000000E+020
 20
1.0000000000000000E+020
 30
1.0000000000000000E+020
  9
$PEXTMAX
 10
-1.0000000000000000E+020
 20
-1.0000000000000000E+020
 30
-1.0000000000000000E+020
  9
$PLIMMIN
 10
0.0
 20
0.0
  9
$PLIMMAX
 10
420.0
 20
297.0
  9
$UNITMODE
 70
     0
  9
$VISRETAIN
 70
     1
  9
$PLINEGEN
 70
     0
  9
$PSLTSCALE
 70
     1
  0
ENDSEC
  0
SECTION
  2
TABLES
  0
TABLE
  2
VPORT
 70
     1
  0
VPORT
  2
*ACTIVE
 70
     0
 10
0.0
 20
0.0
 11
1.0
 21
1.0
 12
812.15078365040347
 22
719.70700289965134
 13
0.0
 23
0.0
 14
15.0
 24
15.0
 15
60.0
 25
60.0
 16
0.0
 26
0.0
 36
1.0
 17
0.0
 27
0.0
 37
0.0
 40
910.2565358763303
 41
1.7571592210767459
 42
50.0
 43
0.0
 44
0.0
 50
0.0
 51
0.0
 71
     0
 72
   100
 73
     1
 74
     3
 75
     0
 76
     0
 77
     0
 78
     0
  0
ENDTAB
  0
TABLE
  2
LTYPE
 70
    26
  0
LTYPE
  2
CONTINUOUS
 70
     0
  3
Solid line
 72
    65
 73
     0
 40
0.0
  0
LTYPE
  2
AM_ISO02W050
 70
     0
  3
__ __ __ __ __ __ __ __ __ __ __ __ __ __ __
 72
    65
 73
     2
 40
7.5
 49
6.0
 49
-1.5
  0
LTYPE
  2
AM_ISO08W050
 70
     0
  3
____ . ____ . ____ . ____ . ____ . ____ . ____
 72
    65
 73
     4
 40
18.0
 49
12.0
 49
-1.5
 49
3.0
 49
-1.5
  0
LTYPE
  2
AM_ISO09W050
 70
     0
  3
_____ . . _____ . . _____ . . ____ .. ____
 72
    65
 73
     6
 40
22.5
 49
12.0
 49
-1.5
 49
3.0
 49
-1.5
 49
3.0
 49
-1.5
  0
LTYPE
  2
AMCONSTR
 70
     0
  3
_______________________
 72
    65
 73
     2
 40
9999.0
 49
9999.0
 49
0.0
  0
LTYPE
  2
AM_ISO08W050X2
 70
     0
  3
__ . __ . __ . __ . __ . __
 72
    65
 73
     4
 40
9.0
 49
6.0
 49
-0.75
 49
1.5
 49
-0.75
  0
LTYPE
  2
AM_ISO02W050X2
 70
     0
  3
 _ _ _ _ _ _ _ _ _ _ _ _
 72
    65
 73
     2
 40
3.75
 49
3.0
 49
-0.75
  0
LTYPE
  2
AMZIGZAG
 70
     0
  3
/\/-/\/-/\/-/\/-/\/-/\/
 72
    65
 73
     2
 40
11.000099999999991
 49
0.0001
 49
-11.0
  0
LTYPE
  2
ACISOWELD
 70
     0
  3
_ _ _ _ _
 72
    65
 73
     2
 40
2.0
 49
2.0
 49
-1.0
  0
LTYPE
  2
ACISOTGB
 70
     0
  3
__ . . __ . .
 72
    65
 73
     6
 40
9.0
 49
4.0
 49
-1.0
 49
1.0
 49
-1.0
 49
1.0
 49
-1.0
  0
LTYPE
  2
ACISOTGL
 70
     0
  3
_ _ _ _ _
 72
    65
 73
     2
 40
3.0
 49
2.0
 49
-1.0
  0
LTYPE
  2
CENTER
 70
     0
  3
__ . __
 72
    65
 73
     4
 40
7.0
 49
4.0
 49
-1.0
 49
1.0
 49
-1.0
  0
LTYPE
  2
PHANTOM2
 70
     0
  3
Phantom (.5x) ___ _ _ ___ _ _ ___ _ _ ___ _ _
 72
    65
 73
     6
 40
31.75
 49
15.875
 49
-3.174999999999998
 49
3.174999999999998
 49
-3.174999999999998
 49
3.174999999999998
 49
-3.174999999999998
  0
LTYPE
  2
ACANSTGBM
 70
     0
  3
__ . . __ . .
 72
    65
 73
     6
 40
9.0
 49
4.0
 49
-1.0
 49
1.0
 49
-1.0
 49
1.0
 49
-1.0
  0
LTYPE
  2
ACANSTGLM
 70
     0
  3
_ _ _ _ _
 72
    65
 73
     2
 40
3.0
 49
2.0
 49
-1.0
  0
LTYPE
  2
GEN7
 70
     0
  3
____ . ____ . ____ . ____ . ____ . ____ . ____
 72
    65
 73
     4
 40
14.25
 49
9.75
 49
-1.5
 49
1.5
 49
-1.5
  0
LTYPE
  2
GEN7A
 70
     0
  3
__ . __ . __
 72
    65
 73
     4
 40
7.375
 49
4.75
 49
-0.875
 49
0.875
 49
-0.875
  0
LTYPE
  2
ACJISTGB
 70
     0
  3
__ . . __ . .
 72
    65
 73
     6
 40
9.0
 49
4.0
 49
-1.0
 49
1.0
 49
-1.0
 49
1.0
 49
-1.0
  0
LTYPE
  2
ACJISTGL
 70
     0
  3
_ _ _ _ _
 72
    65
 73
     2
 40
3.0
 49
2.0
 49
-1.0
  0
LTYPE
  2
HIDDEN
 70
     0
  3
Hidden __ __ __ __ __ __ __ __ __ __ __ __ __ _
 72
    65
 73
     2
 40
0.375
 49
0.25
 49
-0.125
  0
LTYPE
  2
CENTER2
 70
     0
  3
Center (.5x) ___ _ ___ _ ___ _ ___ _ ___ _ ___
 72
    65
 73
     4
 40
1.125
 49
0.75
 49
-0.125
 49
0.125
 49
-0.125
  0
LTYPE
  2
HIDDEN2
 70
     0
  3
Hidden (.5x) _ _ _ _ _ _ _ _ _ _ _ _ _ _ _ _ _
 72
    65
 73
     2
 40
0.1875
 49
0.125
 49
-0.0625
  0
LTYPE
  2
AMZIGZAG2
 70
     0
  3
/\/-/\/-/\/-/\/-/\/-/\/
 72
    65
 73
     2
 40
0.4401
 49
0.0001
 49
-0.4400000000000002
  0
LTYPE
  2
ACANSTGB
 70
     0
  3
__ . . __ . .
 72
    65
 73
     6
 40
0.35433070866
 49
0.15748031496
 49
-0.03937007874
 49
0.03937007874
 49
-0.03937007874
 49
0.03937007874
 49
-0.03937007874
  0
LTYPE
  2
ACANSTGL
 70
     0
  3
_ _ _ _ _
 72
    65
 73
     2
 40
0.11811023622
 49
0.07874015748
 49
-0.03937007874
  0
ENDTAB
  0
TABLE
  2
LAYER
 70
     6
  0
LAYER
  2
0
 70
     0
 62
     7
  6
CONTINUOUS
  0
LAYER
  2
AM_0
 70
     0
 62
     7
  6
CONTINUOUS
  0
LAYER
  2
AM_5
 70
     0
 62
     2
  6
CONTINUOUS
  0
LAYER
  2
DEFPOINTS
 70
     0
 62
     7
  6
CONTINUOUS
  0
LAYER
  2
ﾁｭｳｼﾝｾﾝ
 70
     0
 62
     1
  6
GEN7
  0
LAYER
  2
ﾁｭｳｼﾝｾﾝ1
 70
     0
 62
     1
  6
GEN7A
  0
ENDTAB
  0
TABLE
  2
STYLE
 70
     9
  0
STYLE
  2
STANDARD
 70
     0
 40
0.0
 41
0.8299999999999999
 50
0.0
 71
     0
 42
2.5
  3
txt.shx
  4
bigfont.shx
  0
STYLE
  2
ANNOTATIVE
 70
     0
 40
0.0
 41
1.0
 50
0.0
 71
     0
 42
0.2
  3
txt
  4

  0
STYLE
  2

 70
     1
 40
0.0
 41
1.0
 50
0.0
 71
     0
 42
2.5
  3
ltypeshp.shx
  4

  0
STYLE
  2
ACISOTS
 70
     0
 40
1.0
 41
1.0
 50
0.0
 71
     0
 42
2.5
  3
isocp.shx
  4
extfont.shx
  0
STYLE
  2
ACISOGDT
 70
     0
 40
0.0
 41
1.0
 50
0.0
 71
     0
 42
2.5
  3
amgdt.shx
  4

  0
STYLE
  2
ACANSTS
 70
     0
 40
1.0
 41
1.0
 50
0.0
 71
     0
 42
2.5
  3
romans.shx
  4
bigfont.shx
  0
STYLE
  2
ACANSGDT
 70
     0
 40
0.0
 41
1.0
 50
0.0
 71
     0
 42
2.5
  3
amgdt.shx
  4

  0
STYLE
  2
ACJISTS
 70
     0
 40
1.0
 41
1.0
 50
0.0
 71
     0
 42
2.5
  3
isocp.shx
  4
bigfont.shx
  0
STYLE
  2
ACJISGDT
 70
     0
 40
0.0
 41
1.0
 50
0.0
 71
     0
 42
2.5
  3
amgdt.shx
  4

  0
ENDTAB
  0
TABLE
  2
VIEW
 70
     6
  0
VIEW
  2
AM_VIEW1
 70
     0
 40
555.00000000000011
 10
499.2955801104971
 20
832.50000000000011
 41
998.59116022099431
 11
0.0
 21
0.0
 31
1.0
 12
0.0
 22
0.0
 32
0.0
 42
50.0
 43
0.0
 44
0.0
 50
0.0
 71
     0
  0
VIEW
  2
AM_VIEW2
 70
     0
 40
555.00000000000011
 10
1207.704419889501
 20
832.50000000000011
 41
998.59116022099431
 11
0.0
 21
0.0
 31
1.0
 12
0.0
 22
0.0
 32
0.0
 42
50.0
 43
0.0
 44
0.0
 50
0.0
 71
     0
  0
VIEW
  2
AM_VIEW3
 70
     0
 40
555.00000000000011
 10
499.2955801104971
 20
277.49999999999989
 41
998.59116022099431
 11
0.0
 21
0.0
 31
1.0
 12
0.0
 22
0.0
 32
0.0
 42
50.0
 43
0.0
 44
0.0
 50
0.0
 71
     0
  0
VIEW
  2
AM_VIEW4
 70
     0
 40
555.00000000000011
 10
1207.704419889501
 20
277.49999999999989
 41
998.59116022099431
 11
0.0
 21
0.0
 31
1.0
 12
0.0
 22
0.0
 32
0.0
 42
50.0
 43
0.0
 44
0.0
 50
0.0
 71
     0
  0
VIEW
  2
AM_VIEW5
 70
     0
 40
555.00000000000011
 10
853.5
 20
555.00000000000011
 41
998.59116022099431
 11
0.0
 21
0.0
 31
1.0
 12
0.0
 22
0.0
 32
0.0
 42
50.0
 43
0.0
 44
0.0
 50
0.0
 71
     0
  0
VIEW
  2
AM_VIEW6
 70
     0
 40
1109.9889000000001
 10
853.5
 20
555.0
 41
1997.162348618785
 11
0.0
 21
0.0
 31
1.0
 12
0.0
 22
0.0
 32
0.0
 42
50.0
 43
0.0
 44
0.0
 50
0.0
 71
     0
  0
ENDTAB
  0
TABLE
  2
UCS
 70
     0
  0
ENDTAB
  0
TABLE
  2
APPID
 70
    95
  0
APPID
  2
ACAD
 70
     0
  0
APPID
  2
ACADANNOTATIVE
 70
     0
  0
APPID
  2
MCAD_NO_VIS
 70
     0
  0
APPID
  2
ACAD_TEMP_GRAPHIC
 70
     0
  0
APPID
  2
ACATTRIBSERVICES
 70
     0
  0
APPID
  2
GENIUS_GENREC_14
 70
     0
  0
APPID
  2
GENIUS_GENOBJ-N-REC_13
 70
     0
  0
APPID
  2
GENIUS_GENODEF_13
 70
     0
  0
APPID
  2
GENIUS_GENOLIS_13
 70
     0
  0
APPID
  2
GENIUS_GENOBJ-N-TIT_13
 70
     0
  0
APPID
  2
GENIUS_GENOENT_13
 70
     0
  0
APPID
  2
GENIUS_GENTITLE_13
 70
     0
  0
APPID
  2
GENIUS_GENOREF_13
 70
     0
  0
APPID
  2
GENIUS_GENSCREG_15
 70
     0
  0
APPID
  2
GENIUS_GENOBJ-N-SDF_13
 70
     0
  0
APPID
  2
GENIUS_GENFIL_13
 70
     0
  0
APPID
  2
GENIUS_GENOBJ-N-CHA_13
 70
     0
  0
APPID
  2
GENIUS_GENDTOL_13
 70
     0
  0
APPID
  2
GENIUS_GENOBJ-N-FIL_13
 70
     0
  0
APPID
  2
AD_DRAW
 70
     0
  0
APPID
  2
DESIGNERASSEMBLIES
 70
     0
  0
APPID
  2
ASURF_PCURVE_APPNAME
 70
     0
  0
APPID
  2
GENIUS_GE3SECT_13
 70
     0
  0
APPID
  2
GENIUS_GENCFG_13
 70
     0
  0
APPID
  2
GENIUS_GE3CFG0_13
 70
     0
  0
APPID
  2
GENIUS_GENCFG0_13
 70
     0
  0
APPID
  2
GENIUS_GENCFG1_13
 70
     0
  0
APPID
  2
GENIUS_GENCFG2_13
 70
     0
  0
APPID
  2
GENIUS_GENCFG3_13
 70
     0
  0
APPID
  2
GENIUS_GENCFG4_13
 70
     0
  0
APPID
  2
GENIUS_GEVCFG0_13
 70
     0
  0
APPID
  2
GENIUS_GENHINW_13
 70
     0
  0
APPID
  2
GENIUS_FIRSTVISTXT_14
 70
     0
  0
APPID
  2
GENIUS_GENOBJ-N-LEADER_13
 70
     0
  0
APPID
  2
GEV_VCCNULL_SWITCH_OFF
 70
     0
  0
APPID
  2
GENIUS_GEFCFG0_13
 70
     0
  0
APPID
  2
GENIUS_GENZVEED_13
 70
     0
  0
APPID
  2
GENIUS_GENSCREG_13
 70
     0
  0
APPID
  2
GENIUS_DUMCFG0_13
 70
     0
  0
APPID
  2
GEVID936201362
 70
     0
  0
APPID
  2
GEVDC
 70
     0
  0
APPID
  2
GEVCON
 70
     0
  0
APPID
  2
VCC
 70
     0
  0
APPID
  2
GEVPT
 70
     0
  0
APPID
  2
GEVIT
 70
     0
  0
APPID
  2
GENBH
 70
     0
  0
APPID
  2
GEVMK
 70
     0
  0
APPID
  2
GENIUS_GENBH_13
 70
     0
  0
APPID
  2
GENIUS_GENOBJ-NBEHI-BHF_13
 70
     0
  0
APPID
  2
GENIUS_GENOBJ-NBEHI-BHB_13
 70
     0
  0
APPID
  2
GENIUS_GENOBJ-F-DESC_13
 70
     0
  0
APPID
  2
GENIUS_GEFDESC_14
 70
     0
  0
APPID
  2
GENIUS_GENOBJ-F-PART_13
 70
     0
  0
APPID
  2
GENIUS_GEFSTDP_13
 70
     0
  0
APPID
  2
GENIUS_GEFPARTINS_13
 70
     0
  0
APPID
  2
GENIUS_GENTRA_14
 70
     0
  0
APPID
  2
GENIUS_GENINF13_13
 70
     0
  0
APPID
  2
GENIUS_GENOBJ-N-INFOPT_13
 70
     0
  0
APPID
  2
GENIUS_GENOBJ-N-RSSYM_13
 70
     0
  0
APPID
  2
GENIUS_GENSYMENT_13
 70
     0
  0
APPID
  2
GENIUS_GENSCSYM_13
 70
     0
  0
APPID
  2
GENIUS_GEFINFNAM_13
 70
     0
  0
APPID
  2
GENIUS_GENOBJ-N-CEN_13
 70
     0
  0
APPID
  2
GENIUS_GENOBJ-N-CRS_13
 70
     0
  0
APPID
  2
GENIUS_GENOBJ-N-CRC_13
 70
     0
  0
APPID
  2
GENIUS_GENCRC_14
 70
     0
  0
APPID
  2
GEVID942827039
 70
     0
  0
APPID
  2
GEVID942827040
 70
     0
  0
APPID
  2
GEVID942827041
 70
     0
  0
APPID
  2
GENIUS_GENOBJ-F-SCPASSM_13
 70
     0
  0
APPID
  2
GENIUS_GENDIMSH_14
 70
     0
  0
APPID
  2
GEVID942827042
 70
     0
  0
APPID
  2
GEVID946020473
 70
     0
  0
APPID
  2
GEVID946020474
 70
     0
  0
APPID
  2
GEVID946020475
 70
     0
  0
APPID
  2
GENIUS_GENOBJ-N-HTC_13
 70
     0
  0
APPID
  2
GENIUS_GENHATCH_13
 70
     0
  0
APPID
  2
GEVID948854295
 70
     0
  0
APPID
  2
GEVID939402019
 70
     0
  0
APPID
  2
GEVID952919491
 70
     0
  0
APPID
  2
GEVID952919492
 70
     0
  0
APPID
  2
GENIUS_GEFWELD_13
 70
     0
  0
APPID
  2
GENIUS_GENOBJ-F-WELS_13
 70
     0
  0
APPID
  2
GEVID952919493
 70
     0
  0
APPID
  2
GENIUS_GENOBJ-N-RSBK_13
 70
     0
  0
APPID
  2
GENIUS_GENOBJ-N-LIB_13
 70
     0
  0
APPID
  2
GENIUS_GENSCALE_13
 70
     0
  0
APPID
  2
GEVID986376691
 70
     0
  0
APPID
  2
DCO15
 70
     0
  0
APPID
  2
ACAD_DSTYLE_DIMBREAK
 70
     0
  0
APPID
  2
ACAD_DSTYLE_DIMJAG
 70
     0
  0
APPID
  2
ACAD_NAV_VCDISPLAY
 70
     0
  0
APPID
  2
ACADANNOPO
 70
     0
  0
APPID
  2
ACAD_EXEMPT_FROM_CAD_STANDARDS
 70
     0
  0
APPID
  2
ACAD_MLEADERVER
 70
     0
  0
ENDTAB
  0
TABLE
  2
DIMSTYLE
 70
    22
  0
DIMSTYLE
  2
STANDARD
 70
     0
  3

  4

  5

  6

  7

 40
1.0
 41
0.18
 42
0.0625
 43
0.38
 44
0.18
 45
0.0
 46
0.0
 47
0.0
 48
0.0
140
0.18
141
0.09
142
0.0
143
25.399999999999999
144
1.0
145
0.0
146
1.0
147
0.09
 71
     0
 72
     0
 73
     1
 74
     1
 75
     0
 76
     0
 77
     0
 78
     0
170
     0
171
     2
172
     0
173
     0
174
     0
175
     0
176
     0
177
     0
178
     0
  0
DIMSTYLE
  2
ANNOTATIVE
 70
     0
  3

  4

  5

  6

  7

 40
1.0
 41
0.18
 42
0.0625
 43
0.38
 44
0.18
 45
0.0
 46
0.0
 47
0.0
 48
0.0
140
0.18
141
0.09
142
0.0
143
25.399999999999999
144
1.0
145
0.0
146
1.0
147
0.09
 71
     0
 72
     0
 73
     1
 74
     1
 75
     0
 76
     0
 77
     0
 78
     0
170
     0
171
     2
172
     0
173
     0
174
     0
175
     0
176
     0
177
     0
178
     0
  0
DIMSTYLE
  2
AM_ISO
 70
     0
  3

  4
"
  5

  6

  7

 40
1.0
 41
2.5
 42
1.0
 43
8.0
 44
0.6
 45
0.0
 46
0.0
 47
0.1
 48
0.1
140
2.5
141
0.0
142
0.0
143
0.0393701
144
1.0
145
0.0
146
0.71
147
0.8
 71
     0
 72
     0
 73
     0
 74
     0
 75
     0
 76
     0
 77
     1
 78
     8
170
     0
171
     2
172
     1
173
     0
174
     0
175
     0
176
   256
177
   256
178
     4
  0
DIMSTYLE
  2
AM_ISO$3
 70
     0
  3

  4
"
  5

  6

  7

 40
1.0
 41
2.5
 42
1.0
 43
8.0
 44
0.6
 45
0.0
 46
0.0
 47
0.1
 48
0.1
140
2.5
141
0.0
142
0.0
143
0.0393701
144
1.0
145
0.0
146
0.71
147
0.8
 71
     0
 72
     0
 73
     0
 74
     1
 75
     0
 76
     0
 77
     1
 78
     8
170
     0
171
     2
172
     0
173
     0
174
     0
175
     0
176
   256
177
   256
178
     4
  0
DIMSTYLE
  2
AM_ISO$4
 70
     0
  3

  4
"
  5

  6

  7

 40
1.0
 41
2.5
 42
1.0
 43
8.0
 44
0.6
 45
0.0
 46
0.0
 47
0.1
 48
0.1
140
2.5
141
0.0
142
0.0
143
0.0393701
144
1.0
145
0.0
146
0.71
147
0.8
 71
     0
 72
     0
 73
     0
 74
     1
 75
     0
 76
     0
 77
     1
 78
     8
170
     0
171
     2
172
     0
173
     0
174
     0
175
     0
176
   256
177
   256
178
     4
  0
DIMSTYLE
  2
AM_ISO$6
 70
     0
  3

  4
"
  5

  6

  7

 40
1.0
 41
2.5
 42
1.0
 43
8.0
 44
0.6
 45
0.0
 46
0.0
 47
0.1
 48
0.1
140
2.5
141
0.0
142
0.0
143
0.0393701
144
1.0
145
0.0
146
0.71
147
0.8
 71
     0
 72
     0
 73
     0
 74
     0
 75
     0
 76
     0
 77
     0
 78
     8
170
     0
171
     2
172
     1
173
     0
174
     0
175
     0
176
   256
177
   256
178
     4
  0
DIMSTYLE
  2
AM_ISO$7
 70
     0
  3

  4
"
  5

  6

  7

 40
1.0
 41
2.5
 42
1.0
 43
8.0
 44
0.6
 45
0.0
 46
0.0
 47
0.1
 48
0.1
140
2.5
141
0.0
142
0.0
143
0.0393701
144
1.0
145
0.0
146
0.71
147
0.8
 71
     0
 72
     0
 73
     0
 74
     0
 75
     0
 76
     0
 77
     1
 78
     8
170
     0
171
     2
172
     1
173
     0
174
     0
175
     0
176
   256
177
   256
178
     4
  0
DIMSTYLE
  2
AM_ISO$SF
 70
     0
  3

  4
"
  5

  6

  7

 40
1.0
 41
2.5
 42
1.0
 43
10.0
 44
1.0
 45
0.0
 46
0.0
 47
0.1
 48
0.1
140
3.5
141
0.0
142
0.0
143
0.0393701
144
1.0
145
0.0
146
0.71
147
1.5
 71
     0
 72
     0
 73
     0
 74
     0
 75
     1
 76
     1
 77
     1
 78
     8
170
     0
171
     2
172
     1
173
     0
174
     0
175
     0
176
   256
177
   256
178
     2
  0
DIMSTYLE
  2
AM_ISO$SH
 70
     0
  3

  4
"
  5

  6

  7

 40
1.0
 41
2.5
 42
1.0
 43
10.0
 44
1.0
 45
0.0
 46
0.0
 47
0.1
 48
0.1
140
3.5
141
0.0
142
0.0
143
0.0393701
144
2.0
145
0.0
146
0.71
147
1.5
 71
     0
 72
     0
 73
     0
 74
     0
 75
     1
 76
     1
 77
     1
 78
     8
170
     0
171
     2
172
     1
173
     1
174
     0
175
     0
176
   256
177
   256
178
     2
  0
DIMSTYLE
  2
AM_JIS
 70
     0
  3

  4
"
  5

  6

  7

 40
1.0
 41
2.5
 42
1.0
 43
7.0
 44
1.0
 45
0.0
 46
0.0
 47
0.1
 48
0.1000000001
140
2.5
141
0.0
142
0.0
143
0.0393701
144
1.0
145
0.0
146
0.71
147
1.0
 71
     0
 72
     0
 73
     0
 74
     0
 75
     0
 76
     0
 77
     3
 78
     8
170
     0
171
     2
172
     1
173
     0
174
     0
175
     0
176
   256
177
   256
178
     4
  0
DIMSTYLE
  2
AM_JIS$3
 70
     0
  3

  4
"
  5

  6

  7

 40
1.0
 41
2.5
 42
1.0
 43
7.0
 44
1.0
 45
0.0
 46
0.0
 47
0.1
 48
0.1000000001
140
2.5
141
0.0
142
0.0
143
0.0393701
144
1.0
145
0.0
146
0.71
147
1.0
 71
     0
 72
     0
 73
     0
 74
     1
 75
     0
 76
     0
 77
     3
 78
     8
170
     0
171
     2
172
     0
173
     0
174
     0
175
     0
176
   256
177
   256
178
     4
  0
DIMSTYLE
  2
AM_JIS$4
 70
     0
  3

  4
"
  5

  6

  7

 40
1.0
 41
2.5
 42
1.0
 43
7.0
 44
1.0
 45
0.0
 46
0.0
 47
0.1
 48
0.1000000001
140
2.5
141
0.0
142
0.0
143
0.0393701
144
1.0
145
0.0
146
0.71
147
1.0
 71
     0
 72
     0
 73
     0
 74
     0
 75
     0
 76
     0
 77
     3
 78
     8
170
     0
171
     2
172
     0
173
     0
174
     0
175
     0
176
   256
177
   256
178
     4
  0
DIMSTYLE
  2
AM_JIS$6
 70
     0
  3

  4
"
  5

  6

  7

 40
1.0
 41
2.5
 42
1.0
 43
7.0
 44
1.0
 45
0.0
 46
0.0
 47
0.1
 48
0.1000000001
140
2.5
141
0.0
142
0.0
143
0.0393701
144
1.0
145
0.0
146
0.71
147
1.0
 71
     0
 72
     0
 73
     0
 74
     0
 75
     0
 76
     0
 77
     0
 78
     8
170
     0
171
     2
172
     1
173
     0
174
     0
175
     0
176
   256
177
   256
178
     4
  0
DIMSTYLE
  2
AM_JIS$7
 70
     0
  3

  4
"
  5

  6

  7

 40
1.0
 41
2.5
 42
1.0
 43
7.0
 44
1.0
 45
0.0
 46
0.0
 47
0.1
 48
0.1000000001
140
2.5
141
0.0
142
0.0
143
0.0393701
144
1.0
145
0.0
146
0.71
147
1.0
 71
     0
 72
     0
 73
     0
 74
     0
 75
     0
 76
     0
 77
     3
 78
     8
170
     0
171
     2
172
     1
173
     0
174
     0
175
     0
176
   256
177
   256
178
     4
  0
DIMSTYLE
  2
AM_JIS$SF
 70
     0
  3

  4
"
  5

  6

  7

 40
1.0
 41
2.5
 42
1.0
 43
10.0
 44
1.0
 45
0.0
 46
0.0
 47
0.1
 48
0.1
140
3.5
141
0.0
142
0.0
143
0.0393701
144
1.0
145
0.0
146
0.71
147
1.5
 71
     0
 72
     0
 73
     0
 74
     0
 75
     1
 76
     1
 77
     3
 78
     8
170
     0
171
     2
172
     1
173
     0
174
     0
175
     0
176
   256
177
   256
178
     4
  0
DIMSTYLE
  2
AM_JIS$SH
 70
     0
  3

  4
"
  5

  6

  7

 40
1.0
 41
2.5
 42
1.0
 43
10.0
 44
1.0
 45
0.0
 46
0.0
 47
0.1
 48
0.1
140
3.5
141
0.0
142
0.0
143
0.0393701
144
1.0
145
0.0
146
0.71
147
1.5
 71
     0
 72
     0
 73
     0
 74
     0
 75
     1
 76
     0
 77
     3
 78
     8
170
     0
171
     2
172
     1
173
     1
174
     0
175
     0
176
   256
177
   256
178
     4
  0
DIMSTYLE
  2
AM_ANSI
 70
     0
  3

  4
mm
  5

  6

  7

 40
1.0
 41
0.1
 42
0.05
 43
0.5
 44
0.1
 45
0.0
 46
0.0
 47
0.1
 48
0.1
140
0.12
141
0.0
142
0.0
143
25.399999999999999
144
1.0
145
0.0
146
0.71
147
0.06
 71
     0
 72
     0
 73
     1
 74
     1
 75
     0
 76
     0
 77
     0
 78
     7
170
     0
171
     2
172
     0
173
     0
174
     0
175
     0
176
   256
177
   256
178
     2
  0
DIMSTYLE
  2
AM_ANSI$3
 70
     0
  3

  4
mm
  5

  6

  7

 40
1.0
 41
0.1
 42
0.05
 43
0.5
 44
0.1
 45
0.0
 46
0.0
 47
0.1
 48
0.1
140
0.12
141
0.0
142
0.0
143
25.399999999999999
144
1.0
145
0.0
146
0.71
147
0.06
 71
     0
 72
     0
 73
     1
 74
     1
 75
     0
 76
     0
 77
     0
 78
     7
170
     0
171
     2
172
     0
173
     0
174
     0
175
     0
176
   256
177
   256
178
     2
  0
DIMSTYLE
  2
AM_ANSI$4
 70
     0
  3

  4
mm
  5

  6

  7

 40
1.0
 41
0.1
 42
0.05
 43
0.5
 44
0.1
 45
0.0
 46
0.0
 47
0.1
 48
0.1
140
0.12
141
0.0
142
0.0
143
25.399999999999999
144
1.0
145
0.0
146
0.71
147
0.06
 71
     0
 72
     0
 73
     1
 74
     1
 75
     0
 76
     0
 77
     0
 78
     7
170
     0
171
     2
172
     0
173
     0
174
     0
175
     0
176
   256
177
   256
178
     2
  0
DIMSTYLE
  2
AM_ANSI$7
 70
     0
  3

  4
mm
  5

  6

  7

 40
1.0
 41
0.1
 42
0.05
 43
0.5
 44
0.1
 45
0.0
 46
0.0
 47
0.1
 48
0.1
140
0.24
141
0.0
142
0.0
143
25.399999999999999
144
1.0
145
0.0
146
0.71
147
0.06
 71
     0
 72
     0
 73
     1
 74
     1
 75
     0
 76
     0
 77
     0
 78
     7
170
     0
171
     2
172
     0
173
     0
174
     0
175
     0
176
   256
177
   256
178
     2
  0
DIMSTYLE
  2
AM_ANSI$SF
 70
     0
  3

  4
mm
  5

  6

  7

 40
1.0
 41
0.1
 42
0.05
 43
0.5
 44
0.1
 45
0.0
 46
0.0
 47
0.1
 48
0.1
140
0.12
141
0.0
142
0.0
143
25.399999999999999
144
1.0
145
0.0
146
0.71
147
0.06
 71
     0
 72
     0
 73
     1
 74
     1
 75
     1
 76
     1
 77
     0
 78
     7
170
     0
171
     2
172
     0
173
     0
174
     0
175
     0
176
   256
177
   256
178
     2
  0
DIMSTYLE
  2
AM_ANSI$SH
 70
     0
  3

  4
mm
  5

  6

  7

 40
1.0
 41
0.1
 42
0.05
 43
0.5
 44
0.1
 45
0.0
 46
0.0
 47
0.1
 48
0.1
140
0.12
141
0.0
142
0.0
143
25.399999999999999
144
1.0
145
0.0
146
0.71
147
0.06
 71
     0
 72
     0
 73
     1
 74
     1
 75
     1
 76
     1
 77
     0
 78
     7
170
     0
171
     2
172
     0
173
     1
174
     0
175
     0
176
   256
177
   256
178
     2
  0
ENDTAB
  0
ENDSEC
  0
SECTION
  2
BLOCKS
  0
BLOCK
  8
0
  2
$MODEL_SPACE
 70
     0
 10
0.0
 20
0.0
 30
0.0
  3
$MODEL_SPACE
  1

  0
ENDBLK
  5
2FC0
  8
0
  0
BLOCK
 67
     1
  8
0
  2
$PAPER_SPACE
 70
     0
 10
0.0
 20
0.0
 30
0.0
  3
$PAPER_SPACE
  1

  0
ENDBLK
  5
2FBC
 67
     1
  8
0
  0
BLOCK
  8
0
  2
GENAXEH
 70
     0
 10
0.0
 20
0.0
 30
0.0
  3
GENAXEH
  1

  0
LINE
  5
2D18
  8
0
 10
-1.0
 20
0.0
 30
0.0
 11
1.0
 21
0.0
 31
0.0
  0
ENDBLK
  5
2D19
  8
0
  0
BLOCK
  8
0
  2
_OPEN30
 70
     0
 10
0.0
 20
0.0
 30
0.0
  3
_OPEN30
  1

  0
LINE
  5
2D1C
  8
0
 62
     0
 10
-1.0
 20
0.26794919
 30
0.0
 11
0.0
 21
0.0
 31
0.0
  0
LINE
  5
2D1D
  8
0
 62
     0
 10
0.0
 20
0.0
 30
0.0
 11
-1.0
 21
-0.26794919
 31
0.0
  0
LINE
  5
2D1E
  8
0
 62
     0
 10
0.0
 20
0.0
 30
0.0
 11
-1.0
 21
0.0
 31
0.0
  0
ENDBLK
  5
2D1F
  8
0
  0
BLOCK
  8
0
  2
_NONE
 70
     0
 10
0.0
 20
0.0
 30
0.0
  3
_NONE
  1

  0
ENDBLK
  5
2D22
  8
0
  0
BLOCK
  8
0
  2
_ACMFILLEDHALF
 70
     0
 10
0.0
 20
0.0
 30
0.0
  3
_ACMFILLEDHALF
  1

  0
TRACE
  5
30B6
  8
AM_0
 62
     0
 10
-0.8
 20
0.0
 30
0.0
 11
-1.0
 21
0.166666666
 31
0.0
 12
0.0
 22
0.0
 32
0.0
 13
0.0
 23
0.0
 33
0.0
  0
LINE
  5
30B7
  8
AM_0
 62
     0
 10
-1.0
 20
0.0
 30
0.0
 11
-0.8
 21
0.0
 31
0.0
  0
ENDBLK
  5
30B5
  8
0
  0
ENDSEC
  0
SECTION
  2
ENTITIES
  0
LINE
  5
2D23
  8
AM_0
 10
413.17395269545921
 20
559.14804495040005
 30
0.0
 11
364.00162269545888
 21
509.97571495039989
 31
0.0
  0
LINE
  5
2D24
  8
AM_0
 10
447.6383686954585
 20
566.61251095039995
 30
0.0
 11
447.6383686954585
 21
330.61250595040002
 31
0.0
  0
LINE
  5
2D25
  8
AM_0
 10
432.63841869545922
 20
548.69453195040012
 30
0.0
 11
432.63841869545922
 21
575.75089895040003
 31
0.0
  0
LINE
  5
2D26
  8
AM_0
 10
414.63841869545922
 20
548.69453195040012
 30
0.0
 11
414.63841869545922
 21
575.75089895040003
 31
0.0
  0
LINE
  5
2D27
  8
AM_0
 10
514.13836869545855
 20
626.6125309503999
 30
0.0
 11
514.13836869545855
 21
281.3511209504
 31
0.0
  0
LINE
  5
2D28
  8
AM_0
 10
434.63841869545922
 20
568.61251095040006
 30
0.0
 11
434.63841869545922
 21
328.61250595040002
 31
0.0
  0
LINE
  5
2D29
  8
AM_0
 10
494.1383686954585
 20
576.80628095040015
 30
0.0
 11
494.1383686954585
 21
326.99901095040002
 31
0.0
  0
LINE
  5
2D2A
  8
AM_0
 10
707.63836869545855
 20
681.61253095040001
 30
0.0
 11
707.63836869545855
 21
311.61250595040002
 31
0.0
  0
LINE
  5
2D2B
  8
AM_0
 10
691.63836869545867
 20
643.17143095040001
 30
0.0
 11
691.63836869545867
 21
350.05364095039988
 31
0.0
  0
LINE
  5
2D2C
  8
AM_0
 10
682.63836869545855
 20
678.61253095040001
 30
0.0
 11
682.63836869545855
 21
438.67549595040009
 31
0.0
  0
LINE
  5
2D2D
  8
AM_0
 10
712.63836869545867
 20
341.61250595040002
 30
0.0
 11
712.63836869545867
 21
651.6125309503999
 31
0.0
  0
LINE
  5
2D2E
  8
AM_0
 10
569.13836869545855
 20
628.61253095040001
 30
0.0
 11
569.13836869545855
 21
274.61250595040002
 31
0.0
  0
LINE
  5
2D2F
  8
AM_0
 10
659.13276869545905
 20
589.05513095040021
 30
0.0
 11
682.37586869545885
 21
439.06941595040001
 31
0.0
  0
LINE
  5
2D30
  8
AM_0
 10
268.13841869545911
 20
466.11251095039989
 30
0.0
 11
326.13841869545911
 21
466.11251095039989
 31
0.0
  0
LINE
  5
2D31
  8
AM_0
 10
326.13841869545911
 20
431.11251095040012
 30
0.0
 11
268.13841869545911
 21
431.11251095040012
 31
0.0
  0
LINE
  5
2D32
  8
ﾁｭｳｼﾝｾﾝ
 10
254.95929743501151
 20
448.61251095040001
 30
0.0
 11
482.59319188707661
 21
448.61251095040001
 31
0.0
  0
LINE
  5
2D33
  8
AM_0
 10
313.13841869545911
 20
469.11251095040001
 30
0.0
 11
313.13841869545911
 21
466.11251095039989
 31
0.0
  0
LINE
  5
2D34
  8
AM_0
 10
268.13841869545911
 20
466.11251095039989
 30
0.0
 11
268.13841869545911
 21
469.11251095040001
 31
0.0
  0
LINE
  5
2D35
  8
AM_0
 10
268.13841869545911
 20
431.11251095040012
 30
0.0
 11
268.13841869545911
 21
466.11251095039989
 31
0.0
  0
LINE
  5
2D36
  8
AM_0
 10
268.13841869545911
 20
469.11251095040001
 30
0.0
 11
313.13841869545911
 21
469.11251095040001
 31
0.0
  0
LINE
  5
2D37
  8
ﾁｭｳｼﾝｾﾝ
 10
825.57741869545885
 20
496.61251095040001
 30
0.0
 11
454.0544913900502
 21
496.61251095040001
 31
0.0
  0
LINE
  5
2D38
  8
AM_0
 10
569.13841869545922
 20
274.61250595040002
 30
0.0
 11
632.67096869545912
 21
272.94884095039998
 31
0.0
  0
LINE
  5
2D39
  8
AM_0
 10
413.17395269545921
 20
338.07697695040002
 30
0.0
 11
364.00162269545888
 21
387.24930795040001
 31
0.0
  0
LINE
  5
2D3A
  8
AM_0
 10
414.63841869545922
 20
448.61251095040001
 30
0.0
 11
414.63841869545922
 21
365.08683995040002
 31
0.0
  0
LINE
  5
2D3B
  8
AM_0
 10
432.63841869545922
 20
518.32934795039989
 30
0.0
 11
432.63841869545922
 21
365.08683995040002
 31
0.0
  0
LINE
  5
2D3C
  8
AM_0
 10
547.13841869545922
 20
397.55538095039998
 30
0.0
 11
547.13841869545922
 21
361.28606095039999
 31
0.0
  0
LINE
  5
2D3D
  8
AM_0
 10
447.6383686954585
 20
377.67970595040009
 30
0.0
 11
494.1383686954585
 21
377.67970595040009
 31
0.0
  0
LINE
  5
2D3E
  8
AM_0
 10
447.6383686954585
 20
361.93761095040003
 30
0.0
 11
494.1383686954585
 21
361.93761095040003
 31
0.0
  0
LINE
  5
2D3F
  8
AM_0
 10
449.63841869545922
 20
336.61250595040002
 30
0.0
 11
489.1383686954585
 21
336.61250595040002
 31
0.0
  0
ARC
  5
2D40
  8
AM_0
 10
409.63841869545922
 20
334.54144395040009
 30
0.0
 40
5.0
 50
0.0
 51
45.0
  0
LINE
  5
2D41
  8
AM_0
 10
414.63841869545922
 20
348.53049095040001
 30
0.0
 11
414.63841869545922
 21
331.61251095040001
 31
0.0
  0
LINE
  5
2D42
  8
AM_0
 10
417.63841869545911
 20
328.61251095040001
 30
0.0
 11
432.63841869545922
 21
328.61251095040001
 31
0.0
  0
ARC
  5
2D43
  8
AM_0
 10
417.63841869545911
 20
331.61251095040001
 30
0.0
 40
3.0
 50
180.0
 51
270.0
  0
LINE
  5
2D44
  8
AM_0
 10
434.63841869545922
 20
328.61250595040002
 30
0.0
 11
445.63836869545878
 21
328.61250595040002
 31
0.0
  0
LINE
  5
2D45
  8
AM_0
 10
434.63841869545922
 20
330.61251095040001
 30
0.0
 11
432.63841869545922
 21
328.61251095040001
 31
0.0
  0
ARC
  5
2D46
  8
AM_0
 10
449.63841869545922
 20
334.61250595040002
 30
0.0
 40
2.0000000500000001
 50
90.000003000000007
 51
180.00001
  0
ARC
  5
2D47
  8
AM_0
 10
445.63836869545878
 20
330.61250595040002
 30
0.0
 40
2.0000000500000001
 50
270.0
 51
0.0
  0
LINE
  5
2D48
  8
AM_0
 10
410.74841669545901
 20
348.53049095040001
 30
0.0
 11
434.63841869545922
 21
348.53049095040001
 31
0.0
  0
LINE
  5
2D49
  8
AM_0
 10
410.73615469545911
 20
351.44722395039997
 30
0.0
 11
410.69293869545908
 21
361.72683395040002
 31
0.0
  0
LINE
  5
2D4A
  8
AM_0
 10
406.63841869545922
 20
364.08683995040002
 30
0.0
 11
407.75983169545901
 21
351.26902295039997
 31
0.0
  0
ARC
  5
2D4B
  8
AM_0
 10
410.74841669545901
 20
351.53049095040001
 30
0.0
 40
3.0
 50
184.99999999999969
 51
270.0
  0
LINE
  5
2D4C
  8
AM_0
 10
414.63841869545922
 20
378.89567395040001
 30
0.0
 11
407.6764496954591
 21
378.89567395040001
 31
0.0
  0
ARC
  5
2D4D
  8
AM_0
 10
413.63841869545888
 20
365.08683995040002
 30
0.0
 40
1.0
 50
270.0
 51
0.0
  0
ARC
  5
2D4E
  8
AM_0
 10
410.683017695459
 20
367.08683995040008
 30
0.0
 40
3.0
 50
184.99999999999969
 51
270.0
  0
LINE
  5
2D4F
  8
AM_0
 10
410.683017695459
 20
364.08683995040002
 30
0.0
 11
413.63841869545888
 21
364.08683995040002
 31
0.0
  0
LINE
  5
2D50
  8
AM_0
 10
406.63841869545922
 20
378.89567395040001
 30
0.0
 11
407.69443269545923
 21
366.82537295039998
 31
0.0
  0
LINE
  5
2D51
  8
AM_0
 10
434.63841869545922
 20
348.88530595039992
 30
0.0
 11
447.6383686954585
 21
348.88530595039992
 31
0.0
  0
LINE
  5
2D52
  8
AM_0
 10
434.63841869545922
 20
372.61586595040001
 30
0.0
 11
447.6383686954585
 21
372.61586595040001
 31
0.0
  0
LINE
  5
2D53
  8
AM_0
 10
434.63841869545922
 20
364.44164095040009
 30
0.0
 11
447.6383686954585
 21
364.44164095040009
 31
0.0
  0
LINE
  5
2D54
  8
AM_0
 10
434.63841869545922
 20
378.89567395040001
 30
0.0
 11
432.63841869545922
 21
378.89567395040001
 31
0.0
  0
ARC
  5
2D55
  8
AM_0
 10
433.63841869545922
 20
365.08683995040002
 30
0.0
 40
1.0
 50
180.0
 51
270.0
  0
LINE
  5
2D56
  8
AM_0
 10
516.13841869545865
 20
291.02802095039999
 30
0.0
 11
545.13836869545855
 21
291.02802095039999
 31
0.0
  0
LINE
  5
2D57
  8
AM_0
 10
518.96391869545926
 20
276.35417595040002
 30
0.0
 11
568.83846869545846
 21
274.61252095039998
 31
0.0
  0
ARC
  5
2D58
  8
AM_0
 10
516.13841869545865
 20
293.02803595040001
 30
0.0
 40
2.0000000500000001
 50
179.99998999999991
 51
270.0
  0
ARC
  5
2D59
  8
AM_0
 10
519.13836869545855
 20
281.3511209504
 30
0.0
 40
5.0
 50
179.99998999999991
 51
268.00000999999992
  0
ARC
  5
2D5A
  8
AM_0
 10
545.13836869545855
 20
289.02803595040001
 30
0.0
 40
2.0000000500000001
 50
0.0
 51
90.000003000000007
  0
ARC
  5
2D5B
  8
AM_0
 10
549.13836869545855
 20
277.30167095040008
 30
0.0
 40
2.0000000500000001
 50
179.99998999999991
 51
268.00000999999992
  0
LINE
  5
2D5C
  8
AM_0
 10
547.13841869545922
 20
289.02803595040001
 30
0.0
 11
547.13841869545922
 21
277.30167095040008
 31
0.0
  0
LINE
  5
2D5D
  8
AM_0
 10
516.13841869545865
 20
359.2860309504
 30
0.0
 11
545.13836869545855
 21
359.2860309504
 31
0.0
  0
LINE
  5
2D5E
  8
AM_0
 10
497.1029686954588
 20
319.89249095039997
 30
0.0
 11
511.17381869545892
 21
305.96234595039988
 31
0.0
  0
ARC
  5
2D5F
  8
AM_0
 10
504.13836869545878
 20
298.8558059504
 30
0.0
 40
10.0
 50
0.0
 51
45.287917999999991
  0
ARC
  5
2D60
  8
AM_0
 10
489.1383686954585
 20
331.61250595040002
 30
0.0
 40
5.0
 50
0.0
 51
90.000003000000007
  0
ARC
  5
2D61
  8
AM_0
 10
504.13836869545878
 20
326.99901095040002
 30
0.0
 40
10.0
 50
179.99998999999991
 51
225.28792000000001
  0
ARC
  5
2D62
  8
AM_0
 10
516.13841869545865
 20
357.28606095039999
 30
0.0
 40
2.0000000500000001
 50
90.000003000000007
 51
180.00001
  0
ARC
  5
2D63
  8
AM_0
 10
545.13836869545855
 20
361.28606095039999
 30
0.0
 40
2.0000000500000001
 50
270.0
 51
0.0
  0
LINE
  5
2D64
  8
AM_0
 10
447.6383686954585
 20
535.28740595039994
 30
0.0
 11
494.1383686954585
 21
535.28740595039994
 31
0.0
  0
LINE
  5
2D65
  8
AM_0
 10
447.6383686954585
 20
519.54534095040003
 30
0.0
 11
494.1383686954585
 21
519.54534095040003
 31
0.0
  0
LINE
  5
2D66
  8
AM_0
 10
361.14472569545921
 20
504.78032195039998
 30
0.0
 11
361.14472569545921
 21
448.61251095040001
 31
0.0
  0
LINE
  5
2D67
  8
AM_0
 10
414.63841869545922
 20
448.61251095040001
 30
0.0
 11
414.63841869545922
 21
518.32934795039989
 31
0.0
  0
LINE
  5
2D68
  8
AM_0
 10
326.13841869545911
 20
468.61251095040012
 30
0.0
 11
326.13841869545911
 21
428.61251095039989
 31
0.0
  0
LINE
  5
2D69
  8
AM_0
 10
332.13841869545911
 20
448.61251095040001
 30
0.0
 11
332.13841869545911
 21
503.66441995039997
 31
0.0
  0
LINE
  5
2D6A
  8
AM_0
 10
330.13841869545911
 20
448.61251095040001
 30
0.0
 11
330.13841869545911
 21
483.61251095040001
 31
0.0
  0
LINE
  5
2D6B
  8
AM_0
 10
361.14472569545921
 20
392.44470095039998
 30
0.0
 11
361.14472569545921
 21
448.61251095040001
 31
0.0
  0
LINE
  5
2D6C
  8
AM_0
 10
330.13841869545911
 20
448.61251095040001
 30
0.0
 11
330.13841869545911
 21
413.61251095040001
 31
0.0
  0
LINE
  5
2D6D
  8
AM_0
 10
332.13841869545911
 20
448.61251095040001
 30
0.0
 11
332.13841869545911
 21
393.56060295039998
 31
0.0
  0
LINE
  5
2D6E
  8
AM_0
 10
335.08606169545908
 20
390.56105995040008
 30
0.0
 11
357.10507869545921
 21
390.17671695040008
 31
0.0
  0
ARC
  5
2D6F
  8
AM_0
 10
335.13841869545911
 20
393.56060295039998
 30
0.0
 40
3.0
 50
180.0
 51
268.99999999999812
  0
LINE
  5
2D70
  8
AM_0
 10
330.13841869545911
 20
413.61251095040001
 30
0.0
 11
332.13841869545911
 21
411.61251095039989
 31
0.0
  0
ARC
  5
2D71
  8
AM_0
 10
356.93055469545908
 20
380.17823995039993
 30
0.0
 40
10.0
 50
45.0
 51
89.000000000001506
  0
LINE
  5
2D72
  8
AM_0
 10
326.13841869545911
 20
428.61251095039989
 30
0.0
 11
330.13841869545911
 21
428.61251095039989
 31
0.0
  0
LINE
  5
2D73
  8
AM_0
 10
416.74707169545871
 20
407.69776395039997
 30
0.0
 11
430.40487569545922
 21
407.69776395039997
 31
0.0
  0
LINE
  5
2D74
  8
AM_0
 10
417.63841869545911
 20
396.53369795039993
 30
0.0
 11
429.63841869545922
 21
396.53369795039993
 31
0.0
  0
ARC
  5
2D75
  8
AM_0
 10
417.63841869545911
 20
399.53369795039998
 30
0.0
 40
3.0
 50
180.0
 51
270.0
  0
ARC
  5
2D76
  8
AM_0
 10
429.63841869545922
 20
399.53369795039998
 30
0.0
 40
3.0
 50
270.0
 51
0.0
  0
POINT
  5
2D77
  8
AM_0
 10
434.63841869545922
 20
448.61251095040001
 30
0.0
  0
LINE
  5
2D78
  8
AM_0
 10
335.08606169545908
 20
506.66396295039999
 30
0.0
 11
357.10507869545921
 21
507.04830595039999
 31
0.0
  0
LINE
  5
2D79
  8
AM_0
 10
330.13841869545911
 20
483.61251095040001
 30
0.0
 11
332.13841869545911
 21
485.61251095040012
 31
0.0
  0
LINE
  5
2D7A
  8
AM_0
 10
326.13841869545911
 20
468.61251095040012
 30
0.0
 11
330.13841869545911
 21
468.61251095040012
 31
0.0
  0
ARC
  5
2D7B
  8
AM_0
 10
335.13841869545911
 20
503.66441995039997
 30
0.0
 40
3.0
 50
90.999999999998465
 51
180.0
  0
ARC
  5
2D7C
  8
AM_0
 10
356.93055469545908
 20
517.04678295040003
 30
0.0
 40
10.0
 50
270.99999999999841
 51
315.0
  0
LINE
  5
2D7D
  8
AM_0
 10
410.74841669545901
 20
548.69453195040012
 30
0.0
 11
434.63841869545922
 21
548.69453195040012
 31
0.0
  0
LINE
  5
2D7E
  8
AM_0
 10
410.683017695459
 20
533.13818295040005
 30
0.0
 11
434.63841869545922
 21
533.13818295040005
 31
0.0
  0
LINE
  5
2D7F
  8
AM_0
 10
433.4582036954593
 20
518.32934795039989
 30
0.0
 11
407.6764496954591
 21
518.32934795039989
 31
0.0
  0
ARC
  5
2D80
  8
AM_0
 10
410.683017695459
 20
530.13818295040005
 30
0.0
 40
3.0
 50
90.0
 51
175.00000000000011
  0
LINE
  5
2D81
  8
AM_0
 10
406.63841869545922
 20
533.13818295040005
 30
0.0
 11
407.75983169545901
 21
545.95599895040004
 31
0.0
  0
LINE
  5
2D82
  8
AM_0
 10
406.63841869545922
 20
518.32934795039989
 30
0.0
 11
407.69443269545923
 21
530.39964995039986
 31
0.0
  0
ARC
  5
2D83
  8
AM_0
 10
410.74841669545901
 20
545.69453195040012
 30
0.0
 40
3.0
 50
90.0
 51
175.00000000000011
  0
LINE
  5
2D84
  8
AM_0
 10
410.73615469545911
 20
545.77779895040021
 30
0.0
 11
410.69293869545908
 21
535.49818895040005
 31
0.0
  0
LINE
  5
2D85
  8
AM_0
 10
434.63841869545922
 20
532.78334595039985
 30
0.0
 11
447.6383686954585
 21
532.78334595039985
 31
0.0
  0
LINE
  5
2D86
  8
AM_0
 10
434.63841869545922
 20
524.60915095040014
 30
0.0
 11
447.6383686954585
 21
524.60915095040014
 31
0.0
  0
LINE
  5
2D87
  8
AM_0
 10
434.63841869545922
 20
548.33974595040002
 30
0.0
 11
447.6383686954585
 21
548.33974595040002
 31
0.0
  0
LINE
  5
2D88
  8
AM_0
 10
516.13841869545865
 20
399.55541095040002
 30
0.0
 11
545.13836869545855
 21
399.55541095040002
 31
0.0
  0
ARC
  5
2D89
  8
AM_0
 10
516.13841869545865
 20
401.55538095039998
 30
0.0
 40
2.0000000500000001
 50
179.99998999999991
 51
270.0
  0
ARC
  5
2D8A
  8
AM_0
 10
545.13836869545855
 20
397.55538095039998
 30
0.0
 40
2.0000000500000001
 50
0.0
 51
90.000003000000007
  0
POINT
  5
2D8B
  8
AM_0
 10
568.83836869545894
 20
448.61251095040001
 30
0.0
  0
POINT
  5
2D8C
  8
AM_0
 10
568.83836869545894
 20
448.61251095040001
 30
0.0
  0
LINE
  5
2D8D
  8
AM_0
 10
516.13841869545865
 20
484.6633509504
 30
0.0
 11
545.13836869545855
 21
484.6633509504
 31
0.0
  0
LINE
  5
2D8E
  8
AM_0
 10
516.13841869545865
 20
521.83754595040011
 30
0.0
 11
545.13836869545855
 21
521.83754595040011
 31
0.0
  0
ARC
  5
2D8F
  8
AM_0
 10
516.13841869545865
 20
482.6633509504
 30
0.0
 40
2.0000000500000001
 50
90.000003000000007
 51
180.00001
  0
ARC
  5
2D90
  8
AM_0
 10
516.13841869545865
 20
523.83754595039966
 30
0.0
 40
2.0000000500000001
 50
179.99998999999991
 51
270.0
  0
LINE
  5
2D91
  8
AM_0
 10
547.13841869545922
 20
519.83754595039966
 30
0.0
 11
547.13841869545922
 21
486.6633509504
 31
0.0
  0
ARC
  5
2D92
  8
AM_0
 10
545.13836869545855
 20
486.6633509504
 30
0.0
 40
2.0000000500000001
 50
270.0
 51
0.0
  0
POINT
  5
2D93
  8
AM_0
 10
569.13836869545855
 20
496.61251095040001
 30
0.0
  0
POINT
  5
2D94
  8
AM_0
 10
569.13836869545855
 20
496.61251095040001
 30
0.0
  0
ARC
  5
2D95
  8
AM_0
 10
545.13836869545855
 20
519.83754595039966
 30
0.0
 40
2.0000000500000001
 50
0.0
 51
90.000003000000007
  0
LINE
  5
2D96
  8
AM_0
 10
682.63836869545855
 20
384.82924595039998
 30
0.0
 11
682.63836869545855
 21
314.61250595040002
 31
0.0
  0
LINE
  5
2D97
  8
AM_0
 10
632.67096869545912
 20
272.94884095039998
 30
0.0
 11
699.63836869545867
 21
311.6124909504
 31
0.0
  0
LINE
  5
2D98
  8
AM_0
 10
636.01826869545903
 20
366.96797595039999
 30
0.0
 11
682.63836869545855
 21
366.96797595039999
 31
0.0
  0
LINE
  5
2D99
  8
AM_0
 10
636.01826869545903
 20
326.34299095040001
 30
0.0
 11
682.63836869545855
 21
326.34299095040001
 31
0.0
  0
LINE
  5
2D9A
  8
AM_0
 10
637.63836869545855
 20
364.80925595040009
 30
0.0
 11
637.63836869545855
 21
328.68926095040001
 31
0.0
  0
ARC
  5
2D9B
  8
AM_0
 10
636.01826869545903
 20
346.65547595039999
 30
0.0
 40
20.3124945
 50
90.000003000000007
 51
270.0
  0
ARC
  5
2D9C
  8
AM_0
 10
599.55756869545894
 20
346.0738409504001
 30
0.0
 40
8.5603475000000007
 50
90.000003000000007
 51
270.0
  0
LINE
  5
2D9D
  8
AM_0
 10
599.55756869545894
 20
337.51347595039999
 30
0.0
 11
617.87926869545856
 21
337.51347595039999
 31
0.0
  0
LINE
  5
2D9E
  8
AM_0
 10
599.55756869545894
 20
354.63417595039999
 30
0.0
 11
617.33836869545894
 21
354.63417595039999
 31
0.0
  0
LINE
  5
2D9F
  8
AM_0
 10
602.63836869545855
 20
353.04924595039978
 30
0.0
 11
602.63836869545855
 21
339.39925095040002
 31
0.0
  0
LINE
  5
2DA0
  8
AM_0
 10
707.63836869545855
 20
311.61250595040002
 30
0.0
 11
685.63836869545855
 21
311.61250595040002
 31
0.0
  0
ARC
  5
2DA1
  8
AM_0
 10
685.63836869545855
 20
314.61250595040002
 30
0.0
 40
3.0000000500000001
 50
179.99998999999991
 51
270.0
  0
LINE
  5
2DA2
  8
AM_0
 10
684.63841869545922
 20
348.05364095039988
 30
0.0
 11
689.63841869545945
 21
348.05364095039988
 31
0.0
  0
ARC
  5
2DA3
  8
AM_0
 10
684.63841869545922
 20
346.05364095039988
 30
0.0
 40
2.0000000500000001
 50
90.000003000000007
 51
180.00001
  0
ARC
  5
2DA4
  8
AM_0
 10
689.63841869545945
 20
350.05364095039988
 30
0.0
 40
2.0000000500000001
 50
270.0
 51
0.0
  0
LINE
  5
2DA5
  8
AM_0
 10
707.63836869545855
 20
341.61250595040002
 30
0.0
 11
712.63836869545867
 21
341.61250595040002
 31
0.0
  0
LINE
  5
2DA6
  8
AM_0
 10
717.63836869545855
 20
466.61251095040001
 30
0.0
 11
822.63841869545865
 21
466.61251095040001
 31
0.0
  0
LINE
  5
2DA7
  8
AM_0
 10
717.63836869545855
 20
526.61251095040006
 30
0.0
 11
822.63841869545865
 21
526.61251095040006
 31
0.0
  0
LINE
  5
2DA8
  8
AM_0
 10
717.63836869545855
 20
529.11251095039995
 30
0.0
 11
717.63836869545855
 21
464.11251095040012
 31
0.0
  0
LINE
  5
2DA9
  8
AM_0
 10
684.63841869545922
 20
386.0186059504
 30
0.0
 11
689.63841869545945
 21
386.0186059504
 31
0.0
  0
ARC
  5
2DAA
  8
AM_0
 10
689.63841869545945
 20
388.0186059504
 30
0.0
 40
2.0000000500000001
 50
270.0
 51
0.0
  0
LINE
  5
2DAB
  8
AM_0
 10
684.35231869545885
 20
437.37569095039999
 30
0.0
 11
689.63841869545945
 21
437.37569095039999
 31
0.0
  0
ARC
  5
2DAC
  8
AM_0
 10
683.63841869545865
 20
438.67549595040009
 30
0.0
 40
1.0
 50
179.99998999999991
 51
224.4439999999999
  0
ARC
  5
2DAD
  8
AM_0
 10
684.35231869545885
 20
439.37569095039981
 30
0.0
 40
2.0000000500000001
 50
188.809
 51
270.0
  0
ARC
  5
2DAE
  8
AM_0
 10
689.63841869545945
 20
435.37572095040002
 30
0.0
 40
2.0000000500000001
 50
0.0
 51
90.000003000000007
  0
LINE
  5
2DAF
  8
AM_0
 10
712.63836869545867
 20
464.11251095040012
 30
0.0
 11
717.63836869545855
 21
464.11251095040012
 31
0.0
  0
LINE
  5
2DB0
  8
AM_0
 10
712.63836869545867
 20
529.11251095039995
 30
0.0
 11
717.63836869545855
 21
529.11251095039995
 31
0.0
  0
LINE
  5
2DB1
  8
AM_0
 10
822.63841869545865
 20
530.61254095040022
 30
0.0
 11
822.63841869545865
 21
466.61251095040001
 31
0.0
  0
LINE
  5
2DB2
  8
AM_0
 10
741.63836869545855
 20
530.61254095040022
 30
0.0
 11
822.63841869545865
 21
530.61254095040022
 31
0.0
  0
LINE
  5
2DB3
  8
AM_0
 10
741.63836869545855
 20
530.61254095040022
 30
0.0
 11
741.63836869545855
 21
526.61251095040006
 31
0.0
  0
LINE
  5
2DB4
  8
AM_0
 10
569.13841869545922
 20
628.61253095040001
 30
0.0
 11
647.81481869545905
 21
630.67273095040014
 31
0.0
  0
LINE
  5
2DB5
  8
AM_0
 10
449.63841869545922
 20
560.61254095039999
 30
0.0
 11
489.1383686954585
 21
560.61254095039999
 31
0.0
  0
LINE
  5
2DB6
  8
AM_0
 10
417.63841869545911
 20
578.75089895040003
 30
0.0
 11
429.63841869545922
 21
578.75089895040003
 31
0.0
  0
LINE
  5
2DB7
  8
AM_0
 10
415.77217269545918
 20
559.36101195039987
 30
0.0
 11
431.4680316954591
 21
559.36101195039987
 31
0.0
  0
ARC
  5
2DB8
  8
AM_0
 10
417.63841869545911
 20
575.75089895040003
 30
0.0
 40
3.0
 50
90.0
 51
180.0
  0
ARC
  5
2DB9
  8
AM_0
 10
409.63841869545922
 20
562.68357895040015
 30
0.0
 40
5.0
 50
315.0
 51
0.0
  0
ARC
  5
2DBA
  8
AM_0
 10
429.63841869545922
 20
575.75089895040003
 30
0.0
 40
3.0
 50
0.0
 51
90.0
  0
LINE
  5
2DBB
  8
AM_0
 10
434.63841869545922
 20
568.61251095040006
 30
0.0
 11
445.63836869545878
 21
568.61251095040006
 31
0.0
  0
LINE
  5
2DBC
  8
AM_0
 10
432.63841869545922
 20
568.61251095040006
 30
0.0
 11
434.63841869545922
 21
566.61251095040006
 31
0.0
  0
ARC
  5
2DBD
  8
AM_0
 10
449.63841869545922
 20
562.61251095039995
 30
0.0
 40
2.0000000500000001
 50
179.99998999999991
 51
270.0
  0
ARC
  5
2DBE
  8
AM_0
 10
445.63836869545878
 20
566.61251095039995
 30
0.0
 40
2.0000000500000001
 50
0.0
 51
90.000003000000007
  0
CIRCLE
  5
2DBF
  8
AM_0
 10
529.13836869545855
 20
654.61253095040001
 30
0.0
 40
15.0
  0
ARC
  5
2DC0
  8
AM_0
 10
529.13836869545855
 20
654.61253095040001
 30
0.0
 40
25.000000499999999
 50
306.46672000000001
 51
233.53328999999999
  0
LINE
  5
2DC1
  8
AM_0
 10
519.66041869545916
 20
637.73348095040001
 30
0.0
 11
529.13841869545922
 21
639.61243095040004
 31
0.0
  0
LINE
  5
2DC2
  8
AM_0
 10
516.13841869545865
 20
618.36008095039995
 30
0.0
 11
545.13836869545855
 21
618.36008095039995
 31
0.0
  0
LINE
  5
2DC3
  8
AM_0
 10
516.13841869545865
 20
601.83078095039991
 30
0.0
 11
545.13836869545855
 21
601.83078095039991
 31
0.0
  0
LINE
  5
2DC4
  8
AM_0
 10
518.96391869545926
 20
626.86038095039999
 30
0.0
 11
569.13841869545922
 21
628.61253095040001
 31
0.0
  0
LINE
  5
2DC5
  8
AM_0
 10
516.13841869545865
 20
628.61253095040001
 30
0.0
 11
569.13836869545855
 21
628.61253095040001
 31
0.0
  0
LINE
  5
2DC6
  8
AM_0
 10
519.34436869545846
 20
637.61253095040001
 30
0.0
 11
538.93246869545874
 21
637.61253095040001
 31
0.0
  0
ARC
  5
2DC7
  8
AM_0
 10
504.13836869545878
 20
602.4187309504
 30
0.0
 40
10.0
 50
308.65980999999982
 51
0.0
  0
ARC
  5
2DC8
  8
AM_0
 10
489.1383686954585
 20
565.61254095039988
 30
0.0
 40
5.0
 50
270.0
 51
0.0
  0
LINE
  5
2DC9
  8
AM_0
 10
510.38531869545858
 20
594.61008095040006
 30
0.0
 11
497.89141869545892
 21
584.61493095039975
 31
0.0
  0
ARC
  5
2DCA
  8
AM_0
 10
504.13836869545878
 20
576.80628095040015
 30
0.0
 40
10.0
 50
128.65980999999991
 51
180.00001
  0
ARC
  5
2DCB
  8
AM_0
 10
516.13841869545865
 20
620.36008095039995
 30
0.0
 40
2.0000000500000001
 50
179.99998999999991
 51
270.0
  0
ARC
  5
2DCC
  8
AM_0
 10
516.13841869545865
 20
599.8308309503999
 30
0.0
 40
2.0000000500000001
 50
90.000003000000007
 51
180.00001
  0
ARC
  5
2DCD
  8
AM_0
 10
519.85481869545902
 20
636.75263095039998
 30
0.0
 40
1.0
 50
101.21329
 51
164.99999
  0
ARC
  5
2DCE
  8
AM_0
 10
516.13841869545865
 20
626.6125309503999
 30
0.0
 40
2.0000000500000001
 50
90.000003000000007
 51
180.00001
  0
ARC
  5
2DCF
  8
AM_0
 10
519.13836869545855
 20
621.8634309503999
 30
0.0
 40
5.0
 50
91.999997999999948
 51
180.00001
  0
LINE
  5
2DD0
  8
AM_0
 10
516.63836869545855
 20
628.61253095040001
 30
0.0
 11
518.88886869545865
 21
637.01143095040015
 31
0.0
  0
ARC
  5
2DD1
  8
AM_0
 10
510.71336869545888
 20
629.68223095040003
 30
0.0
 40
6.0
 50
349.72994999999997
 51
53.533291000000013
  0
ARC
  5
2DD2
  8
AM_0
 10
545.13836869545855
 20
616.36008095039995
 30
0.0
 40
2.0000000500000001
 50
0.0
 51
90.000003000000007
  0
ARC
  5
2DD3
  8
AM_0
 10
545.13836869545855
 20
603.83078095040014
 30
0.0
 40
2.0000000500000001
 50
270.0
 51
0.0
  0
LINE
  5
2DD4
  8
AM_0
 10
547.13841869545922
 20
616.36008095039995
 30
0.0
 11
547.13841869545922
 21
603.83078095040014
 31
0.0
  0
LINE
  5
2DD5
  8
AM_0
 10
529.13841869545922
 20
639.61253095040001
 30
0.0
 11
538.61646869545893
 21
637.73353095040011
 31
0.0
  0
ARC
  5
2DD6
  8
AM_0
 10
538.42201869545875
 20
636.75263095039998
 30
0.0
 40
1.0
 50
15.0
 51
78.786709999999999
  0
LINE
  5
2DD7
  8
AM_0
 10
541.63841869545922
 20
628.61253095040001
 30
0.0
 11
539.38796869545865
 21
637.01143095040015
 31
0.0
  0
ARC
  5
2DD8
  8
AM_0
 10
547.56341869545895
 20
629.68223095040003
 30
0.0
 40
6.0
 50
126.4666999999999
 51
190.27006
  0
LINE
  5
2DD9
  8
AM_0
 10
654.62416869545916
 20
633.59823095040019
 30
0.0
 11
681.17396869545871
 21
660.14803095039963
 31
0.0
  0
LINE
  5
2DDA
  8
AM_0
 10
652.5512186954586
 20
631.52533095040019
 30
0.0
 11
654.15801869545896
 21
621.15653095040011
 31
0.0
  0
ARC
  5
2DDB
  8
AM_0
 10
647.55306869545893
 20
640.66928095039998
 30
0.0
 40
10.0
 50
271.49999999999972
 51
315.0
  0
LINE
  5
2DDC
  8
AM_0
 10
626.63836869545855
 20
589.05513095040021
 30
0.0
 11
657.47871869545907
 21
589.05513095040021
 31
0.0
  0
LINE
  5
2DDD
  8
AM_0
 10
680.27061869545855
 20
637.32508095039998
 30
0.0
 11
624.00621869545921
 21
602.48673095039965
 31
0.0
  0
LINE
  5
2DDE
  8
AM_0
 10
680.27061869545855
 20
625.35958095039985
 30
0.0
 11
625.33356869545878
 21
591.34308095039978
 31
0.0
  0
ARC
  5
2DDF
  8
AM_0
 10
626.63836869545855
 20
598.23568095040014
 30
0.0
 40
5.0
 50
121.76536
 51
180.00001
  0
LINE
  5
2DE0
  8
AM_0
 10
621.63836869545855
 20
598.23568095040014
 30
0.0
 11
621.63836869545855
 21
594.05513095040021
 31
0.0
  0
ARC
  5
2DE1
  8
AM_0
 10
626.63836869545855
 20
594.05513095040021
 30
0.0
 40
5.0
 50
179.99998999999991
 51
270.0
  0
LINE
  5
2DE2
  8
AM_0
 10
682.63836869545855
 20
606.51933095039999
 30
0.0
 11
660.46056869545919
 21
590.04173095040017
 31
0.0
  0
LINE
  5
2DE3
  8
AM_0
 10
682.63836869545855
 20
582.8838809504
 30
0.0
 11
689.63841869545945
 21
582.8838809504
 31
0.0
  0
ARC
  5
2DE4
  8
AM_0
 10
657.47871869545907
 20
594.05513095040021
 30
0.0
 40
5.0
 50
270.0
 51
306.61149999999992
  0
ARC
  5
2DE5
  8
AM_0
 10
689.63841869545945
 20
580.8838809504
 30
0.0
 40
2.0000000500000001
 50
0.0
 51
90.000003000000007
  0
ARC
  5
2DE6
  8
AM_0
 10
677.63836869545855
 20
641.57613095040006
 30
0.0
 40
5.0
 50
301.76537000000002
 51
0.0
  0
LINE
  5
2DE7
  8
AM_0
 10
685.63836869545855
 20
681.61253095040001
 30
0.0
 11
707.63836869545855
 21
681.61253095040001
 31
0.0
  0
LINE
  5
2DE8
  8
AM_0
 10
684.63841869545922
 20
645.17143095040001
 30
0.0
 11
689.63841869545945
 21
645.17143095040001
 31
0.0
  0
ARC
  5
2DE9
  8
AM_0
 10
677.63836869545855
 20
663.68358095040003
 30
0.0
 40
5.0
 50
315.0
 51
0.0
  0
ARC
  5
2DEA
  8
AM_0
 10
684.63841869545922
 20
647.17143095040001
 30
0.0
 40
2.0000000500000001
 50
179.99998999999991
 51
270.0
  0
ARC
  5
2DEB
  8
AM_0
 10
685.63836869545855
 20
678.61253095040001
 30
0.0
 40
3.0000000500000001
 50
90.000003000000007
 51
180.00001
  0
ARC
  5
2DEC
  8
AM_0
 10
689.63841869545945
 20
643.17143095040001
 30
0.0
 40
2.0000000500000001
 50
0.0
 51
90.000003000000007
  0
LINE
  5
2DED
  8
AM_0
 10
707.63836869545855
 20
651.6125309503999
 30
0.0
 11
712.63836869545867
 21
651.6125309503999
 31
0.0
  0
ARC
  5
2DEE
  8
AM_0
 10
1157.2212348728831
 20
496.61251095040001
 30
0.0
 40
65.0
 50
90.000003000000007
 51
270.0
  0
ARC
  5
2DEF
  8
AM_0
 10
1157.2212348728831
 20
496.61251095040001
 30
0.0
 40
65.0
 50
270.0
 51
90.000003000000007
  0
LINE
  5
2DF0
  8
AM_0
 10
1089.52198487288
 20
554.41225595040009
 30
0.0
 11
1055.268899872882
 21
588.66538095040005
 31
0.0
  0
LINE
  5
2DF1
  8
AM_0
 10
1224.920469872882
 20
554.41225595040009
 30
0.0
 11
1259.1735398728831
 21
588.66533095040006
 31
0.0
  0
LINE
  5
2DF2
  8
AM_0
 10
972.22123487288331
 20
336.61250595040002
 30
0.0
 11
972.22123487288331
 21
656.61253095040001
 31
0.0
  0
LINE
  5
2DF3
  8
AM_0
 10
1342.221214872882
 20
656.61253095040001
 30
0.0
 11
1342.221214872882
 21
336.61250595040002
 31
0.0
  0
LINE
  5
2DF4
  8
ﾁｭｳｼﾝｾﾝ
 10
1157.2212348728831
 20
687.58954419766405
 30
0.0
 11
1157.2212348728831
 21
267.7037859504
 31
0.0
  0
ARC
  5
2DF5
  8
AM_0
 10
1134.4261898728821
 20
504.11373095040011
 30
0.0
 40
112.0
 50
133.0483099999999
 51
169.99998999999991
  0
ARC
  5
2DF6
  8
AM_0
 10
1180.016249872883
 20
504.11373095040011
 30
0.0
 40
112.0
 50
9.9999996999999983
 51
46.95168300000001
  0
ARC
  5
2DF7
  8
AM_0
 10
1157.2212348728831
 20
496.61251095040001
 30
0.0
 40
146.0
 50
270.0
 51
90.000003000000007
  0
ARC
  5
2DF8
  8
AM_0
 10
1157.2212348728831
 20
496.61251095040001
 30
0.0
 40
146.0
 50
90.000003000000007
 51
270.0
  0
ARC
  5
2DF9
  8
AM_0
 10
1157.2212348728831
 20
496.61251095040001
 30
0.0
 40
155.0
 50
270.0
 51
90.000003000000007
  0
ARC
  5
2DFA
  8
AM_0
 10
1157.2212348728831
 20
496.61251095040001
 30
0.0
 40
155.0
 50
90.000003000000007
 51
270.0
  0
ARC
  5
2DFB
  8
AM_0
 10
1317.221224872882
 20
336.61250595040002
 30
0.0
 40
25.000000499999999
 50
270.0
 51
0.0
  0
LINE
  5
2DFC
  8
ﾁｭｳｼﾝｾﾝ
 10
959.48511987288293
 20
496.61251095040001
 30
0.0
 11
1356.6532398728821
 21
496.61251095040001
 31
0.0
  0
ARC
  5
2DFD
  8
AM_0
 10
1065.221204872882
 20
486.61251095039989
 30
0.0
 40
10.0
 50
270.0
 51
0.0
  0
LINE
  5
2DFE
  8
AM_0
 10
1317.221224872882
 20
311.61250595040002
 30
0.0
 11
997.22123487288331
 21
311.61250595040002
 31
0.0
  0
LINE
  5
2DFF
  8
AM_0
 10
1086.489849872883
 20
275.17322095039998
 30
0.0
 11
1050.865124872882
 21
300.8077409504001
 31
0.0
  0
CIRCLE
  5
2E00
  8
AM_0
 10
998.12217487288331
 20
337.51347595039999
 30
0.0
 40
12.0
  0
LINE
  5
2E01
  8
ﾁｭｳｼﾝｾﾝ1
 10
982.91938487288326
 20
322.31068595039977
 30
0.0
 11
1013.3249948728831
 21
352.71626595039987
 31
0.0
  0
ARC
  5
2E02
  8
ﾁｭｳｼﾝｾﾝ1
 10
1157.2212348728831
 20
496.61251095040001
 30
0.0
 40
225.00000499999999
 50
219.5229799999999
 51
230.47702000000001
  0
ARC
  5
2E03
  8
AM_0
 10
997.22123487288331
 20
336.61250595040002
 30
0.0
 40
25.000000499999999
 50
179.99998999999991
 51
270.0
  0
ARC
  5
2E04
  8
AM_0
 10
1157.2212348728831
 20
448.61251095040001
 30
0.0
 40
182.0929899999999
 50
228.79546999999999
 51
234.26228
  0
LINE
  5
2E05
  8
AM_0
 10
1015.872784872883
 20
476.7462059504
 30
0.0
 11
1024.127729872883
 21
523.56234095039986
 31
0.0
  0
LINE
  5
2E06
  8
AM_0
 10
1017.021374872882
 20
476.61251095040012
 30
0.0
 11
1065.221204872882
 21
476.61251095040012
 31
0.0
  0
ARC
  5
2E07
  8
AM_0
 10
1017.021374872882
 20
481.61251095040001
 30
0.0
 40
5.0
 50
186.10685000000001
 51
270.0
  0
LINE
  5
2E08
  8
AM_0
 10
1094.7212348728831
 20
272.51952095040002
 30
0.0
 11
1219.721219872883
 21
272.51952095040002
 31
0.0
  0
ARC
  5
2E09
  8
AM_0
 10
1094.7212348728831
 20
286.61250595040002
 30
0.0
 40
14.092999499999999
 50
234.26228
 51
270.0
  0
LINE
  5
2E0A
  8
AM_0
 10
1227.952589872883
 20
275.17325095040002
 30
0.0
 11
1263.5773148728831
 21
300.80779095039992
 31
0.0
  0
ARC
  5
2E0B
  8
AM_0
 10
1219.721219872883
 20
286.61250595040002
 30
0.0
 40
14.092999499999999
 50
270.0
 51
305.73772000000002
  0
ARC
  5
2E0C
  8
AM_0
 10
1157.2212348728831
 20
448.61251095040001
 30
0.0
 40
182.0929899999999
 50
305.73772000000002
 51
311.20452999999992
  0
CIRCLE
  5
2E0D
  8
AM_0
 10
1316.320234872883
 20
337.51347595039999
 30
0.0
 40
12.0
  0
LINE
  5
2E0E
  8
ﾁｭｳｼﾝｾﾝ
 10
1250.4367254065401
 20
448.61251095040001
 30
0.0
 11
1064.005744339225
 21
448.61251095040001
 31
0.0
  0
ARC
  5
2E0F
  8
AM_0
 10
1157.2212348728831
 20
496.61251095040001
 30
0.0
 40
30.000000499999999
 50
107.4575999999999
 51
72.542383999999998
  0
ARC
  5
2E10
  8
AM_0
 10
1157.2212348728831
 20
496.61251095040001
 30
0.0
 40
82.0
 50
144.5940699999999
 51
180.00001
  0
LINE
  5
2E11
  8
AM_0
 10
1075.221204872882
 20
496.61251095040001
 30
0.0
 11
1075.221204872882
 21
486.61251095039989
 31
0.0
  0
ARC
  5
2E12
  8
AM_0
 10
1083.865124872882
 20
548.75542595039985
 30
0.0
 40
8.0
 50
324.5940700000001
 51
45.00000099999999
  0
CIRCLE
  5
2E13
  8
AM_0
 10
1157.2212348728831
 20
496.61251095040001
 30
0.0
 40
4.500000049999997
  0
CIRCLE
  5
2E14
  8
AM_5
 10
1157.2212348728831
 20
496.61251095040001
 30
0.0
 40
6.0
  0
POINT
  5
2E15
  8
AM_0
 10
1157.2212348728831
 20
496.61251095040001
 30
0.0
  0
POINT
  5
2E16
  8
AM_0
 10
1157.2212348728831
 20
496.61251095040001
 30
0.0
  0
LINE
  5
2E17
  8
AM_0
 10
1148.221204872882
 20
519.61251095039995
 30
0.0
 11
1166.2212348728831
 21
519.61251095039995
 31
0.0
  0
LINE
  5
2E18
  8
AM_0
 10
1148.221204872882
 20
530.61254095040022
 30
0.0
 11
1166.2212348728831
 21
530.61254095040022
 31
0.0
  0
LINE
  5
2E19
  8
AM_0
 10
1148.221204872882
 20
530.61254095040022
 30
0.0
 11
1148.221204872882
 21
519.61251095039995
 31
0.0
  0
LINE
  5
2E1A
  8
AM_0
 10
1166.2212348728831
 20
530.61254095040022
 30
0.0
 11
1166.2212348728831
 21
519.61251095039995
 31
0.0
  0
LINE
  5
2E1B
  8
AM_0
 10
1297.421079872883
 20
476.61251095040012
 30
0.0
 11
1249.221204872882
 21
476.61251095040012
 31
0.0
  0
ARC
  5
2E1C
  8
AM_0
 10
1157.2212348728831
 20
496.61251095040001
 30
0.0
 40
82.0
 50
0.0
 51
35.405931999999993
  0
LINE
  5
2E1D
  8
AM_0
 10
1239.221204872882
 20
496.61251095040001
 30
0.0
 11
1239.221204872882
 21
486.61251095039989
 31
0.0
  0
ARC
  5
2E1E
  8
AM_0
 10
1249.221204872882
 20
486.61251095039989
 30
0.0
 40
10.0
 50
179.99998999999991
 51
270.0
  0
ARC
  5
2E1F
  8
AM_0
 10
1230.5773148728831
 20
548.75542595039985
 30
0.0
 40
8.0
 50
135.0
 51
215.40593000000001
  0
LINE
  5
2E20
  8
AM_0
 10
1298.5696548728811
 20
476.7462059504
 30
0.0
 11
1290.3147148728831
 21
523.56234095039986
 31
0.0
  0
ARC
  5
2E21
  8
AM_0
 10
1297.421079872883
 20
481.61251095040001
 30
0.0
 40
5.0
 50
270.0
 51
353.89314999999982
  0
ARC
  5
2E22
  8
AM_0
 10
1317.221224872882
 20
656.61253095040001
 30
0.0
 40
25.000000499999999
 50
0.0
 51
90.000003000000007
  0
LINE
  5
2E23
  8
AM_0
 10
997.22123487288331
 20
681.61253095040001
 30
0.0
 11
1317.221224872882
 21
681.61253095040001
 31
0.0
  0
LINE
  5
2E24
  8
AM_0
 10
1099.421459872882
 20
564.31176095040018
 30
0.0
 11
1065.1684098728831
 21
598.56483095040005
 31
0.0
  0
ARC
  5
2E25
  8
AM_0
 10
1049.6120398728831
 20
583.00853095039975
 30
0.0
 40
8.0
 50
45.00000099999999
 51
141.24012999999991
  0
ARC
  5
2E26
  8
AM_0
 10
1070.825239872883
 20
604.22168095040001
 30
0.0
 40
8.0
 50
128.75986999999969
 51
225.0
  0
CIRCLE
  5
2E27
  8
AM_0
 10
998.12217487288331
 20
655.71158095040016
 30
0.0
 40
12.0
  0
ARC
  5
2E28
  8
AM_0
 10
997.22123487288331
 20
656.61253095040001
 30
0.0
 40
25.000000499999999
 50
90.000003000000007
 51
180.00001
  0
ARC
  5
2E29
  8
AM_0
 10
1157.2212348728831
 20
448.61251095040041
 30
0.0
 40
172.0000049999999
 50
58.770287999993542
 51
121.2297100000057
  0
ARC
  5
2E2A
  8
AM_0
 10
1157.2212348728831
 20
496.61251095040001
 30
0.0
 40
82.0
 50
54.594067000000003
 51
125.4059299999999
  0
ARC
  5
2E2B
  8
AM_0
 10
1105.078319872883
 20
569.96862095040001
 30
0.0
 40
8.0
 50
225.0
 51
305.4059299999999
  0
LINE
  5
2E2C
  8
ﾁｭｳｼﾝｾﾝ1
 10
1331.523039872882
 20
670.91433095039997
 30
0.0
 11
1298.040470095377
 21
637.43177509036411
 31
0.0
  0
ARC
  5
2E2D
  8
ﾁｭｳｼﾝｾﾝ1
 10
1157.2212348728831
 20
496.61251095040001
 30
0.0
 40
225.00000499999999
 50
38.696153000000002
 51
50.477013999999997
  0
ARC
  5
2E2E
  8
AM_0
 10
1264.830399872882
 20
583.00853095039975
 30
0.0
 40
8.0
 50
38.759869000000002
 51
135.0
  0
LINE
  5
2E2F
  8
AM_0
 10
1215.0209948728821
 20
564.31173095040003
 30
0.0
 11
1249.274064872882
 21
598.56478095039995
 31
0.0
  0
ARC
  5
2E30
  8
AM_0
 10
1209.364104872883
 20
569.96862095040001
 30
0.0
 40
8.0
 50
234.5940699999999
 51
315.0
  0
ARC
  5
2E31
  8
AM_0
 10
1243.617184872882
 20
604.22168095040001
 30
0.0
 40
8.0
 50
315.0
 51
51.240130000000001
  0
CIRCLE
  5
2E32
  8
AM_0
 10
1316.320234872883
 20
655.71158095040016
 30
0.0
 40
12.0
  0
LINE
  5
2E33
  8
AM_0
 10
326.13845869545878
 20
969.21904921209568
 30
0.0
 11
268.13845869545878
 21
969.21904921209568
 31
0.0
  0
LINE
  5
2E34
  8
AM_0
 10
268.13845869545878
 20
1004.219049212095
 30
0.0
 11
326.13845869545878
 21
1004.219049212095
 31
0.0
  0
LINE
  5
2E35
  8
AM_0
 10
268.13845869545878
 20
991.71904421209558
 30
0.0
 11
313.13845869545889
 21
991.71904421209524
 31
0.0
  0
LINE
  5
2E36
  8
AM_0
 10
268.13845869545878
 20
981.71904421209558
 30
0.0
 11
313.13845869545889
 21
981.71904421209558
 31
0.0
  0
LINE
  5
2E37
  8
AM_0
 10
268.13845869545878
 20
969.21904921209568
 30
0.0
 11
268.13845869545878
 21
1004.219049212095
 31
0.0
  0
LINE
  5
2E38
  8
AM_0
 10
406.63845869545889
 20
902.19336721209561
 30
0.0
 11
407.75987169545851
 21
889.3755512120955
 31
0.0
  0
LINE
  5
2E39
  8
AM_0
 10
413.17399269545871
 20
876.18351521209581
 30
0.0
 11
364.00166269545878
 21
925.3558462120958
 31
0.0
  0
LINE
  5
2E3A
  8
AM_0
 10
410.7484566954584
 20
886.63701821209565
 30
0.0
 11
434.63845869545878
 21
886.63701821209565
 31
0.0
  0
ARC
  5
2E3B
  8
AM_0
 10
417.63845869545878
 20
869.71904921209523
 30
0.0
 40
3.0
 50
180.0
 51
270.0
  0
LINE
  5
2E3C
  8
AM_0
 10
414.63845869545889
 20
886.63702921209563
 30
0.0
 11
414.63845869545889
 21
869.71904921209523
 31
0.0
  0
ARC
  5
2E3D
  8
AM_0
 10
409.63845869545889
 20
872.64798221209549
 30
0.0
 40
5.0
 50
0.0
 51
45.0
  0
ARC
  5
2E3E
  8
AM_0
 10
410.7484566954584
 20
889.63701821209565
 30
0.0
 40
3.0
 50
184.99999999999969
 51
270.0
  0
LINE
  5
2E3F
  8
AM_0
 10
410.73619469545878
 20
889.55375121209522
 30
0.0
 11
410.69297869545852
 21
899.83336121209572
 31
0.0
  0
LINE
  5
2E40
  8
AM_0
 10
432.63845869545878
 20
886.63701821209565
 30
0.0
 11
432.63845869545878
 21
866.71904921209534
 31
0.0
  0
LINE
  5
2E41
  8
AM_0
 10
417.63845869545878
 20
866.71904921209568
 30
0.0
 11
432.63845869545878
 21
866.71904921209568
 31
0.0
  0
LINE
  5
2E42
  8
AM_0
 10
434.63845869545878
 20
868.71904921209534
 30
0.0
 11
432.63845869545878
 21
866.71904921209568
 31
0.0
  0
ARC
  5
2E43
  8
AM_0
 10
356.93059469545869
 20
1055.1533212120951
 30
0.0
 40
10.0
 50
270.99999999999841
 51
315.0
  0
LINE
  5
2E44
  8
AM_0
 10
432.63845869545878
 20
1056.4358862120951
 30
0.0
 11
432.63845869545878
 21
917.00220221209565
 31
0.0
  0
LINE
  5
2E45
  8
AM_0
 10
414.63845869545889
 20
917.00220221209565
 30
0.0
 11
414.63845869545889
 21
1056.4358862120951
 31
0.0
  0
LINE
  5
2E46
  8
AM_0
 10
414.63845869545889
 20
1001.719044212095
 30
0.0
 11
432.63845869545878
 21
1001.719044212095
 31
0.0
  0
LINE
  5
2E47
  8
AM_0
 10
432.63845869545878
 20
1003.293840155562
 30
0.0
 11
414.63845869545889
 21
1003.293840155562
 31
0.0
  0
LINE
  5
2E48
  8
AM_0
 10
414.63845869545889
 20
971.71904421209581
 30
0.0
 11
432.63845869545878
 21
971.7190442120957
 31
0.0
  0
LINE
  5
2E49
  8
AM_0
 10
432.63845869545878
 20
970.14424826862864
 30
0.0
 11
414.63845869545889
 21
970.14424826862864
 31
0.0
  0
LINE
  5
2E4A
  8
AM_0
 10
433.4582436954588
 20
917.00220221209565
 30
0.0
 11
407.67648969545849
 21
917.00220221209565
 31
0.0
  0
LINE
  5
2E4B
  8
AM_0
 10
410.68305769545839
 20
902.19336721209561
 30
0.0
 11
434.63845869545878
 21
902.19336721209561
 31
0.0
  0
LINE
  5
2E4C
  8
AM_0
 10
326.13845869545878
 20
1006.719049212094
 30
0.0
 11
326.13845869545878
 21
966.71904921209568
 31
0.0
  0
LINE
  5
2E4D
  8
AM_0
 10
330.13845869545889
 20
986.7190492120958
 30
0.0
 11
330.13845869545889
 21
951.71904921209557
 31
0.0
  0
LINE
  5
2E4E
  8
AM_0
 10
361.14476569545877
 20
930.55123921209565
 30
0.0
 11
361.14476569545877
 21
986.7190492120958
 31
0.0
  0
LINE
  5
2E4F
  8
AM_0
 10
332.13845869545889
 20
986.7190492120958
 30
0.0
 11
332.13845869545889
 21
931.66714121209566
 31
0.0
  0
ARC
  5
2E50
  8
AM_0
 10
356.93059469545869
 20
918.28477821209572
 30
0.0
 40
10.0
 50
45.0
 51
89.000000000001506
  0
ARC
  5
2E51
  8
AM_0
 10
335.13845869545878
 20
931.66714121209566
 30
0.0
 40
3.0
 50
180.0
 51
268.99999999999812
  0
LINE
  5
2E52
  8
AM_0
 10
335.08610169545881
 20
928.66759821209553
 30
0.0
 11
357.10511869545883
 21
928.2832552120957
 31
0.0
  0
LINE
  5
2E53
  8
AM_0
 10
330.13845869545889
 20
951.71904921209557
 30
0.0
 11
332.13845869545889
 21
949.71904921209568
 31
0.0
  0
LINE
  5
2E54
  8
AM_0
 10
326.13845869545878
 20
966.71904921209568
 30
0.0
 11
330.13845869545889
 21
966.71904921209568
 31
0.0
  0
ARC
  5
2E55
  8
AM_0
 10
410.68305769545839
 20
905.19336721209561
 30
0.0
 40
3.0
 50
184.99999999999969
 51
270.0
  0
LINE
  5
2E56
  8
AM_0
 10
406.63845869545889
 20
917.00220221209565
 30
0.0
 11
407.69447269545878
 21
904.9319002120958
 31
0.0
  0
LINE
  5
2E57
  8
AM_0
 10
332.13845869545889
 20
986.7190492120958
 30
0.0
 11
332.13845869545889
 21
1041.770958212094
 31
0.0
  0
LINE
  5
2E58
  8
AM_0
 10
330.13845869545889
 20
986.7190492120958
 30
0.0
 11
330.13845869545889
 21
1021.719049212095
 31
0.0
  0
LINE
  5
2E59
  8
AM_0
 10
361.14476569545877
 20
1042.886860212094
 30
0.0
 11
361.14476569545877
 21
986.7190492120958
 31
0.0
  0
LINE
  5
2E5A
  8
AM_0
 10
313.13845869545889
 20
991.71904421209558
 30
0.0
 11
313.13845869545889
 21
981.71904421209558
 31
0.0
  0
ARC
  5
2E5B
  8
AM_0
 10
313.13845869545889
 20
986.7190442120957
 30
0.0
 40
5.0
 50
270.0
 51
90.0
  0
LINE
  5
2E5C
  8
AM_0
 10
326.13845869545878
 20
1006.719049212094
 30
0.0
 11
330.13845869545889
 21
1006.719049212094
 31
0.0
  0
ARC
  5
2E5D
  8
AM_0
 10
335.13845869545878
 20
1041.770958212094
 30
0.0
 40
3.0
 50
90.999999999998494
 51
180.0
  0
LINE
  5
2E5E
  8
AM_0
 10
330.13845869545889
 20
1021.719049212095
 30
0.0
 11
332.13845869545889
 21
1023.719049212095
 31
0.0
  0
LINE
  5
2E5F
  8
AM_0
 10
335.08610169545881
 20
1044.770501212095
 30
0.0
 11
357.10511869545883
 21
1045.154844212095
 31
0.0
  0
ARC
  5
2E60
  8
AM_0
 10
417.63845869545878
 20
1103.719039212094
 30
0.0
 40
3.0
 50
90.0
 51
180.0
  0
LINE
  5
2E61
  8
AM_0
 10
410.7484566954584
 20
1086.8010702120951
 30
0.0
 11
434.63845869545878
 21
1086.8010702120951
 31
0.0
  0
LINE
  5
2E62
  8
AM_0
 10
410.68305769545839
 20
1071.2447212120951
 30
0.0
 11
434.63845869545878
 21
1071.2447212120951
 31
0.0
  0
LINE
  5
2E63
  8
AM_0
 10
433.4582436954588
 20
1056.4358862120951
 30
0.0
 11
407.67648969545849
 21
1056.4358862120951
 31
0.0
  0
LINE
  5
2E64
  8
AM_0
 10
406.63845869545889
 20
1071.2447212120951
 30
0.0
 11
407.75987169545851
 21
1084.0625372120951
 31
0.0
  0
LINE
  5
2E65
  8
AM_0
 10
410.73619469545878
 20
1083.8843372120939
 30
0.0
 11
410.69297869545852
 21
1073.604727212095
 31
0.0
  0
LINE
  5
2E66
  8
AM_0
 10
413.17399269545871
 20
1097.254583212095
 30
0.0
 11
364.00166269545878
 21
1048.0822532120951
 31
0.0
  0
LINE
  5
2E67
  8
AM_0
 10
406.63845869545889
 20
1056.4358862120951
 30
0.0
 11
407.69447269545878
 21
1068.506188212094
 31
0.0
  0
ARC
  5
2E68
  8
AM_0
 10
410.68305769545839
 20
1068.244721212096
 30
0.0
 40
3.0
 50
90.0
 51
175.00000000000011
  0
ARC
  5
2E69
  8
AM_0
 10
409.63845869545889
 20
1100.790106212095
 30
0.0
 40
5.0
 50
315.0
 51
0.0
  0
LINE
  5
2E6A
  8
AM_0
 10
414.63845869545889
 20
1103.719039212094
 30
0.0
 11
414.63845869545889
 21
1086.8010702120951
 31
0.0
  0
ARC
  5
2E6B
  8
AM_0
 10
410.7484566954584
 20
1083.8010702120951
 30
0.0
 40
3.0
 50
90.0
 51
175.00000000000011
  0
LINE
  5
2E6C
  8
AM_0
 10
432.63845869545878
 20
1086.8010702120951
 30
0.0
 11
432.63845869545878
 21
1106.719039212094
 31
0.0
  0
LINE
  5
2E6D
  8
AM_0
 10
417.63845869545878
 20
1106.719039212094
 30
0.0
 11
432.63845869545878
 21
1106.719039212094
 31
0.0
  0
LINE
  5
2E6E
  8
AM_0
 10
434.63845869545878
 20
1104.719039212094
 30
0.0
 11
432.63845869545878
 21
1106.719039212094
 31
0.0
  0
ARC
  5
2E70
  8
ﾁｭｳｼﾝｾﾝ1
 10
1157.2212348728831
 20
496.61251095040001
 30
0.0
 40
225.00000499999999
 50
129.522986
 51
141.30384699999991
  0
LINE
  5
2E71
  8
ﾁｭｳｼﾝｾﾝ1
 10
982.91942987288326
 20
670.91433095039997
 30
0.0
 11
1016.401999650388
 21
637.43177509036411
 31
0.0
  0
ARC
  5
2E72
  8
ﾁｭｳｼﾝｾﾝ1
 10
1157.2212348728831
 20
496.61251095040001
 30
0.0
 40
225.00000499999999
 50
309.52297999999979
 51
320.47701999999998
  0
LINE
  5
2E73
  8
ﾁｭｳｼﾝｾﾝ1
 10
1331.523084872882
 20
322.31068595039977
 30
0.0
 11
1301.117474872882
 21
352.71626595039987
 31
0.0
  0
LINE
  5
2E74
  8
AM_0
 10
717.63841869545865
 20
956.71908421209594
 30
0.0
 11
822.63841869545865
 21
956.71908421209594
 31
0.0
  0
LINE
  5
2E75
  8
AM_0
 10
741.63841869545854
 20
995.7190442120957
 30
0.0
 11
822.63841869545865
 21
995.7190442120957
 31
0.0
  0
LINE
  5
2E76
  8
AM_0
 10
741.63841869545854
 20
977.71908421209582
 30
0.0
 11
822.63841869545865
 21
977.71908421209582
 31
0.0
  0
LINE
  5
2E77
  8
AM_0
 10
717.63841869545865
 20
1016.719044212095
 30
0.0
 11
822.63841869545865
 21
1016.719044212095
 31
0.0
  0
LINE
  5
2E78
  8
ﾁｭｳｼﾝｾﾝ
 10
254.95929743501151
 20
986.7190442120957
 30
0.0
 11
838.46135869545856
 21
986.7190442120957
 31
0.0
  0
POLYLINE
  5
2E79
  8
AM_0
 66
     1
 10
0.0
 20
0.0
 30
0.0
  0
VERTEX
  5
2E7A
  8
AM_0
 10
662.02191869545845
 20
1081.308244212094
 30
0.0
 42
0.034282229
  0
VERTEX
  5
2E7B
  8
AM_0
 10
652.97761869545855
 20
1018.462044212095
 30
0.0
 42
0.072426646
  0
VERTEX
  5
2E7C
  8
AM_0
 10
662.02191869545845
 20
892.12990421209565
 30
0.0
  0
SEQEND
  5
2E7D
  8
AM_0
  0
LINE
  5
2E7E
  8
AM_0
 10
712.63841869545865
 20
831.71908421209559
 30
0.0
 11
712.63841869545865
 21
1141.719044212095
 31
0.0
  0
LINE
  5
2E7F
  8
AM_0
 10
682.63841869545865
 20
1168.719044212095
 30
0.0
 11
682.63841869545865
 21
804.71908421209559
 31
0.0
  0
LINE
  5
2E80
  8
AM_0
 10
691.63841869545865
 20
1133.277944212095
 30
0.0
 11
691.63841869545865
 21
840.14913421209565
 31
0.0
  0
LINE
  5
2E81
  8
AM_0
 10
707.63841869545865
 20
1171.719044212095
 30
0.0
 11
707.63841869545865
 21
801.71908421209525
 31
0.0
  0
LINE
  5
2E82
  8
AM_0
 10
494.13835869545852
 20
861.78768421209566
 30
0.0
 11
494.13835869545852
 21
1111.650444212095
 31
0.0
  0
LINE
  5
2E83
  8
AM_0
 10
514.13835869545846
 20
834.52114421209592
 30
0.0
 11
514.13835869545846
 21
981.71904421209558
 31
0.0
  0
LINE
  5
2E84
  8
AM_0
 10
434.63845869545872
 20
1106.719044212095
 30
0.0
 11
434.63845869545872
 21
866.71908421209537
 31
0.0
  0
LINE
  5
2E85
  8
AM_0
 10
447.63835869545852
 20
1104.719044212095
 30
0.0
 11
447.63835869545852
 21
868.71908421209525
 31
0.0
  0
LINE
  5
2E86
  8
AM_0
 10
569.13841869545877
 20
1145.6661442120951
 30
0.0
 11
569.13841869545877
 21
827.77206421209553
 31
0.0
  0
LINE
  5
2E87
  8
AM_0
 10
677.81291869545873
 20
823.97701421209558
 30
0.0
 11
569.13841869545877
 21
827.77206421209553
 31
0.0
  0
LINE
  5
2E88
  8
AM_0
 10
447.63835869545852
 20
900.04421421209565
 30
0.0
 11
494.13835869545852
 21
900.04421421209565
 31
0.0
  0
LINE
  5
2E89
  8
AM_0
 10
447.63835869545852
 20
915.78628421209567
 30
0.0
 11
494.13835869545852
 21
915.78628421209567
 31
0.0
  0
LINE
  5
2E8A
  8
AM_0
 10
449.63845869545872
 20
874.71908421209537
 30
0.0
 11
489.13835869545852
 21
874.71908421209537
 31
0.0
  0
LINE
  5
2E8B
  8
AM_0
 10
434.63845869545872
 20
886.99184421209554
 30
0.0
 11
447.63835869545852
 21
886.99184421209554
 31
0.0
  0
LINE
  5
2E8C
  8
AM_0
 10
434.63845869545872
 20
866.71908421209537
 30
0.0
 11
445.63845869545872
 21
866.71908421209537
 31
0.0
  0
ARC
  5
2E8D
  8
AM_0
 10
449.63845869545872
 20
872.71908421209594
 30
0.0
 40
2.0
 50
90.00000299999769
 51
180.00001000000091
  0
ARC
  5
2E8E
  8
AM_0
 10
445.63845869545872
 20
868.71908421209525
 30
0.0
 40
2.0
 50
270.0
 51
0.0
  0
LINE
  5
2E8F
  8
AM_0
 10
434.63845869545872
 20
902.54818421209575
 30
0.0
 11
447.63835869545852
 21
902.54818421209575
 31
0.0
  0
LINE
  5
2E90
  8
AM_0
 10
434.63845869545872
 20
910.72237421209593
 30
0.0
 11
447.63835869545852
 21
910.72237421209593
 31
0.0
  0
ARC
  5
2E91
  8
AM_0
 10
509.13835869545841
 20
851.09567421209533
 30
0.0
 40
5.0
 50
0.0
 51
86.16916099999878
  0
LINE
  5
2E92
  8
AM_0
 10
519.13835869545846
 20
839.62905421209564
 30
0.0
 11
545.13841869545865
 21
839.62905421209564
 31
0.0
  0
LINE
  5
2E93
  8
AM_0
 10
519.13835869545846
 20
850.41946421209593
 30
0.0
 11
545.13841869545865
 21
850.41946421209593
 31
0.0
  0
LINE
  5
2E94
  8
AM_0
 10
569.13841869545877
 20
827.77212421209549
 30
0.0
 11
518.96385869545873
 21
829.52425421209546
 31
0.0
  0
ARC
  5
2E95
  8
AM_0
 10
519.13835869545846
 20
834.52114421209592
 30
0.0
 40
5.0
 50
180.00001000000091
 51
268.00000999999861
  0
ARC
  5
2E96
  8
AM_0
 10
519.13835869545846
 20
834.62905421209553
 30
0.0
 40
5.0
 50
90.00000299999769
 51
180.00001000000091
  0
ARC
  5
2E97
  8
AM_0
 10
519.13835869545846
 20
855.41946421209593
 30
0.0
 40
5.0
 50
180.00001000000091
 51
270.0
  0
ARC
  5
2E98
  8
AM_0
 10
545.13841869545865
 20
848.4194642120957
 30
0.0
 40
2.0
 50
0.0
 51
90.00000299999769
  0
ARC
  5
2E99
  8
AM_0
 10
545.13841869545865
 20
841.62905421209564
 30
0.0
 40
2.0
 50
270.0
 51
0.0
  0
LINE
  5
2E9A
  8
AM_0
 10
547.13841869545865
 20
841.62905421209564
 30
0.0
 11
547.13841869545865
 21
848.4194642120957
 31
0.0
  0
LINE
  5
2E9B
  8
AM_0
 10
519.13835869545846
 20
937.69051421209565
 30
0.0
 11
545.13841869545865
 21
937.69051421209565
 31
0.0
  0
LINE
  5
2E9C
  8
AM_0
 10
519.13835869545846
 20
891.77493421209545
 30
0.0
 11
545.13841869545865
 21
891.77493421209545
 31
0.0
  0
ARC
  5
2E9D
  8
AM_0
 10
499.13835869545852
 20
861.78768421209566
 30
0.0
 40
5.0
 50
180.00001000000091
 51
266.1691699999995
  0
ARC
  5
2E9E
  8
AM_0
 10
489.13835869545852
 20
869.71908421209559
 30
0.0
 40
5.0
 50
0.0
 51
90.00000299999769
  0
LINE
  5
2E9F
  8
AM_0
 10
509.47239869545871
 20
856.08450421209568
 30
0.0
 11
498.80430869545847
 21
856.79885421209553
 31
0.0
  0
ARC
  5
2EA0
  8
AM_0
 10
519.13835869545846
 20
886.77493421209567
 30
0.0
 40
5.0
 50
90.00000299999769
 51
180.00001000000091
  0
ARC
  5
2EA1
  8
AM_0
 10
519.13835869545846
 20
942.69051421209565
 30
0.0
 40
5.0
 50
180.00001000000091
 51
270.0
  0
LINE
  5
2EA2
  8
AM_0
 10
547.13841869545865
 20
893.77493421209567
 30
0.0
 11
547.13841869545865
 21
935.69051421209565
 31
0.0
  0
ARC
  5
2EA3
  8
AM_0
 10
545.13841869545865
 20
893.77493421209567
 30
0.0
 40
2.0
 50
270.0
 51
0.0
  0
ARC
  5
2EA4
  8
AM_0
 10
545.13841869545865
 20
935.69051421209565
 30
0.0
 40
2.0
 50
0.0
 51
90.00000299999769
  0
LINE
  5
2EA5
  8
AM_0
 10
685.63841869545877
 20
801.71902421209575
 30
0.0
 11
707.63841869545865
 21
801.71902421209575
 31
0.0
  0
LINE
  5
2EA6
  8
AM_0
 10
682.63841869545865
 20
900.44772421209552
 30
0.0
 11
689.63841869545865
 21
900.44772421209552
 31
0.0
  0
LINE
  5
2EA7
  8
AM_0
 10
684.63841869545865
 20
838.16018421209537
 30
0.0
 11
689.63841869545865
 21
838.16018421209537
 31
0.0
  0
LINE
  5
2EA8
  8
AM_0
 10
680.27067869545874
 20
846.00643421209566
 30
0.0
 11
624.00615869545857
 21
880.84487421209565
 31
0.0
  0
ARC
  5
2EA9
  8
AM_0
 10
685.63841869545877
 20
804.71908421209559
 30
0.0
 40
3.0
 50
179.9999899999988
 51
270.0
  0
POLYLINE
  5
2EAA
  8
AM_0
 66
     1
 10
0.0
 20
0.0
 30
0.0
  0
VERTEX
  5
2EAB
  8
AM_0
 10
672.81172869545856
 20
850.62477421209564
 30
0.0
 42
0.0050438079
  0
VERTEX
  5
2EAC
  8
AM_0
 10
675.89373869545875
 20
840.92438421209545
 30
0.0
 42
0.0050105797
  0
VERTEX
  5
2EAD
  8
AM_0
 10
679.17015869545855
 20
831.28792421209562
 30
0.0
 42
0.0049830203
  0
VERTEX
  5
2EAE
  8
AM_0
 10
682.63841869545865
 20
821.71908421209559
 30
0.0
  0
SEQEND
  5
2EAF
  8
AM_0
  0
ARC
  5
2EB0
  8
AM_0
 10
677.63841869545865
 20
818.98013421209532
 30
0.0
 40
5.0
 50
0.0
 51
88.000000000002785
  0
ARC
  5
2EB1
  8
AM_0
 10
684.63841869545865
 20
836.16018421209594
 30
0.0
 40
2.0
 50
90.00000299999769
 51
180.00001000000091
  0
ARC
  5
2EB2
  8
AM_0
 10
677.63841869545865
 20
841.75546421209594
 30
0.0
 40
5.0
 50
0.0
 51
58.234630000004231
  0
LINE
  5
2EB3
  8
AM_0
 10
626.63841869545877
 20
894.27645421209559
 30
0.0
 11
657.47868869545846
 21
894.27645421209559
 31
0.0
  0
LINE
  5
2EB4
  8
AM_0
 10
680.27061869545855
 20
857.97195421209562
 30
0.0
 11
625.33354869545872
 21
891.98843421209574
 31
0.0
  0
ARC
  5
2EB5
  8
AM_0
 10
626.63841869545877
 20
889.2764542120957
 30
0.0
 40
5.0
 50
90.00000299999769
 51
180.00001000000091
  0
ARC
  5
2EB6
  8
AM_0
 10
626.63841869545877
 20
885.09591421209564
 30
0.0
 40
5.0
 50
179.9999899999988
 51
238.2346499999997
  0
LINE
  5
2EB7
  8
AM_0
 10
621.63841869545865
 20
885.09591421209564
 30
0.0
 11
621.63841869545865
 21
889.2764542120957
 31
0.0
  0
ARC
  5
2EB8
  8
AM_0
 10
657.47868869545846
 20
889.2764542120957
 30
0.0
 40
5.0
 50
53.388504999997892
 51
90.00000299999769
  0
LINE
  5
2EB9
  8
AM_0
 10
682.63841869545865
 20
876.8123442120957
 30
0.0
 11
660.46068869545854
 21
893.28988421209567
 31
0.0
  0
LINE
  5
2EBA
  8
AM_0
 10
707.63841869545865
 20
831.71908421209559
 30
0.0
 11
712.63841869545865
 21
831.71908421209559
 31
0.0
  0
ARC
  5
2EBB
  8
AM_0
 10
689.63841869545865
 20
840.16018421209549
 30
0.0
 40
2.0
 50
270.0
 51
0.0
  0
ARC
  5
2EBC
  8
AM_0
 10
689.63841869545865
 20
902.44772421209575
 30
0.0
 40
2.0
 50
270.0
 51
0.0
  0
LINE
  5
2EBD
  8
AM_0
 10
677.81291869545873
 20
1149.4610442120941
 30
0.0
 11
569.13841869545877
 21
1145.6661442120951
 31
0.0
  0
ARC
  5
2EBE
  8
AM_0
 10
519.13835869545846
 20
1138.809044212094
 30
0.0
 40
5.0
 50
180.00001000000091
 51
270.0
  0
LINE
  5
2EBF
  8
AM_0
 10
514.13835869545846
 20
991.71904421209558
 30
0.0
 11
514.13835869545846
 21
1138.916944212094
 31
0.0
  0
LINE
  5
2EC0
  8
AM_0
 10
447.63835869545852
 20
1073.394044212095
 30
0.0
 11
494.13835869545852
 21
1073.394044212095
 31
0.0
  0
LINE
  5
2EC1
  8
AM_0
 10
447.63835869545852
 20
1057.6518442120951
 30
0.0
 11
494.13835869545852
 21
1057.6518442120951
 31
0.0
  0
LINE
  5
2EC2
  8
AM_0
 10
449.63845869545872
 20
1098.719044212095
 30
0.0
 11
489.13835869545852
 21
1098.719044212095
 31
0.0
  0
LINE
  5
2EC3
  8
AM_0
 10
434.63845869545872
 20
1062.715644212094
 30
0.0
 11
447.63835869545852
 21
1062.715644212094
 31
0.0
  0
LINE
  5
2EC4
  8
AM_0
 10
434.63845869545872
 20
1070.8898442120951
 30
0.0
 11
447.63835869545852
 21
1070.8898442120951
 31
0.0
  0
LINE
  5
2EC5
  8
AM_0
 10
434.63845869545872
 20
1086.4462442120951
 30
0.0
 11
447.63835869545852
 21
1086.4462442120951
 31
0.0
  0
LINE
  5
2EC6
  8
AM_0
 10
434.63845869545872
 20
1106.719044212095
 30
0.0
 11
445.63845869545872
 21
1106.719044212095
 31
0.0
  0
ARC
  5
2EC7
  8
AM_0
 10
449.63845869545872
 20
1100.719044212095
 30
0.0
 40
2.0
 50
179.9999899999988
 51
270.0
  0
ARC
  5
2EC8
  8
AM_0
 10
445.63845869545872
 20
1104.719044212095
 30
0.0
 40
2.0
 50
0.0
 51
90.00000299999769
  0
LINE
  5
2EC9
  8
AM_0
 10
547.13841869545865
 20
1079.663344212094
 30
0.0
 11
547.13841869545865
 21
1037.7476442120951
 31
0.0
  0
ARC
  5
2ECA
  8
AM_0
 10
529.13841869545865
 20
986.7190442120957
 30
0.0
 40
12.5
 50
203.5781799999973
 51
336.42183000000068
  0
ARC
  5
2ECB
  8
AM_0
 10
529.13841869545865
 20
986.7190442120957
 30
0.0
 40
12.5
 50
23.578179999997531
 51
156.42182000000241
  0
LINE
  5
2ECC
  8
AM_0
 10
519.13835869545846
 20
1035.7476442120951
 30
0.0
 11
545.13841869545865
 21
1035.7476442120951
 31
0.0
  0
LINE
  5
2ECD
  8
AM_0
 10
509.13841869545871
 20
991.71904421209558
 30
0.0
 11
549.13841869545865
 21
991.71904421209558
 31
0.0
  0
LINE
  5
2ECE
  8
AM_0
 10
509.13841869545871
 20
981.71904421209558
 30
0.0
 11
549.13841869545865
 21
981.71904421209558
 31
0.0
  0
ARC
  5
2ECF
  8
AM_0
 10
509.13841869545871
 20
986.7190442120957
 30
0.0
 40
5.0
 50
90.00000299999769
 51
270.0
  0
ARC
  5
2ED0
  8
AM_0
 10
519.13835869545846
 20
1030.7476442120951
 30
0.0
 40
5.0
 50
90.00000299999769
 51
180.00001000000091
  0
ARC
  5
2ED1
  8
AM_0
 10
549.13841869545865
 20
986.7190442120957
 30
0.0
 40
5.0
 50
270.0
 51
90.00000299999769
  0
ARC
  5
2ED2
  8
AM_0
 10
545.13841869545865
 20
1037.7476442120951
 30
0.0
 40
2.0
 50
270.0
 51
0.0
  0
LINE
  5
2ED3
  8
AM_0
 10
519.13835869545846
 20
1123.0186442120951
 30
0.0
 11
545.13841869545865
 21
1123.0186442120951
 31
0.0
  0
LINE
  5
2ED4
  8
AM_0
 10
519.13835869545846
 20
1081.663344212094
 30
0.0
 11
545.13841869545865
 21
1081.663344212094
 31
0.0
  0
LINE
  5
2ED5
  8
AM_0
 10
519.13835869545846
 20
1133.809044212094
 30
0.0
 11
545.13841869545865
 21
1133.809044212094
 31
0.0
  0
ARC
  5
2ED6
  8
AM_0
 10
519.13835869545846
 20
1086.663344212094
 30
0.0
 40
5.0
 50
180.00001000000091
 51
270.0
  0
ARC
  5
2ED7
  8
AM_0
 10
499.13835869545852
 20
1111.650444212095
 30
0.0
 40
5.0
 50
93.830836999998056
 51
180.00001000000091
  0
ARC
  5
2ED8
  8
AM_0
 10
489.13835869545852
 20
1103.7190442120941
 30
0.0
 40
5.0
 50
270.0
 51
0.0
  0
ARC
  5
2ED9
  8
AM_0
 10
509.13835869545841
 20
1122.342544212094
 30
0.0
 40
5.0
 50
273.83084000000281
 51
0.0
  0
LINE
  5
2EDA
  8
AM_0
 10
509.47246869545847
 20
1117.3536442120951
 30
0.0
 11
498.80430869545847
 21
1116.6392442120939
 31
0.0
  0
ARC
  5
2EDB
  8
AM_0
 10
519.13835869545846
 20
1118.0186442120951
 30
0.0
 40
5.0
 50
90.00000299999769
 51
180.00001000000091
  0
ARC
  5
2EDC
  8
AM_0
 10
545.13841869545865
 20
1079.663344212094
 30
0.0
 40
2.0
 50
0.0
 51
90.00000299999769
  0
ARC
  5
2EDD
  8
AM_0
 10
545.13841869545865
 20
1131.809044212094
 30
0.0
 40
2.0
 50
0.0
 51
90.00000299999769
  0
ARC
  5
2EDE
  8
AM_0
 10
545.13841869545865
 20
1125.0186442120951
 30
0.0
 40
2.0
 50
270.0
 51
0.0
  0
LINE
  5
2EDF
  8
AM_0
 10
547.13841869545865
 20
1131.809044212094
 30
0.0
 11
547.13841869545865
 21
1125.0186442120951
 31
0.0
  0
LINE
  5
2EE0
  8
AM_0
 10
569.13841869545877
 20
1145.6661442120951
 30
0.0
 11
518.96385869545873
 21
1143.913944212095
 31
0.0
  0
ARC
  5
2EE1
  8
AM_0
 10
519.13835869545846
 20
1138.916944212094
 30
0.0
 40
5.0
 50
91.999998000000545
 51
180.00001000000091
  0
POLYLINE
  5
2EE2
  8
AM_0
 66
     1
 10
0.0
 20
0.0
 30
0.0
  0
VERTEX
  5
2EE3
  8
AM_0
 10
682.63841869545865
 20
1151.719044212095
 30
0.0
  0
VERTEX
  5
2EE4
  8
AM_0
 10
672.81177869545866
 20
1122.813544212094
 30
0.0
 42
-1.0
  0
SEQEND
  5
2EE5
  8
AM_0
  0
ARC
  5
2EE6
  8
AM_0
 10
684.63841869545865
 20
1137.277944212095
 30
0.0
 40
2.0
 50
179.9999899999988
 51
270.0
  0
ARC
  5
2EE7
  8
AM_0
 10
689.63841869545865
 20
1133.277944212095
 30
0.0
 40
2.0
 50
0.0
 51
90.00000299999769
  0
LINE
  5
2EE8
  8
AM_0
 10
682.63841869545865
 20
1072.9904442120951
 30
0.0
 11
689.63841869545865
 21
1072.9904442120951
 31
0.0
  0
LINE
  5
2EE9
  8
AM_0
 10
626.63841869545877
 20
1079.1617442120951
 30
0.0
 11
657.47868869545846
 21
1079.1617442120951
 31
0.0
  0
LINE
  5
2EEA
  8
AM_0
 10
680.2705586954587
 20
1115.4661442120951
 30
0.0
 11
625.33354869545872
 21
1081.4498442120951
 31
0.0
  0
LINE
  5
2EEB
  8
AM_0
 10
680.27061869545855
 20
1127.4317442120951
 30
0.0
 11
624.00615869545857
 21
1092.5933442120941
 31
0.0
  0
ARC
  5
2EEC
  8
AM_0
 10
626.63841869545877
 20
1088.342244212095
 30
0.0
 40
5.0
 50
121.7653600000025
 51
180.00001000000091
  0
ARC
  5
2EED
  8
AM_0
 10
626.63841869545877
 20
1084.1617442120951
 30
0.0
 40
5.0
 50
179.9999899999988
 51
270.0
  0
LINE
  5
2EEE
  8
AM_0
 10
621.63841869545865
 20
1088.342244212095
 30
0.0
 11
621.63841869545865
 21
1084.1617442120951
 31
0.0
  0
LINE
  5
2EEF
  8
AM_0
 10
682.63847869545873
 20
1096.625844212095
 30
0.0
 11
660.46062869545847
 21
1080.1481442120951
 31
0.0
  0
ARC
  5
2EF0
  8
AM_0
 10
657.47868869545846
 20
1084.1617442120951
 30
0.0
 40
5.0
 50
270.0
 51
306.61150000000112
  0
ARC
  5
2EF1
  8
AM_0
 10
677.63841869545865
 20
1131.682744212095
 30
0.0
 40
5.0
 50
301.7653699999957
 51
0.0
  0
ARC
  5
2EF2
  8
AM_0
 10
741.63841869545854
 20
986.7190442120957
 30
0.0
 40
9.0
 50
90.00000299999769
 51
270.0
  0
LINE
  5
2EF3
  8
AM_0
 10
717.63841869545865
 20
1019.219044212094
 30
0.0
 11
717.63841869545865
 21
954.21908421209537
 31
0.0
  0
LINE
  5
2EF4
  8
AM_0
 10
712.63841869545865
 20
954.21908421209537
 30
0.0
 11
717.63841869545865
 21
954.21908421209537
 31
0.0
  0
LINE
  5
2EF5
  8
AM_0
 10
712.63841869545865
 20
1019.219044212094
 30
0.0
 11
717.63841869545865
 21
1019.219044212094
 31
0.0
  0
LINE
  5
2EF6
  8
AM_0
 10
741.63841869545854
 20
995.7190442120957
 30
0.0
 11
741.63841869545854
 21
977.71908421209582
 31
0.0
  0
ARC
  5
2EF7
  8
AM_0
 10
689.63841869545865
 20
1070.9904442120951
 30
0.0
 40
2.0
 50
0.0
 51
90.00000299999769
  0
LINE
  5
2EF8
  8
AM_0
 10
685.63841869545877
 20
1171.719044212095
 30
0.0
 11
707.63841869545865
 21
1171.719044212095
 31
0.0
  0
LINE
  5
2EF9
  8
AM_0
 10
684.63841869545865
 20
1135.277944212095
 30
0.0
 11
689.63841869545865
 21
1135.277944212095
 31
0.0
  0
ARC
  5
2EFA
  8
AM_0
 10
677.63841869545865
 20
1154.458144212095
 30
0.0
 40
5.0
 50
271.9999999999971
 51
0.0
  0
ARC
  5
2EFB
  8
AM_0
 10
685.63841869545877
 20
1168.719044212095
 30
0.0
 40
3.0
 50
90.00000299999769
 51
180.00001000000091
  0
LINE
  5
2EFC
  8
AM_0
 10
707.63841869545865
 20
1141.719044212095
 30
0.0
 11
712.63841869545865
 21
1141.719044212095
 31
0.0
  0
LINE
  5
2EFD
  8
AM_0
 10
822.63841869545865
 20
1016.719044212095
 30
0.0
 11
822.63841869545865
 21
956.71908421209594
 31
0.0
  0
TEXT
  5
30DD
  8
AM_0
 10
955.9364875714532
 20
1054.059022483337
 30
0.0
 40
20.0
  1
VX55-040GF~VX55-060GF
  0
ENDSEC
  0
EOF
