  0
SECTION
  2
HEADER
  9
$ACADVER
  1
AC1009
  9
$INSBASE
 10
0.0
 20
0.0
 30
0.0
  9
$EXTMIN
 10
223.13819611973389
 20
223.0438627848275
 30
-0.0015258207003583
  9
$EXTMAX
 10
1478.613392101267
 20
1330.9522437514099
 30
0.0000000349246037
  9
$LIMMIN
 10
0.0
 20
0.0
  9
$LIMMAX
 10
1991.5
 20
1295.0
  9
$ORTHOMODE
 70
     0
  9
$REGENMODE
 70
     1
  9
$FILLMODE
 70
     1
  9
$QTEXTMODE
 70
     0
  9
$MIRRTEXT
 70
     1
  9
$DRAGMODE
 70
     2
  9
$LTSCALE
 40
7.0
  9
$OSMODE
 70
   551
  9
$ATTMODE
 70
     1
  9
$TEXTSIZE
 40
2.5
  9
$TRACEWID
 40
1.0
  9
$TEXTSTYLE
  7
STANDARD
  9
$CLAYER
  8
AM_0
  9
$CELTYPE
  6
BYLAYER
  9
$CECOLOR
 62
   256
  9
$DIMSCALE
 40
1.0
  9
$DIMASZ
 40
2.5
  9
$DIMEXO
 40
1.0
  9
$DIMDLI
 40
8.0
  9
$DIMRND
 40
0.0
  9
$DIMDLE
 40
0.0
  9
$DIMEXE
 40
0.6
  9
$DIMTP
 40
0.1
  9
$DIMTM
 40
0.1
  9
$DIMTXT
 40
2.5
  9
$DIMCEN
 40
0.0
  9
$DIMTSZ
 40
0.0
  9
$DIMTOL
 70
     0
  9
$DIMLIM
 70
     0
  9
$DIMTIH
 70
     0
  9
$DIMTOH
 70
     0
  9
$DIMSE1
 70
     0
  9
$DIMSE2
 70
     0
  9
$DIMTAD
 70
     1
  9
$DIMZIN
 70
     8
  9
$DIMBLK
  1

  9
$DIMASO
 70
     1
  9
$DIMSHO
 70
     1
  9
$DIMPOST
  1

  9
$DIMAPOST
  1
"
  9
$DIMALT
 70
     0
  9
$DIMALTD
 70
     2
  9
$DIMALTF
 40
0.0393701
  9
$DIMLFAC
 40
1.0
  9
$DIMTOFL
 70
     1
  9
$DIMTVP
 40
0.0
  9
$DIMTIX
 70
     0
  9
$DIMSOXD
 70
     0
  9
$DIMSAH
 70
     0
  9
$DIMBLK1
  1

  9
$DIMBLK2
  1

  9
$DIMSTYLE
  2
AM_ISO
  9
$DIMCLRD
 70
   256
  9
$DIMCLRE
 70
   256
  9
$DIMCLRT
 70
     4
  9
$DIMTFAC
 40
0.71
  9
$DIMGAP
 40
0.8
  9
$LUNITS
 70
     2
  9
$LUPREC
 70
     2
  9
$SKETCHINC
 40
1.0
  9
$FILLETRAD
 40
35.0
  9
$AUNITS
 70
     0
  9
$AUPREC
 70
     0
  9
$MENU
  1
.
  9
$ELEVATION
 40
0.0
  9
$PELEVATION
 40
0.0
  9
$THICKNESS
 40
0.0
  9
$LIMCHECK
 70
     0
  9
$BLIPMODE
 70
     0
  9
$CHAMFERA
 40
14.0
  9
$CHAMFERB
 40
7.0
  9
$SKPOLY
 70
     0
  9
$TDCREATE
 40
2452067.3700491898
  9
$TDUPDATE
 40
2458541.4521878008
  9
$TDINDWG
 40
0.0826553472
  9
$TDUSRTIMER
 40
0.0826551505
  9
$USRTIMER
 70
     1
  9
$ANGBASE
 50
0.0
  9
$ANGDIR
 70
     0
  9
$PDMODE
 70
     0
  9
$PDSIZE
 40
0.0
  9
$PLINEWID
 40
0.0
  9
$COORDS
 70
     1
  9
$SPLFRAME
 70
     0
  9
$SPLINETYPE
 70
     6
  9
$SPLINESEGS
 70
     8
  9
$ATTDIA
 70
     1
  9
$ATTREQ
 70
     1
  9
$HANDLING
 70
     1
  9
$HANDSEED
  5
320B
  9
$SURFTAB1
 70
     6
  9
$SURFTAB2
 70
     6
  9
$SURFTYPE
 70
     6
  9
$SURFU
 70
     6
  9
$SURFV
 70
     6
  9
$UCSNAME
  2

  9
$UCSORG
 10
0.0
 20
0.0
 30
0.0
  9
$UCSXDIR
 10
1.0
 20
0.0
 30
0.0
  9
$UCSYDIR
 10
0.0
 20
1.0
 30
0.0
  9
$PUCSNAME
  2

  9
$PUCSORG
 10
0.0
 20
0.0
 30
0.0
  9
$PUCSXDIR
 10
1.0
 20
0.0
 30
0.0
  9
$PUCSYDIR
 10
0.0
 20
1.0
 30
0.0
  9
$USERI1
 70
     0
  9
$USERI2
 70
     0
  9
$USERI3
 70
     0
  9
$USERI4
 70
     0
  9
$USERI5
 70
     0
  9
$USERR1
 40
0.0
  9
$USERR2
 40
0.0
  9
$USERR3
 40
0.0
  9
$USERR4
 40
0.0
  9
$USERR5
 40
0.0
  9
$WORLDVIEW
 70
     1
  9
$SHADEDGE
 70
     3
  9
$SHADEDIF
 70
    70
  9
$TILEMODE
 70
     1
  9
$MAXACTVP
 70
    64
  9
$PLIMCHECK
 70
     0
  9
$PEXTMIN
 10
1.0000000000000000E+020
 20
1.0000000000000000E+020
 30
1.0000000000000000E+020
  9
$PEXTMAX
 10
-1.0000000000000000E+020
 20
-1.0000000000000000E+020
 30
-1.0000000000000000E+020
  9
$PLIMMIN
 10
0.0
 20
0.0
  9
$PLIMMAX
 10
420.0
 20
297.0
  9
$UNITMODE
 70
     0
  9
$VISRETAIN
 70
     1
  9
$PLINEGEN
 70
     0
  9
$PSLTSCALE
 70
     1
  0
ENDSEC
  0
SECTION
  2
TABLES
  0
TABLE
  2
VPORT
 70
     1
  0
VPORT
  2
*ACTIVE
 70
     0
 10
0.0
 20
0.0
 11
1.0
 21
1.0
 12
850.87579411050024
 22
776.99805326811872
 13
0.0
 23
0.0
 14
17.5
 24
17.5
 15
70.0
 25
70.0
 16
0.0
 26
0.0
 36
1.0
 17
0.0
 27
0.0
 37
0.0
 40
1115.514159325621
 41
1.7571592210767459
 42
50.0
 43
0.0
 44
0.0
 50
0.0
 51
0.0
 71
     0
 72
   100
 73
     1
 74
     3
 75
     0
 76
     0
 77
     0
 78
     0
  0
ENDTAB
  0
TABLE
  2
LTYPE
 70
    26
  0
LTYPE
  2
CONTINUOUS
 70
     0
  3
Solid line
 72
    65
 73
     0
 40
0.0
  0
LTYPE
  2
AM_ISO02W050
 70
     0
  3
__ __ __ __ __ __ __ __ __ __ __ __ __ __ __
 72
    65
 73
     2
 40
7.5
 49
6.0
 49
-1.5
  0
LTYPE
  2
AM_ISO08W050
 70
     0
  3
____ . ____ . ____ . ____ . ____ . ____ . ____
 72
    65
 73
     4
 40
18.0
 49
12.0
 49
-1.5
 49
3.0
 49
-1.5
  0
LTYPE
  2
AM_ISO09W050
 70
     0
  3
_____ . . _____ . . _____ . . ____ .. ____
 72
    65
 73
     6
 40
22.5
 49
12.0
 49
-1.5
 49
3.0
 49
-1.5
 49
3.0
 49
-1.5
  0
LTYPE
  2
AMCONSTR
 70
     0
  3
_______________________
 72
    65
 73
     2
 40
9999.0
 49
9999.0
 49
0.0
  0
LTYPE
  2
AM_ISO08W050X2
 70
     0
  3
__ . __ . __ . __ . __ . __
 72
    65
 73
     4
 40
9.0
 49
6.0
 49
-0.75
 49
1.5
 49
-0.75
  0
LTYPE
  2
AM_ISO02W050X2
 70
     0
  3
 _ _ _ _ _ _ _ _ _ _ _ _
 72
    65
 73
     2
 40
3.75
 49
3.0
 49
-0.75
  0
LTYPE
  2
AMZIGZAG
 70
     0
  3
/\/-/\/-/\/-/\/-/\/-/\/
 72
    65
 73
     2
 40
11.000099999999991
 49
0.0001
 49
-11.0
  0
LTYPE
  2
ACISOWELD
 70
     0
  3
_ _ _ _ _
 72
    65
 73
     2
 40
2.0
 49
2.0
 49
-1.0
  0
LTYPE
  2
ACISOTGB
 70
     0
  3
__ . . __ . .
 72
    65
 73
     6
 40
9.0
 49
4.0
 49
-1.0
 49
1.0
 49
-1.0
 49
1.0
 49
-1.0
  0
LTYPE
  2
ACISOTGL
 70
     0
  3
_ _ _ _ _
 72
    65
 73
     2
 40
3.0
 49
2.0
 49
-1.0
  0
LTYPE
  2
CENTER
 70
     0
  3
__ . __
 72
    65
 73
     4
 40
7.0
 49
4.0
 49
-1.0
 49
1.0
 49
-1.0
  0
LTYPE
  2
PHANTOM2
 70
     0
  3
Phantom (.5x) ___ _ _ ___ _ _ ___ _ _ ___ _ _
 72
    65
 73
     6
 40
31.75
 49
15.875
 49
-3.174999999999998
 49
3.174999999999998
 49
-3.174999999999998
 49
3.174999999999998
 49
-3.174999999999998
  0
LTYPE
  2
ACANSTGBM
 70
     0
  3
__ . . __ . .
 72
    65
 73
     6
 40
9.0
 49
4.0
 49
-1.0
 49
1.0
 49
-1.0
 49
1.0
 49
-1.0
  0
LTYPE
  2
ACANSTGLM
 70
     0
  3
_ _ _ _ _
 72
    65
 73
     2
 40
3.0
 49
2.0
 49
-1.0
  0
LTYPE
  2
GEN7
 70
     0
  3
____ . ____ . ____ . ____ . ____ . ____ . ____
 72
    65
 73
     4
 40
14.25
 49
9.75
 49
-1.5
 49
1.5
 49
-1.5
  0
LTYPE
  2
GEN7A
 70
     0
  3
__ . __ . __
 72
    65
 73
     4
 40
7.375
 49
4.75
 49
-0.875
 49
0.875
 49
-0.875
  0
LTYPE
  2
ACJISTGB
 70
     0
  3
__ . . __ . .
 72
    65
 73
     6
 40
9.0
 49
4.0
 49
-1.0
 49
1.0
 49
-1.0
 49
1.0
 49
-1.0
  0
LTYPE
  2
ACJISTGL
 70
     0
  3
_ _ _ _ _
 72
    65
 73
     2
 40
3.0
 49
2.0
 49
-1.0
  0
LTYPE
  2
HIDDEN
 70
     0
  3
Hidden __ __ __ __ __ __ __ __ __ __ __ __ __ _
 72
    65
 73
     2
 40
0.375
 49
0.25
 49
-0.125
  0
LTYPE
  2
CENTER2
 70
     0
  3
Center (.5x) ___ _ ___ _ ___ _ ___ _ ___ _ ___
 72
    65
 73
     4
 40
1.125
 49
0.75
 49
-0.125
 49
0.125
 49
-0.125
  0
LTYPE
  2
HIDDEN2
 70
     0
  3
Hidden (.5x) _ _ _ _ _ _ _ _ _ _ _ _ _ _ _ _ _
 72
    65
 73
     2
 40
0.1875
 49
0.125
 49
-0.0625
  0
LTYPE
  2
AMZIGZAG2
 70
     0
  3
/\/-/\/-/\/-/\/-/\/-/\/
 72
    65
 73
     2
 40
0.4401
 49
0.0001
 49
-0.4400000000000003
  0
LTYPE
  2
ACANSTGB
 70
     0
  3
__ . . __ . .
 72
    65
 73
     6
 40
0.35433070866
 49
0.15748031496
 49
-0.03937007874
 49
0.03937007874
 49
-0.03937007874
 49
0.03937007874
 49
-0.03937007874
  0
LTYPE
  2
ACANSTGL
 70
     0
  3
_ _ _ _ _
 72
    65
 73
     2
 40
0.11811023622
 49
0.07874015748
 49
-0.03937007874
  0
ENDTAB
  0
TABLE
  2
LAYER
 70
     6
  0
LAYER
  2
0
 70
     0
 62
     7
  6
CONTINUOUS
  0
LAYER
  2
AM_0
 70
     0
 62
     7
  6
CONTINUOUS
  0
LAYER
  2
AM_5
 70
     0
 62
     2
  6
CONTINUOUS
  0
LAYER
  2
DEFPOINTS
 70
     0
 62
     7
  6
CONTINUOUS
  0
LAYER
  2
ﾁｭｳｼﾝｾﾝ
 70
     0
 62
     1
  6
GEN7
  0
LAYER
  2
ﾁｭｳｼﾝｾﾝ1
 70
     0
 62
     1
  6
GEN7A
  0
ENDTAB
  0
TABLE
  2
STYLE
 70
     9
  0
STYLE
  2
STANDARD
 70
     0
 40
0.0
 41
0.8299999999999999
 50
0.0
 71
     0
 42
2.5
  3
txt.shx
  4
bigfont.shx
  0
STYLE
  2
ANNOTATIVE
 70
     0
 40
0.0
 41
1.0
 50
0.0
 71
     0
 42
0.2
  3
txt
  4

  0
STYLE
  2

 70
     1
 40
0.0
 41
1.0
 50
0.0
 71
     0
 42
2.5
  3
ltypeshp.shx
  4

  0
STYLE
  2
ACISOTS
 70
     0
 40
1.0
 41
1.0
 50
0.0
 71
     0
 42
2.5
  3
isocp.shx
  4
extfont.shx
  0
STYLE
  2
ACISOGDT
 70
     0
 40
0.0
 41
1.0
 50
0.0
 71
     0
 42
2.5
  3
amgdt.shx
  4

  0
STYLE
  2
ACANSTS
 70
     0
 40
1.0
 41
1.0
 50
0.0
 71
     0
 42
2.5
  3
romans.shx
  4
bigfont.shx
  0
STYLE
  2
ACANSGDT
 70
     0
 40
0.0
 41
1.0
 50
0.0
 71
     0
 42
2.5
  3
amgdt.shx
  4

  0
STYLE
  2
ACJISTS
 70
     0
 40
1.0
 41
1.0
 50
0.0
 71
     0
 42
2.5
  3
isocp.shx
  4
bigfont.shx
  0
STYLE
  2
ACJISGDT
 70
     0
 40
0.0
 41
1.0
 50
0.0
 71
     0
 42
2.5
  3
amgdt.shx
  4

  0
ENDTAB
  0
TABLE
  2
VIEW
 70
     6
  0
VIEW
  2
AM_VIEW1
 70
     0
 40
647.50000000000011
 10
582.51151012891353
 20
971.25000000000034
 41
1165.0230202578271
 11
0.0
 21
0.0
 31
1.0
 12
0.0
 22
0.0
 32
0.0
 42
50.0
 43
0.0
 44
0.0
 50
0.0
 71
     0
  0
VIEW
  2
AM_VIEW2
 70
     0
 40
647.50000000000011
 10
1408.9884898710859
 20
971.25000000000034
 41
1165.0230202578271
 11
0.0
 21
0.0
 31
1.0
 12
0.0
 22
0.0
 32
0.0
 42
50.0
 43
0.0
 44
0.0
 50
0.0
 71
     0
  0
VIEW
  2
AM_VIEW3
 70
     0
 40
647.50000000000011
 10
582.51151012891353
 20
323.75
 41
1165.0230202578271
 11
0.0
 21
0.0
 31
1.0
 12
0.0
 22
0.0
 32
0.0
 42
50.0
 43
0.0
 44
0.0
 50
0.0
 71
     0
  0
VIEW
  2
AM_VIEW4
 70
     0
 40
647.50000000000011
 10
1408.9884898710859
 20
323.75
 41
1165.0230202578271
 11
0.0
 21
0.0
 31
1.0
 12
0.0
 22
0.0
 32
0.0
 42
50.0
 43
0.0
 44
0.0
 50
0.0
 71
     0
  0
VIEW
  2
AM_VIEW5
 70
     0
 40
647.50000000000011
 10
995.74999999999989
 20
647.50000000000011
 41
1165.0230202578259
 11
0.0
 21
0.0
 31
1.0
 12
0.0
 22
0.0
 32
0.0
 42
50.0
 43
0.0
 44
0.0
 50
0.0
 71
     0
  0
VIEW
  2
AM_VIEW6
 70
     0
 40
1294.98705
 10
995.74999999999989
 20
647.50000000000011
 41
2330.0227400552481
 11
0.0
 21
0.0
 31
1.0
 12
0.0
 22
0.0
 32
0.0
 42
50.0
 43
0.0
 44
0.0
 50
0.0
 71
     0
  0
ENDTAB
  0
TABLE
  2
UCS
 70
     0
  0
ENDTAB
  0
TABLE
  2
APPID
 70
    97
  0
APPID
  2
ACAD
 70
     0
  0
APPID
  2
ACADANNOTATIVE
 70
     0
  0
APPID
  2
ACAD_MLEADERVER
 70
     0
  0
APPID
  2
MCAD_NO_VIS
 70
     0
  0
APPID
  2
ACAD_TEMP_GRAPHIC
 70
     0
  0
APPID
  2
ACATTRIBSERVICES
 70
     0
  0
APPID
  2
GENIUS_GENREC_14
 70
     0
  0
APPID
  2
GENIUS_GENOBJ-N-REC_13
 70
     0
  0
APPID
  2
GENIUS_GENODEF_13
 70
     0
  0
APPID
  2
GENIUS_GENOLIS_13
 70
     0
  0
APPID
  2
GENIUS_GENOBJ-N-TIT_13
 70
     0
  0
APPID
  2
GENIUS_GENOENT_13
 70
     0
  0
APPID
  2
GENIUS_GENTITLE_13
 70
     0
  0
APPID
  2
GENIUS_GENOREF_13
 70
     0
  0
APPID
  2
GENIUS_GENSCREG_15
 70
     0
  0
APPID
  2
GENIUS_GENOBJ-N-SDF_13
 70
     0
  0
APPID
  2
GENIUS_GENFIL_13
 70
     0
  0
APPID
  2
GENIUS_GENOBJ-N-CHA_13
 70
     0
  0
APPID
  2
GENIUS_GENDTOL_13
 70
     0
  0
APPID
  2
GENIUS_GENOBJ-N-FIL_13
 70
     0
  0
APPID
  2
AD_DRAW
 70
     0
  0
APPID
  2
DESIGNERASSEMBLIES
 70
     0
  0
APPID
  2
ASURF_PCURVE_APPNAME
 70
     0
  0
APPID
  2
GENIUS_GE3SECT_13
 70
     0
  0
APPID
  2
GENIUS_GENCFG_13
 70
     0
  0
APPID
  2
GENIUS_GE3CFG0_13
 70
     0
  0
APPID
  2
GENIUS_GENCFG0_13
 70
     0
  0
APPID
  2
GENIUS_GENCFG1_13
 70
     0
  0
APPID
  2
GENIUS_GENCFG2_13
 70
     0
  0
APPID
  2
GENIUS_GENCFG3_13
 70
     0
  0
APPID
  2
GENIUS_GENCFG4_13
 70
     0
  0
APPID
  2
GENIUS_GEVCFG0_13
 70
     0
  0
APPID
  2
GENIUS_GENHINW_13
 70
     0
  0
APPID
  2
GENIUS_FIRSTVISTXT_14
 70
     0
  0
APPID
  2
GENIUS_GENOBJ-N-LEADER_13
 70
     0
  0
APPID
  2
GEV_VCCNULL_SWITCH_OFF
 70
     0
  0
APPID
  2
GENIUS_GEFCFG0_13
 70
     0
  0
APPID
  2
GENIUS_GENZVEED_13
 70
     0
  0
APPID
  2
GENIUS_GENSCREG_13
 70
     0
  0
APPID
  2
GENIUS_DUMCFG0_13
 70
     0
  0
APPID
  2
GEVID936201362
 70
     0
  0
APPID
  2
GEVDC
 70
     0
  0
APPID
  2
GEVCON
 70
     0
  0
APPID
  2
VCC
 70
     0
  0
APPID
  2
GEVPT
 70
     0
  0
APPID
  2
GEVIT
 70
     0
  0
APPID
  2
GENBH
 70
     0
  0
APPID
  2
GEVMK
 70
     0
  0
APPID
  2
GENIUS_GENBH_13
 70
     0
  0
APPID
  2
GENIUS_GENOBJ-NBEHI-BHF_13
 70
     0
  0
APPID
  2
GENIUS_GENOBJ-NBEHI-BHB_13
 70
     0
  0
APPID
  2
GENIUS_GENOBJ-F-DESC_13
 70
     0
  0
APPID
  2
GENIUS_GEFDESC_14
 70
     0
  0
APPID
  2
GENIUS_GENOBJ-F-PART_13
 70
     0
  0
APPID
  2
GENIUS_GEFSTDP_13
 70
     0
  0
APPID
  2
GENIUS_GEFPARTINS_13
 70
     0
  0
APPID
  2
GENIUS_GENTRA_14
 70
     0
  0
APPID
  2
GENIUS_GENINF13_13
 70
     0
  0
APPID
  2
GENIUS_GENOBJ-N-INFOPT_13
 70
     0
  0
APPID
  2
GENIUS_GENOBJ-N-RSSYM_13
 70
     0
  0
APPID
  2
GENIUS_GENSYMENT_13
 70
     0
  0
APPID
  2
GENIUS_GENSCSYM_13
 70
     0
  0
APPID
  2
GENIUS_GEFINFNAM_13
 70
     0
  0
APPID
  2
GENIUS_GENOBJ-N-CEN_13
 70
     0
  0
APPID
  2
GENIUS_GENOBJ-N-CRS_13
 70
     0
  0
APPID
  2
GENIUS_GENOBJ-N-CRC_13
 70
     0
  0
APPID
  2
GENIUS_GENCRC_14
 70
     0
  0
APPID
  2
GEVID942827039
 70
     0
  0
APPID
  2
GEVID942827040
 70
     0
  0
APPID
  2
GEVID942827041
 70
     0
  0
APPID
  2
GENIUS_GENOBJ-F-SCPASSM_13
 70
     0
  0
APPID
  2
GENIUS_GENDIMSH_14
 70
     0
  0
APPID
  2
GEVID942827042
 70
     0
  0
APPID
  2
GEVID946020473
 70
     0
  0
APPID
  2
GEVID946020474
 70
     0
  0
APPID
  2
GEVID946020475
 70
     0
  0
APPID
  2
GENIUS_GENOBJ-N-HTC_13
 70
     0
  0
APPID
  2
GENIUS_GENHATCH_13
 70
     0
  0
APPID
  2
GEVID948854295
 70
     0
  0
APPID
  2
GEVID939402019
 70
     0
  0
APPID
  2
GEVID952919491
 70
     0
  0
APPID
  2
GEVID952919492
 70
     0
  0
APPID
  2
GENIUS_GEFWELD_13
 70
     0
  0
APPID
  2
GENIUS_GENOBJ-F-WELS_13
 70
     0
  0
APPID
  2
GEVID952919493
 70
     0
  0
APPID
  2
GENIUS_GENOBJ-N-RSBK_13
 70
     0
  0
APPID
  2
GENIUS_GENOBJ-N-LIB_13
 70
     0
  0
APPID
  2
GENIUS_GENSCALE_13
 70
     0
  0
APPID
  2
GEVID986376691
 70
     0
  0
APPID
  2
DCO15
 70
     0
  0
APPID
  2
ACADM_DIM_EDIT
 70
     0
  0
APPID
  2
AMDT_DM_ADJ
 70
     0
  0
APPID
  2
ACAD_DSTYLE_DIMBREAK
 70
     0
  0
APPID
  2
ACAD_DSTYLE_DIMJAG
 70
     0
  0
APPID
  2
ACAD_NAV_VCDISPLAY
 70
     0
  0
APPID
  2
ACADANNOPO
 70
     0
  0
APPID
  2
ACAD_EXEMPT_FROM_CAD_STANDARDS
 70
     0
  0
ENDTAB
  0
TABLE
  2
DIMSTYLE
 70
    22
  0
DIMSTYLE
  2
STANDARD
 70
     0
  3

  4

  5

  6

  7

 40
1.0
 41
0.18
 42
0.0625
 43
0.38
 44
0.18
 45
0.0
 46
0.0
 47
0.0
 48
0.0
140
0.18
141
0.09
142
0.0
143
25.399999999999999
144
1.0
145
0.0
146
1.0
147
0.09
 71
     0
 72
     0
 73
     1
 74
     1
 75
     0
 76
     0
 77
     0
 78
     0
170
     0
171
     2
172
     0
173
     0
174
     0
175
     0
176
     0
177
     0
178
     0
  0
DIMSTYLE
  2
ANNOTATIVE
 70
     0
  3

  4

  5

  6

  7

 40
1.0
 41
0.18
 42
0.0625
 43
0.38
 44
0.18
 45
0.0
 46
0.0
 47
0.0
 48
0.0
140
0.18
141
0.09
142
0.0
143
25.399999999999999
144
1.0
145
0.0
146
1.0
147
0.09
 71
     0
 72
     0
 73
     1
 74
     1
 75
     0
 76
     0
 77
     0
 78
     0
170
     0
171
     2
172
     0
173
     0
174
     0
175
     0
176
     0
177
     0
178
     0
  0
DIMSTYLE
  2
AM_ISO
 70
     0
  3

  4
"
  5

  6

  7

 40
1.0
 41
2.5
 42
1.0
 43
8.0
 44
0.6
 45
0.0
 46
0.0
 47
0.1
 48
0.1
140
2.5
141
0.0
142
0.0
143
0.0393701
144
1.0
145
0.0
146
0.71
147
0.8
 71
     0
 72
     0
 73
     0
 74
     0
 75
     0
 76
     0
 77
     1
 78
     8
170
     0
171
     2
172
     1
173
     0
174
     0
175
     0
176
   256
177
   256
178
     4
  0
DIMSTYLE
  2
AM_ISO$3
 70
     0
  3

  4
"
  5

  6

  7

 40
1.0
 41
2.5
 42
1.0
 43
8.0
 44
0.6
 45
0.0
 46
0.0
 47
0.1
 48
0.1
140
2.5
141
0.0
142
0.0
143
0.0393701
144
1.0
145
0.0
146
0.71
147
0.8
 71
     0
 72
     0
 73
     0
 74
     1
 75
     0
 76
     0
 77
     1
 78
     8
170
     0
171
     2
172
     0
173
     0
174
     0
175
     0
176
   256
177
   256
178
     4
  0
DIMSTYLE
  2
AM_ISO$4
 70
     0
  3

  4
"
  5

  6

  7

 40
1.0
 41
2.5
 42
1.0
 43
8.0
 44
0.6
 45
0.0
 46
0.0
 47
0.1
 48
0.1
140
2.5
141
0.0
142
0.0
143
0.0393701
144
1.0
145
0.0
146
0.71
147
0.8
 71
     0
 72
     0
 73
     0
 74
     1
 75
     0
 76
     0
 77
     1
 78
     8
170
     0
171
     2
172
     0
173
     0
174
     0
175
     0
176
   256
177
   256
178
     4
  0
DIMSTYLE
  2
AM_ISO$6
 70
     0
  3

  4
"
  5

  6

  7

 40
1.0
 41
2.5
 42
1.0
 43
8.0
 44
0.6
 45
0.0
 46
0.0
 47
0.1
 48
0.1
140
2.5
141
0.0
142
0.0
143
0.0393701
144
1.0
145
0.0
146
0.71
147
0.8
 71
     0
 72
     0
 73
     0
 74
     0
 75
     0
 76
     0
 77
     0
 78
     8
170
     0
171
     2
172
     1
173
     0
174
     0
175
     0
176
   256
177
   256
178
     4
  0
DIMSTYLE
  2
AM_ISO$7
 70
     0
  3

  4
"
  5

  6

  7

 40
1.0
 41
2.5
 42
1.0
 43
8.0
 44
0.6
 45
0.0
 46
0.0
 47
0.1
 48
0.1
140
2.5
141
0.0
142
0.0
143
0.0393701
144
1.0
145
0.0
146
0.71
147
0.8
 71
     0
 72
     0
 73
     0
 74
     0
 75
     0
 76
     0
 77
     1
 78
     8
170
     0
171
     2
172
     1
173
     0
174
     0
175
     0
176
   256
177
   256
178
     4
  0
DIMSTYLE
  2
AM_ISO$SF
 70
     0
  3

  4
"
  5

  6

  7

 40
1.0
 41
2.5
 42
1.0
 43
10.0
 44
1.0
 45
0.0
 46
0.0
 47
0.1
 48
0.1
140
3.5
141
0.0
142
0.0
143
0.0393701
144
1.0
145
0.0
146
0.71
147
1.5
 71
     0
 72
     0
 73
     0
 74
     0
 75
     1
 76
     1
 77
     1
 78
     8
170
     0
171
     2
172
     1
173
     0
174
     0
175
     0
176
   256
177
   256
178
     2
  0
DIMSTYLE
  2
AM_ISO$SH
 70
     0
  3

  4
"
  5

  6

  7

 40
1.0
 41
2.5
 42
1.0
 43
10.0
 44
1.0
 45
0.0
 46
0.0
 47
0.1
 48
0.1
140
3.5
141
0.0
142
0.0
143
0.0393701
144
2.0
145
0.0
146
0.71
147
1.5
 71
     0
 72
     0
 73
     0
 74
     0
 75
     1
 76
     1
 77
     1
 78
     8
170
     0
171
     2
172
     1
173
     1
174
     0
175
     0
176
   256
177
   256
178
     2
  0
DIMSTYLE
  2
AM_JIS
 70
     0
  3

  4
"
  5

  6

  7

 40
1.0
 41
2.5
 42
1.0
 43
7.0
 44
1.0
 45
0.0
 46
0.0
 47
0.1
 48
0.1000000001
140
2.5
141
0.0
142
0.0
143
0.0393701
144
1.0
145
0.0
146
0.71
147
1.0
 71
     0
 72
     0
 73
     0
 74
     0
 75
     0
 76
     0
 77
     3
 78
     8
170
     0
171
     2
172
     1
173
     0
174
     0
175
     0
176
   256
177
   256
178
     4
  0
DIMSTYLE
  2
AM_JIS$3
 70
     0
  3

  4
"
  5

  6

  7

 40
1.0
 41
2.5
 42
1.0
 43
7.0
 44
1.0
 45
0.0
 46
0.0
 47
0.1
 48
0.1000000001
140
2.5
141
0.0
142
0.0
143
0.0393701
144
1.0
145
0.0
146
0.71
147
1.0
 71
     0
 72
     0
 73
     0
 74
     1
 75
     0
 76
     0
 77
     3
 78
     8
170
     0
171
     2
172
     0
173
     0
174
     0
175
     0
176
   256
177
   256
178
     4
  0
DIMSTYLE
  2
AM_JIS$4
 70
     0
  3

  4
"
  5

  6

  7

 40
1.0
 41
2.5
 42
1.0
 43
7.0
 44
1.0
 45
0.0
 46
0.0
 47
0.1
 48
0.1000000001
140
2.5
141
0.0
142
0.0
143
0.0393701
144
1.0
145
0.0
146
0.71
147
1.0
 71
     0
 72
     0
 73
     0
 74
     0
 75
     0
 76
     0
 77
     3
 78
     8
170
     0
171
     2
172
     0
173
     0
174
     0
175
     0
176
   256
177
   256
178
     4
  0
DIMSTYLE
  2
AM_JIS$6
 70
     0
  3

  4
"
  5

  6

  7

 40
1.0
 41
2.5
 42
1.0
 43
7.0
 44
1.0
 45
0.0
 46
0.0
 47
0.1
 48
0.1000000001
140
2.5
141
0.0
142
0.0
143
0.0393701
144
1.0
145
0.0
146
0.71
147
1.0
 71
     0
 72
     0
 73
     0
 74
     0
 75
     0
 76
     0
 77
     0
 78
     8
170
     0
171
     2
172
     1
173
     0
174
     0
175
     0
176
   256
177
   256
178
     4
  0
DIMSTYLE
  2
AM_JIS$7
 70
     0
  3

  4
"
  5

  6

  7

 40
1.0
 41
2.5
 42
1.0
 43
7.0
 44
1.0
 45
0.0
 46
0.0
 47
0.1
 48
0.1000000001
140
2.5
141
0.0
142
0.0
143
0.0393701
144
1.0
145
0.0
146
0.71
147
1.0
 71
     0
 72
     0
 73
     0
 74
     0
 75
     0
 76
     0
 77
     3
 78
     8
170
     0
171
     2
172
     1
173
     0
174
     0
175
     0
176
   256
177
   256
178
     4
  0
DIMSTYLE
  2
AM_JIS$SF
 70
     0
  3

  4
"
  5

  6

  7

 40
1.0
 41
2.5
 42
1.0
 43
10.0
 44
1.0
 45
0.0
 46
0.0
 47
0.1
 48
0.1
140
3.5
141
0.0
142
0.0
143
0.0393701
144
1.0
145
0.0
146
0.71
147
1.5
 71
     0
 72
     0
 73
     0
 74
     0
 75
     1
 76
     1
 77
     3
 78
     8
170
     0
171
     2
172
     1
173
     0
174
     0
175
     0
176
   256
177
   256
178
     4
  0
DIMSTYLE
  2
AM_JIS$SH
 70
     0
  3

  4
"
  5

  6

  7

 40
1.0
 41
2.5
 42
1.0
 43
10.0
 44
1.0
 45
0.0
 46
0.0
 47
0.1
 48
0.1
140
3.5
141
0.0
142
0.0
143
0.0393701
144
1.0
145
0.0
146
0.71
147
1.5
 71
     0
 72
     0
 73
     0
 74
     0
 75
     1
 76
     0
 77
     3
 78
     8
170
     0
171
     2
172
     1
173
     1
174
     0
175
     0
176
   256
177
   256
178
     4
  0
DIMSTYLE
  2
AM_ANSI
 70
     0
  3

  4
mm
  5

  6

  7

 40
1.0
 41
0.1
 42
0.05
 43
0.5
 44
0.1
 45
0.0
 46
0.0
 47
0.1
 48
0.1
140
0.12
141
0.0
142
0.0
143
25.399999999999999
144
1.0
145
0.0
146
0.71
147
0.06
 71
     0
 72
     0
 73
     1
 74
     1
 75
     0
 76
     0
 77
     0
 78
     7
170
     0
171
     2
172
     0
173
     0
174
     0
175
     0
176
   256
177
   256
178
     2
  0
DIMSTYLE
  2
AM_ANSI$3
 70
     0
  3

  4
mm
  5

  6

  7

 40
1.0
 41
0.1
 42
0.05
 43
0.5
 44
0.1
 45
0.0
 46
0.0
 47
0.1
 48
0.1
140
0.12
141
0.0
142
0.0
143
25.399999999999999
144
1.0
145
0.0
146
0.71
147
0.06
 71
     0
 72
     0
 73
     1
 74
     1
 75
     0
 76
     0
 77
     0
 78
     7
170
     0
171
     2
172
     0
173
     0
174
     0
175
     0
176
   256
177
   256
178
     2
  0
DIMSTYLE
  2
AM_ANSI$4
 70
     0
  3

  4
mm
  5

  6

  7

 40
1.0
 41
0.1
 42
0.05
 43
0.5
 44
0.1
 45
0.0
 46
0.0
 47
0.1
 48
0.1
140
0.12
141
0.0
142
0.0
143
25.399999999999999
144
1.0
145
0.0
146
0.71
147
0.06
 71
     0
 72
     0
 73
     1
 74
     1
 75
     0
 76
     0
 77
     0
 78
     7
170
     0
171
     2
172
     0
173
     0
174
     0
175
     0
176
   256
177
   256
178
     2
  0
DIMSTYLE
  2
AM_ANSI$7
 70
     0
  3

  4
mm
  5

  6

  7

 40
1.0
 41
0.1
 42
0.05
 43
0.5
 44
0.1
 45
0.0
 46
0.0
 47
0.1
 48
0.1
140
0.24
141
0.0
142
0.0
143
25.399999999999999
144
1.0
145
0.0
146
0.71
147
0.06
 71
     0
 72
     0
 73
     1
 74
     1
 75
     0
 76
     0
 77
     0
 78
     7
170
     0
171
     2
172
     0
173
     0
174
     0
175
     0
176
   256
177
   256
178
     2
  0
DIMSTYLE
  2
AM_ANSI$SF
 70
     0
  3

  4
mm
  5

  6

  7

 40
1.0
 41
0.1
 42
0.05
 43
0.5
 44
0.1
 45
0.0
 46
0.0
 47
0.1
 48
0.1
140
0.12
141
0.0
142
0.0
143
25.399999999999999
144
1.0
145
0.0
146
0.71
147
0.06
 71
     0
 72
     0
 73
     1
 74
     1
 75
     1
 76
     1
 77
     0
 78
     7
170
     0
171
     2
172
     0
173
     0
174
     0
175
     0
176
   256
177
   256
178
     2
  0
DIMSTYLE
  2
AM_ANSI$SH
 70
     0
  3

  4
mm
  5

  6

  7

 40
1.0
 41
0.1
 42
0.05
 43
0.5
 44
0.1
 45
0.0
 46
0.0
 47
0.1
 48
0.1
140
0.12
141
0.0
142
0.0
143
25.399999999999999
144
1.0
145
0.0
146
0.71
147
0.06
 71
     0
 72
     0
 73
     1
 74
     1
 75
     1
 76
     1
 77
     0
 78
     7
170
     0
171
     2
172
     0
173
     1
174
     0
175
     0
176
   256
177
   256
178
     2
  0
ENDTAB
  0
ENDSEC
  0
SECTION
  2
BLOCKS
  0
BLOCK
  8
0
  2
$MODEL_SPACE
 70
     0
 10
0.0
 20
0.0
 30
0.0
  3
$MODEL_SPACE
  1

  0
ENDBLK
  5
2FEB
  8
0
  0
BLOCK
 67
     1
  8
0
  2
$PAPER_SPACE
 70
     0
 10
0.0
 20
0.0
 30
0.0
  3
$PAPER_SPACE
  1

  0
ENDBLK
  5
2FE7
 67
     1
  8
0
  0
BLOCK
  8
0
  2
GENAXEH
 70
     0
 10
0.0
 20
0.0
 30
0.0
  3
GENAXEH
  1

  0
LINE
  5
2D2C
  8
0
 10
-1.0
 20
0.0
 30
0.0
 11
1.0
 21
0.0
 31
0.0
  0
ENDBLK
  5
2D2D
  8
0
  0
BLOCK
  8
0
  2
_OPEN30
 70
     0
 10
0.0
 20
0.0
 30
0.0
  3
_OPEN30
  1

  0
LINE
  5
2D30
  8
0
 62
     0
 10
-1.0
 20
0.26794919
 30
0.0
 11
0.0
 21
0.0
 31
0.0
  0
LINE
  5
2D31
  8
0
 62
     0
 10
0.0
 20
0.0
 30
0.0
 11
-1.0
 21
-0.26794919
 31
0.0
  0
LINE
  5
2D32
  8
0
 62
     0
 10
0.0
 20
0.0
 30
0.0
 11
-1.0
 21
0.0
 31
0.0
  0
ENDBLK
  5
2D33
  8
0
  0
BLOCK
  8
0
  2
_NONE
 70
     0
 10
0.0
 20
0.0
 30
0.0
  3
_NONE
  1

  0
ENDBLK
  5
2D36
  8
0
  0
BLOCK
  8
0
  2
_ACMFILLEDHALF
 70
     0
 10
0.0
 20
0.0
 30
0.0
  3
_ACMFILLEDHALF
  1

  0
TRACE
  5
3191
  8
AM_0
 62
     0
 10
-0.8
 20
0.0
 30
0.0
 11
-1.0
 21
0.166666666
 31
0.0
 12
0.0
 22
0.0
 32
0.0
 13
0.0
 23
0.0
 33
0.0
  0
LINE
  5
3192
  8
AM_0
 62
     0
 10
-1.0
 20
0.0
 30
0.0
 11
-0.8
 21
0.0
 31
0.0
  0
ENDBLK
  5
3190
  8
0
  0
ENDSEC
  0
SECTION
  2
ENTITIES
  0
ARC
  5
2D37
  8
AM_0
 10
658.2233140480962
 20
658.42530788708211
 30
0.0
 40
12.0000006
 50
271.49999999999972
 51
0.0
  0
ARC
  5
2D38
  8
AM_0
 10
515.22333404809615
 20
644.99082788708211
 30
0.0
 40
4.00000014
 50
90.000003000000007
 51
180.00001
  0
LINE
  5
2D39
  8
AM_0
 10
702.22335404809633
 20
727.99080788708193
 30
0.0
 11
702.22335404809633
 21
267.99082388708212
 31
0.0
  0
LINE
  5
2D3A
  8
AM_0
 10
708.22335404809587
 20
302.99082788708199
 30
0.0
 11
708.22335404809587
 21
692.99088788708195
 31
0.0
  0
LINE
  5
2D3B
  8
AM_0
 10
670.2233740480965
 20
273.81534788708188
 30
0.0
 11
670.2233740480965
 21
722.44818788708164
 31
0.0
  0
LINE
  5
2D3C
  8
AM_0
 10
527.22333404809615
 20
648.99084788708205
 30
0.0
 11
527.22333404809615
 21
229.028389887082
 31
0.0
  0
LINE
  5
2D3D
  8
AM_0
 10
681.22335404809621
 20
661.61718788708208
 30
0.0
 11
681.22335404809621
 21
337.48813988708201
 31
0.0
  0
LINE
  5
2D3E
  8
AM_0
 10
485.22333404809598
 20
648.99084788708205
 30
0.0
 11
485.22333404809598
 21
604.33122788708215
 31
0.0
  0
LINE
  5
2D3F
  8
AM_0
 10
381.25886804809608
 20
545.92635788708185
 30
0.0
 11
332.08653804809592
 21
496.75402788708209
 31
0.0
  0
LINE
  5
2D40
  8
AM_0
 10
381.25886804809608
 20
324.85528988708199
 30
0.0
 11
332.08653804809592
 21
374.02762088708192
 31
0.0
  0
LINE
  5
2D41
  8
ﾁｭｳｼﾝｾﾝ
 10
223.2454685141696
 20
435.39082388708192
 30
0.0
 11
520.27015232061422
 21
435.39082388708192
 31
0.0
  0
LINE
  5
2D42
  8
AM_0
 10
329.22964104809603
 20
491.55863488708201
 30
0.0
 11
329.22964104809603
 21
435.39082388708192
 31
0.0
  0
LINE
  5
2D43
  8
AM_0
 10
298.22333404809598
 20
435.39082388708192
 30
0.0
 11
298.22333404809598
 21
470.39082388708198
 31
0.0
  0
LINE
  5
2D44
  8
AM_0
 10
300.22333404809598
 20
435.39082388708192
 30
0.0
 11
300.22333404809598
 21
490.442732887082
 31
0.0
  0
LINE
  5
2D45
  8
AM_0
 10
236.22333404809609
 20
417.89082388708181
 30
0.0
 11
236.22333404809609
 21
452.89082388708192
 31
0.0
  0
LINE
  5
2D46
  8
AM_0
 10
294.22333404809598
 20
455.39082388708181
 30
0.0
 11
294.22333404809598
 21
415.39082388708192
 31
0.0
  0
LINE
  5
2D47
  8
AM_0
 10
294.22333404809598
 20
415.39082388708192
 30
0.0
 11
298.22333404809598
 21
415.39082388708192
 31
0.0
  0
LINE
  5
2D48
  8
AM_0
 10
294.22333404809598
 20
417.89082388708181
 30
0.0
 11
236.22333404809609
 21
417.89082388708181
 31
0.0
  0
LINE
  5
2D49
  8
AM_0
 10
300.22333404809598
 20
435.39082388708192
 30
0.0
 11
300.22333404809598
 21
380.33891588708201
 31
0.0
  0
LINE
  5
2D4A
  8
AM_0
 10
329.22964104809603
 20
379.223013887082
 30
0.0
 11
329.22964104809603
 21
435.39082388708192
 31
0.0
  0
LINE
  5
2D4B
  8
AM_0
 10
303.17097704809601
 20
377.33937288708199
 30
0.0
 11
325.18999404809603
 21
376.95502988708199
 31
0.0
  0
ARC
  5
2D4C
  8
AM_0
 10
303.22333404809598
 20
380.33891588708201
 30
0.0
 40
3.0
 50
180.0
 51
268.99999999999812
  0
ARC
  5
2D4D
  8
AM_0
 10
325.01547004809601
 20
366.95655288708201
 30
0.0
 40
10.0
 50
45.0
 51
89.000000000001506
  0
LINE
  5
2D4E
  8
AM_0
 10
298.22333404809598
 20
435.39082388708192
 30
0.0
 11
298.22333404809598
 21
400.39082388708198
 31
0.0
  0
LINE
  5
2D4F
  8
AM_0
 10
298.22333404809598
 20
400.39082388708198
 30
0.0
 11
300.22333404809598
 21
398.39082388708192
 31
0.0
  0
LINE
  5
2D50
  8
AM_0
 10
294.22333404809598
 20
455.39082388708181
 30
0.0
 11
298.22333404809598
 21
455.39082388708181
 31
0.0
  0
LINE
  5
2D51
  8
AM_0
 10
236.22333404809609
 20
455.89082388708192
 30
0.0
 11
281.22333404809609
 21
455.89082388708192
 31
0.0
  0
LINE
  5
2D52
  8
AM_0
 10
236.22333404809609
 20
452.89082388708192
 30
0.0
 11
294.22333404809598
 21
452.89082388708192
 31
0.0
  0
LINE
  5
2D53
  8
AM_0
 10
236.22333404809609
 20
452.89082388708192
 30
0.0
 11
236.22333404809609
 21
455.89082388708192
 31
0.0
  0
LINE
  5
2D54
  8
AM_0
 10
281.22333404809609
 20
455.89082388708192
 30
0.0
 11
281.22333404809609
 21
452.89082388708192
 31
0.0
  0
ARC
  5
2D55
  8
AM_0
 10
325.01547004809601
 20
503.82509588708172
 30
0.0
 40
10.0
 50
270.99999999999841
 51
315.0
  0
LINE
  5
2D56
  8
AM_0
 10
298.22333404809598
 20
470.39082388708198
 30
0.0
 11
300.22333404809598
 21
472.39082388708181
 31
0.0
  0
LINE
  5
2D57
  8
AM_0
 10
303.17097704809601
 20
493.44227588708202
 30
0.0
 11
325.18999404809603
 21
493.82661888708191
 31
0.0
  0
ARC
  5
2D58
  8
AM_0
 10
303.22333404809598
 20
490.442732887082
 30
0.0
 40
3.0
 50
90.999999999998451
 51
180.0
  0
LINE
  5
2D59
  8
AM_0
 10
620.30985404809599
 20
241.4535018870819
 30
0.0
 11
620.30985404809599
 21
259.02051788708201
 31
0.0
  0
ARC
  5
2D5A
  8
AM_0
 10
618.45669404809644
 20
264.39826388708201
 30
0.0
 40
25.911341399999991
 50
274.10136
 51
343.00889000000001
  0
ARC
  5
2D5B
  8
AM_0
 10
621.86631404809611
 20
255.0675138870817
 30
0.0
 40
28.5191868
 50
266.87150000000003
 51
354.92327
  0
LINE
  5
2D5C
  8
AM_0
 10
511.22337404809639
 20
644.99082788708211
 30
0.0
 11
511.22337404809639
 21
231.02840588708199
 31
0.0
  0
LINE
  5
2D5D
  8
AM_0
 10
620.30979404809614
 20
238.55328188708199
 30
0.0
 11
511.22337404809639
 21
241.40980388708189
 31
0.0
  0
LINE
  5
2D5E
  8
AM_0
 10
527.22333404809615
 20
229.0283778870818
 30
0.0
 11
620.30985404809599
 21
226.5908298870819
 31
0.0
  0
ARC
  5
2D5F
  8
AM_0
 10
513.22335404809576
 20
231.02840588708199
 30
0.0
 40
2.0000000399999962
 50
179.99998999999991
 51
270.0
  0
LINE
  5
2D60
  8
AM_0
 10
513.22335404809576
 20
229.028389887082
 30
0.0
 11
527.22333404809615
 21
229.028389887082
 31
0.0
  0
LINE
  5
2D61
  8
AM_0
 10
620.30985404809599
 20
226.59084788708191
 30
0.0
 11
620.30985404809599
 21
238.55331188708189
 31
0.0
  0
LINE
  5
2D62
  8
AM_0
 10
672.3669340480958
 20
267.99082388708212
 30
0.0
 11
702.22335404809633
 21
267.99082388708212
 31
0.0
  0
LINE
  5
2D63
  8
ﾁｭｳｼﾝｾﾝ
 10
490.9370382574786
 20
497.9908638870819
 30
0.0
 11
829.22331404809609
 21
497.9908638870819
 31
0.0
  0
LINE
  5
2D64
  8
AM_0
 10
415.7233540480961
 20
552.39082988708208
 30
0.0
 11
415.7233540480961
 21
435.39082388708192
 31
0.0
  0
LINE
  5
2D65
  8
AM_0
 10
402.72333404809598
 20
553.39076588708201
 30
0.0
 11
402.72333404809598
 21
317.39082188708198
 31
0.0
  0
LINE
  5
2D66
  8
AM_0
 10
460.7233540480961
 20
552.14497988708194
 30
0.0
 11
460.7233540480961
 21
321.205363887082
 31
0.0
  0
LINE
  5
2D67
  8
AM_0
 10
400.72333404809609
 20
505.10766088708192
 30
0.0
 11
400.72333404809609
 21
351.8651528870821
 31
0.0
  0
LINE
  5
2D68
  8
AM_0
 10
382.72333404809598
 20
435.39082388708192
 30
0.0
 11
382.72333404809598
 21
505.10766088708192
 31
0.0
  0
LINE
  5
2D69
  8
AM_0
 10
511.22337404809639
 20
266.14857188708203
 30
0.0
 11
644.30985404809599
 21
262.66358588708192
 31
0.0
  0
LINE
  5
2D6A
  8
AM_0
 10
527.22333404809615
 20
381.99082988708182
 30
0.0
 11
660.4851340480958
 21
385.480423887082
 31
0.0
  0
LINE
  5
2D6B
  8
AM_0
 10
527.22333404809615
 20
347.99082788708199
 30
0.0
 11
660.48507404809584
 21
344.50123388708198
 31
0.0
  0
LINE
  5
2D6C
  8
AM_0
 10
415.7233540480961
 20
318.39082388708192
 30
0.0
 11
415.7233540480961
 21
435.39082388708192
 31
0.0
  0
LINE
  5
2D6D
  8
AM_0
 10
374.72333404809598
 20
350.86515288708222
 30
0.0
 11
375.84474704809588
 21
338.047335887082
 31
0.0
  0
LINE
  5
2D6E
  8
AM_0
 10
378.82107004809632
 20
338.22553688708189
 30
0.0
 11
378.77785404809617
 21
348.50514688708188
 31
0.0
  0
LINE
  5
2D6F
  8
AM_0
 10
416.23203404809601
 20
319.38193988708201
 30
0.0
 11
456.79317404809598
 21
318.67396388708198
 31
0.0
  0
LINE
  5
2D70
  8
AM_0
 10
402.72333404809598
 20
335.66361788708178
 30
0.0
 11
413.72337404809622
 21
335.66361788708178
 31
0.0
  0
LINE
  5
2D71
  8
AM_0
 10
402.72333404809598
 20
317.39082188708198
 30
0.0
 11
414.72333404809598
 21
317.39082188708198
 31
0.0
  0
LINE
  5
2D72
  8
AM_0
 10
382.72333404809598
 20
335.30880388708192
 30
0.0
 11
382.72333404809598
 21
318.39082388708198
 31
0.0
  0
LINE
  5
2D73
  8
AM_0
 10
385.72333404809609
 20
315.39082388708192
 30
0.0
 11
400.72333404809609
 21
315.39082388708192
 31
0.0
  0
ARC
  5
2D74
  8
AM_0
 10
385.72333404809609
 20
318.39082388708198
 30
0.0
 40
3.0
 50
180.0
 51
270.0
  0
LINE
  5
2D75
  8
AM_0
 10
402.72333404809598
 20
317.39082388708192
 30
0.0
 11
400.72333404809609
 21
315.39082388708192
 31
0.0
  0
LINE
  5
2D76
  8
AM_0
 10
378.833332048096
 20
335.30880388708192
 30
0.0
 11
402.72333404809598
 21
335.30880388708192
 31
0.0
  0
ARC
  5
2D77
  8
AM_0
 10
378.833332048096
 20
338.30880388708192
 30
0.0
 40
3.0
 50
184.99999999999969
 51
270.0
  0
ARC
  5
2D78
  8
AM_0
 10
377.72333404809609
 20
321.31975688708201
 30
0.0
 40
5.0
 50
0.0
 51
45.0
  0
ARC
  5
2D79
  8
AM_0
 10
414.72333404809598
 20
318.39082388708192
 30
0.0
 40
1.000000019999997
 50
270.0
 51
0.0
  0
ARC
  5
2D7A
  8
AM_0
 10
413.72337404809622
 20
337.6636158870819
 30
0.0
 40
2.0000000399999962
 50
270.0
 51
0.0
  0
ARC
  5
2D7B
  8
AM_0
 10
416.22333404809609
 20
318.88203188708201
 30
0.0
 40
0.500000016
 50
89.000000999999955
 51
180.00001
  0
ARC
  5
2D7C
  8
AM_0
 10
470.72337404809639
 20
298.64506388708168
 30
0.0
 40
9.9999996000000007
 50
179.99998999999991
 51
238.96955
  0
LINE
  5
2D7D
  8
AM_0
 10
509.2853740480964
 20
263.776711887082
 30
0.0
 11
465.56835404809618
 21
290.07612188708202
 31
0.0
  0
ARC
  5
2D7E
  8
AM_0
 10
507.2233540480961
 20
260.34913388708168
 30
0.0
 40
4.00000014
 50
0.0
 51
58.969552
  0
ARC
  5
2D7F
  8
AM_0
 10
456.7234540480963
 20
314.67457388708192
 30
0.0
 40
4.00000014
 50
0.0
 51
89.000000999999955
  0
LINE
  5
2D80
  8
AM_0
 10
460.7233540480961
 20
314.67457388708192
 30
0.0
 11
460.7233540480961
 21
298.64506388708168
 31
0.0
  0
LINE
  5
2D81
  8
AM_0
 10
415.7233540480961
 20
363.558457887082
 30
0.0
 11
460.7233540480961
 21
363.558457887082
 31
0.0
  0
LINE
  5
2D82
  8
AM_0
 10
415.7233540480961
 20
344.3078778870821
 30
0.0
 11
460.7233540480961
 21
344.3078778870821
 31
0.0
  0
LINE
  5
2D83
  8
AM_0
 10
382.72333404809598
 20
435.39082388708192
 30
0.0
 11
382.72333404809598
 21
351.8651528870821
 31
0.0
  0
LINE
  5
2D84
  8
AM_0
 10
403.70235404809631
 20
360.95386988708191
 30
0.0
 11
414.73119404809631
 21
360.95386988708191
 31
0.0
  0
LINE
  5
2D85
  8
AM_0
 10
402.72333404809598
 20
351.21998588708192
 30
0.0
 11
413.72337404809622
 21
351.21998588708192
 31
0.0
  0
LINE
  5
2D86
  8
AM_0
 10
382.72333404809598
 20
365.67398688708192
 30
0.0
 11
375.7613650480962
 21
365.67398688708192
 31
0.0
  0
ARC
  5
2D87
  8
AM_0
 10
381.72333404809598
 20
351.8651528870821
 30
0.0
 40
1.0
 50
270.0
 51
0.0
  0
ARC
  5
2D88
  8
AM_0
 10
378.76793304809593
 20
353.86515288708222
 30
0.0
 40
3.0
 50
184.99999999999969
 51
270.0
  0
LINE
  5
2D89
  8
AM_0
 10
378.76793304809593
 20
350.86515288708222
 30
0.0
 11
381.72333404809598
 21
350.86515288708222
 31
0.0
  0
LINE
  5
2D8A
  8
AM_0
 10
374.72333404809598
 20
365.67398688708192
 30
0.0
 11
375.77934804809632
 21
353.60368588708189
 31
0.0
  0
LINE
  5
2D8B
  8
AM_0
 10
402.72333404809598
 20
365.67398688708192
 30
0.0
 11
400.72333404809609
 21
365.67398688708192
 31
0.0
  0
ARC
  5
2D8C
  8
AM_0
 10
401.72333404809598
 20
351.8651528870821
 30
0.0
 40
1.0
 50
180.0
 51
270.0
  0
LINE
  5
2D8D
  8
AM_0
 10
385.72333404809609
 20
383.31201088708201
 30
0.0
 11
397.72333404809621
 21
383.31201088708201
 31
0.0
  0
LINE
  5
2D8E
  8
AM_0
 10
384.83198704809593
 20
394.47607688708189
 30
0.0
 11
398.48979104809632
 21
394.47607688708189
 31
0.0
  0
ARC
  5
2D8F
  8
AM_0
 10
385.72333404809609
 20
386.31201088708201
 30
0.0
 40
3.0
 50
180.0
 51
270.0
  0
ARC
  5
2D90
  8
AM_0
 10
397.72333404809621
 20
386.31201088708201
 30
0.0
 40
3.0
 50
270.0
 51
0.0
  0
ARC
  5
2D91
  8
AM_0
 10
413.72337404809622
 20
353.21998388708198
 30
0.0
 40
2.0000000399999962
 50
270.0
 51
0.0
  0
LINE
  5
2D92
  8
AM_0
 10
511.22337404809639
 20
347.99082788708199
 30
0.0
 11
527.22333404809615
 21
347.99082788708199
 31
0.0
  0
LINE
  5
2D93
  8
AM_0
 10
511.22337404809639
 20
381.99085988708191
 30
0.0
 11
527.22333404809615
 21
381.99085988708191
 31
0.0
  0
ARC
  5
2D94
  8
AM_0
 10
660.22335404809621
 20
334.50465188708199
 30
0.0
 40
9.9999996000000007
 50
0.0
 51
88.499996999999965
  0
ARC
  5
2D95
  8
AM_0
 10
650.88777404809605
 20
254.4885678870821
 30
0.0
 40
8.0000003999999976
 50
88.499996999999965
 51
163.00888
  0
LINE
  5
2D96
  8
AM_0
 10
668.36691404809619
 20
266.919049887082
 30
0.0
 11
640.54887404809642
 21
250.85828588708191
 31
0.0
  0
ARC
  5
2D97
  8
AM_0
 10
682.22331404809609
 20
268.99082588708211
 30
0.0
 40
1.000000019999997
 50
179.99998999999991
 51
270.0
  0
ARC
  5
2D98
  8
AM_0
 10
672.3669340480958
 20
259.99082588708211
 30
0.0
 40
8.0000003999999976
 50
90.000003000000007
 51
119.9999999999999
  0
ARC
  5
2D99
  8
AM_0
 10
658.24221404809612
 20
251.83594988708199
 30
0.0
 40
8.0000003999999976
 50
119.9999999999999
 51
174.92326
  0
LINE
  5
2D9A
  8
AM_0
 10
681.22335404809621
 20
269.81532188708201
 30
0.0
 11
681.22335404809621
 21
268.99082588708211
 31
0.0
  0
LINE
  5
2D9B
  8
AM_0
 10
681.22335404809621
 20
270.29551388708188
 30
0.0
 11
681.22335404809621
 21
269.99082788708211
 31
0.0
  0
LINE
  5
2D9C
  8
AM_0
 10
673.22331404809609
 20
270.8153178870819
 30
0.0
 11
680.22333404809615
 21
270.8153178870819
 31
0.0
  0
ARC
  5
2D9D
  8
AM_0
 10
673.22331404809609
 20
273.81534788708188
 30
0.0
 40
3.0000000600000001
 50
179.99998999999991
 51
270.0
  0
ARC
  5
2D9E
  8
AM_0
 10
680.22333404809615
 20
269.81532188708201
 30
0.0
 40
1.000000019999997
 50
0.0
 51
90.000003000000007
  0
LINE
  5
2D9F
  8
AM_0
 10
673.22331404809609
 20
334.48813988708201
 30
0.0
 11
678.2233540480961
 21
334.48813988708201
 31
0.0
  0
ARC
  5
2DA0
  8
AM_0
 10
673.22331404809609
 20
331.48813988708201
 30
0.0
 40
3.0000000600000001
 50
90.000003000000007
 51
180.00001
  0
ARC
  5
2DA1
  8
AM_0
 10
678.2233540480961
 20
337.48813988708201
 30
0.0
 40
3.0000000600000001
 50
270.0
 51
0.0
  0
ARC
  5
2DA2
  8
AM_0
 10
660.22335404809621
 20
395.47703588708191
 30
0.0
 40
9.9999996000000007
 50
271.49999999999972
 51
0.0
  0
LINE
  5
2DA3
  8
AM_0
 10
670.2233740480965
 20
362.707165887082
 30
0.0
 11
678.2233540480961
 21
362.707165887082
 31
0.0
  0
ARC
  5
2DA4
  8
AM_0
 10
678.2233540480961
 20
365.70719588708192
 30
0.0
 40
3.0000000600000001
 50
270.0
 51
0.0
  0
LINE
  5
2DA5
  8
AM_0
 10
527.22333404809615
 20
642.99078788708175
 30
0.0
 11
658.5375340480964
 21
646.42938788708204
 31
0.0
  0
LINE
  5
2DA6
  8
AM_0
 10
527.22333404809615
 20
619.27668788708195
 30
0.0
 11
660.39789404809619
 21
616.95216788708217
 31
0.0
  0
LINE
  5
2DA7
  8
AM_0
 10
527.22333404809615
 20
539.6775078870819
 30
0.0
 11
660.48501404809599
 21
543.16713188708195
 31
0.0
  0
LINE
  5
2DA8
  8
AM_0
 10
527.22333404809615
 20
507.08515988708177
 30
0.0
 11
660.4851340480958
 21
503.59553588708201
 31
0.0
  0
LINE
  5
2DA9
  8
AM_0
 10
400.72333404809609
 20
535.47284488708215
 30
0.0
 11
400.72333404809609
 21
562.52921188708194
 31
0.0
  0
ARC
  5
2DAA
  8
AM_0
 10
377.72333404809609
 20
549.46189188708217
 30
0.0
 40
5.0
 50
315.0
 51
0.0
  0
LINE
  5
2DAB
  8
AM_0
 10
382.72333404809598
 20
535.47284488708215
 30
0.0
 11
382.72333404809598
 21
562.52921188708194
 31
0.0
  0
LINE
  5
2DAC
  8
AM_0
 10
415.7233540480961
 20
507.223285887082
 30
0.0
 11
460.7233540480961
 21
507.223285887082
 31
0.0
  0
LINE
  5
2DAD
  8
AM_0
 10
415.7233540480961
 20
526.47377588708196
 30
0.0
 11
460.7233540480961
 21
526.47377588708196
 31
0.0
  0
LINE
  5
2DAE
  8
AM_0
 10
402.72333404809598
 20
535.11799988708185
 30
0.0
 11
413.72337404809622
 21
535.11799988708185
 31
0.0
  0
LINE
  5
2DAF
  8
AM_0
 10
403.70235404809631
 20
509.82777788708188
 30
0.0
 11
414.73119404809631
 21
509.82777788708188
 31
0.0
  0
LINE
  5
2DB0
  8
AM_0
 10
402.72333404809598
 20
519.56166188708164
 30
0.0
 11
413.72337404809622
 21
519.56166188708164
 31
0.0
  0
LINE
  5
2DB1
  8
AM_0
 10
374.72333404809598
 20
519.91649588708219
 30
0.0
 11
375.84474704809588
 21
532.73431188708184
 31
0.0
  0
LINE
  5
2DB2
  8
AM_0
 10
378.76793304809593
 20
519.91649588708219
 30
0.0
 11
402.72333404809598
 21
519.91649588708219
 31
0.0
  0
LINE
  5
2DB3
  8
AM_0
 10
401.54311904809617
 20
505.10766088708192
 30
0.0
 11
375.7613650480962
 21
505.10766088708192
 31
0.0
  0
ARC
  5
2DB4
  8
AM_0
 10
378.76793304809593
 20
516.91649588708219
 30
0.0
 40
3.0
 50
90.0
 51
175.00000000000011
  0
LINE
  5
2DB5
  8
AM_0
 10
374.72333404809598
 20
505.10766088708192
 30
0.0
 11
375.77934804809632
 21
517.177962887082
 31
0.0
  0
LINE
  5
2DB6
  8
AM_0
 10
383.85708804809622
 20
546.13932488708201
 30
0.0
 11
399.55294704809597
 21
546.13932488708201
 31
0.0
  0
LINE
  5
2DB7
  8
AM_0
 10
378.833332048096
 20
535.47284488708215
 30
0.0
 11
402.72333404809598
 21
535.47284488708215
 31
0.0
  0
ARC
  5
2DB8
  8
AM_0
 10
378.833332048096
 20
532.47284488708215
 30
0.0
 40
3.0
 50
90.0
 51
175.00000000000011
  0
LINE
  5
2DB9
  8
AM_0
 10
378.82107004809632
 20
532.55611188708201
 30
0.0
 11
378.77785404809617
 21
522.27650188708219
 31
0.0
  0
ARC
  5
2DBA
  8
AM_0
 10
413.72337404809622
 20
517.56166388708198
 30
0.0
 40
2.0000000399999962
 50
0.0
 51
90.000003000000007
  0
ARC
  5
2DBB
  8
AM_0
 10
413.72337404809622
 20
533.11806188708204
 30
0.0
 40
2.0000000399999962
 50
0.0
 51
90.000003000000007
  0
LINE
  5
2DBC
  8
AM_0
 10
527.22333404809615
 20
507.08509988708192
 30
0.0
 11
511.22337404809639
 21
507.08509988708192
 31
0.0
  0
LINE
  5
2DBD
  8
AM_0
 10
527.22333404809615
 20
539.6775078870819
 30
0.0
 11
511.22337404809639
 21
539.6775078870819
 31
0.0
  0
LINE
  5
2DBE
  8
AM_0
 10
416.23203404809601
 20
551.39973788708176
 30
0.0
 11
455.81061404809611
 21
552.09059588708203
 31
0.0
  0
LINE
  5
2DBF
  8
AM_0
 10
402.72333404809598
 20
553.39076588708201
 30
0.0
 11
414.72333404809598
 21
553.39076588708201
 31
0.0
  0
LINE
  5
2DC0
  8
AM_0
 10
385.72333404809609
 20
565.52921188708206
 30
0.0
 11
397.72333404809621
 21
565.52921188708206
 31
0.0
  0
ARC
  5
2DC1
  8
AM_0
 10
385.72333404809609
 20
562.52921188708194
 30
0.0
 40
3.0
 50
90.0
 51
180.0
  0
ARC
  5
2DC2
  8
AM_0
 10
397.72333404809621
 20
562.52921188708194
 30
0.0
 40
3.0
 50
0.0
 51
90.0
  0
LINE
  5
2DC3
  8
AM_0
 10
400.72333404809609
 20
555.39082388708221
 30
0.0
 11
402.72333404809598
 21
553.39082388708221
 31
0.0
  0
ARC
  5
2DC4
  8
AM_0
 10
414.72333404809598
 20
552.39082988708208
 30
0.0
 40
1.000000019999997
 50
0.0
 51
90.000003000000007
  0
ARC
  5
2DC5
  8
AM_0
 10
416.22333404809609
 20
551.89961588708195
 30
0.0
 40
0.500000016
 50
179.99998999999991
 51
271.0
  0
LINE
  5
2DC6
  8
AM_0
 10
509.70699404809608
 20
621.78966788708203
 30
0.0
 11
464.51439404809611
 21
585.99354788708195
 31
0.0
  0
LINE
  5
2DC7
  8
AM_0
 10
460.7233540480961
 20
578.154685887082
 30
0.0
 11
460.7233540480961
 21
557.0898018870821
 31
0.0
  0
ARC
  5
2DC8
  8
AM_0
 10
455.72337404809628
 20
557.0898018870821
 30
0.0
 40
4.9999996800000002
 50
271.0
 51
0.0
  0
ARC
  5
2DC9
  8
AM_0
 10
470.72337404809639
 20
578.154685887082
 30
0.0
 40
9.9999996000000007
 50
128.38201000000001
 51
180.00001
  0
ARC
  5
2DCA
  8
AM_0
 10
481.22337404809628
 20
604.33122788708215
 30
0.0
 40
4.00000014
 50
308.38200999999998
 51
0.0
  0
ARC
  5
2DCB
  8
AM_0
 10
507.2233540480961
 20
624.92532788708206
 30
0.0
 40
4.00000014
 50
308.38200999999998
 51
0.0
  0
LINE
  5
2DCC
  8
AM_0
 10
527.22333404809615
 20
619.27668788708195
 30
0.0
 11
511.22337404809639
 21
619.27668788708195
 31
0.0
  0
LINE
  5
2DCD
  8
AM_0
 10
511.22337404809639
 20
642.99084788708205
 30
0.0
 11
527.22333404809615
 21
642.99084788708205
 31
0.0
  0
ARC
  5
2DCE
  8
AM_0
 10
660.22335404809621
 20
553.16371388708194
 30
0.0
 40
9.9999996000000007
 50
271.49999999999972
 51
0.0
  0
ARC
  5
2DCF
  8
AM_0
 10
660.22335404809621
 20
493.59895388708202
 30
0.0
 40
9.9999996000000007
 50
0.0
 51
88.499996999999965
  0
ARC
  5
2DD0
  8
AM_0
 10
665.22333404809615
 20
597.17304788708202
 30
0.0
 40
4.9999996800000002
 50
301.4296299999998
 51
0.0
  0
LINE
  5
2DD1
  8
AM_0
 10
631.43451404809582
 20
582.42280988708205
 30
0.0
 11
667.85973404809602
 21
605.0264478870821
 31
0.0
  0
LINE
  5
2DD2
  8
AM_0
 10
634.35993404809642
 20
569.92433588708218
 30
0.0
 11
665.22333404809615
 21
569.92433588708218
 31
0.0
  0
LINE
  5
2DD3
  8
AM_0
 10
631.42371404809558
 20
570.65803988708205
 30
0.0
 11
667.83051404809612
 21
592.90668788708194
 31
0.0
  0
ARC
  5
2DD4
  8
AM_0
 10
628.81641404809625
 20
574.92433988708206
 30
0.0
 40
4.9999996800000002
 50
270.0
 51
301.4296299999998
  0
ARC
  5
2DD5
  8
AM_0
 10
628.79805404809611
 20
586.67130788708187
 30
0.0
 40
4.9999996800000002
 50
270.0
 51
301.82161000000002
  0
ARC
  5
2DD6
  8
AM_0
 10
665.22333404809615
 20
574.92433988708206
 30
0.0
 40
4.9999996800000002
 50
270.0
 51
337.66197
  0
ARC
  5
2DD7
  8
AM_0
 10
660.22335404809621
 20
606.95370788708203
 30
0.0
 40
9.9999996000000007
 50
7.8228145999999956
 51
89.000000999999955
  0
LINE
  5
2DD8
  8
AM_0
 10
670.2233740480965
 20
603.21468788708205
 30
0.0
 11
678.2233540480961
 21
603.21468788708205
 31
0.0
  0
ARC
  5
2DD9
  8
AM_0
 10
678.2233540480961
 20
600.21468788708216
 30
0.0
 40
3.0000000600000001
 50
0.0
 51
90.000003000000007
  0
ARC
  5
2DDA
  8
AM_0
 10
665.22333404809615
 20
609.27492788708207
 30
0.0
 40
4.9999996800000002
 50
301.82161000000002
 51
0.0
  0
LINE
  5
2DDB
  8
AM_0
 10
702.22335404809633
 20
302.99082788708199
 30
0.0
 11
708.22335404809587
 21
302.99082788708199
 31
0.0
  0
LINE
  5
2DDC
  8
AM_0
 10
714.22335404809633
 20
532.99080188708194
 30
0.0
 11
824.22333404809615
 21
532.99080188708194
 31
0.0
  0
LINE
  5
2DDD
  8
AM_0
 10
739.2233740480965
 20
537.49080188708194
 30
0.0
 11
824.22333404809615
 21
537.49080188708194
 31
0.0
  0
LINE
  5
2DDE
  8
AM_0
 10
824.22333404809615
 20
462.99085988708191
 30
0.0
 11
714.22335404809633
 21
462.99085988708191
 31
0.0
  0
LINE
  5
2DDF
  8
AM_0
 10
714.22335404809633
 20
460.4908638870819
 30
0.0
 11
714.22335404809633
 21
535.49086388708201
 31
0.0
  0
LINE
  5
2DE0
  8
AM_0
 10
708.22335404809587
 20
460.4908638870819
 30
0.0
 11
714.22335404809633
 21
460.4908638870819
 31
0.0
  0
LINE
  5
2DE1
  8
AM_0
 10
708.22335404809587
 20
535.49086388708201
 30
0.0
 11
714.22335404809633
 21
535.49086388708201
 31
0.0
  0
LINE
  5
2DE2
  8
AM_0
 10
739.2233740480965
 20
532.99080188708194
 30
0.0
 11
739.2233740480965
 21
537.49080188708194
 31
0.0
  0
LINE
  5
2DE3
  8
AM_0
 10
824.22333404809615
 20
532.99080188708194
 30
0.0
 11
824.22333404809615
 21
462.99085988708191
 31
0.0
  0
LINE
  5
2DE4
  8
AM_0
 10
824.22333404809615
 20
537.49080188708194
 30
0.0
 11
824.22333404809615
 21
532.99080188708194
 31
0.0
  0
LINE
  5
2DE5
  8
AM_0
 10
682.22331404809609
 20
727.99080788708193
 30
0.0
 11
702.22335404809633
 21
727.99080788708193
 31
0.0
  0
ARC
  5
2DE6
  8
AM_0
 10
505.22337404809622
 20
678.99084788708205
 30
0.0
 40
30.000000599999989
 50
304.59870999999998
 51
235.4012899999999
  0
LINE
  5
2DE7
  8
AM_0
 10
527.22333404809615
 20
648.99078788708198
 30
0.0
 11
658.53747404809587
 21
652.42938788708204
 31
0.0
  0
ARC
  5
2DE8
  8
AM_0
 10
485.34945404809639
 20
650.18058788708174
 30
0.0
 40
4.9999996800000002
 50
351.0
 51
55.401290000000017
  0
LINE
  5
2DE9
  8
AM_0
 10
527.22333404809615
 20
648.99084788708205
 30
0.0
 11
485.22333404809598
 21
648.99084788708205
 31
0.0
  0
CIRCLE
  5
2DEA
  8
AM_0
 10
505.22337404809622
 20
678.99084788708205
 30
0.0
 40
17.499998399999999
  0
LINE
  5
2DEB
  8
AM_0
 10
515.20197404809585
 20
660.36186788708187
 30
0.0
 11
505.22337404809622
 21
661.49082788708211
 31
0.0
  0
LINE
  5
2DEC
  8
AM_0
 10
516.31233404809632
 20
659.99082788708176
 30
0.0
 11
494.13435404809621
 21
659.99082788708176
 31
0.0
  0
LINE
  5
2DED
  8
AM_0
 10
505.22325404809561
 20
661.49088788708195
 30
0.0
 11
495.24459404809602
 21
660.36186788708187
 31
0.0
  0
LINE
  5
2DEE
  8
AM_0
 10
491.44929404809631
 20
656.73144788708191
 30
0.0
 11
490.22337404809639
 21
648.99078788708198
 31
0.0
  0
ARC
  5
2DEF
  8
AM_0
 10
496.24743404809612
 20
655.51440788708214
 30
0.0
 40
4.9499999399999961
 50
101.68763
 51
165.76742999999999
  0
ARC
  5
2DF0
  8
AM_0
 10
525.0972340480962
 20
650.18058788708174
 30
0.0
 40
4.9999996800000002
 50
124.59872
 51
189.0
  0
LINE
  5
2DF1
  8
AM_0
 10
520.2233740480965
 20
648.99084788708205
 30
0.0
 11
518.99727404809607
 21
656.73144788708191
 31
0.0
  0
ARC
  5
2DF2
  8
AM_0
 10
514.19931404809631
 20
655.51440788708214
 30
0.0
 40
4.9499999399999961
 50
14.23256799999999
 51
78.312367000000023
  0
LINE
  5
2DF3
  8
AM_0
 10
635.86551404809643
 20
657.33012788708209
 30
0.0
 11
667.29441404809643
 21
688.75902788708197
 31
0.0
  0
ARC
  5
2DF4
  8
AM_0
 10
621.72345404809607
 20
671.47224788708195
 30
0.0
 40
19.999998599999991
 50
271.49999999999972
 51
315.0
  0
ARC
  5
2DF5
  8
AM_0
 10
658.2233140480962
 20
664.42524788708215
 30
0.0
 40
12.0000006
 50
271.49999999999972
 51
0.0
  0
LINE
  5
2DF6
  8
AM_0
 10
673.22331404809609
 20
664.61718788708208
 30
0.0
 11
678.2233540480961
 21
664.61718788708208
 31
0.0
  0
ARC
  5
2DF7
  8
AM_0
 10
673.22331404809609
 20
667.61718788708174
 30
0.0
 40
3.0000000600000001
 50
179.99998999999991
 51
270.0
  0
ARC
  5
2DF8
  8
AM_0
 10
678.2233540480961
 20
661.61718788708208
 30
0.0
 40
3.0000000600000001
 50
0.0
 51
90.000003000000007
  0
ARC
  5
2DF9
  8
AM_0
 10
660.22335404809621
 20
695.83008788708196
 30
0.0
 40
9.9999996000000007
 50
315.0
 51
0.0
  0
ARC
  5
2DFA
  8
AM_0
 10
673.22331404809609
 20
722.44818788708164
 30
0.0
 40
3.0000000600000001
 50
90.000003000000007
 51
180.00001
  0
ARC
  5
2DFB
  8
AM_0
 10
682.22331404809609
 20
726.99078788708175
 30
0.0
 40
1.000000019999997
 50
90.000003000000007
 51
180.00001
  0
LINE
  5
2DFC
  8
AM_0
 10
681.22335404809621
 20
726.44820788708194
 30
0.0
 11
681.22335404809621
 21
726.99078788708175
 31
0.0
  0
LINE
  5
2DFD
  8
AM_0
 10
673.22331404809609
 20
725.44812788708191
 30
0.0
 11
680.22333404809615
 21
725.44812788708191
 31
0.0
  0
ARC
  5
2DFE
  8
AM_0
 10
680.22333404809615
 20
726.44820788708194
 30
0.0
 40
1.000000019999997
 50
270.0
 51
0.0
  0
LINE
  5
2DFF
  8
AM_0
 10
702.22335404809633
 20
692.99088788708195
 30
0.0
 11
708.22335404809587
 21
692.99088788708195
 31
0.0
  0
LINE
  5
2E00
  8
AM_0
 10
1016.890959193655
 20
597.99084788708217
 30
0.0
 11
1020.890979193655
 21
702.80538788708202
 31
0.0
  0
LINE
  5
2E01
  8
AM_0
 10
1472.8909891936551
 20
702.80538788708202
 30
0.0
 11
1476.8909911936551
 21
597.99084788708217
 31
0.0
  0
LINE
  5
2E02
  8
ﾁｭｳｼﾝｾﾝ
 10
1246.8909691936551
 20
732.99078788708175
 30
0.0
 11
1246.8909691936551
 21
223.0628298870819
 31
0.0
  0
CIRCLE
  5
2E03
  8
AM_0
 10
1246.8909691936551
 20
497.9908638870819
 30
0.0
 40
184.99999199999991
  0
CIRCLE
  5
2E04
  8
AM_0
 10
1246.8909691936551
 20
497.9908638870819
 30
0.0
 40
195.0000059999999
  0
ARC
  5
2E05
  8
AM_0
 10
1356.8909731936551
 20
257.99082788708211
 30
0.0
 40
19.437555599999971
 50
179.99998999999991
 51
0.000010017913
  0
ARC
  5
2E06
  8
AM_0
 10
1136.890995193655
 20
257.99082788708211
 30
0.0
 40
19.437555599999971
 50
179.99998999999991
 51
0.000010017913
  0
ARC
  5
2E07
  8
AM_0
 10
1195.8909691936551
 20
367.61085188708182
 30
0.0
 40
128.43754799999999
 50
250.34187
 51
270.0
  0
ARC
  5
2E08
  8
AM_0
 10
1297.890999193655
 20
367.61085188708182
 30
0.0
 40
128.43754799999999
 50
270.0
 51
289.65811999999988
  0
ARC
  5
2E09
  8
AM_0
 10
1246.8909691936551
 20
242.99082788708211
 30
0.0
 40
19.437555599999971
 50
302.46415000000002
 51
0.0
  0
ARC
  5
2E0A
  8
AM_0
 10
1246.8909691936551
 20
242.99082788708211
 30
0.0
 40
19.437555599999971
 50
179.99998999999991
 51
237.53583999999989
  0
LINE
  5
2E0B
  8
AM_0
 10
1195.8909691936551
 20
239.17326188708199
 30
0.0
 11
1227.832011193655
 21
239.17326188708199
 31
0.0
  0
LINE
  5
2E0C
  8
AM_0
 10
1265.949993193655
 20
239.17326188708199
 30
0.0
 11
1297.890999193655
 21
239.17326188708199
 31
0.0
  0
LINE
  5
2E0D
  8
AM_0
 10
1236.457467193655
 20
226.59084788708191
 30
0.0
 11
1257.324531193655
 21
226.59084788708191
 31
0.0
  0
ARC
  5
2E0E
  8
AM_0
 10
1246.8909691936551
 20
497.9908638870819
 30
0.0
 40
79.99999200000002
 50
33.737305999999997
 51
146.26269999999991
  0
LINE
  5
2E0F
  8
ﾁｭｳｼﾝｾﾝ
 10
1478.598249193655
 20
497.9908638870819
 30
0.0
 11
1011.891039193655
 21
497.9908638870819
 31
0.0
  0
LINE
  5
2E10
  8
ﾁｭｳｼﾝｾﾝ
 10
1145.117871476763
 20
435.39082388708221
 30
0.0
 11
1348.664070466607
 21
435.39082388708221
 31
0.0
  0
LINE
  5
2E11
  8
AM_0
 10
1346.8909711936551
 20
267.99082388708212
 30
0.0
 11
1146.8910271936541
 21
267.99082388708212
 31
0.0
  0
LINE
  5
2E12
  8
AM_0
 10
1302.2469871936551
 20
561.83217188708204
 30
0.0
 11
1369.689681193654
 21
629.27478788708186
 31
0.0
  0
ARC
  5
2E13
  8
AM_0
 10
1246.8909691936551
 20
487.99083188708181
 30
0.0
 40
143.999988
 50
50.607648000000019
 51
129.39234999999999
  0
CIRCLE
  5
2E14
  8
AM_0
 10
1246.8909691936551
 20
497.9908638870819
 30
0.0
 40
60.0
  0
ARC
  5
2E15
  8
AM_0
 10
1112.6530531936551
 20
448.239337887082
 30
0.0
 40
4.00000014
 50
196.49545000000001
 51
270.67263999999989
  0
LINE
  5
2E16
  8
AM_0
 10
1016.891019193655
 20
397.99083188708192
 30
0.0
 11
1016.891019193655
 21
597.99084788708217
 31
0.0
  0
LINE
  5
2E17
  8
AM_0
 10
1180.3635931936551
 20
542.4217098870821
 30
0.0
 11
1104.415809193654
 21
428.70329588708199
 31
0.0
  0
LINE
  5
2E18
  8
AM_0
 10
1020.890979193655
 20
293.17627988708199
 30
0.0
 11
1016.890959193655
 21
397.99083188708192
 31
0.0
  0
LINE
  5
2E19
  8
AM_0
 10
1146.890997193655
 20
267.99082388708212
 30
0.0
 11
1042.076439193655
 21
271.990825887082
 31
0.0
  0
LINE
  5
2E1A
  8
ﾁｭｳｼﾝｾﾝ1
 10
1071.528477193654
 20
322.62837188708193
 30
0.0
 11
1040.4158191936549
 21
291.51566588708192
 31
0.0
  0
ARC
  5
2E1B
  8
ﾁｭｳｼﾝｾﾝ1
 10
1246.8909691936551
 20
497.9908638870819
 30
0.0
 40
270.00000599999998
 50
220.33015999999989
 51
229.66983999999991
  0
ARC
  5
2E1C
  8
AM_0
 10
1246.8909691936551
 20
497.9908638870819
 30
0.0
 40
304.99997999999999
 50
222.1847299999998
 51
227.81527
  0
CIRCLE
  5
2E1D
  8
AM_0
 10
1055.972139193655
 20
307.07200388708202
 30
0.0
 40
12.0000006
  0
ARC
  5
2E1E
  8
AM_0
 10
1109.4534631936549
 20
262.0468578870819
 30
0.0
 40
8.0000003999999976
 50
0.0
 51
50.688811000000001
  0
LINE
  5
2E1F
  8
AM_0
 10
1117.453467193654
 20
257.99082788708211
 30
0.0
 11
1117.453467193654
 21
262.0468578870819
 31
0.0
  0
ARC
  5
2E20
  8
AM_0
 10
1195.8909691936551
 20
367.61085188708182
 30
0.0
 40
128.43754799999999
 50
229.9639899999998
 51
230.68880999999999
  0
ARC
  5
2E21
  8
AM_0
 10
1195.8909691936551
 20
367.61085188708182
 30
0.0
 40
110.000004
 50
146.26269999999991
 51
160.73436000000001
  0
ARC
  5
2E22
  8
AM_0
 10
1101.4911271936551
 20
400.60566788708201
 30
0.0
 40
9.9999996000000007
 50
160.73436000000001
 51
192.21113
  0
ARC
  5
2E23
  8
AM_0
 10
1164.328557193654
 20
257.99082788708211
 30
0.0
 40
8.0000003999999976
 50
141.82988
 51
180.00001
  0
LINE
  5
2E24
  8
AM_0
 10
1227.453441193655
 20
242.99082788708211
 30
0.0
 11
1227.453441193655
 21
248.51621588708201
 31
0.0
  0
ARC
  5
2E25
  8
AM_0
 10
1219.453437193655
 20
248.51621588708201
 30
0.0
 40
8.0000003999999976
 50
0.0
 51
90.000003000000007
  0
ARC
  5
2E26
  8
AM_0
 10
1274.328531193654
 20
248.51621588708201
 30
0.0
 40
8.0000003999999976
 50
90.000003000000007
 51
180.00001
  0
LINE
  5
2E27
  8
AM_0
 10
1266.3285631936551
 20
242.99082788708211
 30
0.0
 11
1266.3285631936551
 21
248.51621588708201
 31
0.0
  0
LINE
  5
2E28
  8
AM_0
 10
1183.0496911936541
 20
553.34688188708196
 30
0.0
 11
1115.6070331936551
 21
620.78958788708201
 31
0.0
  0
LINE
  5
2E29
  8
AM_0
 10
1191.5349811936551
 20
561.83217188708204
 30
0.0
 11
1124.0922571936539
 21
629.27478788708186
 31
0.0
  0
ARC
  5
2E2A
  8
AM_0
 10
1246.8909691936551
 20
487.99083188708181
 30
0.0
 40
143.999988
 50
134.97172
 51
196.4954399999998
  0
ARC
  5
2E2B
  8
AM_0
 10
1112.0714491936551
 20
617.25396788708201
 30
0.0
 40
4.9999996800000002
 50
45.00000099999999
 51
101.1588399999999
  0
ARC
  5
2E2C
  8
AM_0
 10
1127.6279071936549
 20
632.81034788708212
 30
0.0
 40
4.9999996800000002
 50
168.84116
 51
225.0
  0
ARC
  5
2E2D
  8
AM_0
 10
1246.8909691936551
 20
497.9908638870819
 30
0.0
 40
34.999997399999991
 50
106.60155
 51
73.398452000000006
  0
CIRCLE
  5
2E2E
  8
AM_5
 10
1246.8909691936551
 20
497.9908638870819
 30
0.0
 40
6.0
  0
CIRCLE
  5
2E2F
  8
AM_0
 10
1246.8909691936551
 20
497.9908638870819
 30
0.0
 40
4.9999996800000002
  0
LINE
  5
2E30
  8
AM_0
 10
1256.891001193655
 20
537.49080188708194
 30
0.0
 11
1236.890967193654
 21
537.49080188708194
 31
0.0
  0
LINE
  5
2E31
  8
AM_0
 10
1236.890967193654
 20
525.49080188708194
 30
0.0
 11
1256.891001193655
 21
525.49080188708194
 31
0.0
  0
LINE
  5
2E32
  8
AM_0
 10
1236.890967193654
 20
537.49080188708194
 30
0.0
 11
1236.890967193654
 21
525.49080188708194
 31
0.0
  0
LINE
  5
2E33
  8
AM_0
 10
1256.891001193655
 20
525.49080188708194
 30
0.0
 11
1256.891001193655
 21
537.49080188708194
 31
0.0
  0
ARC
  5
2E34
  8
AM_0
 10
1179.514137193655
 20
549.81129788708176
 30
0.0
 40
4.9999996800000002
 50
358.28215999999992
 51
45.00000099999999
  0
ARC
  5
2E35
  8
AM_0
 10
1195.0705051936541
 20
565.36769588708194
 30
0.0
 40
4.9999996800000002
 50
225.0
 51
271.7178399999998
  0
ARC
  5
2E36
  8
AM_0
 10
1298.7114991936551
 20
565.36769588708194
 30
0.0
 40
4.9999996800000002
 50
268.28215999999998
 51
315.0
  0
ARC
  5
2E37
  8
AM_0
 10
1381.1289211936551
 20
448.239337887082
 30
0.0
 40
4.00000014
 50
269.32735000000002
 51
343.50454999999999
  0
LINE
  5
2E38
  8
AM_0
 10
1476.8909911936551
 20
597.99084788708217
 30
0.0
 11
1476.8909911936551
 21
397.99083188708192
 31
0.0
  0
LINE
  5
2E39
  8
AM_0
 10
1313.418405193655
 20
542.4217098870821
 30
0.0
 11
1389.366195193654
 21
428.70329588708199
 31
0.0
  0
ARC
  5
2E3A
  8
AM_0
 10
1246.8909691936551
 20
497.9908638870819
 30
0.0
 40
304.99997999999999
 50
312.18473
 51
317.81527
  0
LINE
  5
2E3B
  8
AM_0
 10
1451.7055351936549
 20
271.990825887082
 30
0.0
 11
1346.8909711936551
 21
267.99082388708212
 31
0.0
  0
ARC
  5
2E3C
  8
AM_0
 10
1329.453441193654
 20
257.99082788708211
 30
0.0
 40
8.0000003999999976
 50
0.0
 51
38.17012600000001
  0
ARC
  5
2E3D
  8
AM_0
 10
1384.328535193654
 20
262.0468578870819
 30
0.0
 40
8.0000003999999976
 50
129.3111899999999
 51
180.00001
  0
LINE
  5
2E3E
  8
AM_0
 10
1376.328537193654
 20
257.99082788708211
 30
0.0
 11
1376.328537193654
 21
262.0468578870819
 31
0.0
  0
ARC
  5
2E3F
  8
AM_0
 10
1297.890999193655
 20
367.61085188708182
 30
0.0
 40
128.43754799999999
 50
309.31119000000001
 51
310.03600999999992
  0
CIRCLE
  5
2E40
  8
AM_0
 10
1437.809811193654
 20
307.07200388708202
 30
0.0
 40
12.0000006
  0
ARC
  5
2E41
  8
AM_0
 10
1297.890999193655
 20
367.61085188708182
 30
0.0
 40
110.000004
 50
19.265640999999999
 51
33.737305999999997
  0
ARC
  5
2E42
  8
AM_0
 10
1392.290877193655
 20
400.60566788708201
 30
0.0
 40
9.9999996000000007
 50
347.78888000000001
 51
19.265640999999999
  0
LINE
  5
2E43
  8
AM_0
 10
1476.8909911936551
 20
397.99083188708192
 30
0.0
 11
1472.8909891936551
 21
293.17627988708199
 31
0.0
  0
ARC
  5
2E44
  8
AM_0
 10
1246.8909691936551
 20
487.99083188708181
 30
0.0
 40
143.999988
 50
343.50454999999999
 51
45.028278
  0
LINE
  5
2E45
  8
AM_0
 10
1310.732313193655
 20
553.34682188708211
 30
0.0
 11
1378.1750011936531
 21
620.78952788708216
 31
0.0
  0
ARC
  5
2E46
  8
AM_0
 10
1314.267831193655
 20
549.81129788708176
 30
0.0
 40
4.9999996800000002
 50
135.0
 51
181.71783999999991
  0
ARC
  5
2E47
  8
AM_0
 10
1381.710495193654
 20
617.25396788708201
 30
0.0
 40
4.9999996800000002
 50
78.841154000000003
 51
135.0
  0
ARC
  5
2E48
  8
AM_0
 10
1366.154157193655
 20
632.81034788708212
 30
0.0
 40
4.9999996800000002
 50
315.0
 51
11.158847
  0
LINE
  5
2E49
  8
AM_0
 10
1146.8910271936541
 20
727.99080788708193
 30
0.0
 11
1346.8909711936551
 21
727.99080788708193
 31
0.0
  0
LINE
  5
2E4A
  8
AM_0
 10
1042.076439193655
 20
723.99078788708175
 30
0.0
 11
1146.890997193655
 21
727.99080788708193
 31
0.0
  0
CIRCLE
  5
2E4B
  8
AM_0
 10
1055.972139193655
 20
688.90968788708199
 30
0.0
 40
12.0000006
  0
ARC
  5
2E4C
  8
AM_0
 10
1246.8909691936551
 20
497.9908638870819
 30
0.0
 40
304.99997999999999
 50
132.1847299999998
 51
137.81527
  0
ARC
  5
2E4D
  8
AM_0
 10
1246.8909691936551
 20
497.9908638870819
 30
0.0
 40
304.99997999999999
 50
42.184730000000002
 51
47.815272
  0
LINE
  5
2E4E
  8
AM_0
 10
1346.891001193655
 20
727.99086788708178
 30
0.0
 11
1451.7055531936551
 21
723.99084788708194
 31
0.0
  0
CIRCLE
  5
2E4F
  8
AM_0
 10
1437.809811193654
 20
688.90968788708199
 30
0.0
 40
12.0000006
  0
LINE
  5
2E50
  8
ﾁｭｳｼﾝｾﾝ1
 10
1422.253479193655
 20
673.3533678870815
 30
0.0
 11
1453.366167193655
 21
704.46600788708201
 31
0.0
  0
ARC
  5
2E51
  8
ﾁｭｳｼﾝｾﾝ1
 10
1246.8909691936551
 20
497.9908638870819
 30
0.0
 40
270.00000599999998
 50
40.330162999999978
 51
49.669835999999982
  0
LINE
  5
2E52
  8
AM_0
 10
294.223324048096
 20
1083.411629453115
 30
0.0
 11
236.223324048096
 21
1083.411629453115
 31
0.0
  0
LINE
  5
2E53
  8
AM_0
 10
236.223324048096
 20
1118.411629453117
 30
0.0
 11
294.223324048096
 21
1118.411629453117
 31
0.0
  0
LINE
  5
2E54
  8
AM_0
 10
236.223324048096
 20
1105.911624453116
 30
0.0
 11
281.223324048096
 21
1105.911624453116
 31
0.0
  0
LINE
  5
2E55
  8
AM_0
 10
236.223324048096
 20
1095.911624453116
 30
0.0
 11
281.223324048096
 21
1095.911624453116
 31
0.0
  0
LINE
  5
2E56
  8
AM_0
 10
236.223324048096
 20
1083.411629453115
 30
0.0
 11
236.223324048096
 21
1118.411629453117
 31
0.0
  0
LINE
  5
2E57
  8
AM_0
 10
374.723324048096
 20
1016.385947453116
 30
0.0
 11
375.84473704809602
 21
1003.568131453117
 31
0.0
  0
LINE
  5
2E58
  8
AM_0
 10
381.25885804809622
 20
990.3760954531167
 30
0.0
 11
332.086528048096
 21
1039.548426453116
 31
0.0
  0
LINE
  5
2E59
  8
AM_0
 10
378.83332204809608
 20
1000.829598453117
 30
0.0
 11
402.72332404809617
 21
1000.829598453117
 31
0.0
  0
ARC
  5
2E5A
  8
AM_0
 10
385.723324048096
 20
983.9116294531168
 30
0.0
 40
3.0
 50
180.0
 51
270.0
  0
LINE
  5
2E5B
  8
AM_0
 10
382.723324048096
 20
1000.829609453115
 30
0.0
 11
382.723324048096
 21
983.9116294531168
 31
0.0
  0
ARC
  5
2E5C
  8
AM_0
 10
377.723324048096
 20
986.84056245311672
 30
0.0
 40
5.0
 50
0.0
 51
45.0
  0
ARC
  5
2E5D
  8
AM_0
 10
378.83332204809608
 20
1003.829598453116
 30
0.0
 40
3.0
 50
184.99999999999969
 51
270.0
  0
LINE
  5
2E5E
  8
AM_0
 10
378.821060048096
 20
1003.746331453116
 30
0.0
 11
378.77784404809609
 21
1014.025941453117
 31
0.0
  0
LINE
  5
2E5F
  8
AM_0
 10
400.72332404809578
 20
1000.829598453117
 30
0.0
 11
400.72332404809578
 21
980.9116294531168
 31
0.0
  0
LINE
  5
2E60
  8
AM_0
 10
385.723324048096
 20
980.9116294531168
 30
0.0
 11
400.72332404809589
 21
980.9116294531168
 31
0.0
  0
LINE
  5
2E61
  8
AM_0
 10
402.72332404809617
 20
982.91162945311703
 30
0.0
 11
400.72332404809589
 21
980.9116294531168
 31
0.0
  0
ARC
  5
2E62
  8
AM_0
 10
325.01546004809597
 20
1169.3459014531161
 30
0.0
 40
10.0
 50
270.99999999999841
 51
315.0
  0
LINE
  5
2E63
  8
AM_0
 10
400.72332404809578
 20
1170.6284664531161
 30
0.0
 11
400.72332404809578
 21
1031.1947824531171
 31
0.0
  0
LINE
  5
2E64
  8
AM_0
 10
382.723324048096
 20
1031.1947824531171
 30
0.0
 11
382.723324048096
 21
1170.6284664531161
 31
0.0
  0
LINE
  5
2E65
  8
AM_0
 10
382.723324048096
 20
1115.911624453116
 30
0.0
 11
400.72332404809578
 21
1115.911624453116
 31
0.0
  0
LINE
  5
2E66
  8
AM_0
 10
400.72332404809578
 20
1117.4864203965831
 30
0.0
 11
382.723324048096
 21
1117.4864203965831
 31
0.0
  0
LINE
  5
2E67
  8
AM_0
 10
382.723324048096
 20
1085.9116244531151
 30
0.0
 11
400.72332404809578
 21
1085.9116244531151
 31
0.0
  0
LINE
  5
2E68
  8
AM_0
 10
400.72332404809578
 20
1084.336828509649
 30
0.0
 11
382.723324048096
 21
1084.336828509649
 31
0.0
  0
LINE
  5
2E69
  8
AM_0
 10
401.54310904809603
 20
1031.1947824531171
 30
0.0
 11
375.76135504809622
 21
1031.1947824531171
 31
0.0
  0
LINE
  5
2E6A
  8
AM_0
 10
378.76792304809601
 20
1016.385947453116
 30
0.0
 11
402.72332404809617
 21
1016.385947453116
 31
0.0
  0
LINE
  5
2E6B
  8
AM_0
 10
294.223324048096
 20
1120.911629453115
 30
0.0
 11
294.223324048096
 21
1080.9116294531159
 31
0.0
  0
LINE
  5
2E6C
  8
AM_0
 10
298.223324048096
 20
1100.9116294531159
 30
0.0
 11
298.223324048096
 21
1065.911629453115
 31
0.0
  0
LINE
  5
2E6D
  8
AM_0
 10
329.229631048096
 20
1044.7438194531171
 30
0.0
 11
329.229631048096
 21
1100.9116294531159
 31
0.0
  0
LINE
  5
2E6E
  8
AM_0
 10
300.223324048096
 20
1100.9116294531159
 30
0.0
 11
300.223324048096
 21
1045.859721453116
 31
0.0
  0
ARC
  5
2E6F
  8
AM_0
 10
325.01546004809597
 20
1032.477358453116
 30
0.0
 40
10.0
 50
45.0
 51
89.000000000001506
  0
ARC
  5
2E70
  8
AM_0
 10
303.22332404809612
 20
1045.859721453116
 30
0.0
 40
3.0
 50
180.0
 51
268.99999999999812
  0
LINE
  5
2E71
  8
AM_0
 10
303.17096704809597
 20
1042.860178453117
 30
0.0
 11
325.18998404809599
 21
1042.475835453115
 31
0.0
  0
LINE
  5
2E72
  8
AM_0
 10
298.223324048096
 20
1065.911629453115
 30
0.0
 11
300.223324048096
 21
1063.911629453117
 31
0.0
  0
LINE
  5
2E73
  8
AM_0
 10
294.223324048096
 20
1080.9116294531159
 30
0.0
 11
298.223324048096
 21
1080.9116294531159
 31
0.0
  0
ARC
  5
2E74
  8
AM_0
 10
378.76792304809601
 20
1019.385947453116
 30
0.0
 40
3.0
 50
184.99999999999969
 51
270.0
  0
LINE
  5
2E75
  8
AM_0
 10
374.723324048096
 20
1031.1947824531171
 30
0.0
 11
375.77933804809601
 21
1019.124480453116
 31
0.0
  0
LINE
  5
2E76
  8
AM_0
 10
300.223324048096
 20
1100.9116294531159
 30
0.0
 11
300.223324048096
 21
1155.9635384531171
 31
0.0
  0
LINE
  5
2E77
  8
AM_0
 10
298.223324048096
 20
1100.9116294531159
 30
0.0
 11
298.223324048096
 21
1135.911629453115
 31
0.0
  0
LINE
  5
2E78
  8
AM_0
 10
329.229631048096
 20
1157.0794404531171
 30
0.0
 11
329.229631048096
 21
1100.9116294531159
 31
0.0
  0
LINE
  5
2E79
  8
AM_0
 10
281.223324048096
 20
1105.911624453116
 30
0.0
 11
281.223324048096
 21
1095.911624453116
 31
0.0
  0
ARC
  5
2E7A
  8
AM_0
 10
281.223324048096
 20
1100.911624453116
 30
0.0
 40
5.0
 50
270.0
 51
90.0
  0
LINE
  5
2E7B
  8
AM_0
 10
294.223324048096
 20
1120.911629453115
 30
0.0
 11
298.223324048096
 21
1120.911629453115
 31
0.0
  0
ARC
  5
2E7C
  8
AM_0
 10
303.22332404809612
 20
1155.9635384531171
 30
0.0
 40
3.0
 50
90.999999999998494
 51
180.0
  0
LINE
  5
2E7D
  8
AM_0
 10
298.223324048096
 20
1135.911629453115
 30
0.0
 11
300.223324048096
 21
1137.911629453115
 31
0.0
  0
LINE
  5
2E7E
  8
AM_0
 10
303.17096704809597
 20
1158.963081453114
 30
0.0
 11
325.18998404809599
 21
1159.347424453116
 31
0.0
  0
ARC
  5
2E7F
  8
AM_0
 10
385.723324048096
 20
1217.9116194531171
 30
0.0
 40
3.0
 50
90.0
 51
180.0
  0
LINE
  5
2E80
  8
AM_0
 10
378.83332204809608
 20
1200.993650453117
 30
0.0
 11
402.72332404809617
 21
1200.993650453117
 31
0.0
  0
LINE
  5
2E81
  8
AM_0
 10
378.76792304809601
 20
1185.4373014531161
 30
0.0
 11
402.72332404809617
 21
1185.4373014531161
 31
0.0
  0
LINE
  5
2E82
  8
AM_0
 10
401.54310904809603
 20
1170.6284664531161
 30
0.0
 11
375.76135504809622
 21
1170.6284664531161
 31
0.0
  0
LINE
  5
2E83
  8
AM_0
 10
374.723324048096
 20
1185.4373014531161
 30
0.0
 11
375.84473704809602
 21
1198.255117453117
 31
0.0
  0
LINE
  5
2E84
  8
AM_0
 10
378.821060048096
 20
1198.076917453116
 30
0.0
 11
378.77784404809609
 21
1187.797307453116
 31
0.0
  0
LINE
  5
2E85
  8
AM_0
 10
381.25885804809622
 20
1211.447163453116
 30
0.0
 11
332.086528048096
 21
1162.2748334531159
 31
0.0
  0
LINE
  5
2E86
  8
AM_0
 10
374.723324048096
 20
1170.6284664531161
 30
0.0
 11
375.77933804809601
 21
1182.6987684531159
 31
0.0
  0
ARC
  5
2E87
  8
AM_0
 10
378.76792304809601
 20
1182.437301453117
 30
0.0
 40
3.0
 50
90.0
 51
175.00000000000011
  0
ARC
  5
2E88
  8
AM_0
 10
377.723324048096
 20
1214.982686453116
 30
0.0
 40
5.0
 50
315.0
 51
0.0
  0
LINE
  5
2E89
  8
AM_0
 10
382.723324048096
 20
1217.9116194531171
 30
0.0
 11
382.723324048096
 21
1200.993650453117
 31
0.0
  0
ARC
  5
2E8A
  8
AM_0
 10
378.83332204809608
 20
1197.993650453117
 30
0.0
 40
3.0
 50
90.0
 51
175.00000000000011
  0
LINE
  5
2E8B
  8
AM_0
 10
400.72332404809589
 20
1200.993650453117
 30
0.0
 11
400.72332404809589
 21
1220.9116194531171
 31
0.0
  0
LINE
  5
2E8C
  8
AM_0
 10
385.723324048096
 20
1220.9116194531171
 30
0.0
 11
400.72332404809589
 21
1220.9116194531171
 31
0.0
  0
LINE
  5
2E8D
  8
AM_0
 10
402.72332404809617
 20
1218.9116194531171
 30
0.0
 11
400.72332404809589
 21
1220.9116194531171
 31
0.0
  0
LINE
  5
2E8F
  8
AM_0
 10
739.22333404809615
 20
1090.911624453116
 30
0.0
 11
824.22333404809615
 21
1090.911624453116
 31
0.0
  0
LINE
  5
2E90
  8
AM_0
 10
824.22333404809615
 20
1110.911624453116
 30
0.0
 11
739.22333404809615
 21
1110.911624453116
 31
0.0
  0
LINE
  5
2E91
  8
AM_0
 10
824.22333404809615
 20
1065.911624453116
 30
0.0
 11
714.22333404809615
 21
1065.911624453116
 31
0.0
  0
LINE
  5
2E92
  8
AM_0
 10
714.22333404809615
 20
1135.9116244531151
 30
0.0
 11
824.22333404809615
 21
1135.9116244531151
 31
0.0
  0
LINE
  5
2E93
  8
ﾁｭｳｼﾝｾﾝ
 10
828.93061404809612
 20
1100.911624453116
 30
0.0
 11
223.2454685141696
 21
1100.911624453116
 31
0.0
  0
ARC
  5
2E94
  8
AM_0
 10
505.22332404809578
 20
1100.911624453116
 30
0.0
 40
20.0
 50
198.2099599999984
 51
341.79004000000128
  0
ARC
  5
2E95
  8
AM_0
 10
505.22332404809578
 20
1100.911624453116
 30
0.0
 40
15.0
 50
204.6243199999974
 51
335.37568000000249
  0
LINE
  5
2E96
  8
AM_0
 10
670.22333404809615
 20
878.45428445311666
 30
0.0
 11
670.22333404809615
 21
1323.369024453116
 31
0.0
  0
LINE
  5
2E97
  8
AM_0
 10
670.22333404809615
 20
1323.369024453116
 30
0.0
 11
670.22333404809615
 21
878.45428445311666
 31
0.0
  0
LINE
  5
2E98
  8
AM_0
 10
708.22333404809615
 20
905.91162445311681
 30
0.0
 11
708.22333404809615
 21
1295.911624453116
 31
0.0
  0
LINE
  5
2E99
  8
AM_0
 10
681.22333404809615
 20
1263.5379244531171
 30
0.0
 11
681.22333404809615
 21
938.28522445311705
 31
0.0
  0
LINE
  5
2E9A
  8
AM_0
 10
702.22333404809615
 20
1330.911624453116
 30
0.0
 11
702.22333404809615
 21
870.91162445311704
 31
0.0
  0
LINE
  5
2E9B
  8
AM_0
 10
714.22333404809615
 20
1138.411624453116
 30
0.0
 11
714.22333404809615
 21
1063.4116244531151
 31
0.0
  0
LINE
  5
2E9C
  8
AM_0
 10
460.72332404809617
 20
1217.665724453117
 30
0.0
 11
460.72332404809617
 21
986.7261944531167
 31
0.0
  0
LINE
  5
2E9D
  8
AM_0
 10
402.72332404809617
 20
983.9116244531167
 30
0.0
 11
402.72332404809617
 21
1100.911624453116
 31
0.0
  0
LINE
  5
2E9E
  8
AM_0
 10
415.72332404809612
 20
983.9116244531167
 30
0.0
 11
415.72332404809612
 21
1100.911624453116
 31
0.0
  0
LINE
  5
2E9F
  8
AM_0
 10
527.22333404809615
 20
911.91162445311681
 30
0.0
 11
527.22333404809615
 21
1094.6616244531151
 31
0.0
  0
LINE
  5
2EA0
  8
AM_0
 10
460.72332404809617
 20
1225.911624453116
 30
0.0
 11
460.72332404809617
 21
975.91162445311693
 31
0.0
  0
LINE
  5
2EA1
  8
AM_0
 10
527.22333404809615
 20
933.9116244531167
 30
0.0
 11
662.42579404809612
 21
931.55170445311671
 31
0.0
  0
LINE
  5
2EA2
  8
AM_0
 10
514.17102404809611
 20
912.1394644531166
 30
0.0
 11
658.43281404809613
 21
909.62140445311672
 31
0.0
  0
LINE
  5
2EA3
  8
AM_0
 10
527.22333404809615
 20
1044.223694453116
 30
0.0
 11
658.43274404809608
 21
1046.5139844531161
 31
0.0
  0
LINE
  5
2EA4
  8
AM_0
 10
527.22333404809615
 20
1015.434084453117
 30
0.0
 11
658.43274404809608
 21
1013.143804453116
 31
0.0
  0
LINE
  5
2EA5
  8
AM_0
 10
527.22333404809615
 20
948.48089445311666
 30
0.0
 11
645.50055404809621
 21
945.38367445311678
 31
0.0
  0
LINE
  5
2EA6
  8
AM_0
 10
514.14472404809612
 20
925.01684445311673
 30
0.0
 11
665.35419404809613
 21
921.05731445311642
 31
0.0
  0
ARC
  5
2EA7
  8
AM_0
 10
470.723324048096
 20
975.91162445311693
 30
0.0
 40
10.0
 50
179.9999899999988
 51
270.0
  0
LINE
  5
2EA8
  8
AM_0
 10
403.723324048096
 20
982.9116244531167
 30
0.0
 11
414.72332404809617
 21
982.9116244531167
 31
0.0
  0
LINE
  5
2EA9
  8
AM_0
 10
402.72332404809617
 20
983.911684453117
 30
0.0
 11
403.723324048096
 21
982.91168445311723
 31
0.0
  0
LINE
  5
2EAA
  8
AM_0
 10
416.23212404809578
 20
984.90277445311676
 30
0.0
 11
456.7931240480961
 21
984.1947644531167
 31
0.0
  0
ARC
  5
2EAB
  8
AM_0
 10
416.223324048096
 20
984.40283445311672
 30
0.0
 40
0.5
 50
89.000001000002214
 51
180.00001000000091
  0
ARC
  5
2EAC
  8
AM_0
 10
414.72332404809617
 20
983.9116244531167
 30
0.0
 40
1.0
 50
270.0
 51
0.0
  0
ARC
  5
2EAD
  8
AM_0
 10
456.72332404809617
 20
980.19537445311676
 30
0.0
 40
4.0
 50
0.0
 51
89.000001000002214
  0
LINE
  5
2EAE
  8
AM_0
 10
403.70222404809579
 20
1026.474674453116
 30
0.0
 11
414.73112404809598
 21
1026.474674453116
 31
0.0
  0
LINE
  5
2EAF
  8
AM_0
 10
402.72332404809617
 20
1016.740784453115
 30
0.0
 11
413.72332404809572
 21
1016.740784453115
 31
0.0
  0
LINE
  5
2EB0
  8
AM_0
 10
402.72332404809617
 20
1001.184454453116
 30
0.0
 11
413.72332404809572
 21
1001.184454453116
 31
0.0
  0
LINE
  5
2EB1
  8
AM_0
 10
415.72332404809612
 20
1029.079224453116
 30
0.0
 11
460.72332404809617
 21
1029.079224453116
 31
0.0
  0
LINE
  5
2EB2
  8
AM_0
 10
415.72332404809612
 20
1009.828674453115
 30
0.0
 11
460.72332404809617
 21
1009.828674453115
 31
0.0
  0
ARC
  5
2EB3
  8
AM_0
 10
413.72332404809572
 20
1003.184454453116
 30
0.0
 40
2.0
 50
270.0
 51
0.0
  0
ARC
  5
2EB4
  8
AM_0
 10
413.72332404809572
 20
1018.740784453115
 30
0.0
 40
2.0
 50
270.0
 51
0.0
  0
LINE
  5
2EB5
  8
AM_0
 10
511.223324048096
 20
1072.983124453116
 30
0.0
 11
511.223324048096
 21
915.13898445311702
 31
0.0
  0
LINE
  5
2EB6
  8
AM_0
 10
514.22332404809595
 20
933.9116244531167
 30
0.0
 11
527.22333404809615
 21
933.9116244531167
 31
0.0
  0
LINE
  5
2EB7
  8
AM_0
 10
514.22332404809595
 20
948.48089445311666
 30
0.0
 11
527.22333404809615
 21
948.48089445311666
 31
0.0
  0
ARC
  5
2EB8
  8
AM_0
 10
514.22332404809595
 20
915.13898445311702
 30
0.0
 40
3.0
 50
179.9999899999988
 51
269.0000099999981
  0
ARC
  5
2EB9
  8
AM_0
 10
514.22332404809595
 20
928.01587445311668
 30
0.0
 40
3.0
 50
179.9999899999988
 51
268.50000999999878
  0
ARC
  5
2EBA
  8
AM_0
 10
514.22332404809595
 20
936.91162445311681
 30
0.0
 40
3.0
 50
179.9999899999988
 51
270.0
  0
LINE
  5
2EBB
  8
AM_0
 10
470.723324048096
 20
965.9116244531167
 30
0.0
 11
507.22332404809617
 21
965.9116244531167
 31
0.0
  0
ARC
  5
2EBC
  8
AM_0
 10
507.22332404809617
 20
961.91162445311681
 30
0.0
 40
4.0
 50
0.0
 51
90.00000299999769
  0
ARC
  5
2EBD
  8
AM_0
 10
514.22332404809595
 20
951.48089445311678
 30
0.0
 40
3.0
 50
179.9999899999988
 51
270.0
  0
LINE
  5
2EBE
  8
AM_0
 10
511.223324048096
 20
1015.911624453117
 30
0.0
 11
527.22333404809615
 21
1015.911624453117
 31
0.0
  0
LINE
  5
2EBF
  8
AM_0
 10
527.22333404809615
 20
1044.223754453116
 30
0.0
 11
511.223324048096
 21
1044.223754453116
 31
0.0
  0
ARC
  5
2EC0
  8
AM_0
 10
503.22332404809612
 20
1072.983124453116
 30
0.0
 40
8.0
 50
0.0
 51
85.903958999999659
  0
LINE
  5
2EC1
  8
AM_0
 10
702.22333404809615
 20
870.91162445311704
 30
0.0
 11
682.22333404809615
 21
870.91162445311704
 31
0.0
  0
LINE
  5
2EC2
  8
AM_0
 10
680.22333404809615
 20
873.45428445311666
 30
0.0
 11
675.22333404809615
 21
873.45428445311666
 31
0.0
  0
ARC
  5
2EC3
  8
AM_0
 10
675.22333404809615
 20
878.45428445311666
 30
0.0
 40
5.0
 50
179.9999899999988
 51
270.0
  0
ARC
  5
2EC4
  8
AM_0
 10
682.22333404809615
 20
871.91162445311704
 30
0.0
 40
1.0
 50
179.9999899999988
 51
270.0
  0
ARC
  5
2EC5
  8
AM_0
 10
680.22333404809615
 20
872.45428445311666
 30
0.0
 40
1.0
 50
0.0
 51
90.00000299999769
  0
LINE
  5
2EC6
  8
AM_0
 10
681.22333404809615
 20
871.91162445311704
 30
0.0
 11
681.22333404809615
 21
872.45428445311666
 31
0.0
  0
LINE
  5
2EC7
  8
AM_0
 10
628.43744404809615
 20
969.97284445311675
 30
0.0
 11
662.48945404809615
 21
969.97284445311675
 31
0.0
  0
LINE
  5
2EC8
  8
AM_0
 10
624.77790404809616
 20
962.3190944531168
 30
0.0
 11
670.22333404809615
 21
925.17926445311684
 31
0.0
  0
LINE
  5
2EC9
  8
AM_0
 10
624.77790404809616
 20
969.97284445311675
 30
0.0
 11
670.22333404809615
 21
932.17926445311684
 31
0.0
  0
ARC
  5
2ECA
  8
AM_0
 10
658.22333404809615
 20
897.62317445311714
 30
0.0
 40
12.0
 50
0.0
 51
89.000001000002214
  0
LINE
  5
2ECB
  8
AM_0
 10
670.22333404809615
 20
934.28522445311671
 30
0.0
 11
677.22333404809615
 21
934.28522445311671
 31
0.0
  0
ARC
  5
2ECC
  8
AM_0
 10
665.22333404809615
 20
916.05902445311619
 30
0.0
 40
5.0
 50
0.0
 51
88.499997000000647
  0
ARC
  5
2ECD
  8
AM_0
 10
677.22333404809615
 20
938.28522445311705
 30
0.0
 40
4.0
 50
270.0
 51
0.0
  0
ARC
  5
2ECE
  8
AM_0
 10
665.22333404809615
 20
964.97284445311675
 30
0.0
 40
5.0
 50
0.0
 51
90.00000299999769
  0
ARC
  5
2ECF
  8
AM_0
 10
658.22333404809615
 20
1001.145634453115
 30
0.0
 40
12.0
 50
0.0
 51
89.000001000002214
  0
LINE
  5
2ED0
  8
AM_0
 10
670.22333404809615
 20
995.68780445311643
 30
0.0
 11
677.22333404809615
 21
995.68780445311643
 31
0.0
  0
ARC
  5
2ED1
  8
AM_0
 10
658.22333404809615
 20
1058.512124453116
 30
0.0
 40
12.0
 50
271.00000000000171
 51
0.0
  0
LINE
  5
2ED2
  8
AM_0
 10
702.22333404809615
 20
905.91162445311681
 30
0.0
 11
708.22333404809615
 21
905.91162445311681
 31
0.0
  0
LINE
  5
2ED3
  8
AM_0
 10
708.22333404809615
 20
1063.4116244531151
 30
0.0
 11
714.22333404809615
 21
1063.4116244531151
 31
0.0
  0
LINE
  5
2ED4
  8
AM_0
 10
527.22333404809615
 20
1186.389124453116
 30
0.0
 11
658.43274404809608
 21
1188.679424453117
 31
0.0
  0
LINE
  5
2ED5
  8
AM_0
 10
527.22333404809615
 20
1157.599524453115
 30
0.0
 11
658.43281404809613
 21
1155.309224453116
 31
0.0
  0
LINE
  5
2ED6
  8
AM_0
 10
514.14482404809598
 20
1276.8063244531161
 30
0.0
 11
665.35419404809613
 21
1280.765824453116
 31
0.0
  0
LINE
  5
2ED7
  8
AM_0
 10
527.22333404809615
 20
1253.342424453117
 30
0.0
 11
645.50055404809621
 21
1256.439624453116
 31
0.0
  0
LINE
  5
2ED8
  8
AM_0
 10
514.17092404809614
 20
1289.683824453115
 30
0.0
 11
658.43274404809608
 21
1292.201924453117
 31
0.0
  0
LINE
  5
2ED9
  8
AM_0
 10
527.22333404809615
 20
1267.911624453116
 30
0.0
 11
662.42585404809574
 21
1270.271524453115
 31
0.0
  0
ARC
  5
2EDA
  8
AM_0
 10
470.723324048096
 20
1225.911624453116
 30
0.0
 40
10.0
 50
90.00000299999769
 51
180.00001000000091
  0
LINE
  5
2EDB
  8
AM_0
 10
402.72332404809617
 20
1217.911624453116
 30
0.0
 11
402.72332404809617
 21
1100.911624453116
 31
0.0
  0
LINE
  5
2EDC
  8
AM_0
 10
415.72332404809612
 20
1217.911624453116
 30
0.0
 11
415.72332404809612
 21
1100.911624453116
 31
0.0
  0
LINE
  5
2EDD
  8
AM_0
 10
402.72332404809617
 20
1185.082524453117
 30
0.0
 11
413.72332404809572
 21
1185.082524453117
 31
0.0
  0
LINE
  5
2EDE
  8
AM_0
 10
403.70222404809579
 20
1175.3486244531171
 30
0.0
 11
414.73112404809598
 21
1175.3486244531171
 31
0.0
  0
LINE
  5
2EDF
  8
AM_0
 10
415.72332404809612
 20
1172.744024453116
 30
0.0
 11
460.72332404809617
 21
1172.744024453116
 31
0.0
  0
ARC
  5
2EE0
  8
AM_0
 10
413.72332404809572
 20
1183.0825244531161
 30
0.0
 40
2.0
 50
0.0
 51
90.00000299999769
  0
LINE
  5
2EE1
  8
AM_0
 10
403.723324048096
 20
1218.911624453116
 30
0.0
 11
414.72332404809617
 21
1218.911624453116
 31
0.0
  0
LINE
  5
2EE2
  8
AM_0
 10
402.72332404809617
 20
1200.638924453116
 30
0.0
 11
413.72332404809572
 21
1200.638924453116
 31
0.0
  0
LINE
  5
2EE3
  8
AM_0
 10
402.72332404809617
 20
1217.911624453116
 30
0.0
 11
403.723324048096
 21
1218.911624453116
 31
0.0
  0
LINE
  5
2EE4
  8
AM_0
 10
416.23212404809578
 20
1216.9205244531161
 30
0.0
 11
455.81062404809597
 21
1217.611324453117
 31
0.0
  0
LINE
  5
2EE5
  8
AM_0
 10
415.72332404809612
 20
1191.9946244531161
 30
0.0
 11
460.72332404809617
 21
1191.9946244531161
 31
0.0
  0
ARC
  5
2EE6
  8
AM_0
 10
413.72332404809572
 20
1198.638924453116
 30
0.0
 40
2.0
 50
0.0
 51
90.00000299999769
  0
ARC
  5
2EE7
  8
AM_0
 10
414.72332404809617
 20
1217.911624453116
 30
0.0
 40
1.0
 50
0.0
 51
90.00000299999769
  0
ARC
  5
2EE8
  8
AM_0
 10
416.223324048096
 20
1217.420424453117
 30
0.0
 40
0.5
 50
179.9999899999988
 51
271.00000000000171
  0
ARC
  5
2EE9
  8
AM_0
 10
455.723324048096
 20
1222.610624453117
 30
0.0
 40
5.0
 50
271.00000000000171
 51
0.0
  0
LINE
  5
2EEA
  8
AM_0
 10
511.223324048096
 20
1286.684224453116
 30
0.0
 11
511.223324048096
 21
1128.840124453116
 31
0.0
  0
LINE
  5
2EEB
  8
AM_0
 10
527.22333404809615
 20
1289.911624453116
 30
0.0
 11
527.22333404809615
 21
1107.161624453116
 31
0.0
  0
ARC
  5
2EEC
  8
AM_0
 10
505.22332404809578
 20
1100.911624453116
 30
0.0
 40
20.0
 50
18.209957000000301
 51
161.7900400000014
  0
LINE
  5
2EED
  8
AM_0
 10
527.22333404809615
 20
1157.599624453117
 30
0.0
 11
511.223324048096
 21
1157.599624453117
 31
0.0
  0
LINE
  5
2EEE
  8
AM_0
 10
511.223324048096
 20
1185.911624453116
 30
0.0
 11
527.22333404809615
 21
1185.911624453116
 31
0.0
  0
LINE
  5
2EEF
  8
AM_0
 10
481.47332404809578
 20
1107.161624453116
 30
0.0
 11
528.97333404809615
 21
1107.161624453116
 31
0.0
  0
LINE
  5
2EF0
  8
AM_0
 10
481.47332404809578
 20
1094.6616244531151
 30
0.0
 11
528.97333404809615
 21
1094.6616244531151
 31
0.0
  0
ARC
  5
2EF1
  8
AM_0
 10
481.47332404809578
 20
1100.911624453116
 30
0.0
 40
6.25
 50
90.00000299999769
 51
270.0
  0
ARC
  5
2EF2
  8
AM_0
 10
505.22332404809578
 20
1100.911624453116
 30
0.0
 40
15.0
 50
24.624318000003381
 51
155.3756800000024
  0
ARC
  5
2EF3
  8
AM_0
 10
503.22332404809612
 20
1128.840124453116
 30
0.0
 40
8.0
 50
274.09603999999791
 51
0.0
  0
CIRCLE
  5
2EF4
  8
AM_0
 10
557.22333404809615
 20
1100.911624453116
 30
0.0
 40
10.0
  0
ARC
  5
2EF5
  8
AM_0
 10
528.97333404809615
 20
1100.911624453116
 30
0.0
 40
6.25
 50
270.0
 51
90.00000299999769
  0
LINE
  5
2EF6
  8
AM_0
 10
562.99683404809605
 20
1100.911624453116
 30
0.0
 11
560.11011404809597
 21
1105.911624453116
 31
0.0
  0
LINE
  5
2EF7
  8
AM_0
 10
560.11005404809612
 20
1095.911624453116
 30
0.0
 11
562.99683404809605
 21
1100.911624453116
 31
0.0
  0
LINE
  5
2EF8
  8
AM_0
 10
560.11011404809597
 20
1105.911624453116
 30
0.0
 11
554.33655404809599
 21
1105.911624453116
 31
0.0
  0
LINE
  5
2EF9
  8
AM_0
 10
554.33655404809599
 20
1095.911624453116
 30
0.0
 11
560.11011404809597
 21
1095.911624453116
 31
0.0
  0
LINE
  5
2EFA
  8
AM_0
 10
551.44983404809614
 20
1100.911624453116
 30
0.0
 11
554.33655404809599
 21
1095.911624453116
 31
0.0
  0
LINE
  5
2EFB
  8
AM_0
 10
554.33655404809599
 20
1105.911624453116
 30
0.0
 11
551.44983404809614
 21
1100.911624453116
 31
0.0
  0
LINE
  5
2EFC
  8
AM_0
 10
514.22332404809595
 20
1267.911624453116
 30
0.0
 11
527.22333404809615
 21
1267.911624453116
 31
0.0
  0
LINE
  5
2EFD
  8
AM_0
 10
514.22332404809595
 20
1253.342424453117
 30
0.0
 11
527.22333404809615
 21
1253.342424453117
 31
0.0
  0
LINE
  5
2EFE
  8
AM_0
 10
507.22332404809617
 20
1235.911624453116
 30
0.0
 11
470.723324048096
 21
1235.911624453116
 31
0.0
  0
ARC
  5
2EFF
  8
AM_0
 10
507.22332404809617
 20
1239.911624453116
 30
0.0
 40
4.0
 50
270.0
 51
0.0
  0
ARC
  5
2F00
  8
AM_0
 10
514.22332404809595
 20
1264.911624453116
 30
0.0
 40
3.0
 50
90.00000299999769
 51
180.00001000000091
  0
ARC
  5
2F01
  8
AM_0
 10
514.22332404809595
 20
1250.342424453117
 30
0.0
 40
3.0
 50
90.00000299999769
 51
180.00001000000091
  0
ARC
  5
2F02
  8
AM_0
 10
514.22332404809595
 20
1286.684224453116
 30
0.0
 40
3.0
 50
90.999997000003077
 51
180.00001000000091
  0
ARC
  5
2F03
  8
AM_0
 10
514.22332404809595
 20
1273.807424453116
 30
0.0
 40
3.0
 50
91.500001000001546
 51
180.00001000000091
  0
ARC
  5
2F04
  8
AM_0
 10
658.22333404809615
 20
1304.200124453117
 30
0.0
 40
12.0
 50
271.00000000000171
 51
0.0
  0
ARC
  5
2F05
  8
AM_0
 10
658.22333404809615
 20
1200.677624453117
 30
0.0
 40
12.0
 50
271.00000000000171
 51
0.0
  0
LINE
  5
2F06
  8
AM_0
 10
627.77790404809605
 20
1107.911624453116
 30
0.0
 11
670.22333404809615
 21
1107.911624453116
 31
0.0
  0
LINE
  5
2F07
  8
AM_0
 10
627.77790404809605
 20
1093.9116244531151
 30
0.0
 11
670.22333404809615
 21
1093.9116244531151
 31
0.0
  0
ARC
  5
2F08
  8
AM_0
 10
627.77790404809605
 20
1110.911624453116
 30
0.0
 40
3.0
 50
179.9999899999988
 51
270.0
  0
ARC
  5
2F09
  8
AM_0
 10
627.77790404809605
 20
1090.911624453116
 30
0.0
 40
3.0
 50
90.00000299999769
 51
180.00001000000091
  0
ARC
  5
2F0A
  8
AM_0
 10
658.22333404809615
 20
1143.311024453116
 30
0.0
 40
12.0
 50
0.0
 51
89.000001000002214
  0
LINE
  5
2F0B
  8
AM_0
 10
624.7778440480962
 20
1231.850424453115
 30
0.0
 11
670.22327404809573
 21
1269.644024453115
 31
0.0
  0
LINE
  5
2F0C
  8
AM_0
 10
624.77790404809616
 20
1239.504124453116
 30
0.0
 11
670.22333404809615
 21
1276.6440244531159
 31
0.0
  0
LINE
  5
2F0D
  8
AM_0
 10
628.43744404809615
 20
1231.850424453115
 30
0.0
 11
662.48945404809615
 21
1231.850424453115
 31
0.0
  0
LINE
  5
2F0E
  8
AM_0
 10
670.22333404809615
 20
1206.135524453116
 30
0.0
 11
677.22333404809615
 21
1206.135524453116
 31
0.0
  0
ARC
  5
2F0F
  8
AM_0
 10
665.22333404809615
 20
1236.850424453115
 30
0.0
 40
5.0
 50
270.0
 51
0.0
  0
ARC
  5
2F10
  8
AM_0
 10
677.22333404809615
 20
1263.5379244531171
 30
0.0
 40
4.0
 50
0.0
 51
90.00000299999769
  0
LINE
  5
2F11
  8
AM_0
 10
670.22333404809615
 20
1267.537924453115
 30
0.0
 11
677.22333404809615
 21
1267.537924453115
 31
0.0
  0
LINE
  5
2F12
  8
AM_0
 10
670.22333404809615
 20
1267.537924453115
 30
0.0
 11
677.22333404809615
 21
1267.537924453115
 31
0.0
  0
ARC
  5
2F13
  8
AM_0
 10
665.22333404809615
 20
1285.764124453116
 30
0.0
 40
5.0
 50
271.50000000000261
 51
0.0
  0
LINE
  5
2F14
  8
AM_0
 10
708.22333404809615
 20
1138.411624453116
 30
0.0
 11
714.22333404809615
 21
1138.411624453116
 31
0.0
  0
ARC
  5
2F15
  8
AM_0
 10
739.22333404809615
 20
1100.911624453116
 30
0.0
 40
10.0
 50
90.00000299999769
 51
270.0
  0
LINE
  5
2F16
  8
AM_0
 10
739.22333404809615
 20
1110.911624453116
 30
0.0
 11
739.22333404809615
 21
1090.911624453116
 31
0.0
  0
LINE
  5
2F17
  8
AM_0
 10
702.22333404809615
 20
1330.911624453116
 30
0.0
 11
682.22333404809615
 21
1330.911624453116
 31
0.0
  0
LINE
  5
2F18
  8
AM_0
 10
680.22333404809615
 20
1328.369024453116
 30
0.0
 11
675.22333404809615
 21
1328.369024453116
 31
0.0
  0
ARC
  5
2F19
  8
AM_0
 10
675.22333404809615
 20
1323.369024453116
 30
0.0
 40
5.0
 50
90.00000299999769
 51
180.00001000000091
  0
ARC
  5
2F1A
  8
AM_0
 10
675.22333404809615
 20
1323.369024453116
 30
0.0
 40
5.0
 50
90.00000299999769
 51
180.00001000000091
  0
ARC
  5
2F1B
  8
AM_0
 10
680.22333404809615
 20
1329.369024453116
 30
0.0
 40
1.0
 50
270.0
 51
0.0
  0
ARC
  5
2F1C
  8
AM_0
 10
682.22333404809615
 20
1329.911624453116
 30
0.0
 40
1.0
 50
90.00000299999769
 51
180.00001000000091
  0
LINE
  5
2F1D
  8
AM_0
 10
681.22333404809615
 20
1329.911624453116
 30
0.0
 11
681.22333404809615
 21
1329.369024453116
 31
0.0
  0
LINE
  5
2F1E
  8
AM_0
 10
708.22333404809615
 20
1295.911624453116
 30
0.0
 11
702.22333404809615
 21
1295.911624453116
 31
0.0
  0
LINE
  5
2F1F
  8
AM_0
 10
824.22333404809615
 20
1135.9116244531151
 30
0.0
 11
824.22333404809615
 21
1065.911624453116
 31
0.0
  0
ARC
  5
2F20
  8
ﾁｭｳｼﾝｾﾝ1
 10
1246.8909691936551
 20
497.9908638870819
 30
0.0
 40
270.00000599999998
 50
130.33016399999991
 51
139.6698369999998
  0
LINE
  5
2F21
  8
ﾁｭｳｼﾝｾﾝ1
 10
1071.528459193654
 20
673.3533678870815
 30
0.0
 11
1040.415771193655
 21
704.46600788708201
 31
0.0
  0
ARC
  5
2F22
  8
ﾁｭｳｼﾝｾﾝ1
 10
1246.8909691936551
 20
497.9908638870819
 30
0.0
 40
270.00000599999998
 50
310.33015999999992
 51
319.66984000000002
  0
LINE
  5
2F23
  8
ﾁｭｳｼﾝｾﾝ1
 10
1422.2534611936551
 20
322.62837188708193
 30
0.0
 11
1453.366119193653
 21
291.51566588708192
 31
0.0
  0
TEXT
  5
31B1
  8
AM_0
 10
1042.6941956355131
 20
1168.255545653841
 30
0.0
 40
20.0
  1
VX55-080GF~VX55-120GF
  0
ENDSEC
  0
EOF
