  0
SECTION
  2
HEADER
  9
$ACADVER
  1
AC1009
  9
$INSBASE
 10
0.0
 20
0.0
 30
0.0
  9
$EXTMIN
 10
276.1737256094043
 20
283.88073916442642
 30
-0.0000000000112498
  9
$EXTMAX
 10
1350.7325169874041
 20
1158.1690565334959
 30
0.0000000000002956
  9
$LIMMIN
 10
0.0
 20
0.0
  9
$LIMMAX
 10
1707.0
 20
1110.0
  9
$ORTHOMODE
 70
     0
  9
$REGENMODE
 70
     1
  9
$FILLMODE
 70
     1
  9
$QTEXTMODE
 70
     0
  9
$MIRRTEXT
 70
     1
  9
$DRAGMODE
 70
     2
  9
$LTSCALE
 40
6.0
  9
$OSMODE
 70
   551
  9
$ATTMODE
 70
     1
  9
$TEXTSIZE
 40
2.5
  9
$TRACEWID
 40
1.0
  9
$TEXTSTYLE
  7
STANDARD
  9
$CLAYER
  8
AM_0
  9
$CELTYPE
  6
BYLAYER
  9
$CECOLOR
 62
   256
  9
$DIMSCALE
 40
6.0
  9
$DIMASZ
 40
2.5
  9
$DIMEXO
 40
1.0
  9
$DIMDLI
 40
8.0
  9
$DIMRND
 40
0.0
  9
$DIMDLE
 40
0.0
  9
$DIMEXE
 40
0.6
  9
$DIMTP
 40
0.1
  9
$DIMTM
 40
0.1
  9
$DIMTXT
 40
2.5
  9
$DIMCEN
 40
0.0
  9
$DIMTSZ
 40
0.0
  9
$DIMTOL
 70
     0
  9
$DIMLIM
 70
     0
  9
$DIMTIH
 70
     0
  9
$DIMTOH
 70
     0
  9
$DIMSE1
 70
     0
  9
$DIMSE2
 70
     0
  9
$DIMTAD
 70
     1
  9
$DIMZIN
 70
     8
  9
$DIMBLK
  1

  9
$DIMASO
 70
     1
  9
$DIMSHO
 70
     1
  9
$DIMPOST
  1

  9
$DIMAPOST
  1
"
  9
$DIMALT
 70
     0
  9
$DIMALTD
 70
     2
  9
$DIMALTF
 40
0.0393701
  9
$DIMLFAC
 40
1.0
  9
$DIMTOFL
 70
     1
  9
$DIMTVP
 40
0.0
  9
$DIMTIX
 70
     0
  9
$DIMSOXD
 70
     0
  9
$DIMSAH
 70
     0
  9
$DIMBLK1
  1

  9
$DIMBLK2
  1

  9
$DIMSTYLE
  2
AM_ISO
  9
$DIMCLRD
 70
   256
  9
$DIMCLRE
 70
   256
  9
$DIMCLRT
 70
     4
  9
$DIMTFAC
 40
0.71
  9
$DIMGAP
 40
0.8
  9
$LUNITS
 70
     2
  9
$LUPREC
 70
     2
  9
$SKETCHINC
 40
1.0
  9
$FILLETRAD
 40
30.0
  9
$AUNITS
 70
     0
  9
$AUPREC
 70
     0
  9
$MENU
  1
.
  9
$ELEVATION
 40
0.0
  9
$PELEVATION
 40
0.0
  9
$THICKNESS
 40
0.0
  9
$LIMCHECK
 70
     0
  9
$BLIPMODE
 70
     0
  9
$CHAMFERA
 40
12.0
  9
$CHAMFERB
 40
6.0
  9
$SKPOLY
 70
     0
  9
$TDCREATE
 40
2452067.388413264
  9
$TDUPDATE
 40
2458541.4525743518
  9
$TDINDWG
 40
0.0878816782
  9
$TDUSRTIMER
 40
0.0878816551
  9
$USRTIMER
 70
     1
  9
$ANGBASE
 50
0.0
  9
$ANGDIR
 70
     0
  9
$PDMODE
 70
     0
  9
$PDSIZE
 40
0.0
  9
$PLINEWID
 40
0.0
  9
$COORDS
 70
     1
  9
$SPLFRAME
 70
     0
  9
$SPLINETYPE
 70
     6
  9
$SPLINESEGS
 70
     8
  9
$ATTDIA
 70
     1
  9
$ATTREQ
 70
     1
  9
$HANDLING
 70
     1
  9
$HANDSEED
  5
3496
  9
$SURFTAB1
 70
     6
  9
$SURFTAB2
 70
     6
  9
$SURFTYPE
 70
     6
  9
$SURFU
 70
     6
  9
$SURFV
 70
     6
  9
$UCSNAME
  2

  9
$UCSORG
 10
0.0
 20
0.0
 30
0.0
  9
$UCSXDIR
 10
1.0
 20
0.0
 30
0.0
  9
$UCSYDIR
 10
0.0
 20
1.0
 30
0.0
  9
$PUCSNAME
  2

  9
$PUCSORG
 10
0.0
 20
0.0
 30
0.0
  9
$PUCSXDIR
 10
1.0
 20
0.0
 30
0.0
  9
$PUCSYDIR
 10
0.0
 20
1.0
 30
0.0
  9
$USERI1
 70
     0
  9
$USERI2
 70
     0
  9
$USERI3
 70
     0
  9
$USERI4
 70
     0
  9
$USERI5
 70
     0
  9
$USERR1
 40
0.0
  9
$USERR2
 40
0.0
  9
$USERR3
 40
0.0
  9
$USERR4
 40
0.0
  9
$USERR5
 40
0.0
  9
$WORLDVIEW
 70
     1
  9
$SHADEDGE
 70
     3
  9
$SHADEDIF
 70
    70
  9
$TILEMODE
 70
     1
  9
$MAXACTVP
 70
    64
  9
$PLIMCHECK
 70
     0
  9
$PEXTMIN
 10
1.0000000000000000E+020
 20
1.0000000000000000E+020
 30
1.0000000000000000E+020
  9
$PEXTMAX
 10
-1.0000000000000000E+020
 20
-1.0000000000000000E+020
 30
-1.0000000000000000E+020
  9
$PLIMMIN
 10
0.0
 20
0.0
  9
$PLIMMAX
 10
420.0
 20
297.0
  9
$UNITMODE
 70
     0
  9
$VISRETAIN
 70
     1
  9
$PLINEGEN
 70
     0
  9
$PSLTSCALE
 70
     1
  0
ENDSEC
  0
SECTION
  2
TABLES
  0
TABLE
  2
VPORT
 70
     1
  0
VPORT
  2
*ACTIVE
 70
     0
 10
0.0
 20
0.0
 11
1.0
 21
1.0
 12
813.45312129840397
 22
721.02489784896125
 13
0.0
 23
0.0
 14
15.0
 24
15.0
 15
60.0
 25
60.0
 16
0.0
 26
0.0
 36
1.0
 17
0.0
 27
0.0
 37
0.0
 40
880.2902966645097
 41
1.7571592210767459
 42
50.0
 43
0.0
 44
0.0
 50
0.0
 51
0.0
 71
     0
 72
   100
 73
     1
 74
     3
 75
     0
 76
     0
 77
     0
 78
     0
  0
ENDTAB
  0
TABLE
  2
LTYPE
 70
    26
  0
LTYPE
  2
CONTINUOUS
 70
     0
  3
Solid line
 72
    65
 73
     0
 40
0.0
  0
LTYPE
  2
AM_ISO02W050
 70
     0
  3
__ __ __ __ __ __ __ __ __ __ __ __ __ __ __
 72
    65
 73
     2
 40
7.5
 49
6.0
 49
-1.5
  0
LTYPE
  2
AM_ISO08W050
 70
     0
  3
____ . ____ . ____ . ____ . ____ . ____ . ____
 72
    65
 73
     4
 40
18.0
 49
12.0
 49
-1.5
 49
3.0
 49
-1.5
  0
LTYPE
  2
AM_ISO09W050
 70
     0
  3
_____ . . _____ . . _____ . . ____ .. ____
 72
    65
 73
     6
 40
22.5
 49
12.0
 49
-1.5
 49
3.0
 49
-1.5
 49
3.0
 49
-1.5
  0
LTYPE
  2
AMCONSTR
 70
     0
  3
_______________________
 72
    65
 73
     2
 40
9999.0
 49
9999.0
 49
0.0
  0
LTYPE
  2
AM_ISO08W050X2
 70
     0
  3
__ . __ . __ . __ . __ . __
 72
    65
 73
     4
 40
9.0
 49
6.0
 49
-0.75
 49
1.5
 49
-0.75
  0
LTYPE
  2
AM_ISO02W050X2
 70
     0
  3
 _ _ _ _ _ _ _ _ _ _ _ _
 72
    65
 73
     2
 40
3.75
 49
3.0
 49
-0.75
  0
LTYPE
  2
AMZIGZAG
 70
     0
  3
/\/-/\/-/\/-/\/-/\/-/\/
 72
    65
 73
     2
 40
11.000099999999991
 49
0.0001
 49
-11.0
  0
LTYPE
  2
ACISOWELD
 70
     0
  3
_ _ _ _ _
 72
    65
 73
     2
 40
2.0
 49
2.0
 49
-1.0
  0
LTYPE
  2
ACISOTGB
 70
     0
  3
__ . . __ . .
 72
    65
 73
     6
 40
9.0
 49
4.0
 49
-1.0
 49
1.0
 49
-1.0
 49
1.0
 49
-1.0
  0
LTYPE
  2
ACISOTGL
 70
     0
  3
_ _ _ _ _
 72
    65
 73
     2
 40
3.0
 49
2.0
 49
-1.0
  0
LTYPE
  2
CENTER
 70
     0
  3
__ . __
 72
    65
 73
     4
 40
7.0
 49
4.0
 49
-1.0
 49
1.0
 49
-1.0
  0
LTYPE
  2
PHANTOM2
 70
     0
  3
Phantom (.5x) ___ _ _ ___ _ _ ___ _ _ ___ _ _
 72
    65
 73
     6
 40
31.75
 49
15.875
 49
-3.174999999999998
 49
3.174999999999998
 49
-3.174999999999998
 49
3.174999999999998
 49
-3.174999999999998
  0
LTYPE
  2
ACANSTGBM
 70
     0
  3
__ . . __ . .
 72
    65
 73
     6
 40
9.0
 49
4.0
 49
-1.0
 49
1.0
 49
-1.0
 49
1.0
 49
-1.0
  0
LTYPE
  2
ACANSTGLM
 70
     0
  3
_ _ _ _ _
 72
    65
 73
     2
 40
3.0
 49
2.0
 49
-1.0
  0
LTYPE
  2
GEN7
 70
     0
  3
____ . ____ . ____ . ____ . ____ . ____ . ____
 72
    65
 73
     4
 40
14.25
 49
9.75
 49
-1.5
 49
1.5
 49
-1.5
  0
LTYPE
  2
GEN7A
 70
     0
  3
__ . __ . __
 72
    65
 73
     4
 40
7.375
 49
4.75
 49
-0.875
 49
0.875
 49
-0.875
  0
LTYPE
  2
ACJISTGB
 70
     0
  3
__ . . __ . .
 72
    65
 73
     6
 40
9.0
 49
4.0
 49
-1.0
 49
1.0
 49
-1.0
 49
1.0
 49
-1.0
  0
LTYPE
  2
ACJISTGL
 70
     0
  3
_ _ _ _ _
 72
    65
 73
     2
 40
3.0
 49
2.0
 49
-1.0
  0
LTYPE
  2
HIDDEN
 70
     0
  3
Hidden __ __ __ __ __ __ __ __ __ __ __ __ __ _
 72
    65
 73
     2
 40
0.375
 49
0.25
 49
-0.125
  0
LTYPE
  2
CENTER2
 70
     0
  3
Center (.5x) ___ _ ___ _ ___ _ ___ _ ___ _ ___
 72
    65
 73
     4
 40
1.125
 49
0.75
 49
-0.125
 49
0.125
 49
-0.125
  0
LTYPE
  2
HIDDEN2
 70
     0
  3
Hidden (.5x) _ _ _ _ _ _ _ _ _ _ _ _ _ _ _ _ _
 72
    65
 73
     2
 40
0.1875
 49
0.125
 49
-0.0625
  0
LTYPE
  2
AMZIGZAG2
 70
     0
  3
/\/-/\/-/\/-/\/-/\/-/\/
 72
    65
 73
     2
 40
0.4401
 49
0.0001
 49
-0.4400000000000002
  0
LTYPE
  2
ACANSTGB
 70
     0
  3
__ . . __ . .
 72
    65
 73
     6
 40
0.35433070866
 49
0.15748031496
 49
-0.03937007874
 49
0.03937007874
 49
-0.03937007874
 49
0.03937007874
 49
-0.03937007874
  0
LTYPE
  2
ACANSTGL
 70
     0
  3
_ _ _ _ _
 72
    65
 73
     2
 40
0.11811023622
 49
0.07874015748
 49
-0.03937007874
  0
ENDTAB
  0
TABLE
  2
LAYER
 70
     6
  0
LAYER
  2
0
 70
     0
 62
     7
  6
CONTINUOUS
  0
LAYER
  2
AM_0
 70
     0
 62
     7
  6
CONTINUOUS
  0
LAYER
  2
AM_5
 70
     0
 62
     2
  6
CONTINUOUS
  0
LAYER
  2
DEFPOINTS
 70
     0
 62
     7
  6
CONTINUOUS
  0
LAYER
  2
ﾁｭｳｼﾝｾﾝ
 70
     0
 62
     1
  6
GEN7
  0
LAYER
  2
ﾁｭｳｼﾝｾﾝ1
 70
     0
 62
     1
  6
GEN7A
  0
ENDTAB
  0
TABLE
  2
STYLE
 70
     9
  0
STYLE
  2
STANDARD
 70
     0
 40
0.0
 41
0.8299999999999999
 50
0.0
 71
     0
 42
2.5
  3
txt.shx
  4
bigfont.shx
  0
STYLE
  2
ANNOTATIVE
 70
     0
 40
0.0
 41
1.0
 50
0.0
 71
     0
 42
0.2
  3
txt
  4

  0
STYLE
  2

 70
     1
 40
0.0
 41
1.0
 50
0.0
 71
     0
 42
2.5
  3
ltypeshp.shx
  4

  0
STYLE
  2
ACISOTS
 70
     0
 40
1.0
 41
1.0
 50
0.0
 71
     0
 42
2.5
  3
isocp.shx
  4
extfont.shx
  0
STYLE
  2
ACISOGDT
 70
     0
 40
0.0
 41
1.0
 50
0.0
 71
     0
 42
2.5
  3
amgdt.shx
  4

  0
STYLE
  2
ACANSTS
 70
     0
 40
1.0
 41
1.0
 50
0.0
 71
     0
 42
2.5
  3
romans.shx
  4
bigfont.shx
  0
STYLE
  2
ACANSGDT
 70
     0
 40
0.0
 41
1.0
 50
0.0
 71
     0
 42
2.5
  3
amgdt.shx
  4

  0
STYLE
  2
ACJISTS
 70
     0
 40
1.0
 41
1.0
 50
0.0
 71
     0
 42
2.5
  3
isocp.shx
  4
bigfont.shx
  0
STYLE
  2
ACJISGDT
 70
     0
 40
0.0
 41
1.0
 50
0.0
 71
     0
 42
2.5
  3
amgdt.shx
  4

  0
ENDTAB
  0
TABLE
  2
VIEW
 70
     6
  0
VIEW
  2
AM_VIEW1
 70
     0
 40
555.00000000000011
 10
499.2955801104971
 20
832.50000000000011
 41
998.59116022099431
 11
0.0
 21
0.0
 31
1.0
 12
0.0
 22
0.0
 32
0.0
 42
50.0
 43
0.0
 44
0.0
 50
0.0
 71
     0
  0
VIEW
  2
AM_VIEW2
 70
     0
 40
555.00000000000011
 10
1207.704419889501
 20
832.50000000000011
 41
998.59116022099431
 11
0.0
 21
0.0
 31
1.0
 12
0.0
 22
0.0
 32
0.0
 42
50.0
 43
0.0
 44
0.0
 50
0.0
 71
     0
  0
VIEW
  2
AM_VIEW3
 70
     0
 40
555.00000000000011
 10
499.2955801104971
 20
277.49999999999989
 41
998.59116022099431
 11
0.0
 21
0.0
 31
1.0
 12
0.0
 22
0.0
 32
0.0
 42
50.0
 43
0.0
 44
0.0
 50
0.0
 71
     0
  0
VIEW
  2
AM_VIEW4
 70
     0
 40
555.00000000000011
 10
1207.704419889501
 20
277.49999999999989
 41
998.59116022099431
 11
0.0
 21
0.0
 31
1.0
 12
0.0
 22
0.0
 32
0.0
 42
50.0
 43
0.0
 44
0.0
 50
0.0
 71
     0
  0
VIEW
  2
AM_VIEW5
 70
     0
 40
555.00000000000011
 10
853.5
 20
555.00000000000011
 41
998.59116022099431
 11
0.0
 21
0.0
 31
1.0
 12
0.0
 22
0.0
 32
0.0
 42
50.0
 43
0.0
 44
0.0
 50
0.0
 71
     0
  0
VIEW
  2
AM_VIEW6
 70
     0
 40
1109.9889000000001
 10
853.5
 20
555.0
 41
1997.162348618785
 11
0.0
 21
0.0
 31
1.0
 12
0.0
 22
0.0
 32
0.0
 42
50.0
 43
0.0
 44
0.0
 50
0.0
 71
     0
  0
ENDTAB
  0
TABLE
  2
UCS
 70
     0
  0
ENDTAB
  0
TABLE
  2
APPID
 70
    95
  0
APPID
  2
ACAD
 70
     0
  0
APPID
  2
ACADANNOTATIVE
 70
     0
  0
APPID
  2
MCAD_NO_VIS
 70
     0
  0
APPID
  2
ACAD_TEMP_GRAPHIC
 70
     0
  0
APPID
  2
ACATTRIBSERVICES
 70
     0
  0
APPID
  2
GENIUS_GENREC_14
 70
     0
  0
APPID
  2
GENIUS_GENOBJ-N-REC_13
 70
     0
  0
APPID
  2
GENIUS_GENODEF_13
 70
     0
  0
APPID
  2
GENIUS_GENOLIS_13
 70
     0
  0
APPID
  2
GENIUS_GENOBJ-N-TIT_13
 70
     0
  0
APPID
  2
GENIUS_GENOENT_13
 70
     0
  0
APPID
  2
GENIUS_GENTITLE_13
 70
     0
  0
APPID
  2
GENIUS_GENOREF_13
 70
     0
  0
APPID
  2
GENIUS_GENSCREG_15
 70
     0
  0
APPID
  2
GENIUS_GENOBJ-N-SDF_13
 70
     0
  0
APPID
  2
GENIUS_GENFIL_13
 70
     0
  0
APPID
  2
GENIUS_GENOBJ-N-CHA_13
 70
     0
  0
APPID
  2
GENIUS_GENDTOL_13
 70
     0
  0
APPID
  2
GENIUS_GENOBJ-N-FIL_13
 70
     0
  0
APPID
  2
AD_DRAW
 70
     0
  0
APPID
  2
DESIGNERASSEMBLIES
 70
     0
  0
APPID
  2
ASURF_PCURVE_APPNAME
 70
     0
  0
APPID
  2
GENIUS_GE3SECT_13
 70
     0
  0
APPID
  2
GENIUS_GENCFG_13
 70
     0
  0
APPID
  2
GENIUS_GE3CFG0_13
 70
     0
  0
APPID
  2
GENIUS_GENCFG0_13
 70
     0
  0
APPID
  2
GENIUS_GENCFG1_13
 70
     0
  0
APPID
  2
GENIUS_GENCFG2_13
 70
     0
  0
APPID
  2
GENIUS_GENCFG3_13
 70
     0
  0
APPID
  2
GENIUS_GENCFG4_13
 70
     0
  0
APPID
  2
GENIUS_GEVCFG0_13
 70
     0
  0
APPID
  2
GENIUS_GENHINW_13
 70
     0
  0
APPID
  2
GENIUS_FIRSTVISTXT_14
 70
     0
  0
APPID
  2
GENIUS_GENOBJ-N-LEADER_13
 70
     0
  0
APPID
  2
GEV_VCCNULL_SWITCH_OFF
 70
     0
  0
APPID
  2
GENIUS_GEFCFG0_13
 70
     0
  0
APPID
  2
GENIUS_GENZVEED_13
 70
     0
  0
APPID
  2
GENIUS_GENSCREG_13
 70
     0
  0
APPID
  2
GENIUS_DUMCFG0_13
 70
     0
  0
APPID
  2
GEVID936201362
 70
     0
  0
APPID
  2
GEVDC
 70
     0
  0
APPID
  2
GEVCON
 70
     0
  0
APPID
  2
VCC
 70
     0
  0
APPID
  2
GEVPT
 70
     0
  0
APPID
  2
GEVIT
 70
     0
  0
APPID
  2
GENBH
 70
     0
  0
APPID
  2
GEVMK
 70
     0
  0
APPID
  2
GENIUS_GENBH_13
 70
     0
  0
APPID
  2
GENIUS_GENOBJ-NBEHI-BHF_13
 70
     0
  0
APPID
  2
GENIUS_GENOBJ-NBEHI-BHB_13
 70
     0
  0
APPID
  2
GENIUS_GENOBJ-F-DESC_13
 70
     0
  0
APPID
  2
GENIUS_GEFDESC_14
 70
     0
  0
APPID
  2
GENIUS_GENOBJ-F-PART_13
 70
     0
  0
APPID
  2
GENIUS_GEFSTDP_13
 70
     0
  0
APPID
  2
GENIUS_GEFPARTINS_13
 70
     0
  0
APPID
  2
GENIUS_GENTRA_14
 70
     0
  0
APPID
  2
GENIUS_GENINF13_13
 70
     0
  0
APPID
  2
GENIUS_GENOBJ-N-INFOPT_13
 70
     0
  0
APPID
  2
GENIUS_GENOBJ-N-RSSYM_13
 70
     0
  0
APPID
  2
GENIUS_GENSYMENT_13
 70
     0
  0
APPID
  2
GENIUS_GENSCSYM_13
 70
     0
  0
APPID
  2
GENIUS_GEFINFNAM_13
 70
     0
  0
APPID
  2
GENIUS_GENOBJ-N-CEN_13
 70
     0
  0
APPID
  2
GENIUS_GENOBJ-N-CRS_13
 70
     0
  0
APPID
  2
GENIUS_GENOBJ-N-CRC_13
 70
     0
  0
APPID
  2
GENIUS_GENCRC_14
 70
     0
  0
APPID
  2
GEVID942827039
 70
     0
  0
APPID
  2
GEVID942827040
 70
     0
  0
APPID
  2
GEVID942827041
 70
     0
  0
APPID
  2
GENIUS_GENOBJ-F-SCPASSM_13
 70
     0
  0
APPID
  2
GENIUS_GENDIMSH_14
 70
     0
  0
APPID
  2
GEVID942827042
 70
     0
  0
APPID
  2
GEVID946020473
 70
     0
  0
APPID
  2
GEVID946020474
 70
     0
  0
APPID
  2
GEVID946020475
 70
     0
  0
APPID
  2
GENIUS_GENOBJ-N-HTC_13
 70
     0
  0
APPID
  2
GENIUS_GENHATCH_13
 70
     0
  0
APPID
  2
GEVID948854295
 70
     0
  0
APPID
  2
GEVID939402019
 70
     0
  0
APPID
  2
GEVID952919491
 70
     0
  0
APPID
  2
GEVID952919492
 70
     0
  0
APPID
  2
GENIUS_GEFWELD_13
 70
     0
  0
APPID
  2
GENIUS_GENOBJ-F-WELS_13
 70
     0
  0
APPID
  2
GEVID952919493
 70
     0
  0
APPID
  2
GENIUS_GENOBJ-N-RSBK_13
 70
     0
  0
APPID
  2
GENIUS_GENOBJ-N-LIB_13
 70
     0
  0
APPID
  2
GENIUS_GENSCALE_13
 70
     0
  0
APPID
  2
GEVID986376691
 70
     0
  0
APPID
  2
DCO15
 70
     0
  0
APPID
  2
ACAD_DSTYLE_DIMBREAK
 70
     0
  0
APPID
  2
ACAD_DSTYLE_DIMJAG
 70
     0
  0
APPID
  2
ACAD_NAV_VCDISPLAY
 70
     0
  0
APPID
  2
ACADANNOPO
 70
     0
  0
APPID
  2
ACAD_EXEMPT_FROM_CAD_STANDARDS
 70
     0
  0
APPID
  2
ACAD_MLEADERVER
 70
     0
  0
ENDTAB
  0
TABLE
  2
DIMSTYLE
 70
    22
  0
DIMSTYLE
  2
STANDARD
 70
     0
  3

  4

  5

  6

  7

 40
1.0
 41
0.18
 42
0.0625
 43
0.38
 44
0.18
 45
0.0
 46
0.0
 47
0.0
 48
0.0
140
0.18
141
0.09
142
0.0
143
25.399999999999999
144
1.0
145
0.0
146
1.0
147
0.09
 71
     0
 72
     0
 73
     1
 74
     1
 75
     0
 76
     0
 77
     0
 78
     0
170
     0
171
     2
172
     0
173
     0
174
     0
175
     0
176
     0
177
     0
178
     0
  0
DIMSTYLE
  2
ANNOTATIVE
 70
     0
  3

  4

  5

  6

  7

 40
1.0
 41
0.18
 42
0.0625
 43
0.38
 44
0.18
 45
0.0
 46
0.0
 47
0.0
 48
0.0
140
0.18
141
0.09
142
0.0
143
25.399999999999999
144
1.0
145
0.0
146
1.0
147
0.09
 71
     0
 72
     0
 73
     1
 74
     1
 75
     0
 76
     0
 77
     0
 78
     0
170
     0
171
     2
172
     0
173
     0
174
     0
175
     0
176
     0
177
     0
178
     0
  0
DIMSTYLE
  2
AM_ISO
 70
     0
  3

  4
"
  5

  6

  7

 40
1.0
 41
2.5
 42
1.0
 43
8.0
 44
0.6
 45
0.0
 46
0.0
 47
0.1
 48
0.1
140
2.5
141
0.0
142
0.0
143
0.0393701
144
1.0
145
0.0
146
0.71
147
0.8
 71
     0
 72
     0
 73
     0
 74
     0
 75
     0
 76
     0
 77
     1
 78
     8
170
     0
171
     2
172
     1
173
     0
174
     0
175
     0
176
   256
177
   256
178
     4
  0
DIMSTYLE
  2
AM_ISO$3
 70
     0
  3

  4
"
  5

  6

  7

 40
1.0
 41
2.5
 42
1.0
 43
8.0
 44
0.6
 45
0.0
 46
0.0
 47
0.1
 48
0.1
140
2.5
141
0.0
142
0.0
143
0.0393701
144
1.0
145
0.0
146
0.71
147
0.8
 71
     0
 72
     0
 73
     0
 74
     1
 75
     0
 76
     0
 77
     1
 78
     8
170
     0
171
     2
172
     0
173
     0
174
     0
175
     0
176
   256
177
   256
178
     4
  0
DIMSTYLE
  2
AM_ISO$4
 70
     0
  3

  4
"
  5

  6

  7

 40
1.0
 41
2.5
 42
1.0
 43
8.0
 44
0.6
 45
0.0
 46
0.0
 47
0.1
 48
0.1
140
2.5
141
0.0
142
0.0
143
0.0393701
144
1.0
145
0.0
146
0.71
147
0.8
 71
     0
 72
     0
 73
     0
 74
     1
 75
     0
 76
     0
 77
     1
 78
     8
170
     0
171
     2
172
     0
173
     0
174
     0
175
     0
176
   256
177
   256
178
     4
  0
DIMSTYLE
  2
AM_ISO$6
 70
     0
  3

  4
"
  5

  6

  7

 40
1.0
 41
2.5
 42
1.0
 43
8.0
 44
0.6
 45
0.0
 46
0.0
 47
0.1
 48
0.1
140
2.5
141
0.0
142
0.0
143
0.0393701
144
1.0
145
0.0
146
0.71
147
0.8
 71
     0
 72
     0
 73
     0
 74
     0
 75
     0
 76
     0
 77
     0
 78
     8
170
     0
171
     2
172
     1
173
     0
174
     0
175
     0
176
   256
177
   256
178
     4
  0
DIMSTYLE
  2
AM_ISO$7
 70
     0
  3

  4
"
  5

  6

  7

 40
1.0
 41
2.5
 42
1.0
 43
8.0
 44
0.6
 45
0.0
 46
0.0
 47
0.1
 48
0.1
140
2.5
141
0.0
142
0.0
143
0.0393701
144
1.0
145
0.0
146
0.71
147
0.8
 71
     0
 72
     0
 73
     0
 74
     0
 75
     0
 76
     0
 77
     1
 78
     8
170
     0
171
     2
172
     1
173
     0
174
     0
175
     0
176
   256
177
   256
178
     4
  0
DIMSTYLE
  2
AM_ISO$SF
 70
     0
  3

  4
"
  5

  6

  7

 40
1.0
 41
2.5
 42
1.0
 43
10.0
 44
1.0
 45
0.0
 46
0.0
 47
0.1
 48
0.1
140
3.5
141
0.0
142
0.0
143
0.0393701
144
1.0
145
0.0
146
0.71
147
1.5
 71
     0
 72
     0
 73
     0
 74
     0
 75
     1
 76
     1
 77
     1
 78
     8
170
     0
171
     2
172
     1
173
     0
174
     0
175
     0
176
   256
177
   256
178
     2
  0
DIMSTYLE
  2
AM_ISO$SH
 70
     0
  3

  4
"
  5

  6

  7

 40
1.0
 41
2.5
 42
1.0
 43
10.0
 44
1.0
 45
0.0
 46
0.0
 47
0.1
 48
0.1
140
3.5
141
0.0
142
0.0
143
0.0393701
144
2.0
145
0.0
146
0.71
147
1.5
 71
     0
 72
     0
 73
     0
 74
     0
 75
     1
 76
     1
 77
     1
 78
     8
170
     0
171
     2
172
     1
173
     1
174
     0
175
     0
176
   256
177
   256
178
     2
  0
DIMSTYLE
  2
AM_JIS
 70
     0
  3

  4
"
  5

  6

  7

 40
1.0
 41
2.5
 42
1.0
 43
7.0
 44
1.0
 45
0.0
 46
0.0
 47
0.1
 48
0.1000000001
140
2.5
141
0.0
142
0.0
143
0.0393701
144
1.0
145
0.0
146
0.71
147
1.0
 71
     0
 72
     0
 73
     0
 74
     0
 75
     0
 76
     0
 77
     3
 78
     8
170
     0
171
     2
172
     1
173
     0
174
     0
175
     0
176
   256
177
   256
178
     4
  0
DIMSTYLE
  2
AM_JIS$3
 70
     0
  3

  4
"
  5

  6

  7

 40
1.0
 41
2.5
 42
1.0
 43
7.0
 44
1.0
 45
0.0
 46
0.0
 47
0.1
 48
0.1000000001
140
2.5
141
0.0
142
0.0
143
0.0393701
144
1.0
145
0.0
146
0.71
147
1.0
 71
     0
 72
     0
 73
     0
 74
     1
 75
     0
 76
     0
 77
     3
 78
     8
170
     0
171
     2
172
     0
173
     0
174
     0
175
     0
176
   256
177
   256
178
     4
  0
DIMSTYLE
  2
AM_JIS$4
 70
     0
  3

  4
"
  5

  6

  7

 40
1.0
 41
2.5
 42
1.0
 43
7.0
 44
1.0
 45
0.0
 46
0.0
 47
0.1
 48
0.1000000001
140
2.5
141
0.0
142
0.0
143
0.0393701
144
1.0
145
0.0
146
0.71
147
1.0
 71
     0
 72
     0
 73
     0
 74
     0
 75
     0
 76
     0
 77
     3
 78
     8
170
     0
171
     2
172
     0
173
     0
174
     0
175
     0
176
   256
177
   256
178
     4
  0
DIMSTYLE
  2
AM_JIS$6
 70
     0
  3

  4
"
  5

  6

  7

 40
1.0
 41
2.5
 42
1.0
 43
7.0
 44
1.0
 45
0.0
 46
0.0
 47
0.1
 48
0.1000000001
140
2.5
141
0.0
142
0.0
143
0.0393701
144
1.0
145
0.0
146
0.71
147
1.0
 71
     0
 72
     0
 73
     0
 74
     0
 75
     0
 76
     0
 77
     0
 78
     8
170
     0
171
     2
172
     1
173
     0
174
     0
175
     0
176
   256
177
   256
178
     4
  0
DIMSTYLE
  2
AM_JIS$7
 70
     0
  3

  4
"
  5

  6

  7

 40
1.0
 41
2.5
 42
1.0
 43
7.0
 44
1.0
 45
0.0
 46
0.0
 47
0.1
 48
0.1000000001
140
2.5
141
0.0
142
0.0
143
0.0393701
144
1.0
145
0.0
146
0.71
147
1.0
 71
     0
 72
     0
 73
     0
 74
     0
 75
     0
 76
     0
 77
     3
 78
     8
170
     0
171
     2
172
     1
173
     0
174
     0
175
     0
176
   256
177
   256
178
     4
  0
DIMSTYLE
  2
AM_JIS$SF
 70
     0
  3

  4
"
  5

  6

  7

 40
1.0
 41
2.5
 42
1.0
 43
10.0
 44
1.0
 45
0.0
 46
0.0
 47
0.1
 48
0.1
140
3.5
141
0.0
142
0.0
143
0.0393701
144
1.0
145
0.0
146
0.71
147
1.5
 71
     0
 72
     0
 73
     0
 74
     0
 75
     1
 76
     1
 77
     3
 78
     8
170
     0
171
     2
172
     1
173
     0
174
     0
175
     0
176
   256
177
   256
178
     4
  0
DIMSTYLE
  2
AM_JIS$SH
 70
     0
  3

  4
"
  5

  6

  7

 40
1.0
 41
2.5
 42
1.0
 43
10.0
 44
1.0
 45
0.0
 46
0.0
 47
0.1
 48
0.1
140
3.5
141
0.0
142
0.0
143
0.0393701
144
1.0
145
0.0
146
0.71
147
1.5
 71
     0
 72
     0
 73
     0
 74
     0
 75
     1
 76
     0
 77
     3
 78
     8
170
     0
171
     2
172
     1
173
     1
174
     0
175
     0
176
   256
177
   256
178
     4
  0
DIMSTYLE
  2
AM_ANSI
 70
     0
  3

  4
mm
  5

  6

  7

 40
1.0
 41
0.1
 42
0.05
 43
0.5
 44
0.1
 45
0.0
 46
0.0
 47
0.1
 48
0.1
140
0.12
141
0.0
142
0.0
143
25.399999999999999
144
1.0
145
0.0
146
0.71
147
0.06
 71
     0
 72
     0
 73
     1
 74
     1
 75
     0
 76
     0
 77
     0
 78
     7
170
     0
171
     2
172
     0
173
     0
174
     0
175
     0
176
   256
177
   256
178
     2
  0
DIMSTYLE
  2
AM_ANSI$3
 70
     0
  3

  4
mm
  5

  6

  7

 40
1.0
 41
0.1
 42
0.05
 43
0.5
 44
0.1
 45
0.0
 46
0.0
 47
0.1
 48
0.1
140
0.12
141
0.0
142
0.0
143
25.399999999999999
144
1.0
145
0.0
146
0.71
147
0.06
 71
     0
 72
     0
 73
     1
 74
     1
 75
     0
 76
     0
 77
     0
 78
     7
170
     0
171
     2
172
     0
173
     0
174
     0
175
     0
176
   256
177
   256
178
     2
  0
DIMSTYLE
  2
AM_ANSI$4
 70
     0
  3

  4
mm
  5

  6

  7

 40
1.0
 41
0.1
 42
0.05
 43
0.5
 44
0.1
 45
0.0
 46
0.0
 47
0.1
 48
0.1
140
0.12
141
0.0
142
0.0
143
25.399999999999999
144
1.0
145
0.0
146
0.71
147
0.06
 71
     0
 72
     0
 73
     1
 74
     1
 75
     0
 76
     0
 77
     0
 78
     7
170
     0
171
     2
172
     0
173
     0
174
     0
175
     0
176
   256
177
   256
178
     2
  0
DIMSTYLE
  2
AM_ANSI$7
 70
     0
  3

  4
mm
  5

  6

  7

 40
1.0
 41
0.1
 42
0.05
 43
0.5
 44
0.1
 45
0.0
 46
0.0
 47
0.1
 48
0.1
140
0.24
141
0.0
142
0.0
143
25.399999999999999
144
1.0
145
0.0
146
0.71
147
0.06
 71
     0
 72
     0
 73
     1
 74
     1
 75
     0
 76
     0
 77
     0
 78
     7
170
     0
171
     2
172
     0
173
     0
174
     0
175
     0
176
   256
177
   256
178
     2
  0
DIMSTYLE
  2
AM_ANSI$SF
 70
     0
  3

  4
mm
  5

  6

  7

 40
1.0
 41
0.1
 42
0.05
 43
0.5
 44
0.1
 45
0.0
 46
0.0
 47
0.1
 48
0.1
140
0.12
141
0.0
142
0.0
143
25.399999999999999
144
1.0
145
0.0
146
0.71
147
0.06
 71
     0
 72
     0
 73
     1
 74
     1
 75
     1
 76
     1
 77
     0
 78
     7
170
     0
171
     2
172
     0
173
     0
174
     0
175
     0
176
   256
177
   256
178
     2
  0
DIMSTYLE
  2
AM_ANSI$SH
 70
     0
  3

  4
mm
  5

  6

  7

 40
1.0
 41
0.1
 42
0.05
 43
0.5
 44
0.1
 45
0.0
 46
0.0
 47
0.1
 48
0.1
140
0.12
141
0.0
142
0.0
143
25.399999999999999
144
1.0
145
0.0
146
0.71
147
0.06
 71
     0
 72
     0
 73
     1
 74
     1
 75
     1
 76
     1
 77
     0
 78
     7
170
     0
171
     2
172
     0
173
     1
174
     0
175
     0
176
   256
177
   256
178
     2
  0
ENDTAB
  0
ENDSEC
  0
SECTION
  2
BLOCKS
  0
BLOCK
  8
0
  2
$MODEL_SPACE
 70
     0
 10
0.0
 20
0.0
 30
0.0
  3
$MODEL_SPACE
  1

  0
ENDBLK
  5
3306
  8
0
  0
BLOCK
 67
     1
  8
0
  2
$PAPER_SPACE
 70
     0
 10
0.0
 20
0.0
 30
0.0
  3
$PAPER_SPACE
  1

  0
ENDBLK
  5
3302
 67
     1
  8
0
  0
BLOCK
  8
0
  2
GENAXEH
 70
     0
 10
0.0
 20
0.0
 30
0.0
  3
GENAXEH
  1

  0
LINE
  5
3075
  8
0
 10
-1.0
 20
0.0
 30
0.0
 11
1.0
 21
0.0
 31
0.0
  0
ENDBLK
  5
3076
  8
0
  0
BLOCK
  8
0
  2
_OPEN30
 70
     0
 10
0.0
 20
0.0
 30
0.0
  3
_OPEN30
  1

  0
LINE
  5
3079
  8
0
 62
     0
 10
-1.0
 20
0.26794919
 30
0.0
 11
0.0
 21
0.0
 31
0.0
  0
LINE
  5
307A
  8
0
 62
     0
 10
0.0
 20
0.0
 30
0.0
 11
-1.0
 21
-0.26794919
 31
0.0
  0
LINE
  5
307B
  8
0
 62
     0
 10
0.0
 20
0.0
 30
0.0
 11
-1.0
 21
0.0
 31
0.0
  0
ENDBLK
  5
307C
  8
0
  0
BLOCK
  8
0
  2
_NONE
 70
     0
 10
0.0
 20
0.0
 30
0.0
  3
_NONE
  1

  0
ENDBLK
  5
307F
  8
0
  0
BLOCK
  8
0
  2
*U5
 70
     1
 10
0.0
 20
0.0
 30
0.0
  3
*U5
  1

  0
TEXT
  5
3082
  8
AM_0
 62
     4
 10
875.57721306033125
 20
458.74587935061851
 30
0.0
 40
15.0
  1
\U+2205
 50
90.0
 41
0.8299999999999999
  0
TEXT
  5
3083
  8
AM_0
 62
     4
 10
875.57721306033125
 20
471.19587935061872
 30
0.0
 40
15.0
  1
280
 50
90.0
 41
0.8299999999999999
  0
TEXT
  5
3084
  8
AM_0
 62
     4
 10
875.57721306033125
 20
506.47087935061882
 30
0.0
 40
12.0
  1
h7
 50
90.0
 41
0.8299999999999999
  0
ENDBLK
  5
3085
  8
0
  0
BLOCK
  8
0
  2
*U6
 70
     1
 10
0.0
 20
0.0
 30
0.0
  3
*U6
  1

  0
TEXT
  5
3088
  8
AM_0
 62
     4
 10
1159.688457608959
 20
733.51076426706845
 30
0.0
 40
15.0
  1
o
 41
0.8299999999999999
  0
TEXT
  5
3089
  8
AM_0
 62
     4
 10
1174.509886180387
 20
733.51076426706845
 30
0.0
 40
15.0
  1
 330
 41
0.8299999999999999
  0
ENDBLK
  5
308A
  8
0
  0
BLOCK
  8
0
  2
_ACMFILLEDHALF
 70
     0
 10
0.0
 20
0.0
 30
0.0
  3
_ACMFILLEDHALF
  1

  0
TRACE
  5
3400
  8
AM_0
 62
     0
 10
-0.8
 20
0.0
 30
0.0
 11
-1.0
 21
0.166666666
 31
0.0
 12
0.0
 22
0.0
 32
0.0
 13
0.0
 23
0.0
 33
0.0
  0
LINE
  5
3401
  8
AM_0
 62
     0
 10
-1.0
 20
0.0
 30
0.0
 11
-0.8
 21
0.0
 31
0.0
  0
ENDBLK
  5
33FF
  8
0
  0
ENDSEC
  0
SECTION
  2
ENTITIES
  0
LINE
  5
308B
  8
AM_0
 10
553.37095887344753
 20
612.90834935061855
 30
0.0
 11
553.37095887344753
 21
297.90835935061881
 31
0.0
  0
LINE
  5
308C
  8
AM_0
 10
676.37095887344753
 20
650.31164935061895
 30
0.0
 11
676.37095887344753
 21
456.64499435061879
 31
0.0
  0
LINE
  5
308D
  8
AM_0
 10
698.37095887344753
 20
655.90839935061854
 30
0.0
 11
698.37095887344753
 21
325.90835935061881
 31
0.0
  0
LINE
  5
308E
  8
AM_0
 10
703.37095887344753
 20
630.90839935061854
 30
0.0
 11
703.37095887344753
 21
350.90835935061881
 31
0.0
  0
LINE
  5
308F
  8
AM_0
 10
685.37095887344753
 20
615.25749935061845
 30
0.0
 11
685.37095887344753
 21
366.55920935061852
 31
0.0
  0
LINE
  5
3090
  8
AM_0
 10
675.69755887344775
 20
448.42026435061848
 30
0.0
 11
663.79380887344792
 21
576.78192935061895
 31
0.0
  0
LINE
  5
3091
  8
AM_0
 10
533.87095887344753
 20
575.45819935061854
 30
0.0
 11
533.87095887344753
 21
328.3585093506187
 31
0.0
  0
LINE
  5
3092
  8
AM_0
 10
474.37100887344758
 20
565.90836435061885
 30
0.0
 11
474.37100887344758
 21
325.90835935061881
 31
0.0
  0
LINE
  5
3093
  8
AM_0
 10
487.37095887344731
 20
563.90836435061885
 30
0.0
 11
487.37095887344731
 21
327.90835935061881
 31
0.0
  0
LINE
  5
3094
  8
AM_0
 10
543.37095887344753
 20
610.62774935061884
 30
0.0
 11
543.37095887344753
 21
300.18893935061868
 31
0.0
  0
LINE
  5
3095
  8
AM_0
 10
452.58494687344751
 20
556.40967535061884
 30
0.0
 11
393.45440487344757
 21
506.79326035061882
 31
0.0
  0
LINE
  5
3096
  8
AM_0
 10
454.37100887344758
 20
545.99038035061892
 30
0.0
 11
454.37100887344758
 21
572.90835935061875
 31
0.0
  0
LINE
  5
3097
  8
ﾁｭｳｼﾝｾﾝ
 10
276.18132740565409
 20
445.90835935061858
 30
0.0
 11
539.00703224856602
 21
445.90835935061858
 31
0.0
  0
LINE
  5
3098
  8
AM_0
 10
291.87100887344758
 20
428.40835935061881
 30
0.0
 11
349.87100887344769
 21
428.40835935061881
 31
0.0
  0
LINE
  5
3099
  8
AM_0
 10
349.87100887344769
 20
463.40835935061881
 30
0.0
 11
291.87100887344758
 21
463.40835935061881
 31
0.0
  0
LINE
  5
309A
  8
AM_0
 10
291.87100887344758
 20
466.4083593506187
 30
0.0
 11
336.87100887344758
 21
466.4083593506187
 31
0.0
  0
LINE
  5
309B
  8
AM_0
 10
291.87100887344758
 20
463.40835935061881
 30
0.0
 11
291.87100887344758
 21
428.40835935061881
 31
0.0
  0
LINE
  5
309C
  8
AM_0
 10
291.87100887344758
 20
466.4083593506187
 30
0.0
 11
291.87100887344758
 21
463.40835935061881
 31
0.0
  0
LINE
  5
309D
  8
ﾁｭｳｼﾝｾﾝ
 10
497.40440439880462
 20
490.90835935061881
 30
0.0
 11
793.79980887344755
 21
490.90835935061881
 31
0.0
  0
LINE
  5
309E
  8
AM_0
 10
553.37095887344753
 20
297.90835935061881
 30
0.0
 11
635.21430887344764
 21
295.76521435061881
 31
0.0
  0
LINE
  5
309F
  8
AM_0
 10
543.37095887344753
 20
397.57916935061883
 30
0.0
 11
676.37095887344753
 21
397.57916935061883
 31
0.0
  0
LINE
  5
30A0
  8
AM_0
 10
543.37095887344753
 20
499.37476435061859
 30
0.0
 11
670.97225887344769
 21
499.37476435061859
 31
0.0
  0
LINE
  5
30A1
  8
AM_0
 10
452.58494687344751
 20
335.40704335061878
 30
0.0
 11
393.45440487344757
 21
385.02345935061879
 31
0.0
  0
LINE
  5
30A2
  8
AM_0
 10
472.37100887344758
 20
345.82633935061892
 30
0.0
 11
472.37100887344758
 21
393.8295463506189
 31
0.0
  0
LINE
  5
30A3
  8
AM_0
 10
454.37100887344758
 20
517.8705603506188
 30
0.0
 11
454.37100887344758
 21
361.38268835061882
 31
0.0
  0
ARC
  5
30A4
  8
AM_0
 10
441.26065987344759
 20
380.04383035061858
 30
0.0
 40
3.0
 50
6.3950930000004771
 51
71.538410999999911
  0
LINE
  5
30A5
  8
AM_0
 10
454.37100887344758
 20
361.38268835061882
 30
0.0
 11
449.94772987344732
 21
361.38268835061882
 31
0.0
  0
LINE
  5
30A6
  8
AM_0
 10
472.37100887344758
 20
345.82633935061892
 30
0.0
 11
449.87224187344759
 21
345.82633935061892
 31
0.0
  0
ARC
  5
30A7
  8
AM_0
 10
449.37100887344758
 20
331.57682135061879
 30
0.0
 40
5.0
 50
0.0
 51
49.999999999999922
  0
LINE
  5
30A8
  8
AM_0
 10
446.37100887344758
 20
361.38268835061882
 30
0.0
 11
446.37100887344758
 21
350.63663935061891
 31
0.0
  0
LINE
  5
30A9
  8
AM_0
 10
445.90745487344759
 20
349.29674935061882
 30
0.0
 11
444.29086687344733
 21
361.39938735061878
 31
0.0
  0
ARC
  5
30AA
  8
AM_0
 10
449.87224187344759
 20
349.82633935061892
 30
0.0
 40
4.0
 50
187.60814799999741
 51
270.0
  0
ARC
  5
30AB
  8
AM_0
 10
449.94772987344732
 20
365.38268835061882
 30
0.0
 40
4.0
 50
186.39509300000049
 51
270.0
  0
ARC
  5
30AC
  8
AM_0
 10
441.31727687344772
 20
361.00219535061882
 30
0.0
 40
3.0
 50
7.6081479999975583
 51
68.357691000001253
  0
LINE
  5
30AD
  8
AM_0
 10
443.94320087344772
 20
364.00219535061882
 30
0.0
 11
443.94320087344772
 21
378.79186435061882
 31
0.0
  0
LINE
  5
30AE
  8
AM_0
 10
445.97261987344763
 20
364.93715335061881
 30
0.0
 11
444.2419928734476
 21
380.37798235061888
 31
0.0
  0
LINE
  5
30AF
  8
AM_0
 10
487.37095887344731
 20
359.23346435061859
 30
0.0
 11
533.87095887344753
 21
359.23346435061859
 31
0.0
  0
LINE
  5
30B0
  8
AM_0
 10
489.37100887344758
 20
333.90835935061881
 30
0.0
 11
531.49950887344789
 21
333.90835935061881
 31
0.0
  0
LINE
  5
30B1
  8
AM_0
 10
487.37095887344731
 20
374.9755293506189
 30
0.0
 11
533.87095887344753
 21
374.9755293506189
 31
0.0
  0
LINE
  5
30B2
  8
AM_0
 10
454.37100887344758
 20
329.90835935061881
 30
0.0
 11
454.37100887344758
 21
345.82633935061892
 31
0.0
  0
ARC
  5
30B3
  8
AM_0
 10
485.37095887344731
 20
327.90835935061881
 30
0.0
 40
2.0000000500000001
 50
270.0
 51
0.0
  0
LINE
  5
30B4
  8
AM_0
 10
458.37100887344758
 20
325.90835935061881
 30
0.0
 11
472.37100887344758
 21
325.90835935061881
 31
0.0
  0
ARC
  5
30B5
  8
AM_0
 10
458.37100887344758
 20
329.90835935061881
 30
0.0
 40
4.0
 50
180.0
 51
270.0
  0
LINE
  5
30B6
  8
AM_0
 10
472.37100887344758
 20
325.90835935061881
 30
0.0
 11
474.37100887344758
 21
327.90835935061881
 31
0.0
  0
LINE
  5
30B7
  8
AM_0
 10
474.37100887344758
 20
325.90835935061881
 30
0.0
 11
485.37095887344731
 21
325.90835935061881
 31
0.0
  0
ARC
  5
30B8
  8
AM_0
 10
489.37100887344758
 20
331.90835935061881
 30
0.0
 40
2.0000000500000001
 50
90.000003000000007
 51
180.00001
  0
ARC
  5
30B9
  8
AM_0
 10
485.37095887344731
 20
363.73749435061882
 30
0.0
 40
2.0000000500000001
 50
270.0
 51
0.0
  0
ARC
  5
30BA
  8
AM_0
 10
485.37095887344731
 20
348.18115435061878
 30
0.0
 40
2.0000000500000001
 50
270.0
 51
0.0
  0
LINE
  5
30BB
  8
AM_0
 10
472.37100887344758
 20
345.82633935061892
 30
0.0
 11
474.37100887344758
 21
347.82633935061892
 31
0.0
  0
LINE
  5
30BC
  8
AM_0
 10
474.37100887344758
 20
346.1811243506188
 30
0.0
 11
485.37095887344731
 21
346.1811243506188
 31
0.0
  0
LINE
  5
30BD
  8
AM_0
 10
474.37100887344758
 20
361.73748935061877
 30
0.0
 11
485.37095887344731
 21
361.73748935061877
 31
0.0
  0
LINE
  5
30BE
  8
AM_0
 10
475.34985887344732
 20
371.47140935061879
 30
0.0
 11
486.37875887344768
 21
371.47140935061879
 31
0.0
  0
LINE
  5
30BF
  8
AM_0
 10
542.5950588734479
 20
313.13350435061869
 30
0.0
 11
534.64690887344773
 21
325.6832593506187
 31
0.0
  0
LINE
  5
30C0
  8
AM_0
 10
545.30115887344778
 20
298.19015935061879
 30
0.0
 11
553.37095887344753
 21
297.90834435061868
 31
0.0
  0
ARC
  5
30C1
  8
AM_0
 10
538.37095887344753
 20
310.45822435061882
 30
0.0
 40
5.0
 50
0.0
 51
32.347445
  0
ARC
  5
30C2
  8
AM_0
 10
545.37095887344753
 20
300.18893935061868
 30
0.0
 40
2.0000000500000001
 50
179.99998999999991
 51
268.00000999999992
  0
ARC
  5
30C3
  8
AM_0
 10
538.87095887344753
 20
328.3585093506187
 30
0.0
 40
5.0
 50
179.99998999999991
 51
212.34744000000001
  0
ARC
  5
30C4
  8
AM_0
 10
531.87100887344775
 20
331.90835935061881
 30
0.0
 40
2.0000000500000001
 50
0.0
 51
90.000003000000007
  0
LINE
  5
30C5
  8
AM_0
 10
472.37100887344758
 20
530.43403135061885
 30
0.0
 11
449.94772987344732
 21
530.43403135061885
 31
0.0
  0
LINE
  5
30C6
  8
AM_0
 10
472.37100887344758
 20
545.99038035061892
 30
0.0
 11
449.87224187344759
 21
545.99038035061892
 31
0.0
  0
LINE
  5
30C7
  8
AM_0
 10
443.94320087344772
 20
508.77288935061881
 30
0.0
 11
453.8273728734477
 21
508.77288935061881
 31
0.0
  0
LINE
  5
30C8
  8
AM_0
 10
443.94320087344772
 20
383.0438303506188
 30
0.0
 11
453.8273728734477
 21
383.0438303506188
 31
0.0
  0
LINE
  5
30C9
  8
AM_0
 10
355.87100887344758
 20
500.96026835061878
 30
0.0
 11
355.87100887344758
 21
390.8564513506189
 31
0.0
  0
LINE
  5
30CA
  8
AM_0
 10
353.87100887344758
 20
480.90835935061881
 30
0.0
 11
353.87100887344758
 21
410.90835935061892
 31
0.0
  0
LINE
  5
30CB
  8
AM_0
 10
390.74169987344771
 20
501.53560135061878
 30
0.0
 11
390.74169987344771
 21
389.95441235061878
 31
0.0
  0
LINE
  5
30CC
  8
AM_0
 10
358.81865187344772
 20
387.85690835061882
 30
0.0
 11
387.20105287344728
 21
387.36149135061891
 31
0.0
  0
ARC
  5
30CD
  8
AM_0
 10
358.87100887344758
 20
390.8564513506189
 30
0.0
 40
3.0
 50
180.0
 51
268.99999999999812
  0
LINE
  5
30CE
  8
AM_0
 10
353.87100887344758
 20
410.90835935061892
 30
0.0
 11
355.87100887344758
 21
408.90835935061858
 31
0.0
  0
LINE
  5
30CF
  8
AM_0
 10
353.87100887344758
 20
465.90835935061881
 30
0.0
 11
349.87100887344769
 21
465.90835935061881
 31
0.0
  0
LINE
  5
30D0
  8
AM_0
 10
349.87100887344769
 20
425.90835935061881
 30
0.0
 11
353.87100887344758
 21
425.90835935061881
 31
0.0
  0
LINE
  5
30D1
  8
AM_0
 10
349.87100887344769
 20
465.90835935061881
 30
0.0
 11
349.87100887344769
 21
425.90835935061881
 31
0.0
  0
LINE
  5
30D2
  8
AM_0
 10
336.87100887344758
 20
466.4083593506187
 30
0.0
 11
336.87100887344758
 21
463.40835935061881
 31
0.0
  0
ARC
  5
30D3
  8
AM_0
 10
387.02652887344721
 20
377.36301435061881
 30
0.0
 40
10.0
 50
49.999999999999922
 51
89.000000000001506
  0
LINE
  5
30D4
  8
AM_0
 10
358.81865187344772
 20
503.95981135061891
 30
0.0
 11
387.20105287344728
 21
504.455227350619
 31
0.0
  0
LINE
  5
30D5
  8
AM_0
 10
353.87100887344758
 20
480.90835935061881
 30
0.0
 11
355.87100887344758
 21
482.9083593506187
 31
0.0
  0
ARC
  5
30D6
  8
AM_0
 10
358.87100887344758
 20
500.96026835061878
 30
0.0
 40
3.0
 50
90.999999999998465
 51
180.0
  0
LINE
  5
30D7
  8
AM_0
 10
445.97261987344763
 20
526.87956635061892
 30
0.0
 11
444.2419928734476
 21
511.43873735061891
 31
0.0
  0
ARC
  5
30D8
  8
AM_0
 10
387.02652887344721
 20
514.45370435061875
 30
0.0
 40
10.0
 50
270.99999999999841
 51
310.0
  0
ARC
  5
30D9
  8
AM_0
 10
441.26065987344759
 20
511.77288935061881
 30
0.0
 40
3.0
 50
288.461589
 51
353.6049069999994
  0
LINE
  5
30DA
  8
AM_0
 10
445.90745487344759
 20
542.51996935061891
 30
0.0
 11
444.29086687344733
 21
530.41733135061895
 31
0.0
  0
LINE
  5
30DB
  8
AM_0
 10
446.37100887344758
 20
530.43403135061885
 30
0.0
 11
446.37100887344758
 21
541.18008035061882
 31
0.0
  0
ARC
  5
30DC
  8
AM_0
 10
449.94772987344732
 20
526.43403135061885
 30
0.0
 40
4.0
 50
90.0
 51
173.60490699999951
  0
LINE
  5
30DD
  8
AM_0
 10
443.94320087344772
 20
527.81452335061886
 30
0.0
 11
443.94320087344772
 21
513.02485435061885
 31
0.0
  0
ARC
  5
30DE
  8
AM_0
 10
441.31727687344772
 20
530.81452335061897
 30
0.0
 40
3.0
 50
291.6423089999987
 51
352.3918520000023
  0
ARC
  5
30DF
  8
AM_0
 10
449.87224187344759
 20
541.99038035061892
 30
0.0
 40
4.0
 50
90.0
 51
172.39185199999591
  0
LINE
  5
30E0
  8
AM_0
 10
455.90600487344727
 20
400.28229635061882
 30
0.0
 11
470.73028487344772
 21
400.28229635061882
 31
0.0
  0
LINE
  5
30E1
  8
AM_0
 10
459.62384087344759
 20
393.8295463506189
 30
0.0
 11
472.37100887344758
 21
393.8295463506189
 31
0.0
  0
ARC
  5
30E2
  8
AM_0
 10
458.37100887344758
 20
397.8295463506189
 30
0.0
 40
4.0
 50
180.0
 51
270.0
  0
LINE
  5
30E3
  8
AM_0
 10
472.37100887344758
 20
393.8295463506189
 30
0.0
 11
474.37100887344758
 21
395.8295463506189
 31
0.0
  0
LINE
  5
30E4
  8
AM_0
 10
487.37095887344731
 20
516.84119435061882
 30
0.0
 11
533.87095887344753
 21
516.84119435061882
 31
0.0
  0
LINE
  5
30E5
  8
AM_0
 10
487.37095887344731
 20
532.58325935061885
 30
0.0
 11
533.87095887344753
 21
532.58325935061885
 31
0.0
  0
ARC
  5
30E6
  8
AM_0
 10
485.37095887344731
 20
543.63556435061855
 30
0.0
 40
2.0000000500000001
 50
0.0
 51
90.000003000000007
  0
ARC
  5
30E7
  8
AM_0
 10
485.37095887344731
 20
528.07919935061886
 30
0.0
 40
2.0000000500000001
 50
0.0
 51
90.000003000000007
  0
LINE
  5
30E8
  8
AM_0
 10
472.37100887344758
 20
545.99038035061892
 30
0.0
 11
472.37100887344758
 21
530.43403135061885
 31
0.0
  0
LINE
  5
30E9
  8
AM_0
 10
458.37100887344758
 20
521.8705603506188
 30
0.0
 11
472.37100887344758
 21
521.8705603506188
 31
0.0
  0
ARC
  5
30EA
  8
AM_0
 10
458.37100887344758
 20
517.8705603506188
 30
0.0
 40
4.0
 50
90.0
 51
180.0
  0
LINE
  5
30EB
  8
AM_0
 10
472.37100887344758
 20
530.43403135061885
 30
0.0
 11
474.37100887344758
 21
528.43403135061897
 31
0.0
  0
LINE
  5
30EC
  8
AM_0
 10
474.37100887344758
 20
530.07919935061875
 30
0.0
 11
485.37095887344731
 21
530.07919935061875
 31
0.0
  0
LINE
  5
30ED
  8
AM_0
 10
475.34985887344732
 20
520.34531435061854
 30
0.0
 11
486.37875887344768
 21
520.34531435061854
 31
0.0
  0
LINE
  5
30EE
  8
AM_0
 10
472.37100887344758
 20
545.99038035061892
 30
0.0
 11
474.37100887344758
 21
543.99038035061892
 31
0.0
  0
LINE
  5
30EF
  8
AM_0
 10
474.37100887344758
 20
545.63559435061893
 30
0.0
 11
485.37095887344731
 21
545.63559435061893
 31
0.0
  0
LINE
  5
30F0
  8
AM_0
 10
676.37095887344753
 20
398.63446435061883
 30
0.0
 11
676.37095887344753
 21
330.9083593506187
 31
0.0
  0
LINE
  5
30F1
  8
AM_0
 10
640.47610887344786
 20
297.10153435061869
 30
0.0
 11
690.37095887344753
 21
325.90835935061881
 31
0.0
  0
LINE
  5
30F2
  8
AM_0
 10
598.37095887344753
 20
346.50943435061879
 30
0.0
 11
676.37095887344753
 21
346.50943435061879
 31
0.0
  0
LINE
  5
30F3
  8
AM_0
 10
598.37095887344753
 20
371.1542693506189
 30
0.0
 11
676.37095887344753
 21
371.1542693506189
 31
0.0
  0
ARC
  5
30F4
  8
AM_0
 10
635.47610887344786
 20
305.76179935061879
 30
0.0
 40
10.0
 50
268.5
 51
300.0
  0
LINE
  5
30F5
  8
AM_0
 10
593.37095887344753
 20
366.15426935061879
 30
0.0
 11
593.37095887344753
 21
351.50943435061862
 31
0.0
  0
ARC
  5
30F6
  8
AM_0
 10
598.37095887344753
 20
351.50943435061862
 30
0.0
 40
5.0
 50
179.99998999999991
 51
270.0
  0
ARC
  5
30F7
  8
AM_0
 10
598.37095887344753
 20
366.15426935061879
 30
0.0
 40
5.0
 50
90.000003000000007
 51
180.00001
  0
LINE
  5
30F8
  8
AM_0
 10
681.37095887344753
 20
325.90835935061881
 30
0.0
 11
698.37095887344753
 21
325.90835935061881
 31
0.0
  0
ARC
  5
30F9
  8
AM_0
 10
681.37095887344753
 20
330.9083593506187
 30
0.0
 40
5.0
 50
179.99998999999991
 51
270.0
  0
ARC
  5
30FA
  8
AM_0
 10
677.37095887344753
 20
366.55920935061852
 30
0.0
 40
8.0
 50
270.0
 51
0.0
  0
LINE
  5
30FB
  8
AM_0
 10
698.37095887344753
 20
350.90835935061881
 30
0.0
 11
703.37095887344753
 21
350.90835935061881
 31
0.0
  0
LINE
  5
30FC
  8
AM_0
 10
706.37095887344753
 20
518.40836435061885
 30
0.0
 11
788.37095887344753
 21
518.40836435061885
 31
0.0
  0
LINE
  5
30FD
  8
AM_0
 10
706.37095887344753
 20
463.40835935061881
 30
0.0
 11
788.37095887344753
 21
463.40835935061881
 31
0.0
  0
LINE
  5
30FE
  8
AM_0
 10
706.37095887344753
 20
520.90836435061885
 30
0.0
 11
706.37095887344753
 21
460.90835935061892
 31
0.0
  0
ARC
  5
30FF
  8
AM_0
 10
677.37095887344753
 20
406.57171935061888
 30
0.0
 40
8.0
 50
270.0
 51
0.0
  0
ARC
  5
3100
  8
AM_0
 10
683.66335887344781
 20
449.15900435061877
 30
0.0
 40
8.0
 50
185.29823999999991
 51
270.0
  0
LINE
  5
3101
  8
AM_0
 10
703.37095887344753
 20
460.90835935061892
 30
0.0
 11
706.37095887344753
 21
460.90835935061892
 31
0.0
  0
LINE
  5
3102
  8
AM_0
 10
703.37095887344753
 20
520.90836435061885
 30
0.0
 11
706.37095887344753
 21
520.90836435061885
 31
0.0
  0
LINE
  5
3103
  8
AM_0
 10
788.37095887344753
 20
522.40836435061874
 30
0.0
 11
788.37095887344753
 21
463.40835935061881
 31
0.0
  0
LINE
  5
3104
  8
AM_0
 10
726.37095887344753
 20
522.40836435061874
 30
0.0
 11
788.37095887344753
 21
522.40836435061874
 31
0.0
  0
LINE
  5
3105
  8
AM_0
 10
726.37095887344753
 20
522.40836435061874
 30
0.0
 11
726.37095887344753
 21
518.40836435061885
 31
0.0
  0
LINE
  5
3106
  8
AM_0
 10
553.37100887344775
 20
612.90834935061855
 30
0.0
 11
655.15245887344747
 21
615.57354935061846
 31
0.0
  0
ARC
  5
3107
  8
AM_0
 10
449.37100887344758
 20
560.23989835061889
 30
0.0
 40
5.0
 50
310.0
 51
0.0
  0
ARC
  5
3108
  8
AM_0
 10
535.37095887344753
 20
638.90834935061889
 30
0.0
 40
25.000000499999999
 50
306.46672000000001
 51
233.53328999999999
  0
CIRCLE
  5
3109
  8
AM_0
 10
535.37095887344753
 20
638.90834935061889
 30
0.0
 40
15.0
  0
ARC
  5
310A
  8
AM_0
 10
525.37095887344753
 20
607.90834935061889
 30
0.0
 40
5.0
 50
90.000003000000007
 51
180.00001
  0
ARC
  5
310B
  8
AM_0
 10
518.37095887344753
 20
559.90836435061874
 30
0.0
 40
2.0000000500000001
 50
270.0
 51
0.0
  0
LINE
  5
310C
  8
AM_0
 10
518.37095887344753
 20
557.90833435061882
 30
0.0
 11
531.87100887344775
 21
557.90833435061882
 31
0.0
  0
ARC
  5
310D
  8
AM_0
 10
485.37095887344731
 20
563.90836435061885
 30
0.0
 40
2.0000000500000001
 50
0.0
 51
90.000003000000007
  0
LINE
  5
310E
  8
AM_0
 10
470.37100887344758
 20
576.90835935061875
 30
0.0
 11
472.37100887344758
 21
574.90835935061875
 31
0.0
  0
ARC
  5
310F
  8
AM_0
 10
458.37100887344758
 20
572.90835935061875
 30
0.0
 40
4.0
 50
90.0
 51
180.0
  0
LINE
  5
3110
  8
AM_0
 10
455.10968887344751
 20
564.83953035061893
 30
0.0
 11
471.37199687344781
 21
564.83953035061893
 31
0.0
  0
LINE
  5
3111
  8
AM_0
 10
472.37100887344758
 20
574.90835935061875
 30
0.0
 11
472.37100887344758
 21
565.90835935061875
 31
0.0
  0
LINE
  5
3112
  8
AM_0
 10
472.37100887344758
 20
565.90835935061875
 30
0.0
 11
474.37100887344758
 21
563.90835935061875
 31
0.0
  0
LINE
  5
3113
  8
AM_0
 10
474.37100887344758
 20
565.90836435061885
 30
0.0
 11
485.37095887344731
 21
565.90836435061885
 31
0.0
  0
LINE
  5
3114
  8
AM_0
 10
458.37100887344758
 20
576.90835935061875
 30
0.0
 11
470.37100887344758
 21
576.90835935061875
 31
0.0
  0
LINE
  5
3115
  8
AM_0
 10
489.37100887344758
 20
557.90833435061882
 30
0.0
 11
518.37095887344753
 21
557.90833435061882
 31
0.0
  0
ARC
  5
3116
  8
AM_0
 10
489.37100887344758
 20
559.90836435061874
 30
0.0
 40
2.0000000500000001
 50
179.99998999999991
 51
270.0
  0
LINE
  5
3117
  8
AM_0
 10
520.37095887344753
 20
607.90834935061889
 30
0.0
 11
520.37095887344753
 21
559.90836435061874
 31
0.0
  0
ARC
  5
3118
  8
AM_0
 10
538.87095887344753
 20
575.45819935061854
 30
0.0
 40
5.0
 50
147.65255999999991
 51
180.00001
  0
ARC
  5
3119
  8
AM_0
 10
531.87100887344775
 20
559.90836435061874
 30
0.0
 40
2.0000000500000001
 50
270.0
 51
0.0
  0
LINE
  5
311A
  8
AM_0
 10
542.59500887344757
 20
590.68324935061855
 30
0.0
 11
534.64685887344763
 21
578.13345935061875
 31
0.0
  0
ARC
  5
311B
  8
AM_0
 10
538.37095887344753
 20
593.35854935061855
 30
0.0
 40
5.0
 50
327.65255999999982
 51
0.0
  0
LINE
  5
311C
  8
AM_0
 10
547.87095887344753
 20
612.90839935061877
 30
0.0
 11
545.62045887344732
 21
621.30739935061877
 31
0.0
  0
LINE
  5
311D
  8
AM_0
 10
522.65635887344774
 20
612.10724935061853
 30
0.0
 11
525.12150887344774
 21
621.30724935061846
 31
0.0
  0
LINE
  5
311E
  8
AM_0
 10
525.37095887344753
 20
612.90834935061855
 30
0.0
 11
553.07095887344769
 21
612.90834935061855
 31
0.0
  0
ARC
  5
311F
  8
AM_0
 10
516.94590887344771
 20
613.97809935061855
 30
0.0
 40
6.0
 50
349.72994999999997
 51
53.533291000000013
  0
ARC
  5
3120
  8
AM_0
 10
553.79595887344772
 20
613.97809935061855
 30
0.0
 40
6.0
 50
126.4666999999999
 51
190.27006
  0
LINE
  5
3121
  8
AM_0
 10
553.07095887344769
 20
612.90834935061855
 30
0.0
 11
553.37095887344753
 21
612.90834935061855
 31
0.0
  0
LINE
  5
3122
  8
AM_0
 10
545.30115887344778
 20
612.62659935061845
 30
0.0
 11
553.07095887344769
 21
612.8978993506189
 31
0.0
  0
ARC
  5
3123
  8
AM_0
 10
545.37095887344753
 20
610.62774935061884
 30
0.0
 40
2.0000000500000001
 50
91.999997999999948
 51
180.00001
  0
LINE
  5
3124
  8
AM_0
 10
535.37100887344775
 20
623.90834935061855
 30
0.0
 11
544.8490588734478
 21
622.02934935061865
 31
0.0
  0
LINE
  5
3125
  8
AM_0
 10
525.57690887344802
 20
621.90834935061855
 30
0.0
 11
545.16495887344774
 21
621.90834935061855
 31
0.0
  0
ARC
  5
3126
  8
AM_0
 10
526.08740887344766
 20
621.04844935061885
 30
0.0
 40
1.0
 50
101.21329
 51
164.99999
  0
LINE
  5
3127
  8
AM_0
 10
525.89285887344772
 20
622.02929935061889
 30
0.0
 11
535.37095887344753
 21
623.90824935061892
 31
0.0
  0
ARC
  5
3128
  8
AM_0
 10
544.65460887344784
 20
621.04844935061885
 30
0.0
 40
1.0
 50
15.0
 51
78.786709999999999
  0
LINE
  5
3129
  8
AM_0
 10
638.30935887344754
 20
576.78189935061891
 30
0.0
 11
662.06420887344757
 21
576.78189935061891
 31
0.0
  0
LINE
  5
312A
  8
AM_0
 10
638.30010887344747
 20
578.55878435061879
 30
0.0
 11
673.86920887344763
 21
600.08519935061872
 31
0.0
  0
LINE
  5
312B
  8
AM_0
 10
635.72050887344722
 20
588.27239935061857
 30
0.0
 11
673.95975887344775
 21
611.41479935061875
 31
0.0
  0
ARC
  5
312C
  8
AM_0
 10
638.30935887344754
 20
581.78189935061891
 30
0.0
 40
5.0
 50
179.99998999999991
 51
270.0
  0
ARC
  5
312D
  8
AM_0
 10
638.30935887344754
 20
583.99475935061855
 30
0.0
 40
5.0
 50
121.18236
 51
180.00001
  0
LINE
  5
312E
  8
AM_0
 10
633.30935887344754
 20
583.99475935061855
 30
0.0
 11
633.30935887344754
 21
581.78189935061891
 31
0.0
  0
ARC
  5
312F
  8
AM_0
 10
677.37095887344753
 20
557.24500435061873
 30
0.0
 40
8.0
 50
0.0
 51
90.000003000000007
  0
ARC
  5
3130
  8
AM_0
 10
662.06420887344757
 20
581.78189935061891
 30
0.0
 40
5.0
 50
270.0
 51
306.25555000000008
  0
LINE
  5
3131
  8
AM_0
 10
665.02110887344793
 20
577.75000935061871
 30
0.0
 11
676.37095887344753
 21
586.07379935061886
 31
0.0
  0
ARC
  5
3132
  8
AM_0
 10
677.37095887344753
 20
615.25749935061845
 30
0.0
 40
8.0
 50
0.0
 51
90.000003000000007
  0
LINE
  5
3133
  8
AM_0
 10
661.96170887344783
 20
618.49909935061874
 30
0.0
 11
676.37095887344753
 21
632.90834935061855
 31
0.0
  0
LINE
  5
3134
  8
AM_0
 10
661.16880887344735
 20
605.08769935061878
 30
0.0
 11
660.0979588734474
 21
616.63529935061888
 31
0.0
  0
ARC
  5
3135
  8
AM_0
 10
654.8906088734476
 20
625.57014935061875
 30
0.0
 40
10.0
 50
271.49999999999972
 51
315.0
  0
ARC
  5
3136
  8
AM_0
 10
671.37095887344753
 20
615.69244935061874
 30
0.0
 40
5.0
 50
301.18236000000002
 51
0.0
  0
LINE
  5
3137
  8
AM_0
 10
698.37095887344753
 20
630.90839935061854
 30
0.0
 11
703.37095887344753
 21
630.90839935061854
 31
0.0
  0
LINE
  5
3138
  8
AM_0
 10
681.19645887344745
 20
655.30859935061846
 30
0.0
 11
698.37095887344753
 21
655.90834935061889
 31
0.0
  0
ARC
  5
3139
  8
AM_0
 10
681.37095887344753
 20
650.31164935061895
 30
0.0
 40
5.0
 50
91.999997999999948
 51
180.00001
  0
CIRCLE
  5
313A
  8
AM_0
 10
1127.679640786255
 20
490.90835935061881
 30
0.0
 40
132.0
  0
CIRCLE
  5
313B
  8
AM_0
 10
1127.679640786255
 20
490.90835935061881
 30
0.0
 40
140.0
  0
LINE
  5
313C
  8
ﾁｭｳｼﾝｾﾝ
 10
1127.679640786255
 20
283.88317935061872
 30
0.0
 11
1127.679640786256
 21
673.63762242764778
 31
0.0
  0
LINE
  5
313D
  8
AM_0
 10
962.67964078625562
 20
545.90839435061889
 30
0.0
 11
967.21495078625605
 21
632.44714935061893
 31
0.0
  0
ARC
  5
313E
  8
AM_0
 10
1127.679640786255
 20
490.90835935061881
 30
0.0
 40
75.0
 50
52.903206000000019
 51
127.0967899999999
  0
LINE
  5
313F
  8
AM_0
 10
1075.8910057862561
 20
551.18225935061855
 30
0.0
 11
1042.457200786255
 21
584.61606435061879
 31
0.0
  0
LINE
  5
3140
  8
AM_0
 10
1067.4057157862551
 20
542.69696935061882
 30
0.0
 11
1033.9719057862551
 21
576.13077435061848
 31
0.0
  0
LINE
  5
3141
  8
AM_0
 10
1187.953475786255
 20
542.69696935061882
 30
0.0
 11
1221.387315786254
 21
576.13080435061875
 31
0.0
  0
LINE
  5
3142
  8
AM_0
 10
1179.468185786254
 20
551.18225935061855
 30
0.0
 11
1212.9020257862551
 21
584.61609435061871
 31
0.0
  0
LINE
  5
3143
  8
AM_0
 10
1292.6796157862559
 20
545.90839435061889
 30
0.0
 11
1288.1443207862551
 21
632.44714935061893
 31
0.0
  0
ARC
  5
3144
  8
AM_0
 10
1127.679640786255
 20
490.90835935061881
 30
0.0
 40
75.0
 50
142.90321
 51
180.00001
  0
LINE
  5
3145
  8
ﾁｭｳｼﾝｾﾝ
 10
1037.731045787272
 20
445.90835935061858
 30
0.0
 11
1217.6282357852381
 21
445.90835935061858
 31
0.0
  0
ARC
  5
3146
  8
AM_0
 10
1065.8325957862551
 20
307.9083593506187
 30
0.0
 40
12.82
 50
235.0
 51
270.0
  0
LINE
  5
3147
  8
AM_0
 10
1072.679610786254
 20
325.90837435061889
 30
0.0
 11
986.14082078625597
 21
330.44366935061879
 31
0.0
  0
LINE
  5
3148
  8
ﾁｭｳｼﾝｾﾝ
 10
951.69792078625596
 20
490.90835935061881
 30
0.0
 11
1305.106205786255
 21
490.90835935061881
 31
0.0
  0
LINE
  5
3149
  8
AM_0
 10
962.67961078625581
 20
435.90835935061892
 30
0.0
 11
967.21491578625592
 21
349.36953935061882
 31
0.0
  0
CIRCLE
  5
314A
  8
AM_0
 10
989.79380578625592
 20
353.02252435061882
 30
0.0
 40
9.5
  0
LINE
  5
314B
  8
ﾁｭｳｼﾝｾﾝ1
 10
1006.003155786254
 20
369.23187435061851
 30
0.0
 11
975.56309578625599
 21
338.79184435061882
 31
0.0
  0
ARC
  5
314C
  8
ﾁｭｳｼﾝｾﾝ1
 10
1127.679640786255
 20
490.90835935061881
 30
0.0
 40
195.0000049999999
 50
218.16531999999989
 51
232.12885999999989
  0
ARC
  5
314D
  8
AM_0
 10
987.18754578625555
 20
350.41626435061869
 30
0.0
 40
20.000000499999999
 50
183.00001
 51
267.0
  0
ARC
  5
314E
  8
AM_0
 10
1094.679610786256
 20
397.57916935061883
 30
0.0
 40
102.81999499999991
 50
222.01517999999999
 51
235.0
  0
LINE
  5
314F
  8
AM_0
 10
1058.479355786254
 20
297.40681935061878
 30
0.0
 11
1035.704480786254
 21
313.35397435061878
 31
0.0
  0
LINE
  5
3150
  8
AM_0
 10
962.67964078625562
 20
435.90835935061892
 30
0.0
 11
962.67964078625562
 21
545.90836435061885
 31
0.0
  0
LINE
  5
3151
  8
AM_0
 10
1001.0739557862551
 20
475.90835935061881
 30
0.0
 11
1047.679640786255
 21
475.90835935061881
 31
0.0
  0
ARC
  5
3152
  8
AM_0
 10
1001.0739557862551
 20
480.90835935061881
 30
0.0
 40
5.0
 50
184.51616000000001
 51
270.0
  0
LINE
  5
3153
  8
AM_0
 10
1052.679640786255
 20
490.90835935061881
 30
0.0
 11
1052.679640786255
 21
480.90835935061881
 31
0.0
  0
ARC
  5
3154
  8
AM_0
 10
1047.679640786255
 20
480.90835935061881
 30
0.0
 40
5.0
 50
270.0
 51
0.0
  0
LINE
  5
3155
  8
AM_0
 10
1292.6796157862559
 20
435.90835935061892
 30
0.0
 11
1288.144305786255
 21
349.36953935061882
 31
0.0
  0
LINE
  5
3156
  8
AM_0
 10
1182.679610786256
 20
325.90835935061881
 30
0.0
 11
1269.218460786255
 21
330.44366935061879
 31
0.0
  0
ARC
  5
3157
  8
AM_0
 10
1189.5266257862561
 20
307.9083593506187
 30
0.0
 40
12.82
 50
270.0
 51
305.0
  0
LINE
  5
3158
  8
AM_0
 10
1065.8325957862551
 20
295.0883643506188
 30
0.0
 11
1189.5266257862561
 21
295.0883643506188
 31
0.0
  0
LINE
  5
3159
  8
AM_0
 10
1072.679640786255
 20
325.90835935061881
 30
0.0
 11
1182.679610786256
 21
325.90835935061881
 31
0.0
  0
CIRCLE
  5
315A
  8
AM_0
 10
1265.5654457862549
 20
353.02252435061882
 30
0.0
 40
9.5
  0
ARC
  5
315B
  8
AM_0
 10
1160.679610786256
 20
397.57916935061883
 30
0.0
 40
102.81999499999991
 50
305.0
 51
317.98482000000001
  0
LINE
  5
315C
  8
AM_0
 10
1196.879885786255
 20
297.40681935061878
 30
0.0
 11
1219.6547557862559
 21
313.3539443506188
 31
0.0
  0
ARC
  5
315D
  8
AM_0
 10
1268.171725786256
 20
350.41626435061869
 30
0.0
 40
20.000000499999999
 50
273.0
 51
357.0
  0
ARC
  5
315E
  8
AM_0
 10
1127.679640786255
 20
490.90835935061881
 30
0.0
 40
75.0
 50
0.0
 51
37.096792999999991
  0
ARC
  5
315F
  8
AM_0
 10
1127.679640786255
 20
490.90835935061881
 30
0.0
 40
60.0
 50
90.000003000000007
 51
270.0
  0
ARC
  5
3160
  8
AM_0
 10
1127.679640786255
 20
490.90835935061881
 30
0.0
 40
27.500000499999999
 50
106.91239
 51
73.087597000000002
  0
ARC
  5
3161
  8
AM_0
 10
1127.679640786255
 20
490.90835935061881
 30
0.0
 40
60.0
 50
270.0
 51
90.000003000000007
  0
LINE
  5
3162
  8
AM_0
 10
1119.679610786256
 20
512.40836435061874
 30
0.0
 11
1135.679610786256
 21
512.40836435061874
 31
0.0
  0
LINE
  5
3163
  8
AM_0
 10
1119.679610786256
 20
522.40836435061874
 30
0.0
 11
1135.679610786256
 21
522.40836435061874
 31
0.0
  0
CIRCLE
  5
3164
  8
AM_0
 10
1127.679640786255
 20
490.90835935061881
 30
0.0
 40
4.500000049999997
  0
CIRCLE
  5
3165
  8
AM_5
 10
1127.679640786255
 20
490.90835935061881
 30
0.0
 40
6.0
  0
ARC
  5
3166
  8
AM_0
 10
1079.426530786254
 20
554.71777935061891
 30
0.0
 40
5.0
 50
225.0
 51
307.09678999999983
  0
ARC
  5
3167
  8
AM_0
 10
1063.8701907862551
 20
539.16144435061892
 30
0.0
 40
5.0
 50
322.90320999999989
 51
45.00000099999999
  0
LINE
  5
3168
  8
AM_0
 10
1119.679610786256
 20
512.40836435061874
 30
0.0
 11
1119.679610786256
 21
522.40836435061874
 31
0.0
  0
LINE
  5
3169
  8
AM_0
 10
1135.679610786256
 20
512.40836435061874
 30
0.0
 11
1135.679610786256
 21
522.40836435061874
 31
0.0
  0
ARC
  5
316A
  8
AM_0
 10
1175.932695786255
 20
554.71777935061891
 30
0.0
 40
5.0
 50
232.9032099999998
 51
315.0
  0
ARC
  5
316B
  8
AM_0
 10
1191.489030786254
 20
539.16144435061892
 30
0.0
 40
5.0
 50
135.0
 51
217.0967999999998
  0
LINE
  5
316C
  8
AM_0
 10
1292.679630786256
 20
435.90835935061892
 30
0.0
 11
1292.679630786256
 21
545.90836435061885
 31
0.0
  0
LINE
  5
316D
  8
AM_0
 10
1254.285310786255
 20
475.90835935061881
 30
0.0
 11
1207.679610786256
 21
475.90835935061881
 31
0.0
  0
LINE
  5
316E
  8
AM_0
 10
1202.679610786256
 20
490.90835935061881
 30
0.0
 11
1202.679610786256
 21
480.90835935061881
 31
0.0
  0
ARC
  5
316F
  8
AM_0
 10
1207.679610786256
 20
480.90835935061881
 30
0.0
 40
5.0
 50
179.99998999999991
 51
270.0
  0
ARC
  5
3170
  8
AM_0
 10
1254.285310786255
 20
480.90835935061881
 30
0.0
 40
5.0
 50
270.0
 51
355.48385000000002
  0
LINE
  5
3171
  8
AM_0
 10
1072.679610786254
 20
655.90834935061889
 30
0.0
 11
986.14076078625556
 21
651.37304935061854
 31
0.0
  0
ARC
  5
3172
  8
AM_0
 10
987.18754578625555
 20
631.40044935061871
 30
0.0
 40
20.000000499999999
 50
92.999999000000017
 51
176.99999
  0
CIRCLE
  5
3173
  8
AM_0
 10
989.79380578625592
 20
628.79419935061856
 30
0.0
 40
9.5
  0
ARC
  5
3174
  8
AM_0
 10
1030.436355786255
 20
572.59528435061884
 30
0.0
 40
5.0
 50
45.00000099999999
 51
139.96885
  0
ARC
  5
3175
  8
AM_0
 10
1045.9927207862561
 20
588.15159935061854
 30
0.0
 40
5.0
 50
130.03115
 51
225.0
  0
LINE
  5
3176
  8
AM_0
 10
1182.679610786256
 20
655.90839935061854
 30
0.0
 11
1269.2184307862551
 21
651.37304935061854
 31
0.0
  0
ARC
  5
3177
  8
AM_0
 10
1127.679640786255
 20
658.90834935061889
 30
0.0
 40
5.0
 50
359.99998999999991
 51
179.99998999999991
  0
LINE
  5
3178
  8
AM_0
 10
1072.679640786255
 20
655.90839935061854
 30
0.0
 11
1182.679610786256
 21
655.90839935061854
 31
0.0
  0
LINE
  5
3179
  8
AM_0
 10
1122.679640786255
 20
658.90834935061889
 30
0.0
 11
1122.679640786255
 21
655.90839935061854
 31
0.0
  0
LINE
  5
317A
  8
AM_0
 10
1132.679610786256
 20
658.90834935061889
 30
0.0
 11
1132.679610786256
 21
655.90839935061854
 31
0.0
  0
ARC
  5
317B
  8
AM_0
 10
1268.171725786256
 20
631.40044935061871
 30
0.0
 40
20.000000499999999
 50
3.0000000999999981
 51
86.999998999999988
  0
ARC
  5
317C
  8
ﾁｭｳｼﾝｾﾝ1
 10
1127.679640786255
 20
490.90835935061881
 30
0.0
 40
195.0000049999999
 50
39.367218999999999
 51
50.896189000000007
  0
LINE
  5
317D
  8
ﾁｭｳｼﾝｾﾝ1
 10
1250.2581057862551
 20
613.48679935061887
 30
0.0
 11
1279.796130786254
 21
643.02484935061875
 31
0.0
  0
CIRCLE
  5
317E
  8
AM_0
 10
1265.5654457862549
 20
628.79419935061856
 30
0.0
 40
9.5
  0
ARC
  5
317F
  8
AM_0
 10
1224.9228707862551
 20
572.59528435061884
 30
0.0
 40
5.0
 50
40.031147999999973
 51
135.0
  0
ARC
  5
3180
  8
AM_0
 10
1209.366530786255
 20
588.15159935061854
 30
0.0
 40
5.0
 50
315.0
 51
49.968851000000001
  0
LINE
  5
3181
  8
AM_0
 10
706.37095887344753
 20
1020.629913340711
 30
0.0
 11
788.37095887344753
 21
1020.629913340711
 31
0.0
  0
LINE
  5
3182
  8
AM_0
 10
706.37095887344753
 20
965.62991334071239
 30
0.0
 11
788.37095887344753
 21
965.62991334071239
 31
0.0
  0
LINE
  5
3183
  8
AM_0
 10
726.37101887344727
 20
985.12985334071243
 30
0.0
 11
788.37095887344753
 21
985.12985334071243
 31
0.0
  0
LINE
  5
3184
  8
AM_0
 10
726.37101887344727
 20
1001.129853340712
 30
0.0
 11
788.37095887344753
 21
1001.129853340712
 31
0.0
  0
LINE
  5
3185
  8
ﾁｭｳｼﾝｾﾝ
 10
276.18132740565409
 20
993.12991334071262
 30
0.0
 11
798.98820887344755
 21
993.12991334071262
 31
0.0
  0
POLYLINE
  5
3186
  8
AM_0
 66
     1
 10
0.0
 20
0.0
 30
0.0
  0
VERTEX
  5
3187
  8
AM_0
 10
664.27384887344715
 20
1079.5181633407119
 30
0.0
 42
0.01720808
  0
VERTEX
  5
3188
  8
AM_0
 10
659.85757887344766
 20
1022.142973340711
 30
0.0
 42
0.0088311605
  0
VERTEX
  5
3189
  8
AM_0
 10
659.14072887344753
 20
993.12991334071262
 30
0.0
 42
0.025919753
  0
VERTEX
  5
318A
  8
AM_0
 10
663.00955887344753
 20
907.16622334071235
 30
0.0
  0
SEQEND
  5
318B
  8
AM_0
  0
LINE
  5
318C
  8
AM_0
 10
685.37107887344735
 20
1117.479033340712
 30
0.0
 11
685.37107887344735
 21
868.78079334071253
 31
0.0
  0
LINE
  5
318D
  8
AM_0
 10
703.37101887344761
 20
1133.1299133407119
 30
0.0
 11
703.37101887344761
 21
853.12991334071239
 31
0.0
  0
LINE
  5
318E
  8
AM_0
 10
698.37101887344761
 20
1158.129873340712
 30
0.0
 11
698.37101887344761
 21
828.12985334071243
 31
0.0
  0
LINE
  5
318F
  8
AM_0
 10
676.37101887344727
 20
1152.533173340712
 30
0.0
 11
676.37101887344727
 21
833.72665334071269
 31
0.0
  0
LINE
  5
3190
  8
AM_0
 10
706.37095887344753
 20
1023.1299133407121
 30
0.0
 11
706.37095887344753
 21
963.12991334071228
 31
0.0
  0
LINE
  5
3191
  8
AM_0
 10
533.8710188734475
 20
892.70095334071243
 30
0.0
 11
533.8710188734475
 21
974.21560334071228
 31
0.0
  0
LINE
  5
3192
  8
AM_0
 10
543.37095887344753
 20
863.3761833407126
 30
0.0
 11
543.37095887344753
 21
970.12991334071239
 31
0.0
  0
LINE
  5
3193
  8
AM_0
 10
474.3710188734475
 20
1113.129913340711
 30
0.0
 11
474.3710188734475
 21
873.12991334071273
 31
0.0
  0
LINE
  5
3194
  8
AM_0
 10
487.37095887344731
 20
1111.129913340711
 30
0.0
 11
487.37095887344731
 21
875.12991334071262
 31
0.0
  0
LINE
  5
3195
  8
AM_0
 10
553.3710188734475
 20
988.12991334071228
 30
0.0
 11
553.3710188734475
 21
860.12991334071262
 31
0.0
  0
LINE
  5
3196
  8
AM_0
 10
487.37095887344731
 20
906.45498334071249
 30
0.0
 11
533.8710188734475
 21
906.45498334071249
 31
0.0
  0
LINE
  5
3197
  8
AM_0
 10
487.37095887344731
 20
922.19705334071273
 30
0.0
 11
533.8710188734475
 21
922.19705334071273
 31
0.0
  0
LINE
  5
3198
  8
AM_0
 10
489.37101887344721
 20
881.12991334071273
 30
0.0
 11
541.37095887344753
 21
881.12991334071273
 31
0.0
  0
LINE
  5
3199
  8
AM_0
 10
474.3710188734475
 20
873.12991334071273
 30
0.0
 11
485.37101887344721
 21
873.12991334071273
 31
0.0
  0
ARC
  5
319A
  8
AM_0
 10
489.37101887344721
 20
879.12991334071228
 30
0.0
 40
2.0
 50
90.00000299999769
 51
180.00001000000091
  0
ARC
  5
319B
  8
AM_0
 10
485.37101887344721
 20
875.12991334071262
 30
0.0
 40
2.0
 50
269.999989999999
 51
0.0000006832495047
  0
LINE
  5
319C
  8
AM_0
 10
474.3710188734475
 20
893.40267334071245
 30
0.0
 11
485.37101887344721
 21
893.40267334071245
 31
0.0
  0
LINE
  5
319D
  8
AM_0
 10
474.3710188734475
 20
908.95901334071243
 30
0.0
 11
485.37101887344721
 21
908.95901334071243
 31
0.0
  0
LINE
  5
319E
  8
AM_0
 10
475.3498988734475
 20
918.69296334071248
 30
0.0
 11
486.37876887344731
 21
918.69296334071248
 31
0.0
  0
ARC
  5
319F
  8
AM_0
 10
485.37101887344721
 20
910.95901334071243
 30
0.0
 40
2.0
 50
269.999989999999
 51
0.0000006832495047
  0
ARC
  5
31A0
  8
AM_0
 10
485.37101887344721
 20
895.40261334071261
 30
0.0
 40
2.0
 50
269.999989999999
 51
0.0000006832495047
  0
LINE
  5
31A1
  8
AM_0
 10
553.37107887344735
 20
860.12985334071243
 30
0.0
 11
669.52781887344747
 21
856.07357334071264
 31
0.0
  0
ARC
  5
31A2
  8
AM_0
 10
538.87101887344727
 20
892.70095334071243
 30
0.0
 40
5.0
 50
180.00001000000091
 51
225.0
  0
ARC
  5
31A3
  8
AM_0
 10
546.37095887344753
 20
863.3761833407126
 30
0.0
 40
3.0
 50
180.00001000000091
 51
268.00000000000261
  0
LINE
  5
31A4
  8
AM_0
 10
553.3710188734475
 20
860.12991334071262
 30
0.0
 11
546.26627887344739
 21
860.3780133407123
 31
0.0
  0
ARC
  5
31A5
  8
AM_0
 10
541.37095887344753
 20
879.12991334071228
 30
0.0
 40
2.0
 50
0.0
 51
90.00000299999769
  0
ARC
  5
31A6
  8
AM_0
 10
538.37095887344753
 20
879.05886334071215
 30
0.0
 40
5.0
 50
0.0
 51
44.999998000001611
  0
LINE
  5
31A7
  8
AM_0
 10
541.90653887344752
 20
882.59432334071255
 30
0.0
 11
535.33549887344725
 21
889.16537334071245
 31
0.0
  0
LINE
  5
31A8
  8
AM_0
 10
638.30015887344734
 20
905.47946334071264
 30
0.0
 11
673.86924887344753
 21
883.95297334071245
 31
0.0
  0
LINE
  5
31A9
  8
AM_0
 10
635.72056887344752
 20
895.76583334071245
 30
0.0
 11
673.95981887344749
 21
872.62338334071262
 31
0.0
  0
ARC
  5
31AA
  8
AM_0
 10
677.3710188734475
 20
868.78079334071253
 30
0.0
 40
8.0
 50
270.0
 51
0.0
  0
ARC
  5
31AB
  8
AM_0
 10
681.3710188734475
 20
833.72665334071269
 30
0.0
 40
5.0
 50
179.9999899999988
 51
268.00000999999861
  0
LINE
  5
31AC
  8
AM_0
 10
672.88883887344753
 20
854.61215334071244
 30
0.0
 11
676.37107887344735
 21
851.12991334071262
 31
0.0
  0
POLYLINE
  5
31AD
  8
AM_0
 66
     1
 10
0.0
 20
0.0
 30
0.0
  0
VERTEX
  5
31AE
  8
AM_0
 10
666.45455887344735
 20
877.16561334071275
 30
0.0
 42
0.0020909347
  0
VERTEX
  5
31AF
  8
AM_0
 10
667.42040887344751
 20
870.1251033407126
 30
0.0
 42
0.0020881749
  0
VERTEX
  5
31B0
  8
AM_0
 10
668.44498887344753
 20
863.09348334071262
 30
0.0
 42
0.0020849591
  0
VERTEX
  5
31B1
  8
AM_0
 10
669.52775887344751
 20
856.0736333407126
 30
0.0
  0
SEQEND
  5
31B2
  8
AM_0
  0
ARC
  5
31B3
  8
AM_0
 10
671.3710188734475
 20
868.34579334071259
 30
0.0
 40
5.0
 50
0.0
 51
58.817640999998339
  0
ARC
  5
31B4
  8
AM_0
 10
669.35325887344754
 20
851.07668334071263
 30
0.0
 40
5.0
 50
45.000001000003799
 51
88.000000000002785
  0
LINE
  5
31B5
  8
AM_0
 10
681.19657887344738
 20
828.72964334071264
 30
0.0
 11
698.37113887344753
 21
828.12985334071243
 31
0.0
  0
LINE
  5
31B6
  8
AM_0
 10
698.37101887344761
 20
853.12991334071239
 30
0.0
 11
703.37101887344761
 21
853.12991334071239
 31
0.0
  0
ARC
  5
31B7
  8
AM_0
 10
677.3710188734475
 20
926.79324334071271
 30
0.0
 40
8.0
 50
270.0
 51
0.0
  0
LINE
  5
31B8
  8
AM_0
 10
638.30942887344747
 20
907.25637334071234
 30
0.0
 11
662.06424887344747
 21
907.25637334071234
 31
0.0
  0
ARC
  5
31B9
  8
AM_0
 10
638.30942887344747
 20
900.04348334071244
 30
0.0
 40
5.0
 50
179.9999899999988
 51
238.81764999999689
  0
ARC
  5
31BA
  8
AM_0
 10
638.30942887344747
 20
902.25637334071246
 30
0.0
 40
5.0
 50
90.00000299999769
 51
180.00001000000091
  0
LINE
  5
31BB
  8
AM_0
 10
633.30942887344725
 20
900.04348334071244
 30
0.0
 11
633.30942887344725
 21
902.25637334071246
 31
0.0
  0
LINE
  5
31BC
  8
AM_0
 10
665.02115887344746
 20
906.28823334071262
 30
0.0
 11
676.37107887344735
 21
897.96450334071233
 31
0.0
  0
ARC
  5
31BD
  8
AM_0
 10
662.06424887344747
 20
902.25637334071246
 30
0.0
 40
5.0
 50
53.744453000003212
 51
90.00000299999769
  0
LINE
  5
31BE
  8
AM_0
 10
703.37101887344761
 20
963.12991334071228
 30
0.0
 11
706.37095887344753
 21
963.12991334071228
 31
0.0
  0
ARC
  5
31BF
  8
AM_0
 10
528.8710188734475
 20
1012.044153340712
 30
0.0
 40
5.0
 50
288.96566000000053
 51
0.0
  0
ARC
  5
31C0
  8
AM_0
 10
528.8710188734475
 20
974.21560334071228
 30
0.0
 40
5.0
 50
0.0
 51
71.034342999998159
  0
ARC
  5
31C1
  8
AM_0
 10
535.37101887344716
 20
993.12991334071262
 30
0.0
 40
15.0
 50
199.4712300000005
 51
269.99984999999782
  0
ARC
  5
31C2
  8
AM_0
 10
535.37101887344716
 20
993.12991334071262
 30
0.0
 40
12.5
 50
203.5781799999973
 51
336.42183000000068
  0
ARC
  5
31C3
  8
AM_0
 10
535.37101887344716
 20
993.12991334071262
 30
0.0
 40
12.5
 50
23.578179999997531
 51
156.42182000000241
  0
ARC
  5
31C4
  8
AM_0
 10
535.37101887344716
 20
993.12991334071262
 30
0.0
 40
15.0
 50
90.000146000002943
 51
160.52876999999901
  0
LINE
  5
31C5
  8
AM_0
 10
487.37095887344731
 20
1064.062713340712
 30
0.0
 11
533.8710188734475
 21
1064.062713340712
 31
0.0
  0
LINE
  5
31C6
  8
AM_0
 10
487.37095887344731
 20
1079.804773340712
 30
0.0
 11
533.8710188734475
 21
1079.804773340712
 31
0.0
  0
LINE
  5
31C7
  8
AM_0
 10
489.37101887344721
 20
1105.1298533407121
 30
0.0
 11
541.37095887344753
 21
1105.1298533407121
 31
0.0
  0
LINE
  5
31C8
  8
AM_0
 10
515.3710188734475
 20
998.12991334071273
 30
0.0
 11
555.37101887344727
 21
998.12991334071273
 31
0.0
  0
LINE
  5
31C9
  8
AM_0
 10
515.3710188734475
 20
988.12991334071228
 30
0.0
 11
555.37101887344727
 21
988.12991334071228
 31
0.0
  0
ARC
  5
31CA
  8
AM_0
 10
515.3710188734475
 20
993.12991334071262
 30
0.0
 40
5.0
 50
90.00000299999769
 51
270.0
  0
LINE
  5
31CB
  8
AM_0
 10
474.3710188734475
 20
1113.129913340711
 30
0.0
 11
485.37101887344721
 21
1113.129913340711
 31
0.0
  0
LINE
  5
31CC
  8
AM_0
 10
475.3498988734475
 20
1067.566863340712
 30
0.0
 11
486.37876887344731
 21
1067.566863340712
 31
0.0
  0
LINE
  5
31CD
  8
AM_0
 10
474.3710188734475
 20
1092.8570833407121
 30
0.0
 11
485.37101887344721
 21
1092.8570833407121
 31
0.0
  0
LINE
  5
31CE
  8
AM_0
 10
474.3710188734475
 20
1077.300743340712
 30
0.0
 11
485.37101887344721
 21
1077.300743340712
 31
0.0
  0
ARC
  5
31CF
  8
AM_0
 10
485.37101887344721
 20
1075.300683340711
 30
0.0
 40
2.0
 50
0.0
 51
90.00000299999769
  0
ARC
  5
31D0
  8
AM_0
 10
489.37101887344721
 20
1107.1298533407121
 30
0.0
 40
2.0
 50
179.9999899999988
 51
270.0
  0
ARC
  5
31D1
  8
AM_0
 10
485.37101887344721
 20
1090.8570833407121
 30
0.0
 40
2.0
 50
0.0
 51
90.00000299999769
  0
ARC
  5
31D2
  8
AM_0
 10
485.37101887344721
 20
1111.129913340711
 30
0.0
 40
2.0
 50
0.0
 51
90.00000299999769
  0
POLYLINE
  5
31D3
  8
AM_0
 66
     1
 10
0.0
 20
0.0
 30
0.0
  0
VERTEX
  5
31D4
  8
AM_0
 10
671.49613887344753
 20
1130.2549133407119
 30
0.0
  0
VERTEX
  5
31D5
  8
AM_0
 10
668.26587887344749
 20
1110.1904033407111
 30
0.0
 42
-1.0
  0
SEQEND
  5
31D6
  8
AM_0
  0
ARC
  5
31D7
  8
AM_0
 10
677.3710188734475
 20
1117.479033340712
 30
0.0
 40
8.0
 50
0.0
 51
90.00000299999769
  0
LINE
  5
31D8
  8
AM_0
 10
553.3710188734475
 20
1126.129913340711
 30
0.0
 11
669.52775887344751
 21
1130.186183340712
 31
0.0
  0
LINE
  5
31D9
  8
AM_0
 10
533.8710188734475
 20
1012.044153340712
 30
0.0
 11
533.8710188734475
 21
1093.5588633407119
 31
0.0
  0
LINE
  5
31DA
  8
AM_0
 10
543.37095887344753
 20
1016.1299133407121
 30
0.0
 11
543.37095887344753
 21
1122.883633340711
 31
0.0
  0
LINE
  5
31DB
  8
AM_0
 10
553.3710188734475
 20
1126.129913340711
 30
0.0
 11
553.3710188734475
 21
998.12991334071273
 31
0.0
  0
ARC
  5
31DC
  8
AM_0
 10
535.37095887344753
 20
1016.1299133407121
 30
0.0
 40
8.0
 50
270.0001500000019
 51
0.0
  0
ARC
  5
31DD
  8
AM_0
 10
555.37101887344727
 20
993.12991334071262
 30
0.0
 40
5.0
 50
270.0
 51
90.00000299999769
  0
ARC
  5
31DE
  8
AM_0
 10
535.37095887344753
 20
970.12991334071239
 30
0.0
 40
8.0
 50
0.0
 51
89.999858999997556
  0
ARC
  5
31DF
  8
AM_0
 10
541.37095887344753
 20
1107.1298533407121
 30
0.0
 40
2.0
 50
270.0
 51
0.0
  0
ARC
  5
31E0
  8
AM_0
 10
538.37095887344753
 20
1107.200953340712
 30
0.0
 40
5.0
 50
315.0
 51
0.0
  0
ARC
  5
31E1
  8
AM_0
 10
538.87101887344727
 20
1093.5588633407119
 30
0.0
 40
5.0
 50
135.0
 51
180.00001000000091
  0
LINE
  5
31E2
  8
AM_0
 10
535.33542887344754
 20
1097.0943833407121
 30
0.0
 11
541.90647887344755
 21
1103.6654333407121
 31
0.0
  0
ARC
  5
31E3
  8
AM_0
 10
546.37095887344753
 20
1122.883633340711
 30
0.0
 40
3.0
 50
91.999998000000545
 51
180.00001000000091
  0
LINE
  5
31E4
  8
AM_0
 10
553.37095887344753
 20
1126.129913340711
 30
0.0
 11
546.26627887344739
 21
1125.8818033407119
 31
0.0
  0
ARC
  5
31E5
  8
AM_0
 10
726.37101887344727
 20
993.12985334071243
 30
0.0
 40
8.0000113999999982
 50
90.00000299999769
 51
270.0
  0
LINE
  5
31E6
  8
AM_0
 10
726.37095887344753
 20
1001.129853340712
 30
0.0
 11
726.37095887344753
 21
985.12985334071243
 31
0.0
  0
LINE
  5
31E7
  8
AM_0
 10
703.37101887344761
 20
1023.1299133407121
 30
0.0
 11
706.37095887344753
 21
1023.1299133407121
 31
0.0
  0
ARC
  5
31E8
  8
AM_0
 10
677.3710188734475
 20
1059.466523340712
 30
0.0
 40
8.0
 50
0.0
 51
90.00000299999769
  0
ARC
  5
31E9
  8
AM_0
 10
638.30942887344747
 20
1086.216273340711
 30
0.0
 40
5.0
 50
121.18235999999619
 51
180.00001000000091
  0
LINE
  5
31EA
  8
AM_0
 10
638.30015887344734
 20
1080.780303340712
 30
0.0
 11
673.86924887344753
 21
1102.3067333407121
 31
0.0
  0
LINE
  5
31EB
  8
AM_0
 10
665.02122887344751
 20
1079.971463340712
 30
0.0
 11
676.37107887344735
 21
1088.295193340711
 31
0.0
  0
LINE
  5
31EC
  8
AM_0
 10
638.30942887344747
 20
1079.003443340712
 30
0.0
 11
662.06424887344747
 21
1079.003443340712
 31
0.0
  0
ARC
  5
31ED
  8
AM_0
 10
638.30942887344747
 20
1084.003443340712
 30
0.0
 40
5.0
 50
179.9999899999988
 51
270.0
  0
LINE
  5
31EE
  8
AM_0
 10
633.30942887344725
 20
1086.216273340711
 30
0.0
 11
633.30942887344725
 21
1084.003443340712
 31
0.0
  0
ARC
  5
31EF
  8
AM_0
 10
662.06424887344747
 20
1084.003443340712
 30
0.0
 40
5.0
 50
270.0
 51
306.25554999999889
  0
LINE
  5
31F0
  8
AM_0
 10
635.72056887344752
 20
1090.4939233407119
 30
0.0
 11
673.95981887344749
 21
1113.636383340712
 31
0.0
  0
ARC
  5
31F1
  8
AM_0
 10
671.3710188734475
 20
1117.9139633407119
 30
0.0
 40
5.0
 50
301.18235999999632
 51
0.0
  0
ARC
  5
31F2
  8
AM_0
 10
681.3710188734475
 20
1152.533173340712
 30
0.0
 40
5.0
 50
91.999998000000545
 51
180.00001000000091
  0
ARC
  5
31F3
  8
AM_0
 10
669.35325887344754
 20
1135.1831333407119
 30
0.0
 40
5.0
 50
271.9999999999971
 51
315.0
  0
LINE
  5
31F4
  8
AM_0
 10
672.88883887344753
 20
1131.6475533407111
 30
0.0
 11
676.37107887344735
 21
1135.1298533407121
 31
0.0
  0
LINE
  5
31F5
  8
AM_0
 10
698.37101887344761
 20
1133.1299133407119
 30
0.0
 11
703.37101887344761
 21
1133.1299133407119
 31
0.0
  0
LINE
  5
31F6
  8
AM_0
 10
681.19663887344745
 20
1157.5300733407121
 30
0.0
 11
698.37107887344735
 21
1158.129873340712
 31
0.0
  0
LINE
  5
31F7
  8
AM_0
 10
788.37095887344753
 20
1020.629913340711
 30
0.0
 11
788.37095887344753
 21
965.62991334071239
 31
0.0
  0
ARC
  5
31F8
  8
ﾁｭｳｼﾝｾﾝ1
 10
1127.679640786253
 20
490.90835935061881
 30
0.0
 40
195.0000049999999
 50
129.1038110000008
 51
140.6327810000007
  0
LINE
  5
31F9
  8
ﾁｭｳｼﾝｾﾝ1
 10
1005.101175786252
 20
613.48679935061693
 30
0.0
 11
975.56315078625244
 21
643.02484935061625
 31
0.0
  0
ARC
  5
31FA
  8
ﾁｭｳｼﾝｾﾝ1
 10
1127.679640786253
 20
490.90835935061881
 30
0.0
 40
195.0000049999999
 50
307.87114000000082
 51
321.83468000000067
  0
LINE
  5
31FB
  8
ﾁｭｳｼﾝｾﾝ1
 10
1249.356125786255
 20
369.2318743506205
 30
0.0
 11
1279.796185786256
 21
338.79184435062092
 31
0.0
  0
LINE
  5
31FC
  8
AM_0
 10
458.3710188734475
 20
1069.092114340712
 30
0.0
 11
472.37101887344733
 21
1069.092114340712
 31
0.0
  0
LINE
  5
31FD
  8
AM_0
 10
472.37101887344733
 20
1093.2119343407121
 30
0.0
 11
449.87225187344728
 21
1093.2119343407121
 31
0.0
  0
LINE
  5
31FE
  8
AM_0
 10
472.37101887344733
 20
1077.655585340711
 30
0.0
 11
449.94773987344752
 21
1077.655585340711
 31
0.0
  0
LINE
  5
31FF
  8
AM_0
 10
472.37101887344733
 20
1093.2119343407121
 30
0.0
 11
474.3710188734475
 21
1091.211934340711
 31
0.0
  0
LINE
  5
3200
  8
AM_0
 10
472.37101887344733
 20
1077.655585340711
 30
0.0
 11
474.3710188734475
 21
1075.655585340711
 31
0.0
  0
LINE
  5
3201
  8
AM_0
 10
472.37101887344733
 20
1093.2119343407121
 30
0.0
 11
472.37101887344733
 21
1077.655585340711
 31
0.0
  0
LINE
  5
3202
  8
AM_0
 10
458.3710188734475
 20
1113.129913340711
 30
0.0
 11
472.37101887344733
 21
1113.129913340711
 31
0.0
  0
LINE
  5
3203
  8
AM_0
 10
472.37101887344733
 20
1113.129913340711
 30
0.0
 11
474.3710188734475
 21
1111.129913340711
 31
0.0
  0
LINE
  5
3204
  8
AM_0
 10
472.37101887344733
 20
1009.87968661123
 30
0.0
 11
472.37101887344733
 21
976.38014007019456
 31
0.0
  0
LINE
  5
3205
  8
AM_0
 10
454.3710188734475
 20
1065.0921143407111
 30
0.0
 11
454.3710188734475
 21
921.16771234071246
 31
0.0
  0
LINE
  5
3206
  8
AM_0
 10
454.3710188734475
 20
1008.1299133407121
 30
0.0
 11
472.37101887344733
 21
1008.1299133407121
 31
0.0
  0
LINE
  5
3207
  8
AM_0
 10
472.37101887344733
 20
1009.87968661123
 30
0.0
 11
454.3710188734475
 21
1009.87968661123
 31
0.0
  0
LINE
  5
3208
  8
AM_0
 10
452.5849568734472
 20
1103.631229340712
 30
0.0
 11
393.45441487344721
 21
1054.0148143407121
 31
0.0
  0
LINE
  5
3209
  8
AM_0
 10
355.8710188734475
 20
1048.1818223407111
 30
0.0
 11
355.8710188734475
 21
938.07800534071271
 31
0.0
  0
LINE
  5
320A
  8
AM_0
 10
353.8710188734475
 20
1028.1299133407119
 30
0.0
 11
353.8710188734475
 21
958.12991334071262
 31
0.0
  0
LINE
  5
320B
  8
AM_0
 10
390.74170987344752
 20
1048.757155340712
 30
0.0
 11
390.74170987344752
 21
937.17596634071231
 31
0.0
  0
LINE
  5
320C
  8
AM_0
 10
291.8710188734475
 20
1010.629913340711
 30
0.0
 11
291.8710188734475
 21
975.62991334071228
 31
0.0
  0
LINE
  5
320D
  8
AM_0
 10
349.8710188734475
 20
1013.1299133407121
 30
0.0
 11
349.8710188734475
 21
973.12991334071273
 31
0.0
  0
LINE
  5
320E
  8
AM_0
 10
291.8710188734475
 20
998.12991334071273
 30
0.0
 11
336.8710188734475
 21
998.12991334071273
 31
0.0
  0
LINE
  5
320F
  8
AM_0
 10
349.8710188734475
 20
1010.629913340711
 30
0.0
 11
291.8710188734475
 21
1010.629913340711
 31
0.0
  0
ARC
  5
3210
  8
AM_0
 10
336.8710188734475
 20
993.12991334071285
 30
0.0
 40
5.0
 50
270.0
 51
90.0
  0
LINE
  5
3211
  8
AM_0
 10
336.8710188734475
 20
998.12991334071273
 30
0.0
 11
336.8710188734475
 21
988.12991334071273
 31
0.0
  0
LINE
  5
3212
  8
AM_0
 10
353.8710188734475
 20
1013.1299133407121
 30
0.0
 11
349.8710188734475
 21
1013.1299133407121
 31
0.0
  0
LINE
  5
3213
  8
AM_0
 10
353.8710188734475
 20
1028.1299133407119
 30
0.0
 11
355.8710188734475
 21
1030.1299133407119
 31
0.0
  0
ARC
  5
3214
  8
AM_0
 10
387.02653887344752
 20
1061.6752583407119
 30
0.0
 40
10.0
 50
270.99999999999841
 51
310.0
  0
ARC
  5
3215
  8
AM_0
 10
358.8710188734475
 20
1048.1818223407111
 30
0.0
 40
3.0
 50
90.999999999998494
 51
180.0
  0
LINE
  5
3216
  8
AM_0
 10
358.81866187344741
 20
1051.181365340711
 30
0.0
 11
387.20106287344743
 21
1051.6767813407121
 31
0.0
  0
LINE
  5
3217
  8
AM_0
 10
443.9432108734473
 20
1075.0360773407119
 30
0.0
 11
443.9432108734473
 21
1060.246408340711
 31
0.0
  0
LINE
  5
3218
  8
AM_0
 10
445.97262987344732
 20
1074.101120340712
 30
0.0
 11
444.24200287344752
 21
1058.660291340711
 31
0.0
  0
ARC
  5
3219
  8
AM_0
 10
458.3710188734475
 20
1065.0921143407111
 30
0.0
 40
4.0
 50
90.0
 51
180.0
  0
ARC
  5
321A
  8
AM_0
 10
441.26066987344728
 20
1058.994443340712
 30
0.0
 40
3.0
 50
288.4615890000016
 51
353.60490699999917
  0
LINE
  5
321B
  8
AM_0
 10
443.9432108734473
 20
1055.994443340712
 30
0.0
 11
453.8273828734475
 21
1055.994443340712
 31
0.0
  0
ARC
  5
321C
  8
AM_0
 10
449.3710188734475
 20
1107.4614513407121
 30
0.0
 40
5.0
 50
310.0
 51
0.0
  0
ARC
  5
321D
  8
AM_0
 10
458.3710188734475
 20
1109.129913340711
 30
0.0
 40
4.0
 50
90.0
 51
180.0
  0
ARC
  5
321E
  8
AM_0
 10
449.87225187344728
 20
1089.211934340711
 30
0.0
 40
4.0
 50
90.0
 51
172.39185199998951
  0
ARC
  5
321F
  8
AM_0
 10
441.31728687344742
 20
1078.0360773407119
 30
0.0
 40
3.0
 50
291.6423089999987
 51
352.39185200000247
  0
ARC
  5
3220
  8
AM_0
 10
449.94773987344752
 20
1073.6555853407131
 30
0.0
 40
4.0
 50
90.0
 51
173.6049069999992
  0
LINE
  5
3221
  8
AM_0
 10
445.90746487344762
 20
1089.741523340711
 30
0.0
 11
444.2908768734473
 21
1077.6388853407111
 31
0.0
  0
LINE
  5
3222
  8
AM_0
 10
446.3710188734475
 20
1077.655585340711
 30
0.0
 11
446.3710188734475
 21
1088.401634340712
 31
0.0
  0
LINE
  5
3223
  8
AM_0
 10
454.3710188734475
 20
1109.129913340711
 30
0.0
 11
454.3710188734475
 21
1093.211933340712
 31
0.0
  0
LINE
  5
3224
  8
AM_0
 10
458.3710188734475
 20
873.12991334071273
 30
0.0
 11
472.37101887344733
 21
873.12991334071273
 31
0.0
  0
LINE
  5
3225
  8
AM_0
 10
472.37101887344733
 20
873.12991334071273
 30
0.0
 11
474.3710188734475
 21
875.12991334071262
 31
0.0
  0
LINE
  5
3226
  8
AM_0
 10
472.37101887344733
 20
893.04789234071245
 30
0.0
 11
449.87225187344728
 21
893.04789234071245
 31
0.0
  0
LINE
  5
3227
  8
AM_0
 10
472.37101887344733
 20
908.60424134071241
 30
0.0
 11
449.94773987344752
 21
908.60424134071241
 31
0.0
  0
LINE
  5
3228
  8
AM_0
 10
472.37101887344733
 20
893.04789234071245
 30
0.0
 11
472.37101887344733
 21
908.60424134071241
 31
0.0
  0
LINE
  5
3229
  8
AM_0
 10
472.37101887344733
 20
893.04789234071245
 30
0.0
 11
474.3710188734475
 21
895.04789234071245
 31
0.0
  0
LINE
  5
322A
  8
AM_0
 10
458.3710188734475
 20
917.16771234071246
 30
0.0
 11
472.37101887344733
 21
917.16771234071246
 31
0.0
  0
LINE
  5
322B
  8
AM_0
 10
472.37101887344733
 20
908.60424134071241
 30
0.0
 11
474.3710188734475
 21
910.60424134071241
 31
0.0
  0
LINE
  5
322C
  8
AM_0
 10
452.5849568734472
 20
882.62859734071242
 30
0.0
 11
393.45441487344721
 21
932.24501334071272
 31
0.0
  0
LINE
  5
322D
  8
AM_0
 10
454.3710188734475
 20
877.12991334071262
 30
0.0
 11
454.3710188734475
 21
893.04789334071245
 31
0.0
  0
ARC
  5
322E
  8
AM_0
 10
458.3710188734475
 20
877.12991334071262
 30
0.0
 40
4.0
 50
180.0
 51
270.0
  0
ARC
  5
322F
  8
AM_0
 10
449.3710188734475
 20
878.79837534071248
 30
0.0
 40
5.0
 50
0.0
 51
49.999999999999922
  0
ARC
  5
3230
  8
AM_0
 10
458.3710188734475
 20
921.16771234071246
 30
0.0
 40
4.0
 50
180.0
 51
270.0
  0
LINE
  5
3231
  8
AM_0
 10
446.3710188734475
 20
908.60424134071241
 30
0.0
 11
446.3710188734475
 21
897.85819234071255
 31
0.0
  0
LINE
  5
3232
  8
AM_0
 10
445.90746487344762
 20
896.51830334071269
 30
0.0
 11
444.2908768734473
 21
908.62094134071231
 31
0.0
  0
ARC
  5
3233
  8
AM_0
 10
449.94773987344752
 20
912.60424134071229
 30
0.0
 40
4.0
 50
186.39509300000049
 51
270.0
  0
ARC
  5
3234
  8
AM_0
 10
449.87225187344728
 20
897.04789234071245
 30
0.0
 40
4.0
 50
187.60814800001029
 51
270.0
  0
ARC
  5
3235
  8
AM_0
 10
441.31728687344742
 20
908.2237493407124
 30
0.0
 40
3.0
 50
7.6081479999973398
 51
68.357691000001253
  0
LINE
  5
3236
  8
AM_0
 10
443.9432108734473
 20
930.26538334071245
 30
0.0
 11
453.8273828734475
 21
930.26538334071245
 31
0.0
  0
ARC
  5
3237
  8
AM_0
 10
441.26066987344728
 20
927.26538334071302
 30
0.0
 40
3.0
 50
6.3950930000006609
 51
71.538410999998334
  0
LINE
  5
3238
  8
AM_0
 10
445.97262987344732
 20
912.15870634071246
 30
0.0
 11
444.24200287344752
 21
927.59953534071269
 31
0.0
  0
LINE
  5
3239
  8
AM_0
 10
443.9432108734473
 20
911.22374934071274
 30
0.0
 11
443.9432108734473
 21
926.01341834071263
 31
0.0
  0
LINE
  5
323A
  8
AM_0
 10
353.8710188734475
 20
958.12991334071262
 30
0.0
 11
355.8710188734475
 21
956.12991334071273
 31
0.0
  0
LINE
  5
323B
  8
AM_0
 10
291.8710188734475
 20
975.62991334071228
 30
0.0
 11
349.8710188734475
 21
975.62991334071228
 31
0.0
  0
LINE
  5
323C
  8
AM_0
 10
349.8710188734475
 20
973.12991334071273
 30
0.0
 11
353.8710188734475
 21
973.12991334071273
 31
0.0
  0
LINE
  5
323D
  8
AM_0
 10
291.8710188734475
 20
988.12991334071273
 30
0.0
 11
336.8710188734475
 21
988.12991334071273
 31
0.0
  0
ARC
  5
323E
  8
AM_0
 10
387.02653887344752
 20
924.58456834071228
 30
0.0
 40
10.0
 50
49.999999999999922
 51
89.000000000001506
  0
LINE
  5
323F
  8
AM_0
 10
358.81866187344741
 20
935.07846234071235
 30
0.0
 11
387.20106287344743
 21
934.58304534071283
 31
0.0
  0
ARC
  5
3240
  8
AM_0
 10
358.8710188734475
 20
938.07800534071271
 30
0.0
 40
3.0
 50
180.0
 51
268.99999999999812
  0
LINE
  5
3241
  8
AM_0
 10
472.37101887344733
 20
976.38014007019456
 30
0.0
 11
454.3710188734475
 21
976.38014007019456
 31
0.0
  0
LINE
  5
3242
  8
AM_0
 10
454.3710188734475
 20
978.12991334071239
 30
0.0
 11
472.37101887344733
 21
978.12991334071239
 31
0.0
  0
TEXT
  5
3427
  8
AM_0
 10
937.29585237362153
 20
1023.680822235008
 30
0.0
 40
20.0
  1
VX75-003GF~VX75-020GF
  0
ENDSEC
  0
EOF
