  0
SECTION
  2
HEADER
  9
$ACADVER
  1
AC1009
  9
$INSBASE
 10
0.0
 20
0.0
 30
0.0
  9
$EXTMIN
 10
266.5364270142004
 20
285.47635965362588
 30
-0.0000000000112498
  9
$EXTMAX
 10
1387.718906190617
 20
1204.6355617057779
 30
0.0000000000002956
  9
$LIMMIN
 10
0.0
 20
0.0
  9
$LIMMAX
 10
1707.0
 20
1110.0
  9
$ORTHOMODE
 70
     0
  9
$REGENMODE
 70
     1
  9
$FILLMODE
 70
     1
  9
$QTEXTMODE
 70
     0
  9
$MIRRTEXT
 70
     1
  9
$DRAGMODE
 70
     2
  9
$LTSCALE
 40
6.0
  9
$OSMODE
 70
   551
  9
$ATTMODE
 70
     1
  9
$TEXTSIZE
 40
2.5
  9
$TRACEWID
 40
1.0
  9
$TEXTSTYLE
  7
STANDARD
  9
$CLAYER
  8
AM_0
  9
$CELTYPE
  6
BYLAYER
  9
$CECOLOR
 62
   256
  9
$DIMSCALE
 40
6.0
  9
$DIMASZ
 40
2.5
  9
$DIMEXO
 40
1.0
  9
$DIMDLI
 40
8.0
  9
$DIMRND
 40
0.0
  9
$DIMDLE
 40
0.0
  9
$DIMEXE
 40
0.6
  9
$DIMTP
 40
0.1
  9
$DIMTM
 40
0.1
  9
$DIMTXT
 40
2.5
  9
$DIMCEN
 40
0.0
  9
$DIMTSZ
 40
0.0
  9
$DIMTOL
 70
     0
  9
$DIMLIM
 70
     0
  9
$DIMTIH
 70
     0
  9
$DIMTOH
 70
     0
  9
$DIMSE1
 70
     0
  9
$DIMSE2
 70
     0
  9
$DIMTAD
 70
     1
  9
$DIMZIN
 70
     8
  9
$DIMBLK
  1

  9
$DIMASO
 70
     1
  9
$DIMSHO
 70
     1
  9
$DIMPOST
  1

  9
$DIMAPOST
  1
"
  9
$DIMALT
 70
     0
  9
$DIMALTD
 70
     2
  9
$DIMALTF
 40
0.0393701
  9
$DIMLFAC
 40
1.0
  9
$DIMTOFL
 70
     1
  9
$DIMTVP
 40
0.0
  9
$DIMTIX
 70
     0
  9
$DIMSOXD
 70
     0
  9
$DIMSAH
 70
     0
  9
$DIMBLK1
  1

  9
$DIMBLK2
  1

  9
$DIMSTYLE
  2
AM_ISO
  9
$DIMCLRD
 70
   256
  9
$DIMCLRE
 70
   256
  9
$DIMCLRT
 70
     4
  9
$DIMTFAC
 40
0.71
  9
$DIMGAP
 40
0.8
  9
$LUNITS
 70
     2
  9
$LUPREC
 70
     2
  9
$SKETCHINC
 40
1.0
  9
$FILLETRAD
 40
30.0
  9
$AUNITS
 70
     0
  9
$AUPREC
 70
     0
  9
$MENU
  1
.
  9
$ELEVATION
 40
0.0
  9
$PELEVATION
 40
0.0
  9
$THICKNESS
 40
0.0
  9
$LIMCHECK
 70
     0
  9
$BLIPMODE
 70
     0
  9
$CHAMFERA
 40
12.0
  9
$CHAMFERB
 40
6.0
  9
$SKPOLY
 70
     0
  9
$TDCREATE
 40
2452067.4012635532
  9
$TDUPDATE
 40
2458541.4529827549
  9
$TDINDWG
 40
0.089975162
  9
$TDUSRTIMER
 40
0.0899751505
  9
$USRTIMER
 70
     1
  9
$ANGBASE
 50
0.0
  9
$ANGDIR
 70
     0
  9
$PDMODE
 70
     0
  9
$PDSIZE
 40
0.0
  9
$PLINEWID
 40
0.0
  9
$COORDS
 70
     1
  9
$SPLFRAME
 70
     0
  9
$SPLINETYPE
 70
     6
  9
$SPLINESEGS
 70
     8
  9
$ATTDIA
 70
     1
  9
$ATTREQ
 70
     1
  9
$HANDLING
 70
     1
  9
$HANDSEED
  5
3419
  9
$SURFTAB1
 70
     6
  9
$SURFTAB2
 70
     6
  9
$SURFTYPE
 70
     6
  9
$SURFU
 70
     6
  9
$SURFV
 70
     6
  9
$UCSNAME
  2

  9
$UCSORG
 10
0.0
 20
0.0
 30
0.0
  9
$UCSXDIR
 10
1.0
 20
0.0
 30
0.0
  9
$UCSYDIR
 10
0.0
 20
1.0
 30
0.0
  9
$PUCSNAME
  2

  9
$PUCSORG
 10
0.0
 20
0.0
 30
0.0
  9
$PUCSXDIR
 10
1.0
 20
0.0
 30
0.0
  9
$PUCSYDIR
 10
0.0
 20
1.0
 30
0.0
  9
$USERI1
 70
     0
  9
$USERI2
 70
     0
  9
$USERI3
 70
     0
  9
$USERI4
 70
     0
  9
$USERI5
 70
     0
  9
$USERR1
 40
0.0
  9
$USERR2
 40
0.0
  9
$USERR3
 40
0.0
  9
$USERR4
 40
0.0
  9
$USERR5
 40
0.0
  9
$WORLDVIEW
 70
     1
  9
$SHADEDGE
 70
     3
  9
$SHADEDIF
 70
    70
  9
$TILEMODE
 70
     1
  9
$MAXACTVP
 70
    64
  9
$PLIMCHECK
 70
     0
  9
$PEXTMIN
 10
1.0000000000000000E+020
 20
1.0000000000000000E+020
 30
1.0000000000000000E+020
  9
$PEXTMAX
 10
-1.0000000000000000E+020
 20
-1.0000000000000000E+020
 30
-1.0000000000000000E+020
  9
$PLIMMIN
 10
0.0
 20
0.0
  9
$PLIMMAX
 10
420.0
 20
297.0
  9
$UNITMODE
 70
     0
  9
$VISRETAIN
 70
     1
  9
$PLINEGEN
 70
     0
  9
$PSLTSCALE
 70
     1
  0
ENDSEC
  0
SECTION
  2
TABLES
  0
TABLE
  2
VPORT
 70
     1
  0
VPORT
  2
*ACTIVE
 70
     0
 10
0.0
 20
0.0
 11
1.0
 21
1.0
 12
827.12766660240891
 22
745.05596067970191
 13
0.0
 23
0.0
 14
15.0
 24
15.0
 15
60.0
 25
60.0
 16
0.0
 26
0.0
 36
1.0
 17
0.0
 27
0.0
 37
0.0
 40
925.46921945754445
 41
1.7571592210767459
 42
50.0
 43
0.0
 44
0.0
 50
0.0
 51
0.0
 71
     0
 72
   100
 73
     1
 74
     3
 75
     0
 76
     0
 77
     0
 78
     0
  0
ENDTAB
  0
TABLE
  2
LTYPE
 70
    26
  0
LTYPE
  2
CONTINUOUS
 70
     0
  3
Solid line
 72
    65
 73
     0
 40
0.0
  0
LTYPE
  2
AM_ISO02W050
 70
     0
  3
__ __ __ __ __ __ __ __ __ __ __ __ __ __ __
 72
    65
 73
     2
 40
7.5
 49
6.0
 49
-1.5
  0
LTYPE
  2
AM_ISO08W050
 70
     0
  3
____ . ____ . ____ . ____ . ____ . ____ . ____
 72
    65
 73
     4
 40
18.0
 49
12.0
 49
-1.5
 49
3.0
 49
-1.5
  0
LTYPE
  2
AM_ISO09W050
 70
     0
  3
_____ . . _____ . . _____ . . ____ .. ____
 72
    65
 73
     6
 40
22.5
 49
12.0
 49
-1.5
 49
3.0
 49
-1.5
 49
3.0
 49
-1.5
  0
LTYPE
  2
AMCONSTR
 70
     0
  3
_______________________
 72
    65
 73
     2
 40
9999.0
 49
9999.0
 49
0.0
  0
LTYPE
  2
AM_ISO08W050X2
 70
     0
  3
__ . __ . __ . __ . __ . __
 72
    65
 73
     4
 40
9.0
 49
6.0
 49
-0.75
 49
1.5
 49
-0.75
  0
LTYPE
  2
AM_ISO02W050X2
 70
     0
  3
 _ _ _ _ _ _ _ _ _ _ _ _
 72
    65
 73
     2
 40
3.75
 49
3.0
 49
-0.75
  0
LTYPE
  2
AMZIGZAG
 70
     0
  3
/\/-/\/-/\/-/\/-/\/-/\/
 72
    65
 73
     2
 40
11.000099999999991
 49
0.0001
 49
-11.0
  0
LTYPE
  2
ACISOWELD
 70
     0
  3
_ _ _ _ _
 72
    65
 73
     2
 40
2.0
 49
2.0
 49
-1.0
  0
LTYPE
  2
ACISOTGB
 70
     0
  3
__ . . __ . .
 72
    65
 73
     6
 40
9.0
 49
4.0
 49
-1.0
 49
1.0
 49
-1.0
 49
1.0
 49
-1.0
  0
LTYPE
  2
ACISOTGL
 70
     0
  3
_ _ _ _ _
 72
    65
 73
     2
 40
3.0
 49
2.0
 49
-1.0
  0
LTYPE
  2
CENTER
 70
     0
  3
__ . __
 72
    65
 73
     4
 40
7.0
 49
4.0
 49
-1.0
 49
1.0
 49
-1.0
  0
LTYPE
  2
PHANTOM2
 70
     0
  3
Phantom (.5x) ___ _ _ ___ _ _ ___ _ _ ___ _ _
 72
    65
 73
     6
 40
31.75
 49
15.875
 49
-3.174999999999998
 49
3.174999999999998
 49
-3.174999999999998
 49
3.174999999999998
 49
-3.174999999999998
  0
LTYPE
  2
ACANSTGBM
 70
     0
  3
__ . . __ . .
 72
    65
 73
     6
 40
9.0
 49
4.0
 49
-1.0
 49
1.0
 49
-1.0
 49
1.0
 49
-1.0
  0
LTYPE
  2
ACANSTGLM
 70
     0
  3
_ _ _ _ _
 72
    65
 73
     2
 40
3.0
 49
2.0
 49
-1.0
  0
LTYPE
  2
GEN7
 70
     0
  3
____ . ____ . ____ . ____ . ____ . ____ . ____
 72
    65
 73
     4
 40
14.25
 49
9.75
 49
-1.5
 49
1.5
 49
-1.5
  0
LTYPE
  2
GEN7A
 70
     0
  3
__ . __ . __
 72
    65
 73
     4
 40
7.375
 49
4.75
 49
-0.875
 49
0.875
 49
-0.875
  0
LTYPE
  2
ACJISTGB
 70
     0
  3
__ . . __ . .
 72
    65
 73
     6
 40
9.0
 49
4.0
 49
-1.0
 49
1.0
 49
-1.0
 49
1.0
 49
-1.0
  0
LTYPE
  2
ACJISTGL
 70
     0
  3
_ _ _ _ _
 72
    65
 73
     2
 40
3.0
 49
2.0
 49
-1.0
  0
LTYPE
  2
HIDDEN
 70
     0
  3
Hidden __ __ __ __ __ __ __ __ __ __ __ __ __ _
 72
    65
 73
     2
 40
0.375
 49
0.25
 49
-0.125
  0
LTYPE
  2
CENTER2
 70
     0
  3
Center (.5x) ___ _ ___ _ ___ _ ___ _ ___ _ ___
 72
    65
 73
     4
 40
1.125
 49
0.75
 49
-0.125
 49
0.125
 49
-0.125
  0
LTYPE
  2
HIDDEN2
 70
     0
  3
Hidden (.5x) _ _ _ _ _ _ _ _ _ _ _ _ _ _ _ _ _
 72
    65
 73
     2
 40
0.1875
 49
0.125
 49
-0.0625
  0
LTYPE
  2
AMZIGZAG2
 70
     0
  3
/\/-/\/-/\/-/\/-/\/-/\/
 72
    65
 73
     2
 40
0.4401
 49
0.0001
 49
-0.4400000000000002
  0
LTYPE
  2
ACANSTGB
 70
     0
  3
__ . . __ . .
 72
    65
 73
     6
 40
0.35433070866
 49
0.15748031496
 49
-0.03937007874
 49
0.03937007874
 49
-0.03937007874
 49
0.03937007874
 49
-0.03937007874
  0
LTYPE
  2
ACANSTGL
 70
     0
  3
_ _ _ _ _
 72
    65
 73
     2
 40
0.11811023622
 49
0.07874015748
 49
-0.03937007874
  0
ENDTAB
  0
TABLE
  2
LAYER
 70
     6
  0
LAYER
  2
0
 70
     0
 62
     7
  6
CONTINUOUS
  0
LAYER
  2
AM_0
 70
     0
 62
     7
  6
CONTINUOUS
  0
LAYER
  2
AM_5
 70
     0
 62
     2
  6
CONTINUOUS
  0
LAYER
  2
DEFPOINTS
 70
     0
 62
     7
  6
CONTINUOUS
  0
LAYER
  2
ﾁｭｳｼﾝｾﾝ
 70
     0
 62
     1
  6
GEN7
  0
LAYER
  2
ﾁｭｳｼﾝｾﾝ1
 70
     0
 62
     1
  6
GEN7A
  0
ENDTAB
  0
TABLE
  2
STYLE
 70
     9
  0
STYLE
  2
STANDARD
 70
     0
 40
0.0
 41
0.8299999999999999
 50
0.0
 71
     0
 42
2.5
  3
txt.shx
  4
bigfont.shx
  0
STYLE
  2
ANNOTATIVE
 70
     0
 40
0.0
 41
1.0
 50
0.0
 71
     0
 42
0.2
  3
txt
  4

  0
STYLE
  2

 70
     1
 40
0.0
 41
1.0
 50
0.0
 71
     0
 42
2.5
  3
ltypeshp.shx
  4

  0
STYLE
  2
ACISOTS
 70
     0
 40
1.0
 41
1.0
 50
0.0
 71
     0
 42
2.5
  3
isocp.shx
  4
extfont.shx
  0
STYLE
  2
ACISOGDT
 70
     0
 40
0.0
 41
1.0
 50
0.0
 71
     0
 42
2.5
  3
amgdt.shx
  4

  0
STYLE
  2
ACANSTS
 70
     0
 40
1.0
 41
1.0
 50
0.0
 71
     0
 42
2.5
  3
romans.shx
  4
bigfont.shx
  0
STYLE
  2
ACANSGDT
 70
     0
 40
0.0
 41
1.0
 50
0.0
 71
     0
 42
2.5
  3
amgdt.shx
  4

  0
STYLE
  2
ACJISTS
 70
     0
 40
1.0
 41
1.0
 50
0.0
 71
     0
 42
2.5
  3
isocp.shx
  4
bigfont.shx
  0
STYLE
  2
ACJISGDT
 70
     0
 40
0.0
 41
1.0
 50
0.0
 71
     0
 42
2.5
  3
amgdt.shx
  4

  0
ENDTAB
  0
TABLE
  2
VIEW
 70
     6
  0
VIEW
  2
AM_VIEW1
 70
     0
 40
555.00000000000011
 10
499.2955801104971
 20
832.50000000000011
 41
998.59116022099431
 11
0.0
 21
0.0
 31
1.0
 12
0.0
 22
0.0
 32
0.0
 42
50.0
 43
0.0
 44
0.0
 50
0.0
 71
     0
  0
VIEW
  2
AM_VIEW2
 70
     0
 40
555.00000000000011
 10
1207.704419889501
 20
832.50000000000011
 41
998.59116022099431
 11
0.0
 21
0.0
 31
1.0
 12
0.0
 22
0.0
 32
0.0
 42
50.0
 43
0.0
 44
0.0
 50
0.0
 71
     0
  0
VIEW
  2
AM_VIEW3
 70
     0
 40
555.00000000000011
 10
499.2955801104971
 20
277.49999999999989
 41
998.59116022099431
 11
0.0
 21
0.0
 31
1.0
 12
0.0
 22
0.0
 32
0.0
 42
50.0
 43
0.0
 44
0.0
 50
0.0
 71
     0
  0
VIEW
  2
AM_VIEW4
 70
     0
 40
555.00000000000011
 10
1207.704419889501
 20
277.49999999999989
 41
998.59116022099431
 11
0.0
 21
0.0
 31
1.0
 12
0.0
 22
0.0
 32
0.0
 42
50.0
 43
0.0
 44
0.0
 50
0.0
 71
     0
  0
VIEW
  2
AM_VIEW5
 70
     0
 40
555.00000000000011
 10
853.5
 20
555.00000000000011
 41
998.59116022099431
 11
0.0
 21
0.0
 31
1.0
 12
0.0
 22
0.0
 32
0.0
 42
50.0
 43
0.0
 44
0.0
 50
0.0
 71
     0
  0
VIEW
  2
AM_VIEW6
 70
     0
 40
1109.9889000000001
 10
853.5
 20
555.0
 41
1997.162348618785
 11
0.0
 21
0.0
 31
1.0
 12
0.0
 22
0.0
 32
0.0
 42
50.0
 43
0.0
 44
0.0
 50
0.0
 71
     0
  0
ENDTAB
  0
TABLE
  2
UCS
 70
     0
  0
ENDTAB
  0
TABLE
  2
APPID
 70
    95
  0
APPID
  2
ACAD
 70
     0
  0
APPID
  2
ACADANNOTATIVE
 70
     0
  0
APPID
  2
MCAD_NO_VIS
 70
     0
  0
APPID
  2
ACAD_TEMP_GRAPHIC
 70
     0
  0
APPID
  2
ACATTRIBSERVICES
 70
     0
  0
APPID
  2
GENIUS_GENREC_14
 70
     0
  0
APPID
  2
GENIUS_GENOBJ-N-REC_13
 70
     0
  0
APPID
  2
GENIUS_GENODEF_13
 70
     0
  0
APPID
  2
GENIUS_GENOLIS_13
 70
     0
  0
APPID
  2
GENIUS_GENOBJ-N-TIT_13
 70
     0
  0
APPID
  2
GENIUS_GENOENT_13
 70
     0
  0
APPID
  2
GENIUS_GENTITLE_13
 70
     0
  0
APPID
  2
GENIUS_GENOREF_13
 70
     0
  0
APPID
  2
GENIUS_GENSCREG_15
 70
     0
  0
APPID
  2
GENIUS_GENOBJ-N-SDF_13
 70
     0
  0
APPID
  2
GENIUS_GENFIL_13
 70
     0
  0
APPID
  2
GENIUS_GENOBJ-N-CHA_13
 70
     0
  0
APPID
  2
GENIUS_GENDTOL_13
 70
     0
  0
APPID
  2
GENIUS_GENOBJ-N-FIL_13
 70
     0
  0
APPID
  2
AD_DRAW
 70
     0
  0
APPID
  2
DESIGNERASSEMBLIES
 70
     0
  0
APPID
  2
ASURF_PCURVE_APPNAME
 70
     0
  0
APPID
  2
GENIUS_GE3SECT_13
 70
     0
  0
APPID
  2
GENIUS_GENCFG_13
 70
     0
  0
APPID
  2
GENIUS_GE3CFG0_13
 70
     0
  0
APPID
  2
GENIUS_GENCFG0_13
 70
     0
  0
APPID
  2
GENIUS_GENCFG1_13
 70
     0
  0
APPID
  2
GENIUS_GENCFG2_13
 70
     0
  0
APPID
  2
GENIUS_GENCFG3_13
 70
     0
  0
APPID
  2
GENIUS_GENCFG4_13
 70
     0
  0
APPID
  2
GENIUS_GEVCFG0_13
 70
     0
  0
APPID
  2
GENIUS_GENHINW_13
 70
     0
  0
APPID
  2
GENIUS_FIRSTVISTXT_14
 70
     0
  0
APPID
  2
GENIUS_GENOBJ-N-LEADER_13
 70
     0
  0
APPID
  2
GEV_VCCNULL_SWITCH_OFF
 70
     0
  0
APPID
  2
GENIUS_GEFCFG0_13
 70
     0
  0
APPID
  2
GENIUS_GENZVEED_13
 70
     0
  0
APPID
  2
GENIUS_GENSCREG_13
 70
     0
  0
APPID
  2
GENIUS_DUMCFG0_13
 70
     0
  0
APPID
  2
GEVID936201362
 70
     0
  0
APPID
  2
GEVDC
 70
     0
  0
APPID
  2
GEVCON
 70
     0
  0
APPID
  2
VCC
 70
     0
  0
APPID
  2
GEVPT
 70
     0
  0
APPID
  2
GEVIT
 70
     0
  0
APPID
  2
GENBH
 70
     0
  0
APPID
  2
GEVMK
 70
     0
  0
APPID
  2
GENIUS_GENBH_13
 70
     0
  0
APPID
  2
GENIUS_GENOBJ-NBEHI-BHF_13
 70
     0
  0
APPID
  2
GENIUS_GENOBJ-NBEHI-BHB_13
 70
     0
  0
APPID
  2
GENIUS_GENOBJ-F-DESC_13
 70
     0
  0
APPID
  2
GENIUS_GEFDESC_14
 70
     0
  0
APPID
  2
GENIUS_GENOBJ-F-PART_13
 70
     0
  0
APPID
  2
GENIUS_GEFSTDP_13
 70
     0
  0
APPID
  2
GENIUS_GEFPARTINS_13
 70
     0
  0
APPID
  2
GENIUS_GENTRA_14
 70
     0
  0
APPID
  2
GENIUS_GENINF13_13
 70
     0
  0
APPID
  2
GENIUS_GENOBJ-N-INFOPT_13
 70
     0
  0
APPID
  2
GENIUS_GENOBJ-N-RSSYM_13
 70
     0
  0
APPID
  2
GENIUS_GENSYMENT_13
 70
     0
  0
APPID
  2
GENIUS_GENSCSYM_13
 70
     0
  0
APPID
  2
GENIUS_GEFINFNAM_13
 70
     0
  0
APPID
  2
GENIUS_GENOBJ-N-CEN_13
 70
     0
  0
APPID
  2
GENIUS_GENOBJ-N-CRS_13
 70
     0
  0
APPID
  2
GENIUS_GENOBJ-N-CRC_13
 70
     0
  0
APPID
  2
GENIUS_GENCRC_14
 70
     0
  0
APPID
  2
GEVID942827039
 70
     0
  0
APPID
  2
GEVID942827040
 70
     0
  0
APPID
  2
GEVID942827041
 70
     0
  0
APPID
  2
GENIUS_GENOBJ-F-SCPASSM_13
 70
     0
  0
APPID
  2
GENIUS_GENDIMSH_14
 70
     0
  0
APPID
  2
GEVID942827042
 70
     0
  0
APPID
  2
GEVID946020473
 70
     0
  0
APPID
  2
GEVID946020474
 70
     0
  0
APPID
  2
GEVID946020475
 70
     0
  0
APPID
  2
GENIUS_GENOBJ-N-HTC_13
 70
     0
  0
APPID
  2
GENIUS_GENHATCH_13
 70
     0
  0
APPID
  2
GEVID948854295
 70
     0
  0
APPID
  2
GEVID939402019
 70
     0
  0
APPID
  2
GEVID952919491
 70
     0
  0
APPID
  2
GEVID952919492
 70
     0
  0
APPID
  2
GENIUS_GEFWELD_13
 70
     0
  0
APPID
  2
GENIUS_GENOBJ-F-WELS_13
 70
     0
  0
APPID
  2
GEVID952919493
 70
     0
  0
APPID
  2
GENIUS_GENOBJ-N-RSBK_13
 70
     0
  0
APPID
  2
GENIUS_GENOBJ-N-LIB_13
 70
     0
  0
APPID
  2
GENIUS_GENSCALE_13
 70
     0
  0
APPID
  2
GEVID986376691
 70
     0
  0
APPID
  2
DCO15
 70
     0
  0
APPID
  2
ACAD_DSTYLE_DIMBREAK
 70
     0
  0
APPID
  2
ACAD_DSTYLE_DIMJAG
 70
     0
  0
APPID
  2
ACAD_NAV_VCDISPLAY
 70
     0
  0
APPID
  2
ACADANNOPO
 70
     0
  0
APPID
  2
ACAD_EXEMPT_FROM_CAD_STANDARDS
 70
     0
  0
APPID
  2
ACAD_MLEADERVER
 70
     0
  0
ENDTAB
  0
TABLE
  2
DIMSTYLE
 70
    22
  0
DIMSTYLE
  2
STANDARD
 70
     0
  3

  4

  5

  6

  7

 40
1.0
 41
0.18
 42
0.0625
 43
0.38
 44
0.18
 45
0.0
 46
0.0
 47
0.0
 48
0.0
140
0.18
141
0.09
142
0.0
143
25.399999999999999
144
1.0
145
0.0
146
1.0
147
0.09
 71
     0
 72
     0
 73
     1
 74
     1
 75
     0
 76
     0
 77
     0
 78
     0
170
     0
171
     2
172
     0
173
     0
174
     0
175
     0
176
     0
177
     0
178
     0
  0
DIMSTYLE
  2
ANNOTATIVE
 70
     0
  3

  4

  5

  6

  7

 40
1.0
 41
0.18
 42
0.0625
 43
0.38
 44
0.18
 45
0.0
 46
0.0
 47
0.0
 48
0.0
140
0.18
141
0.09
142
0.0
143
25.399999999999999
144
1.0
145
0.0
146
1.0
147
0.09
 71
     0
 72
     0
 73
     1
 74
     1
 75
     0
 76
     0
 77
     0
 78
     0
170
     0
171
     2
172
     0
173
     0
174
     0
175
     0
176
     0
177
     0
178
     0
  0
DIMSTYLE
  2
AM_ISO
 70
     0
  3

  4
"
  5

  6

  7

 40
1.0
 41
2.5
 42
1.0
 43
8.0
 44
0.6
 45
0.0
 46
0.0
 47
0.1
 48
0.1
140
2.5
141
0.0
142
0.0
143
0.0393701
144
1.0
145
0.0
146
0.71
147
0.8
 71
     0
 72
     0
 73
     0
 74
     0
 75
     0
 76
     0
 77
     1
 78
     8
170
     0
171
     2
172
     1
173
     0
174
     0
175
     0
176
   256
177
   256
178
     4
  0
DIMSTYLE
  2
AM_ISO$3
 70
     0
  3

  4
"
  5

  6

  7

 40
1.0
 41
2.5
 42
1.0
 43
8.0
 44
0.6
 45
0.0
 46
0.0
 47
0.1
 48
0.1
140
2.5
141
0.0
142
0.0
143
0.0393701
144
1.0
145
0.0
146
0.71
147
0.8
 71
     0
 72
     0
 73
     0
 74
     1
 75
     0
 76
     0
 77
     1
 78
     8
170
     0
171
     2
172
     0
173
     0
174
     0
175
     0
176
   256
177
   256
178
     4
  0
DIMSTYLE
  2
AM_ISO$4
 70
     0
  3

  4
"
  5

  6

  7

 40
1.0
 41
2.5
 42
1.0
 43
8.0
 44
0.6
 45
0.0
 46
0.0
 47
0.1
 48
0.1
140
2.5
141
0.0
142
0.0
143
0.0393701
144
1.0
145
0.0
146
0.71
147
0.8
 71
     0
 72
     0
 73
     0
 74
     1
 75
     0
 76
     0
 77
     1
 78
     8
170
     0
171
     2
172
     0
173
     0
174
     0
175
     0
176
   256
177
   256
178
     4
  0
DIMSTYLE
  2
AM_ISO$6
 70
     0
  3

  4
"
  5

  6

  7

 40
1.0
 41
2.5
 42
1.0
 43
8.0
 44
0.6
 45
0.0
 46
0.0
 47
0.1
 48
0.1
140
2.5
141
0.0
142
0.0
143
0.0393701
144
1.0
145
0.0
146
0.71
147
0.8
 71
     0
 72
     0
 73
     0
 74
     0
 75
     0
 76
     0
 77
     0
 78
     8
170
     0
171
     2
172
     1
173
     0
174
     0
175
     0
176
   256
177
   256
178
     4
  0
DIMSTYLE
  2
AM_ISO$7
 70
     0
  3

  4
"
  5

  6

  7

 40
1.0
 41
2.5
 42
1.0
 43
8.0
 44
0.6
 45
0.0
 46
0.0
 47
0.1
 48
0.1
140
2.5
141
0.0
142
0.0
143
0.0393701
144
1.0
145
0.0
146
0.71
147
0.8
 71
     0
 72
     0
 73
     0
 74
     0
 75
     0
 76
     0
 77
     1
 78
     8
170
     0
171
     2
172
     1
173
     0
174
     0
175
     0
176
   256
177
   256
178
     4
  0
DIMSTYLE
  2
AM_ISO$SF
 70
     0
  3

  4
"
  5

  6

  7

 40
1.0
 41
2.5
 42
1.0
 43
10.0
 44
1.0
 45
0.0
 46
0.0
 47
0.1
 48
0.1
140
3.5
141
0.0
142
0.0
143
0.0393701
144
1.0
145
0.0
146
0.71
147
1.5
 71
     0
 72
     0
 73
     0
 74
     0
 75
     1
 76
     1
 77
     1
 78
     8
170
     0
171
     2
172
     1
173
     0
174
     0
175
     0
176
   256
177
   256
178
     2
  0
DIMSTYLE
  2
AM_ISO$SH
 70
     0
  3

  4
"
  5

  6

  7

 40
1.0
 41
2.5
 42
1.0
 43
10.0
 44
1.0
 45
0.0
 46
0.0
 47
0.1
 48
0.1
140
3.5
141
0.0
142
0.0
143
0.0393701
144
2.0
145
0.0
146
0.71
147
1.5
 71
     0
 72
     0
 73
     0
 74
     0
 75
     1
 76
     1
 77
     1
 78
     8
170
     0
171
     2
172
     1
173
     1
174
     0
175
     0
176
   256
177
   256
178
     2
  0
DIMSTYLE
  2
AM_JIS
 70
     0
  3

  4
"
  5

  6

  7

 40
1.0
 41
2.5
 42
1.0
 43
7.0
 44
1.0
 45
0.0
 46
0.0
 47
0.1
 48
0.1000000001
140
2.5
141
0.0
142
0.0
143
0.0393701
144
1.0
145
0.0
146
0.71
147
1.0
 71
     0
 72
     0
 73
     0
 74
     0
 75
     0
 76
     0
 77
     3
 78
     8
170
     0
171
     2
172
     1
173
     0
174
     0
175
     0
176
   256
177
   256
178
     4
  0
DIMSTYLE
  2
AM_JIS$3
 70
     0
  3

  4
"
  5

  6

  7

 40
1.0
 41
2.5
 42
1.0
 43
7.0
 44
1.0
 45
0.0
 46
0.0
 47
0.1
 48
0.1000000001
140
2.5
141
0.0
142
0.0
143
0.0393701
144
1.0
145
0.0
146
0.71
147
1.0
 71
     0
 72
     0
 73
     0
 74
     1
 75
     0
 76
     0
 77
     3
 78
     8
170
     0
171
     2
172
     0
173
     0
174
     0
175
     0
176
   256
177
   256
178
     4
  0
DIMSTYLE
  2
AM_JIS$4
 70
     0
  3

  4
"
  5

  6

  7

 40
1.0
 41
2.5
 42
1.0
 43
7.0
 44
1.0
 45
0.0
 46
0.0
 47
0.1
 48
0.1000000001
140
2.5
141
0.0
142
0.0
143
0.0393701
144
1.0
145
0.0
146
0.71
147
1.0
 71
     0
 72
     0
 73
     0
 74
     0
 75
     0
 76
     0
 77
     3
 78
     8
170
     0
171
     2
172
     0
173
     0
174
     0
175
     0
176
   256
177
   256
178
     4
  0
DIMSTYLE
  2
AM_JIS$6
 70
     0
  3

  4
"
  5

  6

  7

 40
1.0
 41
2.5
 42
1.0
 43
7.0
 44
1.0
 45
0.0
 46
0.0
 47
0.1
 48
0.1000000001
140
2.5
141
0.0
142
0.0
143
0.0393701
144
1.0
145
0.0
146
0.71
147
1.0
 71
     0
 72
     0
 73
     0
 74
     0
 75
     0
 76
     0
 77
     0
 78
     8
170
     0
171
     2
172
     1
173
     0
174
     0
175
     0
176
   256
177
   256
178
     4
  0
DIMSTYLE
  2
AM_JIS$7
 70
     0
  3

  4
"
  5

  6

  7

 40
1.0
 41
2.5
 42
1.0
 43
7.0
 44
1.0
 45
0.0
 46
0.0
 47
0.1
 48
0.1000000001
140
2.5
141
0.0
142
0.0
143
0.0393701
144
1.0
145
0.0
146
0.71
147
1.0
 71
     0
 72
     0
 73
     0
 74
     0
 75
     0
 76
     0
 77
     3
 78
     8
170
     0
171
     2
172
     1
173
     0
174
     0
175
     0
176
   256
177
   256
178
     4
  0
DIMSTYLE
  2
AM_JIS$SF
 70
     0
  3

  4
"
  5

  6

  7

 40
1.0
 41
2.5
 42
1.0
 43
10.0
 44
1.0
 45
0.0
 46
0.0
 47
0.1
 48
0.1
140
3.5
141
0.0
142
0.0
143
0.0393701
144
1.0
145
0.0
146
0.71
147
1.5
 71
     0
 72
     0
 73
     0
 74
     0
 75
     1
 76
     1
 77
     3
 78
     8
170
     0
171
     2
172
     1
173
     0
174
     0
175
     0
176
   256
177
   256
178
     4
  0
DIMSTYLE
  2
AM_JIS$SH
 70
     0
  3

  4
"
  5

  6

  7

 40
1.0
 41
2.5
 42
1.0
 43
10.0
 44
1.0
 45
0.0
 46
0.0
 47
0.1
 48
0.1
140
3.5
141
0.0
142
0.0
143
0.0393701
144
1.0
145
0.0
146
0.71
147
1.5
 71
     0
 72
     0
 73
     0
 74
     0
 75
     1
 76
     0
 77
     3
 78
     8
170
     0
171
     2
172
     1
173
     1
174
     0
175
     0
176
   256
177
   256
178
     4
  0
DIMSTYLE
  2
AM_ANSI
 70
     0
  3

  4
mm
  5

  6

  7

 40
1.0
 41
0.1
 42
0.05
 43
0.5
 44
0.1
 45
0.0
 46
0.0
 47
0.1
 48
0.1
140
0.12
141
0.0
142
0.0
143
25.399999999999999
144
1.0
145
0.0
146
0.71
147
0.06
 71
     0
 72
     0
 73
     1
 74
     1
 75
     0
 76
     0
 77
     0
 78
     7
170
     0
171
     2
172
     0
173
     0
174
     0
175
     0
176
   256
177
   256
178
     2
  0
DIMSTYLE
  2
AM_ANSI$3
 70
     0
  3

  4
mm
  5

  6

  7

 40
1.0
 41
0.1
 42
0.05
 43
0.5
 44
0.1
 45
0.0
 46
0.0
 47
0.1
 48
0.1
140
0.12
141
0.0
142
0.0
143
25.399999999999999
144
1.0
145
0.0
146
0.71
147
0.06
 71
     0
 72
     0
 73
     1
 74
     1
 75
     0
 76
     0
 77
     0
 78
     7
170
     0
171
     2
172
     0
173
     0
174
     0
175
     0
176
   256
177
   256
178
     2
  0
DIMSTYLE
  2
AM_ANSI$4
 70
     0
  3

  4
mm
  5

  6

  7

 40
1.0
 41
0.1
 42
0.05
 43
0.5
 44
0.1
 45
0.0
 46
0.0
 47
0.1
 48
0.1
140
0.12
141
0.0
142
0.0
143
25.399999999999999
144
1.0
145
0.0
146
0.71
147
0.06
 71
     0
 72
     0
 73
     1
 74
     1
 75
     0
 76
     0
 77
     0
 78
     7
170
     0
171
     2
172
     0
173
     0
174
     0
175
     0
176
   256
177
   256
178
     2
  0
DIMSTYLE
  2
AM_ANSI$7
 70
     0
  3

  4
mm
  5

  6

  7

 40
1.0
 41
0.1
 42
0.05
 43
0.5
 44
0.1
 45
0.0
 46
0.0
 47
0.1
 48
0.1
140
0.24
141
0.0
142
0.0
143
25.399999999999999
144
1.0
145
0.0
146
0.71
147
0.06
 71
     0
 72
     0
 73
     1
 74
     1
 75
     0
 76
     0
 77
     0
 78
     7
170
     0
171
     2
172
     0
173
     0
174
     0
175
     0
176
   256
177
   256
178
     2
  0
DIMSTYLE
  2
AM_ANSI$SF
 70
     0
  3

  4
mm
  5

  6

  7

 40
1.0
 41
0.1
 42
0.05
 43
0.5
 44
0.1
 45
0.0
 46
0.0
 47
0.1
 48
0.1
140
0.12
141
0.0
142
0.0
143
25.399999999999999
144
1.0
145
0.0
146
0.71
147
0.06
 71
     0
 72
     0
 73
     1
 74
     1
 75
     1
 76
     1
 77
     0
 78
     7
170
     0
171
     2
172
     0
173
     0
174
     0
175
     0
176
   256
177
   256
178
     2
  0
DIMSTYLE
  2
AM_ANSI$SH
 70
     0
  3

  4
mm
  5

  6

  7

 40
1.0
 41
0.1
 42
0.05
 43
0.5
 44
0.1
 45
0.0
 46
0.0
 47
0.1
 48
0.1
140
0.12
141
0.0
142
0.0
143
25.399999999999999
144
1.0
145
0.0
146
0.71
147
0.06
 71
     0
 72
     0
 73
     1
 74
     1
 75
     1
 76
     1
 77
     0
 78
     7
170
     0
171
     2
172
     0
173
     1
174
     0
175
     0
176
   256
177
   256
178
     2
  0
ENDTAB
  0
ENDSEC
  0
SECTION
  2
BLOCKS
  0
BLOCK
  8
0
  2
$MODEL_SPACE
 70
     0
 10
0.0
 20
0.0
 30
0.0
  3
$MODEL_SPACE
  1

  0
ENDBLK
  5
3289
  8
0
  0
BLOCK
 67
     1
  8
0
  2
$PAPER_SPACE
 70
     0
 10
0.0
 20
0.0
 30
0.0
  3
$PAPER_SPACE
  1

  0
ENDBLK
  5
3285
 67
     1
  8
0
  0
BLOCK
  8
0
  2
GENAXEH
 70
     0
 10
0.0
 20
0.0
 30
0.0
  3
GENAXEH
  1

  0
LINE
  5
2FFA
  8
0
 10
-1.0
 20
0.0
 30
0.0
 11
1.0
 21
0.0
 31
0.0
  0
ENDBLK
  5
2FFB
  8
0
  0
BLOCK
  8
0
  2
_OPEN30
 70
     0
 10
0.0
 20
0.0
 30
0.0
  3
_OPEN30
  1

  0
LINE
  5
2FFE
  8
0
 62
     0
 10
-1.0
 20
0.26794919
 30
0.0
 11
0.0
 21
0.0
 31
0.0
  0
LINE
  5
2FFF
  8
0
 62
     0
 10
0.0
 20
0.0
 30
0.0
 11
-1.0
 21
-0.26794919
 31
0.0
  0
LINE
  5
3000
  8
0
 62
     0
 10
0.0
 20
0.0
 30
0.0
 11
-1.0
 21
0.0
 31
0.0
  0
ENDBLK
  5
3001
  8
0
  0
BLOCK
  8
0
  2
_NONE
 70
     0
 10
0.0
 20
0.0
 30
0.0
  3
_NONE
  1

  0
ENDBLK
  5
3004
  8
0
  0
BLOCK
  8
0
  2
*U5
 70
     1
 10
0.0
 20
0.0
 30
0.0
  3
*U5
  1

  0
TEXT
  5
3007
  8
AM_0
 62
     4
 10
1185.0951354125241
 20
785.09327658244001
 30
0.0
 40
15.0
  1
o
 41
0.8299999999999999
  0
TEXT
  5
3008
  8
AM_0
 62
     4
 10
1199.9165639839539
 20
785.09327658244001
 30
0.0
 40
15.0
  1
 370
 41
0.8299999999999999
  0
ENDBLK
  5
3009
  8
0
  0
BLOCK
  8
0
  2
*U6
 70
     1
 10
0.0
 20
0.0
 30
0.0
  3
*U6
  1

  0
TEXT
  5
300C
  8
AM_0
 62
     4
 10
899.51895997706652
 20
484.37550197647772
 30
0.0
 40
15.0
  1
\U+2205
 50
90.0
 41
0.8299999999999999
  0
TEXT
  5
300D
  8
AM_0
 62
     4
 10
899.51895997706652
 20
496.8255019764776
 30
0.0
 40
15.0
  1
310
 50
90.0
 41
0.8299999999999999
  0
TEXT
  5
300E
  8
AM_0
 62
     4
 10
899.51895997706652
 20
527.95050197647765
 30
0.0
 40
12.0
  1
h7
 50
90.0
 41
0.8299999999999999
  0
ENDBLK
  5
300F
  8
0
  0
BLOCK
  8
0
  2
_ACMFILLEDHALF
 70
     0
 10
0.0
 20
0.0
 30
0.0
  3
_ACMFILLEDHALF
  1

  0
TRACE
  5
3383
  8
AM_0
 62
     0
 10
-0.8
 20
0.0
 30
0.0
 11
-1.0
 21
0.166666666
 31
0.0
 12
0.0
 22
0.0
 32
0.0
 13
0.0
 23
0.0
 33
0.0
  0
LINE
  5
3384
  8
AM_0
 62
     0
 10
-1.0
 20
0.0
 30
0.0
 11
-0.8
 21
0.0
 31
0.0
  0
ENDBLK
  5
3382
  8
0
  0
ENDSEC
  0
SECTION
  2
ENTITIES
  0
LINE
  5
3010
  8
AM_0
 10
460.29528102430572
 20
566.5450154764776
 30
0.0
 11
460.29528102430572
 21
550.98866647647765
 31
0.0
  0
LINE
  5
3011
  8
AM_0
 10
433.83172702430591
 20
563.0746044764777
 30
0.0
 11
432.2151390243057
 21
550.97196647647775
 31
0.0
  0
LINE
  5
3012
  8
AM_0
 10
434.29528102430572
 20
550.98866647647765
 30
0.0
 11
434.29528102430572
 21
561.73471547647762
 31
0.0
  0
LINE
  5
3013
  8
AM_0
 10
440.50921902430571
 20
576.96431047647764
 30
0.0
 11
381.37867702430572
 21
527.34789547647779
 31
0.0
  0
LINE
  5
3014
  8
AM_0
 10
539.29523102430585
 20
643.84366447647756
 30
0.0
 11
539.29523102430585
 21
295.09277947647757
 31
0.0
  0
LINE
  5
3015
  8
AM_0
 10
519.29523102430585
 20
594.65671447647765
 30
0.0
 11
519.29523102430585
 21
334.36360947647762
 31
0.0
  0
LINE
  5
3016
  8
AM_0
 10
475.29523102430568
 20
584.46301447647761
 30
0.0
 11
475.29523102430568
 21
348.4629894764775
 31
0.0
  0
LINE
  5
3017
  8
AM_0
 10
462.29528102430572
 20
586.46301447647761
 30
0.0
 11
462.29528102430572
 21
346.46298947647767
 31
0.0
  0
LINE
  5
3018
  8
AM_0
 10
697.79523102430585
 20
699.46306447647771
 30
0.0
 11
697.79523102430585
 21
329.46298947647762
 31
0.0
  0
LINE
  5
3019
  8
AM_0
 10
681.79523102430585
 20
661.0219144764776
 30
0.0
 11
681.79523102430585
 21
367.9041244764777
 31
0.0
  0
LINE
  5
301A
  8
AM_0
 10
672.79523102430585
 20
696.46301447647738
 30
0.0
 11
672.79523102430585
 21
456.52597947647757
 31
0.0
  0
LINE
  5
301B
  8
AM_0
 10
702.79523102430585
 20
359.46298947647767
 30
0.0
 11
702.79523102430585
 21
669.46301447647761
 31
0.0
  0
LINE
  5
301C
  8
AM_0
 10
559.29523102430585
 20
646.46301447647738
 30
0.0
 11
559.29523102430585
 21
292.46298947647762
 31
0.0
  0
LINE
  5
301D
  8
AM_0
 10
649.28968102430599
 20
606.90561447647758
 30
0.0
 11
672.53278102430556
 21
456.91986947647769
 31
0.0
  0
LINE
  5
301E
  8
ﾁｭｳｼﾝｾﾝ
 10
266.63862239561053
 20
466.4629944764776
 30
0.0
 11
514.81102855627978
 21
466.4629944764776
 31
0.0
  0
LINE
  5
301F
  8
AM_0
 10
279.79528102430578
 20
448.9629944764776
 30
0.0
 11
337.79528102430578
 21
448.9629944764776
 31
0.0
  0
LINE
  5
3020
  8
AM_0
 10
337.79528102430578
 20
483.96299447647772
 30
0.0
 11
279.79528102430578
 21
483.96299447647772
 31
0.0
  0
LINE
  5
3021
  8
AM_0
 10
279.79528102430578
 20
486.9629944764776
 30
0.0
 11
324.79528102430589
 21
486.9629944764776
 31
0.0
  0
LINE
  5
3022
  8
AM_0
 10
279.79528102430578
 20
483.96299447647772
 30
0.0
 11
279.79528102430578
 21
448.9629944764776
 31
0.0
  0
LINE
  5
3023
  8
AM_0
 10
279.79528102430578
 20
486.9629944764776
 30
0.0
 11
279.79528102430578
 21
483.96299447647772
 31
0.0
  0
ARC
  5
3024
  8
AM_0
 10
589.71443102430555
 20
363.92432447647758
 30
0.0
 40
8.5603475000000007
 50
90.000003000000007
 51
270.0
  0
LINE
  5
3025
  8
ﾁｭｳｼﾝｾﾝ
 10
820.38150460048212
 20
514.46299447647755
 30
0.0
 11
482.04487253345559
 21
514.46299447647755
 31
0.0
  0
LINE
  5
3026
  8
AM_0
 10
559.29528102430595
 20
292.46301947647771
 30
0.0
 11
622.82783102430585
 21
290.79935447647762
 31
0.0
  0
ARC
  5
3027
  8
AM_0
 10
437.8720020243058
 20
385.93732347647767
 30
0.0
 40
4.0
 50
186.39509300000049
 51
270.0
  0
LINE
  5
3028
  8
AM_0
 10
434.29528102430572
 20
381.93732347647767
 30
0.0
 11
434.29528102430572
 21
371.19127447647759
 31
0.0
  0
LINE
  5
3029
  8
AM_0
 10
433.83172702430591
 20
369.85138447647768
 30
0.0
 11
432.2151390243057
 21
381.95402247647769
 31
0.0
  0
LINE
  5
302A
  8
AM_0
 10
440.50921902430571
 20
355.96167847647769
 30
0.0
 11
381.37867702430572
 21
405.57809447647759
 31
0.0
  0
LINE
  5
302B
  8
AM_0
 10
460.29528102430572
 20
366.38097447647772
 30
0.0
 11
460.29528102430572
 21
414.38418147647758
 31
0.0
  0
LINE
  5
302C
  8
AM_0
 10
460.29528102430572
 20
366.38097447647772
 30
0.0
 11
437.79651402430591
 21
366.38097447647772
 31
0.0
  0
LINE
  5
302D
  8
AM_0
 10
446.29528102430572
 20
346.46299447647772
 30
0.0
 11
460.29528102430572
 21
346.46299447647772
 31
0.0
  0
LINE
  5
302E
  8
AM_0
 10
442.29528102430572
 20
350.46299447647772
 30
0.0
 11
442.29528102430572
 21
366.38097447647772
 31
0.0
  0
ARC
  5
302F
  8
AM_0
 10
437.29528102430572
 20
352.13145647647758
 30
0.0
 40
5.0
 50
0.0
 51
49.999999999999922
  0
ARC
  5
3030
  8
AM_0
 10
446.29528102430572
 20
350.46299447647772
 30
0.0
 40
4.0
 50
180.0
 51
270.0
  0
ARC
  5
3031
  8
AM_0
 10
437.79651402430591
 20
370.38097447647772
 30
0.0
 40
4.0
 50
187.60814799999741
 51
270.0
  0
ARC
  5
3032
  8
AM_0
 10
541.29528102430595
 20
295.09277947647757
 30
0.0
 40
2.0000000500000001
 50
179.99998999999991
 51
268.00000999999992
  0
LINE
  5
3033
  8
AM_0
 10
541.22548102430574
 20
293.09398447647749
 30
0.0
 11
559.29528102430595
 21
292.46298947647762
 31
0.0
  0
ARC
  5
3034
  8
AM_0
 10
514.29523102430585
 20
349.46298947647767
 30
0.0
 40
5.0
 50
0.0
 51
90.000003000000007
  0
ARC
  5
3035
  8
AM_0
 10
529.29523102430585
 20
334.36360947647762
 30
0.0
 40
10.0
 50
179.99998999999991
 51
235.23949999999999
  0
LINE
  5
3036
  8
AM_0
 10
477.29528102430572
 20
354.46298947647767
 30
0.0
 11
514.29523102430585
 21
354.46298947647767
 31
0.0
  0
LINE
  5
3037
  8
AM_0
 10
475.29523102430568
 20
379.78812447647772
 30
0.0
 11
519.29523102430585
 21
379.78812447647772
 31
0.0
  0
LINE
  5
3038
  8
AM_0
 10
462.29528102430572
 20
346.46298947647767
 30
0.0
 11
473.29523102430568
 21
346.46298947647767
 31
0.0
  0
LINE
  5
3039
  8
AM_0
 10
460.29528102430572
 20
346.46299447647772
 30
0.0
 11
462.29528102430572
 21
348.46299447647772
 31
0.0
  0
ARC
  5
303A
  8
AM_0
 10
477.29528102430572
 20
352.46298947647767
 30
0.0
 40
2.0000000500000001
 50
90.000003000000007
 51
180.00001
  0
ARC
  5
303B
  8
AM_0
 10
473.29523102430568
 20
348.4629894764775
 30
0.0
 40
2.0000000500000001
 50
270.0
 51
0.0
  0
LINE
  5
303C
  8
AM_0
 10
462.29528102430572
 20
366.73578947647758
 30
0.0
 11
475.29523102430568
 21
366.73578947647758
 31
0.0
  0
LINE
  5
303D
  8
AM_0
 10
460.29528102430572
 20
366.38097447647772
 30
0.0
 11
462.29528102430572
 21
368.38097447647772
 31
0.0
  0
LINE
  5
303E
  8
AM_0
 10
538.16938102430595
 20
314.4877394764776
 30
0.0
 11
523.59383102430593
 21
326.1481994764776
 31
0.0
  0
ARC
  5
303F
  8
AM_0
 10
536.29528102430606
 20
312.14513447647761
 30
0.0
 40
3.0000000500000001
 50
0.0
 51
51.340192999999999
  0
LINE
  5
3040
  8
AM_0
 10
446.29528102430572
 20
542.42519547647771
 30
0.0
 11
460.29528102430572
 21
542.42519547647771
 31
0.0
  0
LINE
  5
3041
  8
AM_0
 10
460.29528102430572
 20
550.98866647647765
 30
0.0
 11
437.8720020243058
 21
550.98866647647765
 31
0.0
  0
LINE
  5
3042
  8
AM_0
 10
447.54811302430602
 20
414.38418147647758
 30
0.0
 11
460.29528102430572
 21
414.38418147647758
 31
0.0
  0
LINE
  5
3043
  8
AM_0
 10
443.8302770243057
 20
420.83693147647767
 30
0.0
 11
458.65455702430592
 21
420.83693147647767
 31
0.0
  0
LINE
  5
3044
  8
AM_0
 10
442.29528102430572
 20
538.42519547647771
 30
0.0
 11
442.29528102430572
 21
381.93732347647767
 31
0.0
  0
LINE
  5
3045
  8
AM_0
 10
337.79528102430578
 20
486.4629944764776
 30
0.0
 11
337.79528102430578
 21
446.46299447647772
 31
0.0
  0
LINE
  5
3046
  8
AM_0
 10
343.79528102430572
 20
521.51490347647768
 30
0.0
 11
343.79528102430572
 21
411.41108647647758
 31
0.0
  0
LINE
  5
3047
  8
AM_0
 10
341.79528102430578
 20
501.4629944764776
 30
0.0
 11
341.79528102430578
 21
431.4629944764776
 31
0.0
  0
LINE
  5
3048
  8
AM_0
 10
378.66597202430597
 20
522.09023647647768
 30
0.0
 11
378.66597202430597
 21
410.50904747647758
 31
0.0
  0
LINE
  5
3049
  8
AM_0
 10
346.74292402430598
 20
408.41154347647762
 30
0.0
 11
375.12532502430571
 21
407.91612647647759
 31
0.0
  0
ARC
  5
304A
  8
AM_0
 10
346.79528102430572
 20
411.41108647647758
 30
0.0
 40
3.0
 50
180.0
 51
268.99999999999812
  0
ARC
  5
304B
  8
AM_0
 10
374.9508010243058
 20
397.91764947647772
 30
0.0
 40
10.0
 50
49.999999999999922
 51
89.000000000001506
  0
LINE
  5
304C
  8
AM_0
 10
337.79528102430578
 20
446.46299447647772
 30
0.0
 11
341.79528102430578
 21
446.46299447647772
 31
0.0
  0
LINE
  5
304D
  8
AM_0
 10
341.79528102430578
 20
431.4629944764776
 30
0.0
 11
343.79528102430572
 21
429.46299447647772
 31
0.0
  0
ARC
  5
304E
  8
AM_0
 10
429.18493202430568
 20
400.5984654764776
 30
0.0
 40
3.0
 50
6.3950930000004771
 51
71.538410999999911
  0
ARC
  5
304F
  8
AM_0
 10
429.2415490243061
 20
381.55683047647773
 30
0.0
 40
3.0
 50
7.6081479999975583
 51
68.357691000001253
  0
LINE
  5
3050
  8
AM_0
 10
431.86747302430598
 20
384.55683047647773
 30
0.0
 11
431.86747302430598
 21
399.34649947647767
 31
0.0
  0
LINE
  5
3051
  8
AM_0
 10
433.89689202430571
 20
385.49178847647772
 30
0.0
 11
432.16626502430603
 21
400.93261747647762
 31
0.0
  0
LINE
  5
3052
  8
AM_0
 10
442.29528102430572
 20
381.93732347647767
 30
0.0
 11
437.8720020243058
 21
381.93732347647767
 31
0.0
  0
LINE
  5
3053
  8
AM_0
 10
431.86747302430598
 20
403.5984654764776
 30
0.0
 11
441.75164502430601
 21
403.5984654764776
 31
0.0
  0
ARC
  5
3054
  8
AM_0
 10
446.29528102430572
 20
418.38418147647758
 30
0.0
 40
4.0
 50
180.0
 51
270.0
  0
LINE
  5
3055
  8
AM_0
 10
324.79528102430589
 20
486.9629944764776
 30
0.0
 11
324.79528102430589
 21
483.96299447647772
 31
0.0
  0
LINE
  5
3056
  8
AM_0
 10
341.79528102430578
 20
486.4629944764776
 30
0.0
 11
337.79528102430578
 21
486.4629944764776
 31
0.0
  0
LINE
  5
3057
  8
AM_0
 10
341.79528102430578
 20
501.4629944764776
 30
0.0
 11
343.79528102430572
 21
503.4629944764776
 31
0.0
  0
LINE
  5
3058
  8
AM_0
 10
346.74292402430598
 20
524.51444647647759
 30
0.0
 11
375.12532502430571
 21
525.00986247647779
 31
0.0
  0
ARC
  5
3059
  8
AM_0
 10
346.79528102430572
 20
521.51490347647768
 30
0.0
 40
3.0
 50
90.999999999998465
 51
180.0
  0
ARC
  5
305A
  8
AM_0
 10
374.9508010243058
 20
535.00833947647766
 30
0.0
 40
10.0
 50
270.99999999999841
 51
310.0
  0
LINE
  5
305B
  8
AM_0
 10
433.89689202430571
 20
547.4342014764776
 30
0.0
 11
432.16626502430603
 21
531.99337247647759
 31
0.0
  0
LINE
  5
305C
  8
AM_0
 10
431.86747302430598
 20
529.32752447647749
 30
0.0
 11
441.75164502430601
 21
529.32752447647749
 31
0.0
  0
ARC
  5
305D
  8
AM_0
 10
429.18493202430568
 20
532.32752447647761
 30
0.0
 40
3.0
 50
288.461589
 51
353.6049069999994
  0
ARC
  5
305E
  8
AM_0
 10
437.8720020243058
 20
546.98866647647776
 30
0.0
 40
4.0
 50
90.0
 51
173.60490699999951
  0
LINE
  5
305F
  8
AM_0
 10
431.86747302430598
 20
548.36915847647765
 30
0.0
 11
431.86747302430598
 21
533.57948947647765
 31
0.0
  0
ARC
  5
3060
  8
AM_0
 10
429.2415490243061
 20
551.36915847647765
 30
0.0
 40
3.0
 50
291.6423089999987
 51
352.3918520000023
  0
ARC
  5
3061
  8
AM_0
 10
446.29528102430572
 20
538.42519547647771
 30
0.0
 40
4.0
 50
90.0
 51
180.0
  0
LINE
  5
3062
  8
AM_0
 10
475.29523102430568
 20
395.53018947647769
 30
0.0
 11
519.29523102430585
 21
395.53018947647769
 31
0.0
  0
LINE
  5
3063
  8
AM_0
 10
462.29528102430572
 20
390.44629947647758
 30
0.0
 11
475.29523102430568
 21
390.44629947647758
 31
0.0
  0
LINE
  5
3064
  8
AM_0
 10
462.29528102430572
 20
382.29212447647768
 30
0.0
 11
475.29523102430568
 21
382.29212447647768
 31
0.0
  0
LINE
  5
3065
  8
AM_0
 10
460.29528102430572
 20
414.38418147647758
 30
0.0
 11
462.29528102430572
 21
416.38418147647758
 31
0.0
  0
LINE
  5
3066
  8
AM_0
 10
475.29523102430568
 20
553.13788947647765
 30
0.0
 11
519.29523102430585
 21
553.13788947647765
 31
0.0
  0
LINE
  5
3067
  8
AM_0
 10
475.29523102430568
 20
537.39582447647763
 30
0.0
 11
519.29523102430585
 21
537.39582447647763
 31
0.0
  0
LINE
  5
3068
  8
AM_0
 10
462.29528102430572
 20
550.63382947647744
 30
0.0
 11
475.29523102430568
 21
550.63382947647744
 31
0.0
  0
LINE
  5
3069
  8
AM_0
 10
462.29528102430572
 20
542.47968447647759
 30
0.0
 11
475.29523102430568
 21
542.47968447647759
 31
0.0
  0
LINE
  5
306A
  8
AM_0
 10
460.29528102430572
 20
550.98866647647765
 30
0.0
 11
462.29528102430572
 21
548.98866647647765
 31
0.0
  0
LINE
  5
306B
  8
AM_0
 10
627.79523102430585
 20
382.65973947647768
 30
0.0
 11
627.79523102430585
 21
346.53974447647749
 31
0.0
  0
LINE
  5
306C
  8
AM_0
 10
672.79523102430585
 20
402.67972947647769
 30
0.0
 11
672.79523102430585
 21
332.46298947647762
 31
0.0
  0
ARC
  5
306D
  8
AM_0
 10
626.17513102430576
 20
364.50595947647759
 30
0.0
 40
20.3124945
 50
90.000003000000007
 51
270.0
  0
LINE
  5
306E
  8
AM_0
 10
622.82783102430585
 20
290.7993394764776
 30
0.0
 11
689.79523102430585
 21
329.46298947647762
 31
0.0
  0
LINE
  5
306F
  8
AM_0
 10
626.17513102430576
 20
344.19345947647759
 30
0.0
 11
672.79523102430585
 21
344.19345947647759
 31
0.0
  0
LINE
  5
3070
  8
AM_0
 10
592.79523102430585
 20
370.8997594764777
 30
0.0
 11
592.79523102430585
 21
357.24973447647773
 31
0.0
  0
LINE
  5
3071
  8
AM_0
 10
589.71443102430555
 20
355.36395947647759
 30
0.0
 11
608.03613102430609
 21
355.36395947647759
 31
0.0
  0
LINE
  5
3072
  8
AM_0
 10
589.71443102430555
 20
372.48465947647759
 30
0.0
 11
607.49523102430612
 21
372.48465947647759
 31
0.0
  0
LINE
  5
3073
  8
AM_0
 10
697.79523102430585
 20
329.46298947647762
 30
0.0
 11
675.79523102430585
 21
329.46298947647762
 31
0.0
  0
ARC
  5
3074
  8
AM_0
 10
675.79523102430585
 20
332.46298947647762
 30
0.0
 40
3.0000000500000001
 50
179.99998999999991
 51
270.0
  0
ARC
  5
3075
  8
AM_0
 10
679.79528102430595
 20
367.9041244764777
 30
0.0
 40
2.0000000500000001
 50
270.0
 51
0.0
  0
ARC
  5
3076
  8
AM_0
 10
674.79528102430595
 20
363.9041244764777
 30
0.0
 40
2.0000000500000001
 50
90.000003000000007
 51
180.00001
  0
LINE
  5
3077
  8
AM_0
 10
674.79528102430595
 20
365.9041244764777
 30
0.0
 11
679.79528102430595
 21
365.9041244764777
 31
0.0
  0
LINE
  5
3078
  8
AM_0
 10
697.79523102430585
 20
359.46298947647767
 30
0.0
 11
702.79523102430585
 21
359.46298947647767
 31
0.0
  0
LINE
  5
3079
  8
AM_0
 10
707.79523102430585
 20
484.4629944764776
 30
0.0
 11
812.79528102430572
 21
484.4629944764776
 31
0.0
  0
LINE
  5
307A
  8
AM_0
 10
707.79523102430585
 20
544.46299447647755
 30
0.0
 11
812.79528102430572
 21
544.46299447647755
 31
0.0
  0
LINE
  5
307B
  8
AM_0
 10
626.17513102430576
 20
384.81848947647768
 30
0.0
 11
672.79523102430585
 21
384.81848947647768
 31
0.0
  0
ARC
  5
307C
  8
AM_0
 10
679.79528102430595
 20
405.8690894764776
 30
0.0
 40
2.0000000500000001
 50
270.0
 51
0.0
  0
LINE
  5
307D
  8
AM_0
 10
674.79528102430595
 20
403.8690894764776
 30
0.0
 11
679.79528102430595
 21
403.8690894764776
 31
0.0
  0
ARC
  5
307E
  8
AM_0
 10
679.79528102430595
 20
453.22620447647768
 30
0.0
 40
2.0000000500000001
 50
0.0
 51
90.000003000000007
  0
ARC
  5
307F
  8
AM_0
 10
673.79528102430606
 20
456.52597947647757
 30
0.0
 40
1.0
 50
179.99998999999991
 51
224.4439999999999
  0
ARC
  5
3080
  8
AM_0
 10
674.50918102430569
 20
457.22617447647758
 30
0.0
 40
2.0000000500000001
 50
188.809
 51
270.0
  0
LINE
  5
3081
  8
AM_0
 10
674.50918102430569
 20
455.22617447647758
 30
0.0
 11
679.79528102430595
 21
455.22617447647758
 31
0.0
  0
LINE
  5
3082
  8
AM_0
 10
707.79523102430585
 20
546.96299447647755
 30
0.0
 11
707.79523102430585
 21
481.9629944764776
 31
0.0
  0
LINE
  5
3083
  8
AM_0
 10
702.79523102430585
 20
481.9629944764776
 30
0.0
 11
707.79523102430585
 21
481.9629944764776
 31
0.0
  0
LINE
  5
3084
  8
AM_0
 10
702.79523102430585
 20
546.96299447647755
 30
0.0
 11
707.79523102430585
 21
546.96299447647755
 31
0.0
  0
LINE
  5
3085
  8
AM_0
 10
731.79523102430574
 20
548.4630244764777
 30
0.0
 11
812.79528102430572
 21
548.4630244764777
 31
0.0
  0
LINE
  5
3086
  8
AM_0
 10
731.79523102430574
 20
548.4630244764777
 30
0.0
 11
731.79523102430574
 21
544.46299447647755
 31
0.0
  0
LINE
  5
3087
  8
AM_0
 10
812.79528102430572
 20
548.4630244764777
 30
0.0
 11
812.79528102430572
 21
484.4629944764776
 31
0.0
  0
LINE
  5
3088
  8
AM_0
 10
559.29528102430595
 20
646.46301447647738
 30
0.0
 11
637.97168102430555
 21
648.52321447647762
 31
0.0
  0
LINE
  5
3089
  8
AM_0
 10
446.29528102430572
 20
597.46299447647755
 30
0.0
 11
458.29528102430572
 21
597.46299447647755
 31
0.0
  0
LINE
  5
308A
  8
AM_0
 10
443.03396102430571
 20
585.39416547647761
 30
0.0
 11
459.29626902430601
 21
585.39416547647761
 31
0.0
  0
LINE
  5
308B
  8
AM_0
 10
460.29528102430572
 20
566.5450154764776
 30
0.0
 11
437.79651402430591
 21
566.5450154764776
 31
0.0
  0
LINE
  5
308C
  8
AM_0
 10
442.29528102430572
 20
566.5450154764776
 30
0.0
 11
442.29528102430572
 21
593.46299447647755
 31
0.0
  0
ARC
  5
308D
  8
AM_0
 10
437.79651402430591
 20
562.5450154764776
 30
0.0
 40
4.0
 50
90.0
 51
172.39185199999591
  0
ARC
  5
308E
  8
AM_0
 10
437.29528102430572
 20
580.79453347647757
 30
0.0
 40
5.0
 50
310.0
 51
0.0
  0
ARC
  5
308F
  8
AM_0
 10
446.29528102430572
 20
593.46299447647755
 30
0.0
 40
4.0
 50
90.0
 51
180.0
  0
LINE
  5
3090
  8
AM_0
 10
526.29528102430595
 20
644.46301447647761
 30
0.0
 11
526.29528102430595
 21
607.46611447647774
 31
0.0
  0
ARC
  5
3091
  8
AM_0
 10
514.29523102430585
 20
583.4630144764775
 30
0.0
 40
5.0
 50
270.0
 51
0.0
  0
ARC
  5
3092
  8
AM_0
 10
529.29523102430585
 20
594.65671447647765
 30
0.0
 40
10.0
 50
128.65980999999991
 51
180.00001
  0
LINE
  5
3093
  8
AM_0
 10
477.29528102430572
 20
578.4630244764777
 30
0.0
 11
514.29523102430585
 21
578.4630244764777
 31
0.0
  0
LINE
  5
3094
  8
AM_0
 10
462.29528102430572
 20
566.19022947647761
 30
0.0
 11
475.29523102430568
 21
566.19022947647761
 31
0.0
  0
LINE
  5
3095
  8
AM_0
 10
460.29528102430572
 20
566.5450154764776
 30
0.0
 11
462.29528102430572
 21
564.54501547647772
 31
0.0
  0
LINE
  5
3096
  8
AM_0
 10
462.29528102430572
 20
586.46301447647761
 30
0.0
 11
473.29523102430568
 21
586.46301447647761
 31
0.0
  0
LINE
  5
3097
  8
AM_0
 10
460.29528102430572
 20
595.46299447647755
 30
0.0
 11
460.29528102430572
 21
586.46299447647755
 31
0.0
  0
LINE
  5
3098
  8
AM_0
 10
458.29528102430572
 20
597.46299447647755
 30
0.0
 11
460.29528102430572
 21
595.46299447647755
 31
0.0
  0
LINE
  5
3099
  8
AM_0
 10
460.29528102430572
 20
586.46299447647755
 30
0.0
 11
462.29528102430572
 21
584.46299447647755
 31
0.0
  0
ARC
  5
309A
  8
AM_0
 10
477.29528102430572
 20
580.46301447647761
 30
0.0
 40
2.0000000500000001
 50
179.99998999999991
 51
270.0
  0
ARC
  5
309B
  8
AM_0
 10
473.29523102430568
 20
584.46301447647761
 30
0.0
 40
2.0000000500000001
 50
0.0
 51
90.000003000000007
  0
LINE
  5
309C
  8
AM_0
 10
538.16938102430595
 20
614.56231447647758
 30
0.0
 11
523.04828102430565
 21
602.46541447647769
 31
0.0
  0
ARC
  5
309D
  8
AM_0
 10
521.29528102430595
 20
607.46611447647774
 30
0.0
 40
5.0
 50
308.65987999999982
 51
0.0
  0
ARC
  5
309E
  8
AM_0
 10
536.29528102430606
 20
616.90481447647767
 30
0.0
 40
3.0000000500000001
 50
308.65980999999982
 51
0.0
  0
ARC
  5
309F
  8
AM_0
 10
541.29528102430595
 20
672.46301447647761
 30
0.0
 40
25.000000499999999
 50
306.46672000000001
 51
233.53328999999999
  0
CIRCLE
  5
30A0
  8
AM_0
 10
541.29528102430595
 20
672.46301447647761
 30
0.0
 40
15.0
  0
LINE
  5
30A1
  8
AM_0
 10
553.79523102430585
 20
646.46291447647764
 30
0.0
 11
551.54473102430575
 21
654.86186447647765
 31
0.0
  0
ARC
  5
30A2
  8
AM_0
 10
559.72028102430556
 20
647.53271447647762
 30
0.0
 40
6.0
 50
126.4666999999999
 51
190.27006
  0
LINE
  5
30A3
  8
AM_0
 10
541.22543102430575
 20
645.84246447647774
 30
0.0
 11
558.99533102430576
 21
646.46301447647738
 31
0.0
  0
LINE
  5
30A4
  8
AM_0
 10
528.29523102430585
 20
646.46301447647738
 30
0.0
 11
558.99523102430555
 21
646.46301447647738
 31
0.0
  0
LINE
  5
30A5
  8
AM_0
 10
531.81713102430604
 20
655.58396447647772
 30
0.0
 11
541.29528102430595
 21
657.46301447647761
 31
0.0
  0
LINE
  5
30A6
  8
AM_0
 10
531.50123102430553
 20
655.46301447647761
 30
0.0
 11
551.08933102430592
 21
655.46301447647761
 31
0.0
  0
LINE
  5
30A7
  8
AM_0
 10
528.79528102430595
 20
646.46306447647771
 30
0.0
 11
531.04573102430527
 21
654.86191447647775
 31
0.0
  0
ARC
  5
30A8
  8
AM_0
 10
532.01168102430574
 20
654.60311447647769
 30
0.0
 40
1.0
 50
101.21329
 51
164.99999
  0
ARC
  5
30A9
  8
AM_0
 10
528.29523102430585
 20
644.46301447647761
 30
0.0
 40
2.0000000500000001
 50
90.000003000000007
 51
180.00001
  0
ARC
  5
30AA
  8
AM_0
 10
522.87023102430578
 20
647.53271447647762
 30
0.0
 40
6.0
 50
349.72994999999997
 51
53.533291000000013
  0
ARC
  5
30AB
  8
AM_0
 10
550.57883102430606
 20
654.60311447647769
 30
0.0
 40
1.0
 50
15.0
 51
78.786709999999999
  0
ARC
  5
30AC
  8
AM_0
 10
541.29528102430595
 20
643.84366447647756
 30
0.0
 40
2.0000000500000001
 50
91.999997999999948
 51
180.00001
  0
LINE
  5
30AD
  8
AM_0
 10
541.29528102430595
 20
657.46301447647761
 30
0.0
 11
550.77338102430565
 21
655.58396447647772
 31
0.0
  0
LINE
  5
30AE
  8
AM_0
 10
558.99523102430555
 20
646.46301447647738
 30
0.0
 11
559.29523102430585
 21
646.46301447647738
 31
0.0
  0
LINE
  5
30AF
  8
AM_0
 10
670.42748102430596
 20
655.1755144764777
 30
0.0
 11
614.16308102430571
 21
620.33721447647758
 31
0.0
  0
LINE
  5
30B0
  8
AM_0
 10
670.42748102430596
 20
643.21006447647756
 30
0.0
 11
615.49043102430585
 21
609.1935644764776
 31
0.0
  0
LINE
  5
30B1
  8
AM_0
 10
642.70808102430601
 20
649.37591447647765
 30
0.0
 11
644.31493102430613
 21
639.00701447647771
 31
0.0
  0
LINE
  5
30B2
  8
AM_0
 10
672.79528102430595
 20
624.3698144764777
 30
0.0
 11
650.61743102430592
 21
607.89211447647767
 31
0.0
  0
LINE
  5
30B3
  8
AM_0
 10
616.79523102430585
 20
606.90561447647758
 30
0.0
 11
647.63558102430557
 21
606.90561447647758
 31
0.0
  0
ARC
  5
30B4
  8
AM_0
 10
616.79523102430585
 20
616.08616447647762
 30
0.0
 40
5.0
 50
121.76536
 51
180.00001
  0
LINE
  5
30B5
  8
AM_0
 10
611.79523102430585
 20
616.08616447647762
 30
0.0
 11
611.79523102430585
 21
611.90561447647758
 31
0.0
  0
ARC
  5
30B6
  8
AM_0
 10
616.79523102430585
 20
611.90561447647758
 30
0.0
 40
5.0
 50
179.99998999999991
 51
270.0
  0
ARC
  5
30B7
  8
AM_0
 10
647.63558102430557
 20
611.90561447647758
 30
0.0
 40
5.0
 50
270.0
 51
306.61149999999992
  0
ARC
  5
30B8
  8
AM_0
 10
679.79528102430595
 20
598.73436447647737
 30
0.0
 40
2.0000000500000001
 50
0.0
 51
90.000003000000007
  0
LINE
  5
30B9
  8
AM_0
 10
672.79523102430585
 20
600.73436447647771
 30
0.0
 11
679.79528102430595
 21
600.73436447647771
 31
0.0
  0
LINE
  5
30BA
  8
AM_0
 10
644.78103102430555
 20
651.44871447647756
 30
0.0
 11
671.33083102430601
 21
677.99851447647757
 31
0.0
  0
ARC
  5
30BB
  8
AM_0
 10
637.70993102430555
 20
658.51976447647735
 30
0.0
 40
10.0
 50
271.49999999999972
 51
315.0
  0
ARC
  5
30BC
  8
AM_0
 10
679.79528102430595
 20
661.0219144764776
 30
0.0
 40
2.0000000500000001
 50
0.0
 51
90.000003000000007
  0
ARC
  5
30BD
  8
AM_0
 10
674.79528102430595
 20
665.0219144764776
 30
0.0
 40
2.0000000500000001
 50
179.99998999999991
 51
270.0
  0
ARC
  5
30BE
  8
AM_0
 10
667.79523102430585
 20
659.42661447647765
 30
0.0
 40
5.0
 50
301.76537000000002
 51
0.0
  0
LINE
  5
30BF
  8
AM_0
 10
674.79528102430595
 20
663.0219144764776
 30
0.0
 11
679.79528102430595
 21
663.0219144764776
 31
0.0
  0
ARC
  5
30C0
  8
AM_0
 10
667.79523102430585
 20
681.53406447647762
 30
0.0
 40
5.0
 50
315.0
 51
0.0
  0
LINE
  5
30C1
  8
AM_0
 10
697.79523102430585
 20
669.46301447647761
 30
0.0
 11
702.79523102430585
 21
669.46301447647761
 31
0.0
  0
LINE
  5
30C2
  8
AM_0
 10
675.79523102430585
 20
699.46306447647771
 30
0.0
 11
697.79523102430585
 21
699.46306447647771
 31
0.0
  0
ARC
  5
30C3
  8
AM_0
 10
675.79523102430585
 20
696.46301447647738
 30
0.0
 40
3.0000000500000001
 50
90.000003000000007
 51
180.00001
  0
LINE
  5
30C4
  8
AM_0
 10
983.42569403034724
 20
354.46298947647767
 30
0.0
 11
983.42569403034724
 21
674.46301447647761
 31
0.0
  0
LINE
  5
30C5
  8
AM_0
 10
1353.425674030346
 20
674.46301447647761
 30
0.0
 11
1353.425674030346
 21
354.46298947647767
 31
0.0
  0
LINE
  5
30C6
  8
ﾁｭｳｼﾝｾﾝ
 10
1168.425694030346
 20
708.72887726161503
 30
0.0
 11
1168.425694030346
 21
285.5542694764776
 31
0.0
  0
ARC
  5
30C7
  8
AM_0
 10
1168.425694030346
 20
514.46299447647755
 30
0.0
 40
82.0
 50
144.5940699999999
 51
180.00001
  0
ARC
  5
30C8
  8
AM_0
 10
1145.6306490303471
 20
521.96421447647765
 30
0.0
 40
112.0
 50
133.0483099999999
 51
169.99998999999991
  0
ARC
  5
30C9
  8
AM_0
 10
1191.2207090303471
 20
521.96421447647765
 30
0.0
 40
112.0
 50
9.9999996999999983
 51
46.95168300000001
  0
ARC
  5
30CA
  8
AM_0
 10
1168.425694030346
 20
514.46299447647755
 30
0.0
 40
82.0
 50
0.0
 51
35.405931999999993
  0
ARC
  5
30CB
  8
AM_0
 10
1168.425694030346
 20
514.46299447647755
 30
0.0
 40
146.0
 50
270.0
 51
90.000003000000007
  0
ARC
  5
30CC
  8
AM_0
 10
1168.425694030346
 20
514.46299447647755
 30
0.0
 40
146.0
 50
90.000003000000007
 51
270.0
  0
ARC
  5
30CD
  8
AM_0
 10
1168.425694030346
 20
514.46299447647755
 30
0.0
 40
65.0
 50
90.000003000000007
 51
270.0
  0
ARC
  5
30CE
  8
AM_0
 10
1168.425694030346
 20
514.46299447647755
 30
0.0
 40
155.0
 50
270.0
 51
90.000003000000007
  0
ARC
  5
30CF
  8
AM_0
 10
1168.425694030346
 20
514.46299447647755
 30
0.0
 40
65.0
 50
270.0
 51
90.000003000000007
  0
ARC
  5
30D0
  8
AM_0
 10
1168.425694030346
 20
514.46299447647755
 30
0.0
 40
155.0
 50
90.000003000000007
 51
270.0
  0
ARC
  5
30D1
  8
AM_0
 10
1328.425684030346
 20
354.46298947647767
 30
0.0
 40
25.000000499999999
 50
270.0
 51
0.0
  0
LINE
  5
30D2
  8
ﾁｭｳｼﾝｾﾝ
 10
970.68957903034675
 20
514.46299447647755
 30
0.0
 11
1367.857699030347
 21
514.46299447647755
 31
0.0
  0
LINE
  5
30D3
  8
AM_0
 10
1097.694279030346
 20
293.02370447647758
 30
0.0
 11
1062.069584030346
 21
318.65822447647759
 31
0.0
  0
LINE
  5
30D4
  8
AM_0
 10
1028.225834030346
 20
494.4629944764776
 30
0.0
 11
1076.425664030347
 21
494.4629944764776
 31
0.0
  0
LINE
  5
30D5
  8
AM_0
 10
1328.425684030346
 20
329.46298947647762
 30
0.0
 11
1008.425694030347
 21
329.46298947647762
 31
0.0
  0
CIRCLE
  5
30D6
  8
AM_0
 10
1009.326634030347
 20
355.36395947647759
 30
0.0
 40
12.0
  0
LINE
  5
30D7
  8
ﾁｭｳｼﾝｾﾝ1
 10
994.1238440303473
 20
340.16116947647748
 30
0.0
 11
1024.5294540303471
 21
370.56677947647768
 31
0.0
  0
ARC
  5
30D8
  8
ﾁｭｳｼﾝｾﾝ1
 10
1168.425694030346
 20
514.46299447647755
 30
0.0
 40
225.00000499999999
 50
219.5229799999999
 51
230.47702000000001
  0
ARC
  5
30D9
  8
AM_0
 10
1008.425694030347
 20
354.46298947647767
 30
0.0
 40
25.000000499999999
 50
179.99998999999991
 51
270.0
  0
ARC
  5
30DA
  8
AM_0
 10
1168.425694030346
 20
466.4629944764776
 30
0.0
 40
182.0929899999999
 50
228.79546999999999
 51
234.26228
  0
LINE
  5
30DB
  8
AM_0
 10
1027.077244030346
 20
494.59671947647769
 30
0.0
 11
1035.3321890303471
 21
541.41285447647761
 31
0.0
  0
ARC
  5
30DC
  8
AM_0
 10
1028.225834030346
 20
499.4629944764776
 30
0.0
 40
5.0
 50
186.10685000000001
 51
270.0
  0
LINE
  5
30DD
  8
AM_0
 10
1105.925694030346
 20
290.37000447647767
 30
0.0
 11
1230.9256790303471
 21
290.37000447647767
 31
0.0
  0
ARC
  5
30DE
  8
AM_0
 10
1105.925694030346
 20
304.46298947647762
 30
0.0
 40
14.092999499999999
 50
234.26228
 51
270.0
  0
LINE
  5
30DF
  8
AM_0
 10
1239.1570640303471
 20
293.02371947647771
 30
0.0
 11
1274.781789030347
 21
318.65825947647772
 31
0.0
  0
ARC
  5
30E0
  8
AM_0
 10
1230.9256790303471
 20
304.46298947647762
 30
0.0
 40
14.092999499999999
 50
270.0
 51
305.73772000000002
  0
ARC
  5
30E1
  8
AM_0
 10
1168.425694030346
 20
466.4629944764776
 30
0.0
 40
182.0929899999999
 50
305.73772000000002
 51
311.20452999999992
  0
CIRCLE
  5
30E2
  8
AM_0
 10
1327.524709030346
 20
355.36395947647759
 30
0.0
 40
12.0
  0
LINE
  5
30E3
  8
ﾁｭｳｼﾝｾﾝ
 10
1257.985536912646
 20
466.4629944764776
 30
0.0
 11
1078.8658511480471
 21
466.4629944764776
 31
0.0
  0
ARC
  5
30E4
  8
AM_0
 10
1168.425694030346
 20
514.46299447647755
 30
0.0
 40
30.000000499999999
 50
107.4575999999999
 51
72.542383999999998
  0
LINE
  5
30E5
  8
AM_0
 10
1086.425664030347
 20
514.46299447647755
 30
0.0
 11
1086.425664030347
 21
504.46299447647772
 31
0.0
  0
ARC
  5
30E6
  8
AM_0
 10
1076.425664030347
 20
504.46299447647772
 30
0.0
 40
10.0
 50
270.0
 51
0.0
  0
CIRCLE
  5
30E7
  8
AM_0
 10
1168.425694030346
 20
514.46299447647755
 30
0.0
 40
4.500000049999997
  0
CIRCLE
  5
30E8
  8
AM_5
 10
1168.425694030346
 20
514.46299447647755
 30
0.0
 40
6.0
  0
LINE
  5
30E9
  8
AM_0
 10
1159.425664030347
 20
548.4630244764777
 30
0.0
 11
1177.425694030346
 21
548.4630244764777
 31
0.0
  0
LINE
  5
30EA
  8
AM_0
 10
1159.425664030347
 20
537.46299447647755
 30
0.0
 11
1177.425694030346
 21
537.46299447647755
 31
0.0
  0
LINE
  5
30EB
  8
AM_0
 10
1159.425664030347
 20
548.4630244764777
 30
0.0
 11
1159.425664030347
 21
537.46299447647755
 31
0.0
  0
LINE
  5
30EC
  8
AM_0
 10
1177.425694030346
 20
548.4630244764777
 30
0.0
 11
1177.425694030346
 21
537.46299447647755
 31
0.0
  0
LINE
  5
30ED
  8
AM_0
 10
1308.625539030347
 20
494.4629944764776
 30
0.0
 11
1260.425664030347
 21
494.4629944764776
 31
0.0
  0
LINE
  5
30EE
  8
AM_0
 10
1250.425664030347
 20
514.46299447647755
 30
0.0
 11
1250.425664030347
 21
504.46299447647772
 31
0.0
  0
ARC
  5
30EF
  8
AM_0
 10
1260.425664030347
 20
504.46299447647772
 30
0.0
 40
10.0
 50
179.99998999999991
 51
270.0
  0
LINE
  5
30F0
  8
AM_0
 10
1309.774114030346
 20
494.59671947647769
 30
0.0
 11
1301.519174030346
 21
541.41279447647764
 31
0.0
  0
ARC
  5
30F1
  8
AM_0
 10
1308.625539030347
 20
499.4629944764776
 30
0.0
 40
5.0
 50
270.0
 51
353.89314999999982
  0
ARC
  5
30F2
  8
AM_0
 10
1328.425684030346
 20
674.46301447647761
 30
0.0
 40
25.000000499999999
 50
0.0
 51
90.000003000000007
  0
ARC
  5
30F3
  8
ﾁｭｳｼﾝｾﾝ1
 10
1168.425694030346
 20
514.46299447647755
 30
0.0
 40
225.00000499999999
 50
38.696153000000002
 51
50.919036854167118
  0
ARC
  5
30F4
  8
AM_0
 10
1082.029699030347
 20
622.0721644764775
 30
0.0
 40
8.0
 50
128.75986999999969
 51
225.0
  0
LINE
  5
30F5
  8
AM_0
 10
1100.7264140303471
 20
572.26276947647762
 30
0.0
 11
1066.473359030347
 21
606.51586447647765
 31
0.0
  0
LINE
  5
30F6
  8
AM_0
 10
1008.425694030347
 20
699.46306447647771
 30
0.0
 11
1328.425684030346
 21
699.46306447647771
 31
0.0
  0
ARC
  5
30F7
  8
AM_0
 10
1060.816499030346
 20
600.85901447647757
 30
0.0
 40
8.0
 50
45.00000099999999
 51
141.24012999999991
  0
CIRCLE
  5
30F8
  8
AM_0
 10
1009.326634030347
 20
673.56206447647764
 30
0.0
 40
12.0
  0
ARC
  5
30F9
  8
AM_0
 10
1008.425694030347
 20
674.46301447647761
 30
0.0
 40
25.000000499999999
 50
90.000003000000007
 51
180.00001
  0
ARC
  5
30FA
  8
AM_0
 10
1168.425694030346
 20
466.46299447647789
 30
0.0
 40
172.0000049999999
 50
58.770287999991858
 51
121.2297100000072
  0
ARC
  5
30FB
  8
AM_0
 10
1168.425694030346
 20
514.46299447647755
 30
0.0
 40
82.0
 50
54.594067000000003
 51
125.4059299999999
  0
LINE
  5
30FC
  8
AM_0
 10
1110.625889030347
 20
582.16226447647762
 30
0.0
 11
1076.372839030347
 21
616.41531447647765
 31
0.0
  0
ARC
  5
30FD
  8
AM_0
 10
1095.069584030347
 20
566.60590947647768
 30
0.0
 40
8.0
 50
324.5940700000001
 51
45.00000099999999
  0
ARC
  5
30FE
  8
AM_0
 10
1116.282779030347
 20
587.81911447647769
 30
0.0
 40
8.0
 50
225.0
 51
305.4059299999999
  0
ARC
  5
30FF
  8
AM_0
 10
1276.034859030347
 20
600.85901447647757
 30
0.0
 40
8.0
 50
38.759869000000002
 51
135.0
  0
LINE
  5
3100
  8
AM_0
 10
1236.1249140303471
 20
572.26273947647769
 30
0.0
 11
1270.377999030346
 21
606.51581447647777
 31
0.0
  0
LINE
  5
3101
  8
AM_0
 10
1226.225409030347
 20
582.16226447647762
 30
0.0
 11
1260.478489030347
 21
616.41531447647765
 31
0.0
  0
ARC
  5
3102
  8
AM_0
 10
1241.781774030346
 20
566.60590947647768
 30
0.0
 40
8.0
 50
135.0
 51
215.40593000000001
  0
ARC
  5
3103
  8
AM_0
 10
1220.568564030347
 20
587.81911447647769
 30
0.0
 40
8.0
 50
234.5940699999999
 51
315.0
  0
ARC
  5
3104
  8
AM_0
 10
1254.821644030347
 20
622.0721644764775
 30
0.0
 40
8.0
 50
315.0
 51
51.240130000000001
  0
LINE
  5
3105
  8
ﾁｭｳｼﾝｾﾝ1
 10
1342.727499030347
 20
688.76481447647745
 30
0.0
 11
1310.091255239468
 21
656.12859781695363
 31
0.0
  0
CIRCLE
  5
3106
  8
AM_0
 10
1327.524709030346
 20
673.56206447647764
 30
0.0
 40
12.0
  0
LINE
  5
3107
  8
AM_0
 10
279.79528102430578
 20
1024.5475469586111
 30
0.0
 11
324.79528102430589
 21
1024.5475469586111
 31
0.0
  0
LINE
  5
3108
  8
AM_0
 10
337.79528102430578
 20
1037.0475469586111
 30
0.0
 11
279.79528102430578
 21
1037.0475469586111
 31
0.0
  0
LINE
  5
3109
  8
AM_0
 10
279.79528102430578
 20
1002.04754695861
 30
0.0
 11
337.79528102430578
 21
1002.04754695861
 31
0.0
  0
LINE
  5
310A
  8
AM_0
 10
279.79528102430578
 20
1014.54754695861
 30
0.0
 11
324.79528102430589
 21
1014.54754695861
 31
0.0
  0
LINE
  5
310B
  8
AM_0
 10
279.79528102430578
 20
1037.0475469586111
 30
0.0
 11
279.79528102430578
 21
1002.04754695861
 31
0.0
  0
LINE
  5
310C
  8
AM_0
 10
460.29528102430572
 20
919.46552595861147
 30
0.0
 11
460.29528102430572
 21
935.02187495861131
 31
0.0
  0
LINE
  5
310D
  8
AM_0
 10
434.29528102430572
 20
935.02187495861131
 30
0.0
 11
434.29528102430572
 21
924.27582595861145
 31
0.0
  0
LINE
  5
310E
  8
AM_0
 10
433.83172702430591
 20
922.93593695861159
 30
0.0
 11
432.21513902430593
 21
935.03857495861155
 31
0.0
  0
LINE
  5
310F
  8
AM_0
 10
440.50921902430571
 20
909.04623095861132
 30
0.0
 11
381.37867702430572
 21
958.66264695861139
 31
0.0
  0
ARC
  5
3110
  8
AM_0
 10
437.29528102430572
 20
905.21600895861161
 30
0.0
 40
5.0
 50
0.0
 51
49.999999999999922
  0
LINE
  5
3111
  8
AM_0
 10
460.29528102430572
 20
919.46552595861147
 30
0.0
 11
437.79651402430602
 21
919.46552595861147
 31
0.0
  0
ARC
  5
3112
  8
AM_0
 10
437.79651402430602
 20
923.46552595861135
 30
0.0
 40
4.0
 50
187.60814800001029
 51
270.0
  0
LINE
  5
3113
  8
AM_0
 10
442.29528102430572
 20
903.54754695861129
 30
0.0
 11
442.29528102430572
 21
919.46552695861135
 31
0.0
  0
LINE
  5
3114
  8
AM_0
 10
446.29528102430572
 20
899.54754695861141
 30
0.0
 11
460.29528102430572
 21
899.54754695861141
 31
0.0
  0
ARC
  5
3115
  8
AM_0
 10
446.29528102430572
 20
903.54754695861129
 30
0.0
 40
4.0
 50
180.0
 51
270.0
  0
LINE
  5
3116
  8
AM_0
 10
460.29528102430572
 20
899.54754695861141
 30
0.0
 11
462.29528102430572
 21
901.54754695861141
 31
0.0
  0
LINE
  5
3117
  8
AM_0
 10
460.29528102430572
 20
919.46552595861147
 30
0.0
 11
462.29528102430572
 21
921.46552595861135
 31
0.0
  0
ARC
  5
3118
  8
AM_0
 10
429.24154902430593
 20
1104.4537109586111
 30
0.0
 40
3.0
 50
291.6423089999987
 51
352.39185200000281
  0
ARC
  5
3119
  8
AM_0
 10
437.87200202430603
 20
1100.0732189586111
 30
0.0
 40
4.0
 50
90.0
 51
173.60490699999951
  0
LINE
  5
311A
  8
AM_0
 10
440.50921902430571
 20
1130.04886295861
 30
0.0
 11
381.37867702430572
 21
1080.432447958611
 31
0.0
  0
LINE
  5
311B
  8
AM_0
 10
431.86747302430592
 20
1082.41207695861
 30
0.0
 11
441.75164502430567
 21
1082.41207695861
 31
0.0
  0
LINE
  5
311C
  8
AM_0
 10
431.86747302430592
 20
956.6830169586118
 30
0.0
 11
441.75164502430567
 21
956.6830169586118
 31
0.0
  0
LINE
  5
311D
  8
AM_0
 10
460.29528102430572
 20
935.02187495861131
 30
0.0
 11
437.87200202430603
 21
935.02187495861131
 31
0.0
  0
ARC
  5
311E
  8
AM_0
 10
324.79528102430589
 20
1019.547546958611
 30
0.0
 40
5.0
 50
270.0
 51
90.0
  0
LINE
  5
311F
  8
AM_0
 10
324.79528102430589
 20
1024.5475469586111
 30
0.0
 11
324.79528102430589
 21
1014.54754695861
 31
0.0
  0
LINE
  5
3120
  8
AM_0
 10
337.79528102430578
 20
1039.5475469586111
 30
0.0
 11
337.79528102430578
 21
999.54754695861141
 31
0.0
  0
LINE
  5
3121
  8
AM_0
 10
341.79528102430578
 20
1054.5475469586111
 30
0.0
 11
341.79528102430578
 21
984.54754695861141
 31
0.0
  0
LINE
  5
3122
  8
AM_0
 10
378.66597202430597
 20
1075.1747889586111
 30
0.0
 11
378.66597202430597
 21
963.59359995861155
 31
0.0
  0
LINE
  5
3123
  8
AM_0
 10
343.79528102430572
 20
1074.5994559586111
 30
0.0
 11
343.79528102430572
 21
964.49563895861149
 31
0.0
  0
LINE
  5
3124
  8
AM_0
 10
346.74292402430598
 20
961.49609595861148
 30
0.0
 11
375.12532502430611
 21
961.0006789586115
 31
0.0
  0
ARC
  5
3125
  8
AM_0
 10
346.79528102430572
 20
964.49563895861149
 30
0.0
 40
3.0
 50
180.0
 51
268.99999999999812
  0
LINE
  5
3126
  8
AM_0
 10
337.79528102430578
 20
999.54754695861141
 30
0.0
 11
341.79528102430578
 21
999.54754695861141
 31
0.0
  0
LINE
  5
3127
  8
AM_0
 10
341.79528102430578
 20
984.54754695861141
 30
0.0
 11
343.79528102430572
 21
982.54754695861141
 31
0.0
  0
ARC
  5
3128
  8
AM_0
 10
374.95080102430597
 20
951.00220195861152
 30
0.0
 40
10.0
 50
49.999999999999922
 51
89.000000000001506
  0
LINE
  5
3129
  8
AM_0
 10
433.89689202430571
 20
938.57633995861124
 30
0.0
 11
432.16626502430603
 21
954.01716895861148
 31
0.0
  0
LINE
  5
312A
  8
AM_0
 10
431.86747302430592
 20
937.64138295861142
 30
0.0
 11
431.86747302430592
 21
952.43105195861142
 31
0.0
  0
ARC
  5
312B
  8
AM_0
 10
429.24154902430593
 20
934.6413829586113
 30
0.0
 40
3.0
 50
7.6081479999971267
 51
68.357691000001253
  0
ARC
  5
312C
  8
AM_0
 10
437.87200202430603
 20
939.02187495861142
 30
0.0
 40
4.0
 50
186.39509300000049
 51
270.0
  0
ARC
  5
312D
  8
AM_0
 10
429.18493202430602
 20
953.68301695861135
 30
0.0
 40
3.0
 50
6.3950930000004771
 51
71.538410999999911
  0
LINE
  5
312E
  8
AM_0
 10
346.74292402430598
 20
1077.5989989586101
 30
0.0
 11
375.12532502430611
 21
1078.094414958611
 31
0.0
  0
LINE
  5
312F
  8
AM_0
 10
341.79528102430578
 20
1039.5475469586111
 30
0.0
 11
337.79528102430578
 21
1039.5475469586111
 31
0.0
  0
LINE
  5
3130
  8
AM_0
 10
341.79528102430578
 20
1054.5475469586111
 30
0.0
 11
343.79528102430572
 21
1056.5475469586111
 31
0.0
  0
ARC
  5
3131
  8
AM_0
 10
346.79528102430572
 20
1074.5994559586111
 30
0.0
 40
3.0
 50
90.999999999998494
 51
180.0
  0
ARC
  5
3132
  8
AM_0
 10
374.95080102430597
 20
1088.0928919586111
 30
0.0
 40
10.0
 50
270.99999999999841
 51
310.0
  0
ARC
  5
3133
  8
AM_0
 10
429.18493202430602
 20
1085.41207695861
 30
0.0
 40
3.0
 50
288.461589
 51
353.6049069999994
  0
LINE
  5
3134
  8
AM_0
 10
431.86747302430592
 20
1101.4537109586111
 30
0.0
 11
431.86747302430592
 21
1086.6640419586111
 31
0.0
  0
LINE
  5
3135
  8
AM_0
 10
433.89689202430571
 20
1100.51875395861
 30
0.0
 11
432.16626502430603
 21
1085.0779249586101
 31
0.0
  0
LINE
  5
3136
  8
AM_0
 10
460.29528102430572
 20
1036.29732022913
 30
0.0
 11
460.29528102430572
 21
1002.797773688093
 31
0.0
  0
LINE
  5
3137
  8
AM_0
 10
442.29528102430572
 20
1091.50974795861
 30
0.0
 11
442.29528102430572
 21
947.58534595861147
 31
0.0
  0
LINE
  5
3138
  8
AM_0
 10
446.29528102430572
 20
943.58534595861124
 30
0.0
 11
460.29528102430572
 21
943.58534595861124
 31
0.0
  0
ARC
  5
3139
  8
AM_0
 10
446.29528102430572
 20
947.58534595861147
 30
0.0
 40
4.0
 50
180.0
 51
270.0
  0
LINE
  5
313A
  8
AM_0
 10
460.29528102430572
 20
935.02187495861131
 30
0.0
 11
462.29528102430572
 21
937.02187495861131
 31
0.0
  0
LINE
  5
313B
  8
AM_0
 10
460.29528102430572
 20
1002.797773688093
 30
0.0
 11
442.29528102430572
 21
1002.797773688093
 31
0.0
  0
LINE
  5
313C
  8
AM_0
 10
442.29528102430572
 20
1004.547546958611
 30
0.0
 11
460.29528102430572
 21
1004.547546958611
 31
0.0
  0
LINE
  5
313D
  8
AM_0
 10
442.29528102430572
 20
1034.5475469586111
 30
0.0
 11
460.29528102430572
 21
1034.5475469586111
 31
0.0
  0
LINE
  5
313E
  8
AM_0
 10
460.29528102430572
 20
1036.29732022913
 30
0.0
 11
442.29528102430572
 21
1036.29732022913
 31
0.0
  0
LINE
  5
313F
  8
AM_0
 10
446.29528102430572
 20
1095.50974795861
 30
0.0
 11
460.29528102430572
 21
1095.50974795861
 31
0.0
  0
ARC
  5
3140
  8
AM_0
 10
446.29528102430572
 20
1091.50974795861
 30
0.0
 40
4.0
 50
90.0
 51
180.0
  0
ARC
  5
3141
  8
AM_0
 10
437.29528102430572
 20
1133.8790849586101
 30
0.0
 40
5.0
 50
310.0
 51
0.0
  0
LINE
  5
3142
  8
AM_0
 10
460.29528102430572
 20
1119.6295679586119
 30
0.0
 11
437.79651402430602
 21
1119.6295679586119
 31
0.0
  0
LINE
  5
3143
  8
AM_0
 10
460.29528102430572
 20
1104.0732189586111
 30
0.0
 11
437.87200202430603
 21
1104.0732189586111
 31
0.0
  0
ARC
  5
3144
  8
AM_0
 10
437.79651402430602
 20
1115.629567958611
 30
0.0
 40
4.0
 50
90.0
 51
172.39185199998951
  0
LINE
  5
3145
  8
AM_0
 10
433.83172702430591
 20
1116.1591569586101
 30
0.0
 11
432.21513902430593
 21
1104.05651895861
 31
0.0
  0
LINE
  5
3146
  8
AM_0
 10
434.29528102430572
 20
1104.0732189586111
 30
0.0
 11
434.29528102430572
 21
1114.81926795861
 31
0.0
  0
LINE
  5
3147
  8
AM_0
 10
442.29528102430572
 20
1135.5475469586111
 30
0.0
 11
442.29528102430572
 21
1119.62956695861
 31
0.0
  0
LINE
  5
3148
  8
AM_0
 10
460.29528102430572
 20
1119.6295679586119
 30
0.0
 11
462.29528102430572
 21
1117.629567958611
 31
0.0
  0
LINE
  5
3149
  8
AM_0
 10
460.29528102430572
 20
1104.0732189586111
 30
0.0
 11
462.29528102430572
 21
1102.0732189586111
 31
0.0
  0
LINE
  5
314A
  8
AM_0
 10
460.29528102430572
 20
1119.6295679586119
 30
0.0
 11
460.29528102430572
 21
1104.0732189586111
 31
0.0
  0
LINE
  5
314B
  8
AM_0
 10
446.29528102430572
 20
1139.5475469586111
 30
0.0
 11
460.29528102430572
 21
1139.5475469586111
 31
0.0
  0
ARC
  5
314C
  8
AM_0
 10
446.29528102430572
 20
1135.5475469586111
 30
0.0
 40
4.0
 50
90.0
 51
180.0
  0
LINE
  5
314D
  8
AM_0
 10
460.29528102430572
 20
1139.5475469586111
 30
0.0
 11
462.29528102430572
 21
1137.5475469586111
 31
0.0
  0
LINE
  5
314F
  8
AM_0
 10
707.79528102430595
 20
989.54753195861144
 30
0.0
 11
812.79528102430572
 21
989.54753195861144
 31
0.0
  0
LINE
  5
3150
  8
AM_0
 10
731.79528102430572
 20
1028.547531958611
 30
0.0
 11
812.79528102430572
 21
1028.547531958611
 31
0.0
  0
LINE
  5
3151
  8
AM_0
 10
731.79528102430572
 20
1010.547531958611
 30
0.0
 11
812.79528102430572
 21
1010.547531958611
 31
0.0
  0
LINE
  5
3152
  8
AM_0
 10
707.79528102430595
 20
1049.5475319586101
 30
0.0
 11
812.79528102430572
 21
1049.5475319586101
 31
0.0
  0
LINE
  5
3153
  8
ﾁｭｳｼﾝｾﾝ
 10
266.63862239561053
 20
1019.547531958611
 30
0.0
 11
828.61822102430563
 21
1019.547531958611
 31
0.0
  0
POLYLINE
  5
3154
  8
AM_0
 66
     1
 10
0.0
 20
0.0
 30
0.0
  0
VERTEX
  5
3155
  8
AM_0
 10
652.17878102430586
 20
1114.136761958611
 30
0.0
 42
0.034282229
  0
VERTEX
  5
3156
  8
AM_0
 10
643.13448102430607
 20
1051.29045195861
 30
0.0
 42
0.072426646
  0
VERTEX
  5
3157
  8
AM_0
 10
652.17878102430586
 20
924.95836195861148
 30
0.0
  0
SEQEND
  5
3158
  8
AM_0
  0
LINE
  5
3159
  8
AM_0
 10
702.79528102430561
 20
864.54753195861144
 30
0.0
 11
702.79528102430561
 21
1174.54756195861
 31
0.0
  0
LINE
  5
315A
  8
AM_0
 10
672.79528102430595
 20
1201.54756195861
 30
0.0
 11
672.79528102430595
 21
837.54753195861133
 31
0.0
  0
LINE
  5
315B
  8
AM_0
 10
681.79528102430561
 20
1166.10636195861
 30
0.0
 11
681.79528102430561
 21
872.97759195861147
 31
0.0
  0
LINE
  5
315C
  8
AM_0
 10
697.79528102430595
 20
1204.54756195861
 30
0.0
 11
697.79528102430595
 21
834.54753195861144
 31
0.0
  0
LINE
  5
315D
  8
AM_0
 10
707.79528102430595
 20
1052.047531958611
 30
0.0
 11
707.79528102430595
 21
987.04753195861144
 31
0.0
  0
LINE
  5
315E
  8
AM_0
 10
559.29528102430595
 20
1014.547531958611
 30
0.0
 11
559.29528102430595
 21
860.60051195861138
 31
0.0
  0
LINE
  5
315F
  8
AM_0
 10
519.29522102430565
 20
894.61614195861148
 30
0.0
 11
519.29522102430565
 21
1014.964951958611
 31
0.0
  0
LINE
  5
3160
  8
AM_0
 10
539.29522102430565
 20
866.12737195861143
 30
0.0
 11
539.29522102430565
 21
1000.812551958611
 31
0.0
  0
LINE
  5
3161
  8
AM_0
 10
462.29528102430572
 20
1139.54756195861
 30
0.0
 11
462.29528102430572
 21
899.54753195861144
 31
0.0
  0
LINE
  5
3162
  8
AM_0
 10
475.2952210243057
 20
1137.54756195861
 30
0.0
 11
475.2952210243057
 21
901.54753195861144
 31
0.0
  0
LINE
  5
3163
  8
AM_0
 10
667.9697210243055
 20
856.80547195861129
 30
0.0
 11
559.29528102430595
 21
860.60051195861138
 31
0.0
  0
LINE
  5
3164
  8
AM_0
 10
477.29528102430572
 20
907.54753195861144
 30
0.0
 11
514.29522102430565
 21
907.54753195861144
 31
0.0
  0
LINE
  5
3165
  8
AM_0
 10
475.2952210243057
 20
948.6147319586114
 30
0.0
 11
519.29522102430565
 21
948.6147319586114
 31
0.0
  0
LINE
  5
3166
  8
AM_0
 10
475.2952210243057
 20
932.87267195861125
 30
0.0
 11
519.29522102430565
 21
932.87267195861125
 31
0.0
  0
ARC
  5
3167
  8
AM_0
 10
473.29528102430572
 20
901.54753195861144
 30
0.0
 40
2.0
 50
270.0
 51
0.0
  0
LINE
  5
3168
  8
AM_0
 10
462.29528102430572
 20
899.54753195861144
 30
0.0
 11
473.29528102430572
 21
899.54753195861144
 31
0.0
  0
LINE
  5
3169
  8
AM_0
 10
462.29528102430572
 20
919.82030195861148
 30
0.0
 11
475.2952210243057
 21
919.82030195861148
 31
0.0
  0
ARC
  5
316A
  8
AM_0
 10
477.29528102430572
 20
905.54753195861144
 30
0.0
 40
2.0
 50
90.00000299999769
 51
180.00001000000091
  0
LINE
  5
316B
  8
AM_0
 10
462.29528102430572
 20
935.37664195861146
 30
0.0
 11
475.2952210243057
 21
935.37664195861146
 31
0.0
  0
LINE
  5
316C
  8
AM_0
 10
462.29528102430572
 20
943.53081195861159
 30
0.0
 11
475.2952210243057
 21
943.53081195861159
 31
0.0
  0
LINE
  5
316D
  8
AM_0
 10
523.96124102430565
 20
889.62731195861136
 30
0.0
 11
534.62926102430595
 21
888.91295195861153
 31
0.0
  0
ARC
  5
316E
  8
AM_0
 10
524.29522102430565
 20
894.61614195861148
 30
0.0
 40
5.0
 50
180.00001000000091
 51
266.16915999999748
  0
LINE
  5
316F
  8
AM_0
 10
559.29528102430595
 20
860.60057195861145
 30
0.0
 11
544.12072102430568
 21
861.13048195861154
 31
0.0
  0
ARC
  5
3170
  8
AM_0
 10
544.29522102430565
 20
866.12737195861143
 30
0.0
 40
5.0
 50
180.00001000000091
 51
268.00000999999878
  0
ARC
  5
3171
  8
AM_0
 10
534.29522102430565
 20
883.92412195861141
 30
0.0
 40
5.0
 50
0.0
 51
86.16916099999878
  0
ARC
  5
3172
  8
AM_0
 10
514.29522102430565
 20
902.54753195861144
 30
0.0
 40
5.0
 50
0.0
 51
90.00000299999769
  0
LINE
  5
3173
  8
AM_0
 10
675.79528102430595
 20
834.54747195861137
 30
0.0
 11
697.79528102430595
 21
834.54747195861137
 31
0.0
  0
LINE
  5
3174
  8
AM_0
 10
670.42742102430589
 20
890.80046195861144
 30
0.0
 11
615.4904110243059
 21
924.81688195861125
 31
0.0
  0
LINE
  5
3175
  8
AM_0
 10
670.42748102430596
 20
878.83495195861144
 30
0.0
 11
614.16308102430571
 21
913.67333195861147
 31
0.0
  0
POLYLINE
  5
3176
  8
AM_0
 66
     1
 10
0.0
 20
0.0
 30
0.0
  0
VERTEX
  5
3177
  8
AM_0
 10
662.96859102430585
 20
883.45322195861149
 30
0.0
 42
0.0050438079
  0
VERTEX
  5
3178
  8
AM_0
 10
666.05060102430593
 20
873.75283195861152
 30
0.0
 42
0.0050105797
  0
VERTEX
  5
3179
  8
AM_0
 10
669.32702102430585
 20
864.11637195861147
 30
0.0
 42
0.0049830203
  0
VERTEX
  5
317A
  8
AM_0
 10
672.79528102430595
 20
854.54753195861144
 30
0.0
  0
SEQEND
  5
317B
  8
AM_0
  0
ARC
  5
317C
  8
AM_0
 10
667.79528102430595
 20
851.80858195861128
 30
0.0
 40
5.0
 50
0.0
 51
88.000000000002998
  0
ARC
  5
317D
  8
AM_0
 10
675.79528102430595
 20
837.54753195861133
 30
0.0
 40
3.0
 50
179.9999899999988
 51
270.0
  0
LINE
  5
317E
  8
AM_0
 10
674.79528102430595
 20
870.98863195861145
 30
0.0
 11
679.79528102430595
 21
870.98863195861145
 31
0.0
  0
ARC
  5
317F
  8
AM_0
 10
674.79528102430595
 20
868.98863195861145
 30
0.0
 40
2.0
 50
90.00000299999769
 51
180.00001000000091
  0
ARC
  5
3180
  8
AM_0
 10
667.79528102430595
 20
874.58391195861145
 30
0.0
 40
5.0
 50
0.0
 51
58.234630000004231
  0
ARC
  5
3181
  8
AM_0
 10
679.79528102430595
 20
872.98863195861145
 30
0.0
 40
2.0
 50
270.0
 51
0.0
  0
LINE
  5
3182
  8
AM_0
 10
616.79528102430561
 20
927.10491195861141
 30
0.0
 11
647.63555102430587
 21
927.10491195861141
 31
0.0
  0
ARC
  5
3183
  8
AM_0
 10
616.79528102430561
 20
922.10491195861141
 30
0.0
 40
5.0
 50
90.00000299999769
 51
180.00001000000091
  0
ARC
  5
3184
  8
AM_0
 10
616.79528102430561
 20
917.92436195861148
 30
0.0
 40
5.0
 50
179.9999899999988
 51
238.23464999999609
  0
LINE
  5
3185
  8
AM_0
 10
611.79528102430595
 20
917.92436195861148
 30
0.0
 11
611.79528102430595
 21
922.10491195861141
 31
0.0
  0
LINE
  5
3186
  8
AM_0
 10
672.79528102430595
 20
909.64073195861147
 30
0.0
 11
650.61755102430561
 21
926.11833195861141
 31
0.0
  0
ARC
  5
3187
  8
AM_0
 10
647.63555102430587
 20
922.10491195861141
 30
0.0
 40
5.0
 50
53.388504999994019
 51
90.00000299999769
  0
LINE
  5
3188
  8
AM_0
 10
672.79528102430595
 20
933.2761719586116
 30
0.0
 11
679.79528102430595
 21
933.2761719586116
 31
0.0
  0
ARC
  5
3189
  8
AM_0
 10
679.79528102430595
 20
935.2761719586116
 30
0.0
 40
2.0
 50
270.0
 51
0.0
  0
LINE
  5
318A
  8
AM_0
 10
697.79528102430595
 20
864.54753195861144
 30
0.0
 11
702.79528102430561
 21
864.54753195861144
 31
0.0
  0
LINE
  5
318B
  8
AM_0
 10
702.79528102430561
 20
987.04753195861144
 30
0.0
 11
707.79528102430595
 21
987.04753195861144
 31
0.0
  0
LINE
  5
318C
  8
AM_0
 10
667.9697210243055
 20
1182.28946195861
 30
0.0
 11
559.29528102430595
 21
1178.494561958611
 31
0.0
  0
LINE
  5
318D
  8
AM_0
 10
539.29522102430565
 20
1038.28252195861
 30
0.0
 11
539.29522102430565
 21
1172.967661958611
 31
0.0
  0
LINE
  5
318E
  8
AM_0
 10
559.29528102430595
 20
1178.494561958611
 30
0.0
 11
559.29528102430595
 21
1024.547531958611
 31
0.0
  0
LINE
  5
318F
  8
AM_0
 10
477.29528102430572
 20
1131.54756195861
 30
0.0
 11
514.29522102430565
 21
1131.54756195861
 31
0.0
  0
LINE
  5
3190
  8
AM_0
 10
475.2952210243057
 20
1106.22236195861
 30
0.0
 11
519.29522102430565
 21
1106.22236195861
 31
0.0
  0
LINE
  5
3191
  8
AM_0
 10
475.2952210243057
 20
1090.480261958611
 30
0.0
 11
519.29522102430565
 21
1090.480261958611
 31
0.0
  0
LINE
  5
3192
  8
AM_0
 10
462.29528102430572
 20
1095.564261958609
 30
0.0
 11
475.2952210243057
 21
1095.564261958609
 31
0.0
  0
LINE
  5
3193
  8
AM_0
 10
462.29528102430572
 20
1119.274661958611
 30
0.0
 11
475.2952210243057
 21
1119.274661958611
 31
0.0
  0
LINE
  5
3194
  8
AM_0
 10
462.29528102430572
 20
1103.718361958611
 30
0.0
 11
475.2952210243057
 21
1103.718361958611
 31
0.0
  0
LINE
  5
3195
  8
AM_0
 10
462.29528102430572
 20
1139.54756195861
 30
0.0
 11
473.29528102430572
 21
1139.54756195861
 31
0.0
  0
ARC
  5
3196
  8
AM_0
 10
477.29528102430572
 20
1133.54756195861
 30
0.0
 40
2.0
 50
179.9999899999988
 51
270.0
  0
ARC
  5
3197
  8
AM_0
 10
473.29528102430572
 20
1137.54756195861
 30
0.0
 40
2.0
 50
0.0
 51
90.00000299999769
  0
LINE
  5
3198
  8
AM_0
 10
519.29522102430565
 20
1024.130111958611
 30
0.0
 11
519.29522102430565
 21
1144.4789619586111
 31
0.0
  0
ARC
  5
3199
  8
AM_0
 10
541.29528102430595
 20
1019.547531958611
 30
0.0
 40
15.0
 50
199.4712300000005
 51
249.5126300000021
  0
ARC
  5
319A
  8
AM_0
 10
541.29528102430595
 20
1019.547531958611
 30
0.0
 40
15.0
 50
110.4873699999977
 51
160.52876999999901
  0
ARC
  5
319B
  8
AM_0
 10
541.29528102430595
 20
1019.547531958611
 30
0.0
 40
12.5
 50
203.5781799999973
 51
336.42182999999471
  0
ARC
  5
319C
  8
AM_0
 10
541.29528102430595
 20
1019.547531958611
 30
0.0
 40
12.5
 50
23.578179999997531
 51
156.42182000000241
  0
LINE
  5
319D
  8
AM_0
 10
521.29528102430595
 20
1024.547531958611
 30
0.0
 11
561.29528102430572
 21
1024.547531958611
 31
0.0
  0
LINE
  5
319E
  8
AM_0
 10
521.29528102430595
 20
1014.547531958611
 30
0.0
 11
561.29528102430572
 21
1014.547531958611
 31
0.0
  0
ARC
  5
319F
  8
AM_0
 10
521.29528102430595
 20
1019.547531958611
 30
0.0
 40
5.0
 50
90.00000299999769
 51
270.0
  0
ARC
  5
31A0
  8
AM_0
 10
534.29522102430565
 20
1038.28252195861
 30
0.0
 40
5.0
 50
290.4873799999977
 51
0.0
  0
ARC
  5
31A1
  8
AM_0
 10
561.29528102430572
 20
1019.547531958611
 30
0.0
 40
5.0
 50
270.0
 51
90.00000299999769
  0
ARC
  5
31A2
  8
AM_0
 10
534.29522102430565
 20
1000.812551958611
 30
0.0
 40
5.0
 50
0.0
 51
69.512624999999204
  0
LINE
  5
31A3
  8
AM_0
 10
523.96117102430594
 20
1149.4676619586089
 30
0.0
 11
534.62926102430595
 21
1150.182061958611
 31
0.0
  0
ARC
  5
31A4
  8
AM_0
 10
524.29522102430565
 20
1144.4789619586111
 30
0.0
 40
5.0
 50
93.830836999998056
 51
180.00001000000091
  0
ARC
  5
31A5
  8
AM_0
 10
514.29522102430565
 20
1136.5475619586121
 30
0.0
 40
5.0
 50
270.0
 51
0.0
  0
ARC
  5
31A6
  8
AM_0
 10
534.29522102430565
 20
1155.1709619586111
 30
0.0
 40
5.0
 50
273.83084000000241
 51
0.0
  0
LINE
  5
31A7
  8
AM_0
 10
559.29528102430595
 20
1178.494561958611
 30
0.0
 11
544.12072102430568
 21
1177.964661958609
 31
0.0
  0
ARC
  5
31A8
  8
AM_0
 10
544.29522102430565
 20
1172.967661958611
 30
0.0
 40
5.0
 50
91.999998000000787
 51
180.00001000000091
  0
POLYLINE
  5
31A9
  8
AM_0
 66
     1
 10
0.0
 20
0.0
 30
0.0
  0
VERTEX
  5
31AA
  8
AM_0
 10
672.79528102430595
 20
1184.54756195861
 30
0.0
  0
VERTEX
  5
31AB
  8
AM_0
 10
662.96864102430595
 20
1155.6419619586111
 30
0.0
 42
-1.0
  0
SEQEND
  5
31AC
  8
AM_0
  0
ARC
  5
31AD
  8
AM_0
 10
674.79528102430595
 20
1170.10636195861
 30
0.0
 40
2.0
 50
179.9999899999988
 51
270.0
  0
LINE
  5
31AE
  8
AM_0
 10
616.79528102430561
 20
1111.990161958611
 30
0.0
 11
647.63555102430587
 21
1111.990161958611
 31
0.0
  0
LINE
  5
31AF
  8
AM_0
 10
670.42742102430589
 20
1148.29476195861
 30
0.0
 11
615.4904110243059
 21
1114.2782619586089
 31
0.0
  0
LINE
  5
31B0
  8
AM_0
 10
670.42754102430615
 20
1160.260061958609
 30
0.0
 11
614.16308102430571
 21
1125.42166195861
 31
0.0
  0
ARC
  5
31B1
  8
AM_0
 10
616.79528102430561
 20
1121.17066195861
 30
0.0
 40
5.0
 50
121.76535999999901
 51
180.00001000000091
  0
ARC
  5
31B2
  8
AM_0
 10
616.79528102430561
 20
1116.990161958611
 30
0.0
 40
5.0
 50
179.9999899999988
 51
270.0
  0
LINE
  5
31B3
  8
AM_0
 10
611.79528102430595
 20
1121.17066195861
 30
0.0
 11
611.79528102430595
 21
1116.990161958611
 31
0.0
  0
LINE
  5
31B4
  8
AM_0
 10
672.79534102430591
 20
1129.45426195861
 30
0.0
 11
650.61749102430588
 21
1112.976761958608
 31
0.0
  0
ARC
  5
31B5
  8
AM_0
 10
647.63555102430587
 20
1116.990161958611
 30
0.0
 40
5.0
 50
270.0
 51
306.61150000000521
  0
LINE
  5
31B6
  8
AM_0
 10
672.79528102430595
 20
1105.818861958611
 30
0.0
 11
679.79528102430595
 21
1105.818861958611
 31
0.0
  0
ARC
  5
31B7
  8
AM_0
 10
679.79528102430595
 20
1103.818861958611
 30
0.0
 40
2.0
 50
0.0
 51
90.00000299999769
  0
LINE
  5
31B8
  8
AM_0
 10
674.79528102430595
 20
1168.10636195861
 30
0.0
 11
679.79528102430595
 21
1168.10636195861
 31
0.0
  0
ARC
  5
31B9
  8
AM_0
 10
667.79528102430595
 20
1164.5111619586089
 30
0.0
 40
5.0
 50
301.7653699999957
 51
0.0
  0
ARC
  5
31BA
  8
AM_0
 10
679.79528102430595
 20
1166.10636195861
 30
0.0
 40
2.0
 50
0.0
 51
90.00000299999769
  0
ARC
  5
31BB
  8
AM_0
 10
731.79528102430572
 20
1019.547531958611
 30
0.0
 40
9.0
 50
90.00000299999769
 51
270.0
  0
LINE
  5
31BC
  8
AM_0
 10
731.79528102430572
 20
1028.547531958611
 30
0.0
 11
731.79528102430572
 21
1010.547531958611
 31
0.0
  0
LINE
  5
31BD
  8
AM_0
 10
702.79528102430561
 20
1052.047531958611
 30
0.0
 11
707.79528102430595
 21
1052.047531958611
 31
0.0
  0
LINE
  5
31BE
  8
AM_0
 10
675.79528102430595
 20
1204.54756195861
 30
0.0
 11
697.79528102430595
 21
1204.54756195861
 31
0.0
  0
ARC
  5
31BF
  8
AM_0
 10
667.79528102430595
 20
1187.28656195861
 30
0.0
 40
5.0
 50
271.99999999999682
 51
0.0
  0
ARC
  5
31C0
  8
AM_0
 10
675.79528102430595
 20
1201.54756195861
 30
0.0
 40
3.0
 50
90.00000299999769
 51
180.00001000000091
  0
LINE
  5
31C1
  8
AM_0
 10
697.79528102430595
 20
1174.54756195861
 30
0.0
 11
702.79528102430561
 21
1174.54756195861
 31
0.0
  0
LINE
  5
31C2
  8
AM_0
 10
812.79528102430572
 20
1049.5475319586101
 30
0.0
 11
812.79528102430572
 21
989.54753195861144
 31
0.0
  0
ARC
  5
31C3
  8
ﾁｭｳｼﾝｾﾝ1
 10
1168.425694030346
 20
514.46299447647755
 30
0.0
 40
225.00000499999999
 50
129.0809631458329
 51
141.30384699999991
  0
LINE
  5
31C4
  8
ﾁｭｳｼﾝｾﾝ1
 10
994.12388903034685
 20
688.76481447647745
 30
0.0
 11
1026.760132821224
 21
656.12859781695363
 31
0.0
  0
ARC
  5
31C5
  8
ﾁｭｳｼﾝｾﾝ1
 10
1168.425694030346
 20
514.46299447647755
 30
0.0
 40
225.00000499999999
 50
309.52297999999979
 51
320.47701999999998
  0
LINE
  5
31C6
  8
ﾁｭｳｼﾝｾﾝ1
 10
1342.7275440303461
 20
340.16116947647748
 30
0.0
 11
1312.321934030346
 21
370.56677947647768
 31
0.0
  0
TEXT
  5
33AA
  8
AM_0
 10
970.98560012016469
 20
1074.487661807771
 30
0.0
 40
20.0
  1
VX75-025GF~VX75-030GF
  0
ENDSEC
  0
EOF
