  0
SECTION
  2
HEADER
  9
$ACADVER
  1
AC1009
  9
$INSBASE
 10
0.0
 20
0.0
 30
0.0
  9
$EXTMIN
 10
239.85152926907361
 20
220.01489167446331
 30
-0.0015258207003583
  9
$EXTMAX
 10
1482.259937515669
 20
1370.268533522797
 30
0.0000000349246037
  9
$LIMMIN
 10
0.0
 20
0.0
  9
$LIMMAX
 10
1991.5
 20
1295.0
  9
$ORTHOMODE
 70
     0
  9
$REGENMODE
 70
     1
  9
$FILLMODE
 70
     1
  9
$QTEXTMODE
 70
     0
  9
$MIRRTEXT
 70
     1
  9
$DRAGMODE
 70
     2
  9
$LTSCALE
 40
7.0
  9
$OSMODE
 70
   551
  9
$ATTMODE
 70
     1
  9
$TEXTSIZE
 40
2.5
  9
$TRACEWID
 40
1.0
  9
$TEXTSTYLE
  7
STANDARD
  9
$CLAYER
  8
AM_0
  9
$CELTYPE
  6
BYLAYER
  9
$CECOLOR
 62
   256
  9
$DIMSCALE
 40
7.0
  9
$DIMASZ
 40
2.5
  9
$DIMEXO
 40
1.0
  9
$DIMDLI
 40
8.0
  9
$DIMRND
 40
0.0
  9
$DIMDLE
 40
0.0
  9
$DIMEXE
 40
0.6
  9
$DIMTP
 40
0.1
  9
$DIMTM
 40
0.1
  9
$DIMTXT
 40
2.5
  9
$DIMCEN
 40
0.0
  9
$DIMTSZ
 40
0.0
  9
$DIMTOL
 70
     0
  9
$DIMLIM
 70
     0
  9
$DIMTIH
 70
     0
  9
$DIMTOH
 70
     0
  9
$DIMSE1
 70
     0
  9
$DIMSE2
 70
     0
  9
$DIMTAD
 70
     1
  9
$DIMZIN
 70
     8
  9
$DIMBLK
  1

  9
$DIMASO
 70
     1
  9
$DIMSHO
 70
     1
  9
$DIMPOST
  1

  9
$DIMAPOST
  1
"
  9
$DIMALT
 70
     0
  9
$DIMALTD
 70
     2
  9
$DIMALTF
 40
0.0393701
  9
$DIMLFAC
 40
1.0
  9
$DIMTOFL
 70
     1
  9
$DIMTVP
 40
0.0
  9
$DIMTIX
 70
     0
  9
$DIMSOXD
 70
     0
  9
$DIMSAH
 70
     0
  9
$DIMBLK1
  1

  9
$DIMBLK2
  1

  9
$DIMSTYLE
  2
AM_ISO
  9
$DIMCLRD
 70
   256
  9
$DIMCLRE
 70
   256
  9
$DIMCLRT
 70
     4
  9
$DIMTFAC
 40
0.71
  9
$DIMGAP
 40
0.8
  9
$LUNITS
 70
     2
  9
$LUPREC
 70
     2
  9
$SKETCHINC
 40
1.0
  9
$FILLETRAD
 40
35.0
  9
$AUNITS
 70
     0
  9
$AUPREC
 70
     0
  9
$MENU
  1
.
  9
$ELEVATION
 40
0.0
  9
$PELEVATION
 40
0.0
  9
$THICKNESS
 40
0.0
  9
$LIMCHECK
 70
     0
  9
$BLIPMODE
 70
     0
  9
$CHAMFERA
 40
14.0
  9
$CHAMFERB
 40
7.0
  9
$SKPOLY
 70
     0
  9
$TDCREATE
 40
2452067.4143838538
  9
$TDUPDATE
 40
2458541.4533468978
  9
$TDINDWG
 40
0.0935412847
  9
$TDUSRTIMER
 40
0.0935412731
  9
$USRTIMER
 70
     1
  9
$ANGBASE
 50
0.0
  9
$ANGDIR
 70
     0
  9
$PDMODE
 70
     0
  9
$PDSIZE
 40
0.0
  9
$PLINEWID
 40
0.0
  9
$COORDS
 70
     1
  9
$SPLFRAME
 70
     0
  9
$SPLINETYPE
 70
     6
  9
$SPLINESEGS
 70
     8
  9
$ATTDIA
 70
     1
  9
$ATTREQ
 70
     1
  9
$HANDLING
 70
     1
  9
$HANDSEED
  5
349A
  9
$SURFTAB1
 70
     6
  9
$SURFTAB2
 70
     6
  9
$SURFTYPE
 70
     6
  9
$SURFU
 70
     6
  9
$SURFV
 70
     6
  9
$UCSNAME
  2

  9
$UCSORG
 10
0.0
 20
0.0
 30
0.0
  9
$UCSXDIR
 10
1.0
 20
0.0
 30
0.0
  9
$UCSYDIR
 10
0.0
 20
1.0
 30
0.0
  9
$PUCSNAME
  2

  9
$PUCSORG
 10
0.0
 20
0.0
 30
0.0
  9
$PUCSXDIR
 10
1.0
 20
0.0
 30
0.0
  9
$PUCSYDIR
 10
0.0
 20
1.0
 30
0.0
  9
$USERI1
 70
     0
  9
$USERI2
 70
     0
  9
$USERI3
 70
     0
  9
$USERI4
 70
     0
  9
$USERI5
 70
     0
  9
$USERR1
 40
0.0
  9
$USERR2
 40
0.0
  9
$USERR3
 40
0.0
  9
$USERR4
 40
0.0
  9
$USERR5
 40
0.0
  9
$WORLDVIEW
 70
     1
  9
$SHADEDGE
 70
     3
  9
$SHADEDIF
 70
    70
  9
$TILEMODE
 70
     1
  9
$MAXACTVP
 70
    64
  9
$PLIMCHECK
 70
     0
  9
$PEXTMIN
 10
1.0000000000000000E+020
 20
1.0000000000000000E+020
 30
1.0000000000000000E+020
  9
$PEXTMAX
 10
-1.0000000000000000E+020
 20
-1.0000000000000000E+020
 30
-1.0000000000000000E+020
  9
$PLIMMIN
 10
0.0
 20
0.0
  9
$PLIMMAX
 10
420.0
 20
297.0
  9
$UNITMODE
 70
     0
  9
$VISRETAIN
 70
     1
  9
$PLINEGEN
 70
     0
  9
$PSLTSCALE
 70
     1
  0
ENDSEC
  0
SECTION
  2
TABLES
  0
TABLE
  2
VPORT
 70
     1
  0
VPORT
  2
*ACTIVE
 70
     0
 10
0.0
 20
0.0
 11
1.0
 21
1.0
 12
861.05573339237105
 22
795.14171259862985
 13
0.0
 23
0.0
 14
17.5
 24
17.5
 15
70.0
 25
70.0
 16
0.0
 26
0.0
 36
1.0
 17
0.0
 27
0.0
 37
0.0
 40
1158.1501199388249
 41
1.7571592210767459
 42
50.0
 43
0.0
 44
0.0
 50
0.0
 51
0.0
 71
     0
 72
   100
 73
     1
 74
     3
 75
     0
 76
     0
 77
     0
 78
     0
  0
ENDTAB
  0
TABLE
  2
LTYPE
 70
    26
  0
LTYPE
  2
CONTINUOUS
 70
     0
  3
Solid line
 72
    65
 73
     0
 40
0.0
  0
LTYPE
  2
AM_ISO02W050
 70
     0
  3
__ __ __ __ __ __ __ __ __ __ __ __ __ __ __
 72
    65
 73
     2
 40
7.5
 49
6.0
 49
-1.5
  0
LTYPE
  2
AM_ISO08W050
 70
     0
  3
____ . ____ . ____ . ____ . ____ . ____ . ____
 72
    65
 73
     4
 40
18.0
 49
12.0
 49
-1.5
 49
3.0
 49
-1.5
  0
LTYPE
  2
AM_ISO09W050
 70
     0
  3
_____ . . _____ . . _____ . . ____ .. ____
 72
    65
 73
     6
 40
22.5
 49
12.0
 49
-1.5
 49
3.0
 49
-1.5
 49
3.0
 49
-1.5
  0
LTYPE
  2
AMCONSTR
 70
     0
  3
_______________________
 72
    65
 73
     2
 40
9999.0
 49
9999.0
 49
0.0
  0
LTYPE
  2
AM_ISO08W050X2
 70
     0
  3
__ . __ . __ . __ . __ . __
 72
    65
 73
     4
 40
9.0
 49
6.0
 49
-0.75
 49
1.5
 49
-0.75
  0
LTYPE
  2
AM_ISO02W050X2
 70
     0
  3
 _ _ _ _ _ _ _ _ _ _ _ _
 72
    65
 73
     2
 40
3.75
 49
3.0
 49
-0.75
  0
LTYPE
  2
AMZIGZAG
 70
     0
  3
/\/-/\/-/\/-/\/-/\/-/\/
 72
    65
 73
     2
 40
11.000099999999991
 49
0.0001
 49
-11.0
  0
LTYPE
  2
ACISOWELD
 70
     0
  3
_ _ _ _ _
 72
    65
 73
     2
 40
2.0
 49
2.0
 49
-1.0
  0
LTYPE
  2
ACISOTGB
 70
     0
  3
__ . . __ . .
 72
    65
 73
     6
 40
9.0
 49
4.0
 49
-1.0
 49
1.0
 49
-1.0
 49
1.0
 49
-1.0
  0
LTYPE
  2
ACISOTGL
 70
     0
  3
_ _ _ _ _
 72
    65
 73
     2
 40
3.0
 49
2.0
 49
-1.0
  0
LTYPE
  2
CENTER
 70
     0
  3
__ . __
 72
    65
 73
     4
 40
7.0
 49
4.0
 49
-1.0
 49
1.0
 49
-1.0
  0
LTYPE
  2
PHANTOM2
 70
     0
  3
Phantom (.5x) ___ _ _ ___ _ _ ___ _ _ ___ _ _
 72
    65
 73
     6
 40
31.75
 49
15.875
 49
-3.174999999999998
 49
3.174999999999998
 49
-3.174999999999998
 49
3.174999999999998
 49
-3.174999999999998
  0
LTYPE
  2
ACANSTGBM
 70
     0
  3
__ . . __ . .
 72
    65
 73
     6
 40
9.0
 49
4.0
 49
-1.0
 49
1.0
 49
-1.0
 49
1.0
 49
-1.0
  0
LTYPE
  2
ACANSTGLM
 70
     0
  3
_ _ _ _ _
 72
    65
 73
     2
 40
3.0
 49
2.0
 49
-1.0
  0
LTYPE
  2
GEN7
 70
     0
  3
____ . ____ . ____ . ____ . ____ . ____ . ____
 72
    65
 73
     4
 40
14.25
 49
9.75
 49
-1.5
 49
1.5
 49
-1.5
  0
LTYPE
  2
GEN7A
 70
     0
  3
__ . __ . __
 72
    65
 73
     4
 40
7.375
 49
4.75
 49
-0.875
 49
0.875
 49
-0.875
  0
LTYPE
  2
ACJISTGB
 70
     0
  3
__ . . __ . .
 72
    65
 73
     6
 40
9.0
 49
4.0
 49
-1.0
 49
1.0
 49
-1.0
 49
1.0
 49
-1.0
  0
LTYPE
  2
ACJISTGL
 70
     0
  3
_ _ _ _ _
 72
    65
 73
     2
 40
3.0
 49
2.0
 49
-1.0
  0
LTYPE
  2
HIDDEN
 70
     0
  3
Hidden __ __ __ __ __ __ __ __ __ __ __ __ __ _
 72
    65
 73
     2
 40
0.375
 49
0.25
 49
-0.125
  0
LTYPE
  2
CENTER2
 70
     0
  3
Center (.5x) ___ _ ___ _ ___ _ ___ _ ___ _ ___
 72
    65
 73
     4
 40
1.125
 49
0.75
 49
-0.125
 49
0.125
 49
-0.125
  0
LTYPE
  2
HIDDEN2
 70
     0
  3
Hidden (.5x) _ _ _ _ _ _ _ _ _ _ _ _ _ _ _ _ _
 72
    65
 73
     2
 40
0.1875
 49
0.125
 49
-0.0625
  0
LTYPE
  2
AMZIGZAG2
 70
     0
  3
/\/-/\/-/\/-/\/-/\/-/\/
 72
    65
 73
     2
 40
0.4401
 49
0.0001
 49
-0.4400000000000002
  0
LTYPE
  2
ACANSTGB
 70
     0
  3
__ . . __ . .
 72
    65
 73
     6
 40
0.35433070866
 49
0.15748031496
 49
-0.03937007874
 49
0.03937007874
 49
-0.03937007874
 49
0.03937007874
 49
-0.03937007874
  0
LTYPE
  2
ACANSTGL
 70
     0
  3
_ _ _ _ _
 72
    65
 73
     2
 40
0.11811023622
 49
0.07874015748
 49
-0.03937007874
  0
ENDTAB
  0
TABLE
  2
LAYER
 70
     6
  0
LAYER
  2
0
 70
     0
 62
     7
  6
CONTINUOUS
  0
LAYER
  2
AM_0
 70
     0
 62
     7
  6
CONTINUOUS
  0
LAYER
  2
AM_5
 70
     0
 62
     2
  6
CONTINUOUS
  0
LAYER
  2
DEFPOINTS
 70
     0
 62
     7
  6
CONTINUOUS
  0
LAYER
  2
ﾁｭｳｼﾝｾﾝ
 70
     0
 62
     1
  6
GEN7
  0
LAYER
  2
ﾁｭｳｼﾝｾﾝ1
 70
     0
 62
     1
  6
GEN7A
  0
ENDTAB
  0
TABLE
  2
STYLE
 70
     9
  0
STYLE
  2
STANDARD
 70
     0
 40
0.0
 41
0.8299999999999999
 50
0.0
 71
     0
 42
2.5
  3
txt.shx
  4
bigfont.shx
  0
STYLE
  2
ANNOTATIVE
 70
     0
 40
0.0
 41
1.0
 50
0.0
 71
     0
 42
0.2
  3
txt
  4

  0
STYLE
  2

 70
     1
 40
0.0
 41
1.0
 50
0.0
 71
     0
 42
2.5
  3
ltypeshp.shx
  4

  0
STYLE
  2
ACISOTS
 70
     0
 40
1.0
 41
1.0
 50
0.0
 71
     0
 42
2.5
  3
isocp.shx
  4
extfont.shx
  0
STYLE
  2
ACISOGDT
 70
     0
 40
0.0
 41
1.0
 50
0.0
 71
     0
 42
2.5
  3
amgdt.shx
  4

  0
STYLE
  2
ACANSTS
 70
     0
 40
1.0
 41
1.0
 50
0.0
 71
     0
 42
2.5
  3
romans.shx
  4
bigfont.shx
  0
STYLE
  2
ACANSGDT
 70
     0
 40
0.0
 41
1.0
 50
0.0
 71
     0
 42
2.5
  3
amgdt.shx
  4

  0
STYLE
  2
ACJISTS
 70
     0
 40
1.0
 41
1.0
 50
0.0
 71
     0
 42
2.5
  3
isocp.shx
  4
bigfont.shx
  0
STYLE
  2
ACJISGDT
 70
     0
 40
0.0
 41
1.0
 50
0.0
 71
     0
 42
2.5
  3
amgdt.shx
  4

  0
ENDTAB
  0
TABLE
  2
VIEW
 70
     6
  0
VIEW
  2
AM_VIEW1
 70
     0
 40
647.50000000000011
 10
582.51151012891353
 20
971.25000000000023
 41
1165.0230202578271
 11
0.0
 21
0.0
 31
1.0
 12
0.0
 22
0.0
 32
0.0
 42
50.0
 43
0.0
 44
0.0
 50
0.0
 71
     0
  0
VIEW
  2
AM_VIEW2
 70
     0
 40
647.50000000000011
 10
1408.9884898710859
 20
971.25000000000023
 41
1165.0230202578271
 11
0.0
 21
0.0
 31
1.0
 12
0.0
 22
0.0
 32
0.0
 42
50.0
 43
0.0
 44
0.0
 50
0.0
 71
     0
  0
VIEW
  2
AM_VIEW3
 70
     0
 40
647.50000000000011
 10
582.51151012891353
 20
323.75
 41
1165.0230202578271
 11
0.0
 21
0.0
 31
1.0
 12
0.0
 22
0.0
 32
0.0
 42
50.0
 43
0.0
 44
0.0
 50
0.0
 71
     0
  0
VIEW
  2
AM_VIEW4
 70
     0
 40
647.50000000000011
 10
1408.9884898710859
 20
323.75
 41
1165.0230202578271
 11
0.0
 21
0.0
 31
1.0
 12
0.0
 22
0.0
 32
0.0
 42
50.0
 43
0.0
 44
0.0
 50
0.0
 71
     0
  0
VIEW
  2
AM_VIEW5
 70
     0
 40
647.50000000000011
 10
995.74999999999989
 20
647.50000000000011
 41
1165.0230202578259
 11
0.0
 21
0.0
 31
1.0
 12
0.0
 22
0.0
 32
0.0
 42
50.0
 43
0.0
 44
0.0
 50
0.0
 71
     0
  0
VIEW
  2
AM_VIEW6
 70
     0
 40
1294.98705
 10
995.74999999999989
 20
647.50000000000011
 41
2330.0227400552481
 11
0.0
 21
0.0
 31
1.0
 12
0.0
 22
0.0
 32
0.0
 42
50.0
 43
0.0
 44
0.0
 50
0.0
 71
     0
  0
ENDTAB
  0
TABLE
  2
UCS
 70
     0
  0
ENDTAB
  0
TABLE
  2
APPID
 70
    95
  0
APPID
  2
ACAD
 70
     0
  0
APPID
  2
ACADANNOTATIVE
 70
     0
  0
APPID
  2
MCAD_NO_VIS
 70
     0
  0
APPID
  2
ACAD_TEMP_GRAPHIC
 70
     0
  0
APPID
  2
ACATTRIBSERVICES
 70
     0
  0
APPID
  2
GENIUS_GENREC_14
 70
     0
  0
APPID
  2
GENIUS_GENOBJ-N-REC_13
 70
     0
  0
APPID
  2
GENIUS_GENODEF_13
 70
     0
  0
APPID
  2
GENIUS_GENOLIS_13
 70
     0
  0
APPID
  2
GENIUS_GENOBJ-N-TIT_13
 70
     0
  0
APPID
  2
GENIUS_GENOENT_13
 70
     0
  0
APPID
  2
GENIUS_GENTITLE_13
 70
     0
  0
APPID
  2
GENIUS_GENOREF_13
 70
     0
  0
APPID
  2
GENIUS_GENSCREG_15
 70
     0
  0
APPID
  2
GENIUS_GENOBJ-N-SDF_13
 70
     0
  0
APPID
  2
GENIUS_GENFIL_13
 70
     0
  0
APPID
  2
GENIUS_GENOBJ-N-CHA_13
 70
     0
  0
APPID
  2
GENIUS_GENDTOL_13
 70
     0
  0
APPID
  2
GENIUS_GENOBJ-N-FIL_13
 70
     0
  0
APPID
  2
AD_DRAW
 70
     0
  0
APPID
  2
DESIGNERASSEMBLIES
 70
     0
  0
APPID
  2
ASURF_PCURVE_APPNAME
 70
     0
  0
APPID
  2
GENIUS_GE3SECT_13
 70
     0
  0
APPID
  2
GENIUS_GENCFG_13
 70
     0
  0
APPID
  2
GENIUS_GE3CFG0_13
 70
     0
  0
APPID
  2
GENIUS_GENCFG0_13
 70
     0
  0
APPID
  2
GENIUS_GENCFG1_13
 70
     0
  0
APPID
  2
GENIUS_GENCFG2_13
 70
     0
  0
APPID
  2
GENIUS_GENCFG3_13
 70
     0
  0
APPID
  2
GENIUS_GENCFG4_13
 70
     0
  0
APPID
  2
GENIUS_GEVCFG0_13
 70
     0
  0
APPID
  2
GENIUS_GENHINW_13
 70
     0
  0
APPID
  2
GENIUS_FIRSTVISTXT_14
 70
     0
  0
APPID
  2
GENIUS_GENOBJ-N-LEADER_13
 70
     0
  0
APPID
  2
GEV_VCCNULL_SWITCH_OFF
 70
     0
  0
APPID
  2
GENIUS_GEFCFG0_13
 70
     0
  0
APPID
  2
GENIUS_GENZVEED_13
 70
     0
  0
APPID
  2
GENIUS_GENSCREG_13
 70
     0
  0
APPID
  2
GENIUS_DUMCFG0_13
 70
     0
  0
APPID
  2
GEVID936201362
 70
     0
  0
APPID
  2
GEVDC
 70
     0
  0
APPID
  2
GEVCON
 70
     0
  0
APPID
  2
VCC
 70
     0
  0
APPID
  2
GEVPT
 70
     0
  0
APPID
  2
GEVIT
 70
     0
  0
APPID
  2
GENBH
 70
     0
  0
APPID
  2
GEVMK
 70
     0
  0
APPID
  2
GENIUS_GENBH_13
 70
     0
  0
APPID
  2
GENIUS_GENOBJ-NBEHI-BHF_13
 70
     0
  0
APPID
  2
GENIUS_GENOBJ-NBEHI-BHB_13
 70
     0
  0
APPID
  2
GENIUS_GENOBJ-F-DESC_13
 70
     0
  0
APPID
  2
GENIUS_GEFDESC_14
 70
     0
  0
APPID
  2
GENIUS_GENOBJ-F-PART_13
 70
     0
  0
APPID
  2
GENIUS_GEFSTDP_13
 70
     0
  0
APPID
  2
GENIUS_GEFPARTINS_13
 70
     0
  0
APPID
  2
GENIUS_GENTRA_14
 70
     0
  0
APPID
  2
GENIUS_GENINF13_13
 70
     0
  0
APPID
  2
GENIUS_GENOBJ-N-INFOPT_13
 70
     0
  0
APPID
  2
GENIUS_GENOBJ-N-RSSYM_13
 70
     0
  0
APPID
  2
GENIUS_GENSYMENT_13
 70
     0
  0
APPID
  2
GENIUS_GENSCSYM_13
 70
     0
  0
APPID
  2
GENIUS_GEFINFNAM_13
 70
     0
  0
APPID
  2
GENIUS_GENOBJ-N-CEN_13
 70
     0
  0
APPID
  2
GENIUS_GENOBJ-N-CRS_13
 70
     0
  0
APPID
  2
GENIUS_GENOBJ-N-CRC_13
 70
     0
  0
APPID
  2
GENIUS_GENCRC_14
 70
     0
  0
APPID
  2
GEVID942827039
 70
     0
  0
APPID
  2
GEVID942827040
 70
     0
  0
APPID
  2
GEVID942827041
 70
     0
  0
APPID
  2
GENIUS_GENOBJ-F-SCPASSM_13
 70
     0
  0
APPID
  2
GENIUS_GENDIMSH_14
 70
     0
  0
APPID
  2
GEVID942827042
 70
     0
  0
APPID
  2
GEVID946020473
 70
     0
  0
APPID
  2
GEVID946020474
 70
     0
  0
APPID
  2
GEVID946020475
 70
     0
  0
APPID
  2
GENIUS_GENOBJ-N-HTC_13
 70
     0
  0
APPID
  2
GENIUS_GENHATCH_13
 70
     0
  0
APPID
  2
GEVID948854295
 70
     0
  0
APPID
  2
GEVID939402019
 70
     0
  0
APPID
  2
GEVID952919491
 70
     0
  0
APPID
  2
GEVID952919492
 70
     0
  0
APPID
  2
GENIUS_GEFWELD_13
 70
     0
  0
APPID
  2
GENIUS_GENOBJ-F-WELS_13
 70
     0
  0
APPID
  2
GEVID952919493
 70
     0
  0
APPID
  2
GENIUS_GENOBJ-N-RSBK_13
 70
     0
  0
APPID
  2
GENIUS_GENOBJ-N-LIB_13
 70
     0
  0
APPID
  2
GENIUS_GENSCALE_13
 70
     0
  0
APPID
  2
GEVID986376691
 70
     0
  0
APPID
  2
DCO15
 70
     0
  0
APPID
  2
ACAD_DSTYLE_DIMBREAK
 70
     0
  0
APPID
  2
ACAD_DSTYLE_DIMJAG
 70
     0
  0
APPID
  2
ACAD_NAV_VCDISPLAY
 70
     0
  0
APPID
  2
ACADANNOPO
 70
     0
  0
APPID
  2
ACAD_EXEMPT_FROM_CAD_STANDARDS
 70
     0
  0
APPID
  2
ACAD_MLEADERVER
 70
     0
  0
ENDTAB
  0
TABLE
  2
DIMSTYLE
 70
    22
  0
DIMSTYLE
  2
STANDARD
 70
     0
  3

  4

  5

  6

  7

 40
1.0
 41
0.18
 42
0.0625
 43
0.38
 44
0.18
 45
0.0
 46
0.0
 47
0.0
 48
0.0
140
0.18
141
0.09
142
0.0
143
25.399999999999999
144
1.0
145
0.0
146
1.0
147
0.09
 71
     0
 72
     0
 73
     1
 74
     1
 75
     0
 76
     0
 77
     0
 78
     0
170
     0
171
     2
172
     0
173
     0
174
     0
175
     0
176
     0
177
     0
178
     0
  0
DIMSTYLE
  2
ANNOTATIVE
 70
     0
  3

  4

  5

  6

  7

 40
1.0
 41
0.18
 42
0.0625
 43
0.38
 44
0.18
 45
0.0
 46
0.0
 47
0.0
 48
0.0
140
0.18
141
0.09
142
0.0
143
25.399999999999999
144
1.0
145
0.0
146
1.0
147
0.09
 71
     0
 72
     0
 73
     1
 74
     1
 75
     0
 76
     0
 77
     0
 78
     0
170
     0
171
     2
172
     0
173
     0
174
     0
175
     0
176
     0
177
     0
178
     0
  0
DIMSTYLE
  2
AM_ISO
 70
     0
  3

  4
"
  5

  6

  7

 40
1.0
 41
2.5
 42
1.0
 43
8.0
 44
0.6
 45
0.0
 46
0.0
 47
0.1
 48
0.1
140
2.5
141
0.0
142
0.0
143
0.0393701
144
1.0
145
0.0
146
0.71
147
0.8
 71
     0
 72
     0
 73
     0
 74
     0
 75
     0
 76
     0
 77
     1
 78
     8
170
     0
171
     2
172
     1
173
     0
174
     0
175
     0
176
   256
177
   256
178
     4
  0
DIMSTYLE
  2
AM_ISO$3
 70
     0
  3

  4
"
  5

  6

  7

 40
1.0
 41
2.5
 42
1.0
 43
8.0
 44
0.6
 45
0.0
 46
0.0
 47
0.1
 48
0.1
140
2.5
141
0.0
142
0.0
143
0.0393701
144
1.0
145
0.0
146
0.71
147
0.8
 71
     0
 72
     0
 73
     0
 74
     1
 75
     0
 76
     0
 77
     1
 78
     8
170
     0
171
     2
172
     0
173
     0
174
     0
175
     0
176
   256
177
   256
178
     4
  0
DIMSTYLE
  2
AM_ISO$4
 70
     0
  3

  4
"
  5

  6

  7

 40
1.0
 41
2.5
 42
1.0
 43
8.0
 44
0.6
 45
0.0
 46
0.0
 47
0.1
 48
0.1
140
2.5
141
0.0
142
0.0
143
0.0393701
144
1.0
145
0.0
146
0.71
147
0.8
 71
     0
 72
     0
 73
     0
 74
     1
 75
     0
 76
     0
 77
     1
 78
     8
170
     0
171
     2
172
     0
173
     0
174
     0
175
     0
176
   256
177
   256
178
     4
  0
DIMSTYLE
  2
AM_ISO$6
 70
     0
  3

  4
"
  5

  6

  7

 40
1.0
 41
2.5
 42
1.0
 43
8.0
 44
0.6
 45
0.0
 46
0.0
 47
0.1
 48
0.1
140
2.5
141
0.0
142
0.0
143
0.0393701
144
1.0
145
0.0
146
0.71
147
0.8
 71
     0
 72
     0
 73
     0
 74
     0
 75
     0
 76
     0
 77
     0
 78
     8
170
     0
171
     2
172
     1
173
     0
174
     0
175
     0
176
   256
177
   256
178
     4
  0
DIMSTYLE
  2
AM_ISO$7
 70
     0
  3

  4
"
  5

  6

  7

 40
1.0
 41
2.5
 42
1.0
 43
8.0
 44
0.6
 45
0.0
 46
0.0
 47
0.1
 48
0.1
140
2.5
141
0.0
142
0.0
143
0.0393701
144
1.0
145
0.0
146
0.71
147
0.8
 71
     0
 72
     0
 73
     0
 74
     0
 75
     0
 76
     0
 77
     1
 78
     8
170
     0
171
     2
172
     1
173
     0
174
     0
175
     0
176
   256
177
   256
178
     4
  0
DIMSTYLE
  2
AM_ISO$SF
 70
     0
  3

  4
"
  5

  6

  7

 40
1.0
 41
2.5
 42
1.0
 43
10.0
 44
1.0
 45
0.0
 46
0.0
 47
0.1
 48
0.1
140
3.5
141
0.0
142
0.0
143
0.0393701
144
1.0
145
0.0
146
0.71
147
1.5
 71
     0
 72
     0
 73
     0
 74
     0
 75
     1
 76
     1
 77
     1
 78
     8
170
     0
171
     2
172
     1
173
     0
174
     0
175
     0
176
   256
177
   256
178
     2
  0
DIMSTYLE
  2
AM_ISO$SH
 70
     0
  3

  4
"
  5

  6

  7

 40
1.0
 41
2.5
 42
1.0
 43
10.0
 44
1.0
 45
0.0
 46
0.0
 47
0.1
 48
0.1
140
3.5
141
0.0
142
0.0
143
0.0393701
144
2.0
145
0.0
146
0.71
147
1.5
 71
     0
 72
     0
 73
     0
 74
     0
 75
     1
 76
     1
 77
     1
 78
     8
170
     0
171
     2
172
     1
173
     1
174
     0
175
     0
176
   256
177
   256
178
     2
  0
DIMSTYLE
  2
AM_JIS
 70
     0
  3

  4
"
  5

  6

  7

 40
1.0
 41
2.5
 42
1.0
 43
7.0
 44
1.0
 45
0.0
 46
0.0
 47
0.1
 48
0.1000000001
140
2.5
141
0.0
142
0.0
143
0.0393701
144
1.0
145
0.0
146
0.71
147
1.0
 71
     0
 72
     0
 73
     0
 74
     0
 75
     0
 76
     0
 77
     3
 78
     8
170
     0
171
     2
172
     1
173
     0
174
     0
175
     0
176
   256
177
   256
178
     4
  0
DIMSTYLE
  2
AM_JIS$3
 70
     0
  3

  4
"
  5

  6

  7

 40
1.0
 41
2.5
 42
1.0
 43
7.0
 44
1.0
 45
0.0
 46
0.0
 47
0.1
 48
0.1000000001
140
2.5
141
0.0
142
0.0
143
0.0393701
144
1.0
145
0.0
146
0.71
147
1.0
 71
     0
 72
     0
 73
     0
 74
     1
 75
     0
 76
     0
 77
     3
 78
     8
170
     0
171
     2
172
     0
173
     0
174
     0
175
     0
176
   256
177
   256
178
     4
  0
DIMSTYLE
  2
AM_JIS$4
 70
     0
  3

  4
"
  5

  6

  7

 40
1.0
 41
2.5
 42
1.0
 43
7.0
 44
1.0
 45
0.0
 46
0.0
 47
0.1
 48
0.1000000001
140
2.5
141
0.0
142
0.0
143
0.0393701
144
1.0
145
0.0
146
0.71
147
1.0
 71
     0
 72
     0
 73
     0
 74
     0
 75
     0
 76
     0
 77
     3
 78
     8
170
     0
171
     2
172
     0
173
     0
174
     0
175
     0
176
   256
177
   256
178
     4
  0
DIMSTYLE
  2
AM_JIS$6
 70
     0
  3

  4
"
  5

  6

  7

 40
1.0
 41
2.5
 42
1.0
 43
7.0
 44
1.0
 45
0.0
 46
0.0
 47
0.1
 48
0.1000000001
140
2.5
141
0.0
142
0.0
143
0.0393701
144
1.0
145
0.0
146
0.71
147
1.0
 71
     0
 72
     0
 73
     0
 74
     0
 75
     0
 76
     0
 77
     0
 78
     8
170
     0
171
     2
172
     1
173
     0
174
     0
175
     0
176
   256
177
   256
178
     4
  0
DIMSTYLE
  2
AM_JIS$7
 70
     0
  3

  4
"
  5

  6

  7

 40
1.0
 41
2.5
 42
1.0
 43
7.0
 44
1.0
 45
0.0
 46
0.0
 47
0.1
 48
0.1000000001
140
2.5
141
0.0
142
0.0
143
0.0393701
144
1.0
145
0.0
146
0.71
147
1.0
 71
     0
 72
     0
 73
     0
 74
     0
 75
     0
 76
     0
 77
     3
 78
     8
170
     0
171
     2
172
     1
173
     0
174
     0
175
     0
176
   256
177
   256
178
     4
  0
DIMSTYLE
  2
AM_JIS$SF
 70
     0
  3

  4
"
  5

  6

  7

 40
1.0
 41
2.5
 42
1.0
 43
10.0
 44
1.0
 45
0.0
 46
0.0
 47
0.1
 48
0.1
140
3.5
141
0.0
142
0.0
143
0.0393701
144
1.0
145
0.0
146
0.71
147
1.5
 71
     0
 72
     0
 73
     0
 74
     0
 75
     1
 76
     1
 77
     3
 78
     8
170
     0
171
     2
172
     1
173
     0
174
     0
175
     0
176
   256
177
   256
178
     4
  0
DIMSTYLE
  2
AM_JIS$SH
 70
     0
  3

  4
"
  5

  6

  7

 40
1.0
 41
2.5
 42
1.0
 43
10.0
 44
1.0
 45
0.0
 46
0.0
 47
0.1
 48
0.1
140
3.5
141
0.0
142
0.0
143
0.0393701
144
1.0
145
0.0
146
0.71
147
1.5
 71
     0
 72
     0
 73
     0
 74
     0
 75
     1
 76
     0
 77
     3
 78
     8
170
     0
171
     2
172
     1
173
     1
174
     0
175
     0
176
   256
177
   256
178
     4
  0
DIMSTYLE
  2
AM_ANSI
 70
     0
  3

  4
mm
  5

  6

  7

 40
1.0
 41
0.1
 42
0.05
 43
0.5
 44
0.1
 45
0.0
 46
0.0
 47
0.1
 48
0.1
140
0.12
141
0.0
142
0.0
143
25.399999999999999
144
1.0
145
0.0
146
0.71
147
0.06
 71
     0
 72
     0
 73
     1
 74
     1
 75
     0
 76
     0
 77
     0
 78
     7
170
     0
171
     2
172
     0
173
     0
174
     0
175
     0
176
   256
177
   256
178
     2
  0
DIMSTYLE
  2
AM_ANSI$3
 70
     0
  3

  4
mm
  5

  6

  7

 40
1.0
 41
0.1
 42
0.05
 43
0.5
 44
0.1
 45
0.0
 46
0.0
 47
0.1
 48
0.1
140
0.12
141
0.0
142
0.0
143
25.399999999999999
144
1.0
145
0.0
146
0.71
147
0.06
 71
     0
 72
     0
 73
     1
 74
     1
 75
     0
 76
     0
 77
     0
 78
     7
170
     0
171
     2
172
     0
173
     0
174
     0
175
     0
176
   256
177
   256
178
     2
  0
DIMSTYLE
  2
AM_ANSI$4
 70
     0
  3

  4
mm
  5

  6

  7

 40
1.0
 41
0.1
 42
0.05
 43
0.5
 44
0.1
 45
0.0
 46
0.0
 47
0.1
 48
0.1
140
0.12
141
0.0
142
0.0
143
25.399999999999999
144
1.0
145
0.0
146
0.71
147
0.06
 71
     0
 72
     0
 73
     1
 74
     1
 75
     0
 76
     0
 77
     0
 78
     7
170
     0
171
     2
172
     0
173
     0
174
     0
175
     0
176
   256
177
   256
178
     2
  0
DIMSTYLE
  2
AM_ANSI$7
 70
     0
  3

  4
mm
  5

  6

  7

 40
1.0
 41
0.1
 42
0.05
 43
0.5
 44
0.1
 45
0.0
 46
0.0
 47
0.1
 48
0.1
140
0.24
141
0.0
142
0.0
143
25.399999999999999
144
1.0
145
0.0
146
0.71
147
0.06
 71
     0
 72
     0
 73
     1
 74
     1
 75
     0
 76
     0
 77
     0
 78
     7
170
     0
171
     2
172
     0
173
     0
174
     0
175
     0
176
   256
177
   256
178
     2
  0
DIMSTYLE
  2
AM_ANSI$SF
 70
     0
  3

  4
mm
  5

  6

  7

 40
1.0
 41
0.1
 42
0.05
 43
0.5
 44
0.1
 45
0.0
 46
0.0
 47
0.1
 48
0.1
140
0.12
141
0.0
142
0.0
143
25.399999999999999
144
1.0
145
0.0
146
0.71
147
0.06
 71
     0
 72
     0
 73
     1
 74
     1
 75
     1
 76
     1
 77
     0
 78
     7
170
     0
171
     2
172
     0
173
     0
174
     0
175
     0
176
   256
177
   256
178
     2
  0
DIMSTYLE
  2
AM_ANSI$SH
 70
     0
  3

  4
mm
  5

  6

  7

 40
1.0
 41
0.1
 42
0.05
 43
0.5
 44
0.1
 45
0.0
 46
0.0
 47
0.1
 48
0.1
140
0.12
141
0.0
142
0.0
143
25.399999999999999
144
1.0
145
0.0
146
0.71
147
0.06
 71
     0
 72
     0
 73
     1
 74
     1
 75
     1
 76
     1
 77
     0
 78
     7
170
     0
171
     2
172
     0
173
     1
174
     0
175
     0
176
   256
177
   256
178
     2
  0
ENDTAB
  0
ENDSEC
  0
SECTION
  2
BLOCKS
  0
BLOCK
  8
0
  2
$MODEL_SPACE
 70
     0
 10
0.0
 20
0.0
 30
0.0
  3
$MODEL_SPACE
  1

  0
ENDBLK
  5
330E
  8
0
  0
BLOCK
 67
     1
  8
0
  2
$PAPER_SPACE
 70
     0
 10
0.0
 20
0.0
 30
0.0
  3
$PAPER_SPACE
  1

  0
ENDBLK
  5
330A
 67
     1
  8
0
  0
BLOCK
  8
0
  2
GENAXEH
 70
     0
 10
0.0
 20
0.0
 30
0.0
  3
GENAXEH
  1

  0
LINE
  5
3044
  8
0
 10
-1.0
 20
0.0
 30
0.0
 11
1.0
 21
0.0
 31
0.0
  0
ENDBLK
  5
3045
  8
0
  0
BLOCK
  8
0
  2
_OPEN30
 70
     0
 10
0.0
 20
0.0
 30
0.0
  3
_OPEN30
  1

  0
LINE
  5
3048
  8
0
 62
     0
 10
-1.0
 20
0.26794919
 30
0.0
 11
0.0
 21
0.0
 31
0.0
  0
LINE
  5
3049
  8
0
 62
     0
 10
0.0
 20
0.0
 30
0.0
 11
-1.0
 21
-0.26794919
 31
0.0
  0
LINE
  5
304A
  8
0
 62
     0
 10
0.0
 20
0.0
 30
0.0
 11
-1.0
 21
0.0
 31
0.0
  0
ENDBLK
  5
304B
  8
0
  0
BLOCK
  8
0
  2
_NONE
 70
     0
 10
0.0
 20
0.0
 30
0.0
  3
_NONE
  1

  0
ENDBLK
  5
304E
  8
0
  0
BLOCK
  8
0
  2
_ACMFILLEDHALF
 70
     0
 10
0.0
 20
0.0
 30
0.0
  3
_ACMFILLEDHALF
  1

  0
TRACE
  5
3404
  8
AM_0
 62
     0
 10
-0.8
 20
0.0
 30
0.0
 11
-1.0
 21
0.166666666
 31
0.0
 12
0.0
 22
0.0
 32
0.0
 13
0.0
 23
0.0
 33
0.0
  0
LINE
  5
3405
  8
AM_0
 62
     0
 10
-1.0
 20
0.0
 30
0.0
 11
-0.8
 21
0.0
 31
0.0
  0
ENDBLK
  5
3403
  8
0
  0
ENDSEC
  0
SECTION
  2
ENTITIES
  0
ARC
  5
304F
  8
AM_0
 10
690.02036111863436
 20
655.47297174486903
 30
0.0
 40
12.0000006
 50
271.49999999999972
 51
0.0
  0
ARC
  5
3050
  8
AM_0
 10
690.02036111863436
 20
661.47297174486903
 30
0.0
 40
12.0000006
 50
271.49999999999972
 51
0.0
  0
ARC
  5
3051
  8
AM_0
 10
653.52032111863446
 20
668.51997174486883
 30
0.0
 40
19.999998599999991
 50
271.49999999999972
 51
315.0
  0
ARC
  5
3052
  8
AM_0
 10
556.89422111863405
 20
647.22831174486885
 30
0.0
 40
4.9999996800000002
 50
124.59872
 51
189.0
  0
LINE
  5
3053
  8
AM_0
 10
552.02030111863405
 20
646.03857174486882
 30
0.0
 11
550.79438111863419
 21
653.77911174486906
 31
0.0
  0
ARC
  5
3054
  8
AM_0
 10
517.14644111863436
 20
647.22831174486885
 30
0.0
 40
4.9999996800000002
 50
351.0
 51
55.401290000000017
  0
LINE
  5
3055
  8
AM_0
 10
523.24640111863425
 20
653.77911174486906
 30
0.0
 11
522.02030111863405
 21
646.03845174486901
 31
0.0
  0
ARC
  5
3056
  8
AM_0
 10
537.02030111863405
 20
676.03845174486901
 30
0.0
 40
30.000000599999989
 50
304.59870999999998
 51
235.4012899999999
  0
LINE
  5
3057
  8
AM_0
 10
559.02032111863446
 20
646.03851174486886
 30
0.0
 11
690.33446111863418
 21
649.47705174486896
 31
0.0
  0
LINE
  5
3058
  8
AM_0
 10
702.02036111863436
 20
270.86301774486901
 30
0.0
 11
702.02036111863436
 21
719.49579174486894
 31
0.0
  0
LINE
  5
3059
  8
AM_0
 10
713.02040111863425
 20
658.66485174486866
 30
0.0
 11
713.02040111863425
 21
334.53583974486901
 31
0.0
  0
LINE
  5
305A
  8
AM_0
 10
740.02040111863414
 20
300.03852774486887
 30
0.0
 11
740.02040111863414
 21
690.03855174486898
 31
0.0
  0
LINE
  5
305B
  8
AM_0
 10
734.02040111863414
 20
725.03853174486881
 30
0.0
 11
734.02040111863414
 21
265.03855374486881
 31
0.0
  0
LINE
  5
305C
  8
ﾁｭｳｼﾝｾﾝ
 10
239.89732236469791
 20
432.43852374486869
 30
0.0
 11
502.0992159649731
 21
432.43852374486869
 31
0.0
  0
LINE
  5
305D
  8
AM_0
 10
412.23439911863392
 20
321.937207744869
 30
0.0
 11
353.1038571186341
 21
371.55362374486879
 31
0.0
  0
LINE
  5
305E
  8
AM_0
 10
412.23439911863392
 20
542.93983974486889
 30
0.0
 11
353.1038571186341
 21
493.32342474486882
 31
0.0
  0
LINE
  5
305F
  8
AM_0
 10
313.52046111863399
 20
467.43852374486869
 30
0.0
 11
313.52046111863399
 21
397.4385237448688
 31
0.0
  0
LINE
  5
3060
  8
AM_0
 10
315.52046111863399
 20
487.49043274486871
 30
0.0
 11
315.52046111863399
 21
377.386615744869
 31
0.0
  0
LINE
  5
3061
  8
AM_0
 10
309.52046111863399
 20
452.43852374486869
 30
0.0
 11
309.52046111863399
 21
412.43852374486869
 31
0.0
  0
LINE
  5
3062
  8
AM_0
 10
350.39115211863418
 20
488.06576574486871
 30
0.0
 11
350.39115211863418
 21
376.48457674486878
 31
0.0
  0
LINE
  5
3063
  8
AM_0
 10
251.5204611186339
 20
449.93852374486869
 30
0.0
 11
251.5204611186339
 21
414.93852374486869
 31
0.0
  0
LINE
  5
3064
  8
AM_0
 10
251.5204611186339
 20
414.93852374486869
 30
0.0
 11
309.52046111863399
 21
414.93852374486869
 31
0.0
  0
LINE
  5
3065
  8
AM_0
 10
318.46810411863402
 20
374.38707274486882
 30
0.0
 11
346.85050511863398
 21
373.8916557448689
 31
0.0
  0
ARC
  5
3066
  8
AM_0
 10
318.5204611186341
 20
377.386615744869
 30
0.0
 40
3.0
 50
180.0
 51
268.99999999999812
  0
ARC
  5
3067
  8
AM_0
 10
346.6759811186339
 20
363.89317874486869
 30
0.0
 40
10.0
 50
49.999999999999922
 51
89.000000000001506
  0
LINE
  5
3068
  8
AM_0
 10
313.52046111863399
 20
397.4385237448688
 30
0.0
 11
315.52046111863399
 21
395.4385237448688
 31
0.0
  0
LINE
  5
3069
  8
AM_0
 10
309.52046111863399
 20
412.43852374486869
 30
0.0
 11
313.52046111863399
 21
412.43852374486869
 31
0.0
  0
LINE
  5
306A
  8
AM_0
 10
251.5204611186339
 20
452.93852374486869
 30
0.0
 11
296.52046111863399
 21
452.93852374486869
 31
0.0
  0
LINE
  5
306B
  8
AM_0
 10
309.52046111863399
 20
449.93852374486869
 30
0.0
 11
251.5204611186339
 21
449.93852374486869
 31
0.0
  0
LINE
  5
306C
  8
AM_0
 10
251.5204611186339
 20
452.93852374486869
 30
0.0
 11
251.5204611186339
 21
449.93852374486869
 31
0.0
  0
LINE
  5
306D
  8
AM_0
 10
318.46810411863402
 20
490.48997574486879
 30
0.0
 11
346.85050511863398
 21
490.98539174486882
 31
0.0
  0
LINE
  5
306E
  8
AM_0
 10
313.52046111863399
 20
467.43852374486869
 30
0.0
 11
315.52046111863399
 21
469.43852374486869
 31
0.0
  0
LINE
  5
306F
  8
AM_0
 10
296.52046111863399
 20
452.93852374486869
 30
0.0
 11
296.52046111863399
 21
449.93852374486869
 31
0.0
  0
LINE
  5
3070
  8
AM_0
 10
313.52046111863399
 20
452.43852374486869
 30
0.0
 11
309.52046111863399
 21
452.43852374486869
 31
0.0
  0
ARC
  5
3071
  8
AM_0
 10
318.5204611186341
 20
487.49043274486871
 30
0.0
 40
3.0
 50
90.999999999998465
 51
180.0
  0
ARC
  5
3072
  8
AM_0
 10
346.6759811186339
 20
500.9838687448688
 30
0.0
 40
10.0
 50
270.99999999999841
 51
310.0
  0
ARC
  5
3073
  8
AM_0
 10
650.25368111863395
 20
261.44593374486891
 30
0.0
 40
25.911341399999991
 50
274.10136
 51
343.00889000000001
  0
LINE
  5
3074
  8
AM_0
 10
652.10690111863414
 20
238.50118374486891
 30
0.0
 11
652.10690111863414
 21
256.06821774486878
 31
0.0
  0
ARC
  5
3075
  8
AM_0
 10
653.66330111863397
 20
252.1152137448689
 30
0.0
 40
28.5191868
 50
266.87150000000003
 51
354.92327
  0
LINE
  5
3076
  8
AM_0
 10
543.02042111863454
 20
642.03855174486876
 30
0.0
 11
543.02042111863454
 21
228.07607574486889
 31
0.0
  0
LINE
  5
3077
  8
AM_0
 10
559.02032111863446
 20
646.03845174486901
 30
0.0
 11
559.02032111863446
 21
226.07608974486891
 31
0.0
  0
LINE
  5
3078
  8
AM_0
 10
652.10696111863399
 20
235.60096374486889
 30
0.0
 11
543.02030111863405
 21
238.4574977448689
 31
0.0
  0
LINE
  5
3079
  8
AM_0
 10
559.02032111863446
 20
226.07608974486891
 30
0.0
 11
652.10696111863399
 21
223.63852974486889
 31
0.0
  0
LINE
  5
307A
  8
AM_0
 10
545.02046111863399
 20
226.07608974486891
 30
0.0
 11
559.02032111863446
 21
226.07608974486891
 31
0.0
  0
ARC
  5
307B
  8
AM_0
 10
545.02046111863399
 20
228.07607574486889
 30
0.0
 40
2.0000000399999971
 50
179.99998999999991
 51
270.0
  0
LINE
  5
307C
  8
AM_0
 10
652.10690111863414
 20
223.63851174486891
 30
0.0
 11
652.10690111863414
 21
235.6009757448688
 31
0.0
  0
LINE
  5
307D
  8
AM_0
 10
559.02032111863446
 20
640.03851174486886
 30
0.0
 11
690.33452111863426
 21
643.47705174486885
 31
0.0
  0
LINE
  5
307E
  8
AM_0
 10
663.23144111863428
 20
579.47047974486895
 30
0.0
 11
699.65672111863432
 21
602.07411174486901
 31
0.0
  0
LINE
  5
307F
  8
AM_0
 10
663.22082111863438
 20
567.70558974486903
 30
0.0
 11
699.62762111863424
 21
589.95430374486887
 31
0.0
  0
LINE
  5
3080
  8
AM_0
 10
559.02044111863415
 20
536.72523774486865
 30
0.0
 11
692.28212111863422
 21
540.21480174486885
 31
0.0
  0
LINE
  5
3081
  8
AM_0
 10
559.02032111863446
 20
616.32441174486905
 30
0.0
 11
692.19482111863397
 21
613.99983174486886
 31
0.0
  0
LINE
  5
3082
  8
AM_0
 10
559.02032111863446
 20
345.03852774486887
 30
0.0
 11
692.28212111863422
 21
341.54896374486879
 31
0.0
  0
LINE
  5
3083
  8
AM_0
 10
559.02032111863446
 20
379.03852974486881
 30
0.0
 11
692.28218111863407
 21
382.52812374486882
 31
0.0
  0
LINE
  5
3084
  8
AM_0
 10
559.02032111863446
 20
504.13282974486867
 30
0.0
 11
692.28212111863422
 21
500.64323574486872
 31
0.0
  0
LINE
  5
3085
  8
ﾁｭｳｼﾝｾﾝ
 10
461.40017418384281
 20
495.0385337448688
 30
0.0
 11
861.02036111863424
 21
495.0385337448688
 31
0.0
  0
LINE
  5
3086
  8
AM_0
 10
700.16396111863423
 20
263.96668374486899
 30
0.0
 11
672.34592111863435
 21
247.9059257448688
 31
0.0
  0
ARC
  5
3087
  8
AM_0
 10
690.03926111863439
 20
248.88363174486901
 30
0.0
 40
8.0000003999999976
 50
119.9999999999999
 51
174.92326
  0
LINE
  5
3088
  8
AM_0
 10
666.15698111863412
 20
566.97206574486904
 30
0.0
 11
697.02032111863446
 21
566.97206574486904
 31
0.0
  0
LINE
  5
3089
  8
AM_0
 10
447.5204611186341
 20
549.43849374486865
 30
0.0
 11
447.5204611186341
 21
432.43852374486869
 31
0.0
  0
LINE
  5
308A
  8
AM_0
 10
414.0204611186341
 20
504.40072474486868
 30
0.0
 11
414.0204611186341
 21
347.91285274486893
 31
0.0
  0
LINE
  5
308B
  8
AM_0
 10
492.5204611186341
 20
549.19270974486869
 30
0.0
 11
492.5204611186341
 21
318.25303374486867
 31
0.0
  0
LINE
  5
308C
  8
AM_0
 10
434.0204611186341
 20
550.43855574486872
 30
0.0
 11
434.0204611186341
 21
314.43852174486881
 31
0.0
  0
LINE
  5
308D
  8
AM_0
 10
541.08236111863425
 20
260.82444174486881
 30
0.0
 11
497.36540111863428
 21
287.12385174486877
 31
0.0
  0
LINE
  5
308E
  8
AM_0
 10
405.556907118634
 20
335.82691374486888
 30
0.0
 11
403.94031911863362
 21
347.929551744869
 31
0.0
  0
LINE
  5
308F
  8
AM_0
 10
406.0204611186341
 20
347.91285274486893
 30
0.0
 11
406.0204611186341
 21
337.1668037448689
 31
0.0
  0
LINE
  5
3090
  8
AM_0
 10
432.0204611186341
 20
332.35650374486909
 30
0.0
 11
432.0204611186341
 21
380.35971074486878
 31
0.0
  0
LINE
  5
3091
  8
AM_0
 10
447.5204611186341
 20
315.43851774486882
 30
0.0
 11
447.5204611186341
 21
432.43852374486869
 31
0.0
  0
LINE
  5
3092
  8
AM_0
 10
447.5204611186341
 20
341.35557174486888
 30
0.0
 11
492.5204611186341
 21
341.35557174486888
 31
0.0
  0
LINE
  5
3093
  8
AM_0
 10
448.0291411186343
 20
316.42966974486887
 30
0.0
 11
488.590161118634
 21
315.72166374486881
 31
0.0
  0
LINE
  5
3094
  8
AM_0
 10
432.0204611186341
 20
332.35650374486909
 30
0.0
 11
409.52169411863412
 21
332.35650374486909
 31
0.0
  0
ARC
  5
3095
  8
AM_0
 10
409.0204611186341
 20
318.10698574486901
 30
0.0
 40
5.0
 50
0.0
 51
49.999999999999922
  0
ARC
  5
3096
  8
AM_0
 10
409.52169411863412
 20
336.35650374486892
 30
0.0
 40
4.0
 50
187.60814799999741
 51
270.0
  0
LINE
  5
3097
  8
AM_0
 10
414.0204611186341
 20
316.43852374486892
 30
0.0
 11
414.0204611186341
 21
332.35650374486909
 31
0.0
  0
LINE
  5
3098
  8
AM_0
 10
418.0204611186341
 20
312.43852374486892
 30
0.0
 11
432.0204611186341
 21
312.43852374486892
 31
0.0
  0
ARC
  5
3099
  8
AM_0
 10
418.0204611186341
 20
316.43852374486892
 30
0.0
 40
4.0
 50
180.0
 51
270.0
  0
LINE
  5
309A
  8
AM_0
 10
434.0204611186341
 20
314.43852174486881
 30
0.0
 11
446.52032111863429
 21
314.43852174486881
 31
0.0
  0
ARC
  5
309B
  8
AM_0
 10
448.02032111863429
 20
315.92973174486889
 30
0.0
 40
0.500000016
 50
89.000000999999969
 51
180.00001
  0
ARC
  5
309C
  8
AM_0
 10
446.52032111863429
 20
315.43851774486882
 30
0.0
 40
1.0000000199999981
 50
270.0
 51
0.0
  0
LINE
  5
309D
  8
AM_0
 10
432.0204611186341
 20
312.43852374486892
 30
0.0
 11
434.0204611186341
 21
314.43852374486892
 31
0.0
  0
ARC
  5
309E
  8
AM_0
 10
445.5204211186346
 20
334.71131574486878
 30
0.0
 40
2.0000000399999971
 50
270.0
 51
0.0
  0
LINE
  5
309F
  8
AM_0
 10
434.0204611186341
 20
332.71131774486878
 30
0.0
 11
445.5204211186346
 21
332.71131774486878
 31
0.0
  0
LINE
  5
30A0
  8
AM_0
 10
432.0204611186341
 20
332.35650374486909
 30
0.0
 11
434.0204611186341
 21
334.35650374486909
 31
0.0
  0
ARC
  5
30A1
  8
AM_0
 10
502.52030111863411
 20
295.6927637448689
 30
0.0
 40
9.9999996000000007
 50
179.99998999999991
 51
238.96955
  0
ARC
  5
30A2
  8
AM_0
 10
488.52032111863429
 20
311.72227374486891
 30
0.0
 40
4.00000014
 50
0.0
 51
89.000000999999969
  0
LINE
  5
30A3
  8
AM_0
 10
492.5204611186341
 20
311.72227374486891
 30
0.0
 11
492.5204611186341
 21
295.6927637448689
 31
0.0
  0
LINE
  5
30A4
  8
AM_0
 10
447.5204611186341
 20
360.6061217448688
 30
0.0
 11
492.5204611186341
 21
360.6061217448688
 31
0.0
  0
LINE
  5
30A5
  8
AM_0
 10
414.0204611186341
 20
347.91285274486893
 30
0.0
 11
409.59718211863373
 21
347.91285274486893
 31
0.0
  0
LINE
  5
30A6
  8
AM_0
 10
403.59265311863402
 20
369.5739947448688
 30
0.0
 11
413.47682511863428
 21
369.5739947448688
 31
0.0
  0
ARC
  5
30A7
  8
AM_0
 10
400.910112118634
 20
366.5739947448688
 30
0.0
 40
3.0
 50
6.3950930000004771
 51
71.538410999999911
  0
ARC
  5
30A8
  8
AM_0
 10
400.96672911863419
 20
347.53235974486893
 30
0.0
 40
3.0
 50
7.6081479999975583
 51
68.357691000001253
  0
ARC
  5
30A9
  8
AM_0
 10
409.59718211863373
 20
351.91285274486893
 30
0.0
 40
4.0
 50
186.39509300000049
 51
270.0
  0
LINE
  5
30AA
  8
AM_0
 10
405.62207211863398
 20
351.46731774486869
 30
0.0
 11
403.8914451186339
 21
366.90814674486921
 31
0.0
  0
LINE
  5
30AB
  8
AM_0
 10
403.59265311863402
 20
350.53235974486893
 30
0.0
 11
403.59265311863402
 21
365.32202874486882
 31
0.0
  0
LINE
  5
30AC
  8
AM_0
 10
435.49922111863452
 20
358.00156974486879
 30
0.0
 11
446.52812111863432
 21
358.00156974486879
 31
0.0
  0
ARC
  5
30AD
  8
AM_0
 10
445.5204211186346
 20
350.26765374486882
 30
0.0
 40
2.0000000399999971
 50
270.0
 51
0.0
  0
LINE
  5
30AE
  8
AM_0
 10
434.0204611186341
 20
348.2676857448688
 30
0.0
 11
445.5204211186346
 21
348.2676857448688
 31
0.0
  0
LINE
  5
30AF
  8
AM_0
 10
419.273293118634
 20
380.35971074486878
 30
0.0
 11
432.0204611186341
 21
380.35971074486878
 31
0.0
  0
LINE
  5
30B0
  8
AM_0
 10
415.55545711863391
 20
386.81246074486882
 30
0.0
 11
430.37973711863401
 21
386.81246074486882
 31
0.0
  0
ARC
  5
30B1
  8
AM_0
 10
418.0204611186341
 20
384.35971074486878
 30
0.0
 40
4.0
 50
180.0
 51
270.0
  0
LINE
  5
30B2
  8
AM_0
 10
432.0204611186341
 20
380.35971074486878
 30
0.0
 11
434.0204611186341
 21
382.35971074486889
 31
0.0
  0
LINE
  5
30B3
  8
AM_0
 10
543.02030111863405
 20
263.19624174486881
 30
0.0
 11
676.10690111863414
 21
259.71125574486882
 31
0.0
  0
ARC
  5
30B4
  8
AM_0
 10
539.0204611186341
 20
257.3968337448689
 30
0.0
 40
4.00000014
 50
0.0
 51
58.969552
  0
ARC
  5
30B5
  8
AM_0
 10
682.68476111863401
 20
251.53626774486901
 30
0.0
 40
8.0000003999999976
 50
88.499996999999965
 51
163.00888
  0
LINE
  5
30B6
  8
AM_0
 10
543.02042111863454
 20
345.03852774486887
 30
0.0
 11
559.02032111863446
 21
345.03852774486887
 31
0.0
  0
LINE
  5
30B7
  8
AM_0
 10
543.02042111863454
 20
379.03852974486881
 30
0.0
 11
559.02032111863446
 21
379.03852974486881
 31
0.0
  0
LINE
  5
30B8
  8
AM_0
 10
559.02032111863446
 20
646.03845174486901
 30
0.0
 11
517.02032111863446
 21
646.03845174486901
 31
0.0
  0
LINE
  5
30B9
  8
AM_0
 10
541.50398111863433
 20
618.83745174486864
 30
0.0
 11
496.31132111863451
 21
583.04127774486881
 31
0.0
  0
LINE
  5
30BA
  8
AM_0
 10
414.0204611186341
 20
532.52054474486897
 30
0.0
 11
414.0204611186341
 21
559.4385237448688
 31
0.0
  0
ARC
  5
30BB
  8
AM_0
 10
409.0204611186341
 20
546.77006274486894
 30
0.0
 40
5.0
 50
310.0
 51
0.0
  0
LINE
  5
30BC
  8
AM_0
 10
447.5204611186341
 20
523.52150574486905
 30
0.0
 11
492.5204611186341
 21
523.52150574486905
 31
0.0
  0
LINE
  5
30BD
  8
AM_0
 10
447.5204611186341
 20
504.27092574486869
 30
0.0
 11
492.5204611186341
 21
504.27092574486869
 31
0.0
  0
ARC
  5
30BE
  8
AM_0
 10
400.910112118634
 20
498.30305374486881
 30
0.0
 40
3.0
 50
288.461589
 51
353.6049069999994
  0
LINE
  5
30BF
  8
AM_0
 10
403.59265311863402
 20
495.30305374486892
 30
0.0
 11
413.47682511863428
 21
495.30305374486892
 31
0.0
  0
LINE
  5
30C0
  8
AM_0
 10
432.0204611186341
 20
532.52054474486897
 30
0.0
 11
409.52169411863412
 21
532.52054474486897
 31
0.0
  0
LINE
  5
30C1
  8
AM_0
 10
432.0204611186341
 20
516.96419574486913
 30
0.0
 11
409.59718211863373
 21
516.96419574486913
 31
0.0
  0
LINE
  5
30C2
  8
AM_0
 10
406.0204611186341
 20
516.96419574486913
 30
0.0
 11
406.0204611186341
 21
527.71024474486876
 31
0.0
  0
LINE
  5
30C3
  8
AM_0
 10
405.556907118634
 20
529.05013374486907
 30
0.0
 11
403.94031911863362
 21
516.947495744869
 31
0.0
  0
ARC
  5
30C4
  8
AM_0
 10
400.96672911863419
 20
517.34468774486913
 30
0.0
 40
3.0
 50
291.6423089999987
 51
352.3918520000023
  0
ARC
  5
30C5
  8
AM_0
 10
409.59718211863373
 20
512.96419574486913
 30
0.0
 40
4.0
 50
90.0
 51
173.60490699999951
  0
LINE
  5
30C6
  8
AM_0
 10
403.59265311863402
 20
514.34468774486913
 30
0.0
 11
403.59265311863402
 21
499.55501874486879
 31
0.0
  0
LINE
  5
30C7
  8
AM_0
 10
405.62207211863398
 20
513.40973074486897
 30
0.0
 11
403.8914451186339
 21
497.96890174486879
 31
0.0
  0
ARC
  5
30C8
  8
AM_0
 10
409.52169411863412
 20
528.52054474486897
 30
0.0
 40
4.0
 50
90.0
 51
172.39185199999591
  0
LINE
  5
30C9
  8
AM_0
 10
432.0204611186341
 20
532.52054474486897
 30
0.0
 11
432.0204611186341
 21
516.96419574486913
 31
0.0
  0
LINE
  5
30CA
  8
AM_0
 10
418.0204611186341
 20
508.40072474486868
 30
0.0
 11
432.0204611186341
 21
508.40072474486868
 31
0.0
  0
ARC
  5
30CB
  8
AM_0
 10
418.0204611186341
 20
504.40072474486868
 30
0.0
 40
4.0
 50
90.0
 51
180.0
  0
ARC
  5
30CC
  8
AM_0
 10
445.5204211186346
 20
514.60939374486895
 30
0.0
 40
2.0000000399999971
 50
0.0
 51
90.000003000000007
  0
LINE
  5
30CD
  8
AM_0
 10
435.49922111863452
 20
506.8754777448687
 30
0.0
 11
446.52812111863432
 21
506.8754777448687
 31
0.0
  0
LINE
  5
30CE
  8
AM_0
 10
434.0204611186341
 20
516.60939174486873
 30
0.0
 11
445.5204211186346
 21
516.60939174486873
 31
0.0
  0
LINE
  5
30CF
  8
AM_0
 10
432.0204611186341
 20
516.96419574486913
 30
0.0
 11
434.0204611186341
 21
514.96419574486913
 31
0.0
  0
LINE
  5
30D0
  8
AM_0
 10
434.0204611186341
 20
532.16572974486894
 30
0.0
 11
445.5204211186346
 21
532.16572974486894
 31
0.0
  0
ARC
  5
30D1
  8
AM_0
 10
445.5204211186346
 20
530.16573174486894
 30
0.0
 40
2.0000000399999971
 50
0.0
 51
90.000003000000007
  0
LINE
  5
30D2
  8
AM_0
 10
432.0204611186341
 20
532.52054474486897
 30
0.0
 11
434.0204611186341
 21
530.52054474486908
 31
0.0
  0
LINE
  5
30D3
  8
AM_0
 10
448.0291411186343
 20
548.44740774486866
 30
0.0
 11
487.60760111863402
 21
549.13826574486882
 31
0.0
  0
LINE
  5
30D4
  8
AM_0
 10
430.0204611186341
 20
563.4385237448688
 30
0.0
 11
432.0204611186341
 21
561.43852374486869
 31
0.0
  0
LINE
  5
30D5
  8
AM_0
 10
418.0204611186341
 20
563.4385237448688
 30
0.0
 11
430.0204611186341
 21
563.4385237448688
 31
0.0
  0
ARC
  5
30D6
  8
AM_0
 10
418.0204611186341
 20
559.4385237448688
 30
0.0
 40
4.0
 50
90.0
 51
180.0
  0
LINE
  5
30D7
  8
AM_0
 10
414.75914111863398
 20
551.36969474486909
 30
0.0
 11
431.02144911863428
 21
551.36969474486909
 31
0.0
  0
LINE
  5
30D8
  8
AM_0
 10
434.0204611186341
 20
550.43855574486872
 30
0.0
 11
446.52032111863429
 21
550.43855574486872
 31
0.0
  0
ARC
  5
30D9
  8
AM_0
 10
446.52032111863429
 20
549.43849374486865
 30
0.0
 40
1.0000000199999981
 50
0.0
 51
90.000003000000007
  0
ARC
  5
30DA
  8
AM_0
 10
448.02032111863429
 20
548.94734574486881
 30
0.0
 40
0.500000016
 50
179.99998999999991
 51
271.0
  0
LINE
  5
30DB
  8
AM_0
 10
432.0204611186341
 20
552.43852374486869
 30
0.0
 11
434.0204611186341
 21
550.4385237448688
 31
0.0
  0
LINE
  5
30DC
  8
AM_0
 10
432.0204611186341
 20
561.43852374486869
 30
0.0
 11
432.0204611186341
 21
552.43852374486869
 31
0.0
  0
ARC
  5
30DD
  8
AM_0
 10
487.52030111863399
 20
554.13747174486889
 30
0.0
 40
4.9999996800000002
 50
271.0
 51
0.0
  0
LINE
  5
30DE
  8
AM_0
 10
492.5204611186341
 20
575.20241574486874
 30
0.0
 11
492.5204611186341
 21
554.13747174486889
 31
0.0
  0
ARC
  5
30DF
  8
AM_0
 10
502.52030111863411
 20
575.20241574486874
 30
0.0
 40
9.9999996000000007
 50
128.38201000000001
 51
180.00001
  0
LINE
  5
30E0
  8
AM_0
 10
517.02032111863446
 20
646.03845174486901
 30
0.0
 11
517.02032111863446
 21
601.37889174486895
 31
0.0
  0
ARC
  5
30E1
  8
AM_0
 10
513.02042111863454
 20
601.37889174486895
 30
0.0
 40
4.00000014
 50
308.38200999999998
 51
0.0
  0
LINE
  5
30E2
  8
AM_0
 10
559.02032111863446
 20
504.13282974486867
 30
0.0
 11
543.02042111863454
 21
504.13282974486867
 31
0.0
  0
LINE
  5
30E3
  8
AM_0
 10
559.02032111863446
 20
536.72523774486865
 30
0.0
 11
543.02042111863454
 21
536.72523774486865
 31
0.0
  0
LINE
  5
30E4
  8
AM_0
 10
559.02032111863446
 20
616.32441174486905
 30
0.0
 11
543.02042111863454
 21
616.32441174486905
 31
0.0
  0
ARC
  5
30E5
  8
AM_0
 10
539.0204611186341
 20
621.97293174486867
 30
0.0
 40
4.00000014
 50
308.38200999999998
 51
0.0
  0
LINE
  5
30E6
  8
AM_0
 10
543.02042111863454
 20
640.03851174486886
 30
0.0
 11
559.02032111863446
 21
640.03851174486886
 31
0.0
  0
ARC
  5
30E7
  8
AM_0
 10
547.02032111863446
 20
642.03855174486876
 30
0.0
 40
4.00000014
 50
90.000003000000007
 51
180.00001
  0
ARC
  5
30E8
  8
AM_0
 10
660.61346111863429
 20
571.97206374486882
 30
0.0
 40
4.9999996800000002
 50
270.0
 51
301.42962999999992
  0
ARC
  5
30E9
  8
AM_0
 10
660.59510111863426
 20
583.71901374486902
 30
0.0
 40
4.9999996800000002
 50
270.0
 51
301.82161000000002
  0
LINE
  5
30EA
  8
AM_0
 10
704.16392111863433
 20
265.03855374486881
 30
0.0
 11
734.02040111863414
 21
265.03855374486881
 31
0.0
  0
ARC
  5
30EB
  8
AM_0
 10
705.02036111863436
 20
270.86301774486901
 30
0.0
 40
3.0000000600000001
 50
179.99998999999991
 51
270.0
  0
ARC
  5
30EC
  8
AM_0
 10
704.16392111863433
 20
257.03852574486888
 30
0.0
 40
8.0000003999999976
 50
90.000003000000007
 51
119.9999999999999
  0
ARC
  5
30ED
  8
AM_0
 10
714.02036111863436
 20
266.03852574486899
 30
0.0
 40
1.0000000199999981
 50
179.99998999999991
 51
270.0
  0
ARC
  5
30EE
  8
AM_0
 10
712.02032111863446
 20
266.86301574486902
 30
0.0
 40
1.0000000199999981
 50
0.0
 51
90.000003000000007
  0
LINE
  5
30EF
  8
AM_0
 10
705.02036111863436
 20
267.86304774486882
 30
0.0
 11
712.02032111863446
 21
267.86304774486882
 31
0.0
  0
LINE
  5
30F0
  8
AM_0
 10
713.02040111863425
 20
267.34321374486882
 30
0.0
 11
713.02040111863425
 21
267.03852174486877
 31
0.0
  0
LINE
  5
30F1
  8
AM_0
 10
713.02040111863425
 20
266.86301574486902
 30
0.0
 11
713.02040111863425
 21
266.03852574486899
 31
0.0
  0
ARC
  5
30F2
  8
AM_0
 10
692.02028111863399
 20
331.5523817448688
 30
0.0
 40
9.9999996000000007
 50
0.0
 51
88.499996999999965
  0
ARC
  5
30F3
  8
AM_0
 10
705.02036111863436
 20
328.53583974486889
 30
0.0
 40
3.0000000600000001
 50
90.000003000000007
 51
180.00001
  0
ARC
  5
30F4
  8
AM_0
 10
710.02040111863437
 20
334.53583974486901
 30
0.0
 40
3.0000000600000001
 50
270.0
 51
0.0
  0
LINE
  5
30F5
  8
AM_0
 10
705.02036111863436
 20
331.53580974486891
 30
0.0
 11
710.02040111863437
 21
331.53580974486891
 31
0.0
  0
LINE
  5
30F6
  8
AM_0
 10
734.02040111863414
 20
300.03852774486887
 30
0.0
 11
740.02040111863414
 21
300.03852774486887
 31
0.0
  0
LINE
  5
30F7
  8
AM_0
 10
702.02036111863436
 20
359.75486574486882
 30
0.0
 11
710.02040111863437
 21
359.75486574486882
 31
0.0
  0
ARC
  5
30F8
  8
AM_0
 10
710.02040111863437
 20
362.75486574486882
 30
0.0
 40
3.0000000600000001
 50
270.0
 51
0.0
  0
ARC
  5
30F9
  8
AM_0
 10
692.02028111863399
 20
392.524675744869
 30
0.0
 40
9.9999996000000007
 50
271.49999999999972
 51
0.0
  0
LINE
  5
30FA
  8
AM_0
 10
771.02036111863424
 20
534.53853174486881
 30
0.0
 11
856.02032111863446
 21
534.53853174486881
 31
0.0
  0
LINE
  5
30FB
  8
AM_0
 10
856.02032111863446
 20
460.03855974486879
 30
0.0
 11
746.0202811186341
 21
460.03855974486879
 31
0.0
  0
LINE
  5
30FC
  8
AM_0
 10
746.0202811186341
 20
530.03853174486881
 30
0.0
 11
856.02032111863446
 21
530.03853174486881
 31
0.0
  0
ARC
  5
30FD
  8
AM_0
 10
692.02028111863399
 20
550.21138374486895
 30
0.0
 40
9.9999996000000007
 50
271.49999999999972
 51
0.0
  0
ARC
  5
30FE
  8
AM_0
 10
692.02028111863399
 20
490.64668374486882
 30
0.0
 40
9.9999996000000007
 50
0.0
 51
88.499996999999965
  0
LINE
  5
30FF
  8
AM_0
 10
746.0202811186341
 20
457.53852774486882
 30
0.0
 11
746.0202811186341
 21
532.5385337448688
 31
0.0
  0
LINE
  5
3100
  8
AM_0
 10
740.02040111863414
 20
457.53852774486882
 30
0.0
 11
746.0202811186341
 21
457.53852774486882
 31
0.0
  0
LINE
  5
3101
  8
AM_0
 10
740.02040111863414
 20
532.5385337448688
 30
0.0
 11
746.0202811186341
 21
532.5385337448688
 31
0.0
  0
LINE
  5
3102
  8
AM_0
 10
771.02036111863424
 20
530.03853174486881
 30
0.0
 11
771.02036111863424
 21
534.53853174486881
 31
0.0
  0
ARC
  5
3103
  8
AM_0
 10
697.02032111863446
 20
571.97206374486882
 30
0.0
 40
4.9999996800000002
 50
270.0
 51
337.66197
  0
ARC
  5
3104
  8
AM_0
 10
697.02032111863446
 20
594.22072374486902
 30
0.0
 40
4.9999996800000002
 50
301.42962999999992
 51
0.0
  0
LINE
  5
3105
  8
AM_0
 10
702.02036111863436
 20
600.26235174486885
 30
0.0
 11
710.02040111863437
 21
600.26235174486885
 31
0.0
  0
ARC
  5
3106
  8
AM_0
 10
697.02032111863446
 20
606.3227117448688
 30
0.0
 40
4.9999996800000002
 50
301.82161000000002
 51
0.0
  0
ARC
  5
3107
  8
AM_0
 10
692.02028111863399
 20
604.00137174486895
 30
0.0
 40
9.9999996000000007
 50
7.8228145999999956
 51
89.000000999999969
  0
ARC
  5
3108
  8
AM_0
 10
710.02040111863437
 20
597.26235174486885
 30
0.0
 40
3.0000000600000001
 50
0.0
 51
90.000003000000007
  0
LINE
  5
3109
  8
AM_0
 10
856.02032111863446
 20
530.03853174486881
 30
0.0
 11
856.02032111863446
 21
460.03855974486879
 31
0.0
  0
LINE
  5
310A
  8
AM_0
 10
856.02032111863446
 20
534.53853174486881
 30
0.0
 11
856.02032111863446
 21
530.03853174486881
 31
0.0
  0
LINE
  5
310B
  8
AM_0
 10
667.66244111863375
 20
654.37785174486885
 30
0.0
 11
699.09140111863405
 21
685.80681174486904
 31
0.0
  0
CIRCLE
  5
310C
  8
AM_0
 10
537.02030111863405
 20
676.03845174486901
 30
0.0
 40
17.499998399999999
  0
LINE
  5
310D
  8
AM_0
 10
548.10944111863375
 20
657.03855174486898
 30
0.0
 11
525.93134111863367
 21
657.03855174486898
 31
0.0
  0
LINE
  5
310E
  8
AM_0
 10
537.02030111863405
 20
658.53861174486883
 30
0.0
 11
527.04170111863391
 21
657.40959174486898
 31
0.0
  0
ARC
  5
310F
  8
AM_0
 10
528.04436111863424
 20
652.56213174486868
 30
0.0
 40
4.949999939999997
 50
101.68763
 51
165.76742999999999
  0
ARC
  5
3110
  8
AM_0
 10
545.99642111863432
 20
652.56213174486868
 30
0.0
 40
4.949999939999997
 50
14.23256799999999
 51
78.312367000000023
  0
LINE
  5
3111
  8
AM_0
 10
546.99908111863431
 20
657.4095317448689
 30
0.0
 11
537.02030111863405
 21
658.53855174486876
 31
0.0
  0
ARC
  5
3112
  8
AM_0
 10
705.02036111863436
 20
664.66485174486888
 30
0.0
 40
3.0000000600000001
 50
179.99998999999991
 51
270.0
  0
ARC
  5
3113
  8
AM_0
 10
710.02040111863437
 20
658.66485174486866
 30
0.0
 40
3.0000000600000001
 50
0.0
 51
90.000003000000007
  0
LINE
  5
3114
  8
AM_0
 10
705.02036111863436
 20
661.66485174486866
 30
0.0
 11
710.02040111863437
 21
661.66485174486866
 31
0.0
  0
ARC
  5
3115
  8
AM_0
 10
692.02028111863399
 20
692.8777517448691
 30
0.0
 40
9.9999996000000007
 50
315.0
 51
0.0
  0
LINE
  5
3116
  8
AM_0
 10
734.02040111863414
 20
690.03855174486898
 30
0.0
 11
740.02040111863414
 21
690.03855174486898
 31
0.0
  0
LINE
  5
3117
  8
AM_0
 10
714.02036111863436
 20
725.03853174486881
 30
0.0
 11
734.02040111863414
 21
725.03853174486881
 31
0.0
  0
ARC
  5
3118
  8
AM_0
 10
712.02032111863446
 20
723.49587174486862
 30
0.0
 40
1.0000000199999981
 50
270.0
 51
0.0
  0
ARC
  5
3119
  8
AM_0
 10
705.02036111863436
 20
719.49579174486894
 30
0.0
 40
3.0000000600000001
 50
90.000003000000007
 51
180.00001
  0
LINE
  5
311A
  8
AM_0
 10
705.02036111863436
 20
722.4958517448689
 30
0.0
 11
712.02032111863446
 21
722.4958517448689
 31
0.0
  0
ARC
  5
311B
  8
AM_0
 10
714.02036111863436
 20
724.03851174486863
 30
0.0
 40
1.0000000199999981
 50
90.000003000000007
 51
180.00001
  0
LINE
  5
311C
  8
AM_0
 10
713.02040111863425
 20
723.49587174486862
 30
0.0
 11
713.02040111863425
 21
724.03851174486863
 31
0.0
  0
LINE
  5
311D
  8
AM_0
 10
1476.514121357651
 20
699.85311174486867
 30
0.0
 11
1480.514123357651
 21
595.03853574486902
 31
0.0
  0
LINE
  5
311E
  8
AM_0
 10
1020.514121357652
 20
595.03853574486902
 30
0.0
 11
1024.5141233576501
 21
699.85305174486894
 31
0.0
  0
CIRCLE
  5
311F
  8
AM_0
 10
1250.514131357651
 20
495.0385337448688
 30
0.0
 40
184.99999199999991
  0
CIRCLE
  5
3120
  8
AM_0
 10
1250.514131357651
 20
495.0385337448688
 30
0.0
 40
195.0000059999999
  0
LINE
  5
3121
  8
ﾁｭｳｼﾝｾﾝ
 10
1250.514131357651
 20
730.03851174486863
 30
0.0
 11
1250.514131357651
 21
220.11052974486881
 31
0.0
  0
ARC
  5
3122
  8
AM_0
 10
1301.514131357651
 20
364.6585517448687
 30
0.0
 40
128.43754799999999
 50
270.0
 51
289.65811999999988
  0
ARC
  5
3123
  8
AM_0
 10
1360.514135357651
 20
255.03853974486901
 30
0.0
 40
19.437555599999971
 50
179.99998999999991
 51
0.000010017913
  0
LINE
  5
3124
  8
AM_0
 10
1269.951689357652
 20
240.03853974486901
 30
0.0
 11
1269.951689357652
 21
245.56391574486869
 31
0.0
  0
LINE
  5
3125
  8
AM_0
 10
1231.076567357652
 20
240.03853974486901
 30
0.0
 11
1231.076567357652
 21
245.56391574486869
 31
0.0
  0
ARC
  5
3126
  8
AM_0
 10
1199.5141313576521
 20
364.6585517448687
 30
0.0
 40
128.43754799999999
 50
250.34187
 51
270.0
  0
ARC
  5
3127
  8
AM_0
 10
1140.514157357652
 20
255.03853974486901
 30
0.0
 40
19.437555599999971
 50
179.99998999999991
 51
0.000010017913
  0
LINE
  5
3128
  8
AM_0
 10
1269.5731193576521
 20
236.2209737448689
 30
0.0
 11
1301.514131357651
 21
236.2209737448689
 31
0.0
  0
LINE
  5
3129
  8
AM_0
 10
1199.5141313576521
 20
236.2209737448689
 30
0.0
 11
1231.4551373576501
 21
236.2209737448689
 31
0.0
  0
ARC
  5
312A
  8
AM_0
 10
1250.514131357651
 20
240.03853974486901
 30
0.0
 40
19.437555599999971
 50
179.99998999999991
 51
237.53583999999989
  0
LINE
  5
312B
  8
AM_0
 10
1240.0805993576521
 20
223.63851174486891
 30
0.0
 11
1260.9476633576519
 21
223.63851174486891
 31
0.0
  0
ARC
  5
312C
  8
AM_0
 10
1250.514131357651
 20
240.03853974486901
 30
0.0
 40
19.437555599999971
 50
302.46415000000002
 51
0.0
  0
ARC
  5
312D
  8
AM_0
 10
1250.514131357651
 20
495.0385337448688
 30
0.0
 40
79.999992000000006
 50
33.737305999999997
 51
146.26269999999991
  0
LINE
  5
312E
  8
AM_0
 10
1350.5141333576521
 20
265.03855374486881
 30
0.0
 11
1150.514129357651
 21
265.03855374486881
 31
0.0
  0
LINE
  5
312F
  8
ﾁｭｳｼﾝｾﾝ
 10
1482.221399357652
 20
495.0385337448688
 30
0.0
 11
1015.514123357651
 21
495.0385337448688
 31
0.0
  0
LINE
  5
3130
  8
ﾁｭｳｼﾝｾﾝ
 10
1105.847075357651
 20
432.43852374486869
 30
0.0
 11
1395.181175357651
 21
432.43852374486869
 31
0.0
  0
CIRCLE
  5
3131
  8
AM_0
 10
1250.514131357651
 20
495.0385337448688
 30
0.0
 40
60.0
  0
ARC
  5
3132
  8
AM_0
 10
1250.514131357651
 20
495.0385337448688
 30
0.0
 40
34.999997399999991
 50
106.60155
 51
73.398452000000006
  0
ARC
  5
3133
  8
AM_0
 10
1250.514131357651
 20
485.03850174486831
 30
0.0
 40
143.999988
 50
50.607648000002847
 51
129.39235000000369
  0
ARC
  5
3134
  8
AM_0
 10
1250.514131357651
 20
485.03853174486881
 30
0.0
 40
143.999988
 50
134.97172
 51
196.4954399999998
  0
LINE
  5
3135
  8
AM_0
 10
1020.5141873576511
 20
395.03852574486888
 30
0.0
 11
1020.5141873576511
 21
595.03853574486902
 31
0.0
  0
LINE
  5
3136
  8
AM_0
 10
1183.986725357651
 20
539.469379744869
 30
0.0
 11
1108.038935357652
 21
425.750989744869
 31
0.0
  0
LINE
  5
3137
  8
AM_0
 10
1150.514129357651
 20
265.03852374486883
 30
0.0
 11
1045.6996073576511
 21
269.03852574486888
 31
0.0
  0
LINE
  5
3138
  8
AM_0
 10
1024.5141233576501
 20
290.22397974486893
 30
0.0
 11
1020.514121357652
 21
395.03852574486888
 31
0.0
  0
ARC
  5
3139
  8
AM_0
 10
1250.514131357651
 20
495.0385337448688
 30
0.0
 40
304.99997999999999
 50
222.1847299999998
 51
227.81527
  0
ARC
  5
313A
  8
ﾁｭｳｼﾝｾﾝ1
 10
1250.514131357651
 20
495.0385337448688
 30
0.0
 40
270.00000599999998
 50
220.33015999999989
 51
229.66983999999991
  0
LINE
  5
313B
  8
ﾁｭｳｼﾝｾﾝ1
 10
1075.151639357651
 20
319.67607174486892
 30
0.0
 11
1044.038963357651
 21
288.5633657448688
 31
0.0
  0
CIRCLE
  5
313C
  8
AM_0
 10
1059.59530135765
 20
304.11967374486881
 30
0.0
 40
12.0000006
  0
ARC
  5
313D
  8
AM_0
 10
1113.076565357652
 20
259.0945217448687
 30
0.0
 40
8.0000003999999976
 50
0.0
 51
50.688811000000001
  0
ARC
  5
313E
  8
AM_0
 10
1199.5141313576521
 20
364.6585517448687
 30
0.0
 40
128.43754799999999
 50
229.9639899999998
 51
230.68880999999999
  0
LINE
  5
313F
  8
AM_0
 10
1121.0765933576511
 20
255.03853974486901
 30
0.0
 11
1121.0765933576511
 21
259.0945217448687
 31
0.0
  0
ARC
  5
3140
  8
AM_0
 10
1199.5141313576521
 20
364.6585517448687
 30
0.0
 40
110.000004
 50
146.26269999999991
 51
160.73436000000001
  0
ARC
  5
3141
  8
AM_0
 10
1105.114223357652
 20
397.65336774486877
 30
0.0
 40
9.9999996000000007
 50
160.73436000000001
 51
192.21113
  0
ARC
  5
3142
  8
AM_0
 10
1116.2762093576521
 20
445.28706774486892
 30
0.0
 40
4.00000014
 50
196.49545000000001
 51
270.67263999999989
  0
ARC
  5
3143
  8
AM_0
 10
1167.951689357652
 20
255.03853974486901
 30
0.0
 40
8.0000003999999976
 50
141.82988
 51
180.00001
  0
ARC
  5
3144
  8
AM_0
 10
1223.076599357652
 20
245.56391574486869
 30
0.0
 40
8.0000003999999976
 50
0.0
 51
90.000003000000007
  0
ARC
  5
3145
  8
AM_0
 10
1277.9516933576519
 20
245.56391574486869
 30
0.0
 40
8.0000003999999976
 50
90.000003000000007
 51
180.00001
  0
LINE
  5
3146
  8
AM_0
 10
1186.672817357651
 20
550.39455174486886
 30
0.0
 11
1119.23018935765
 21
617.83719174486885
 31
0.0
  0
ARC
  5
3147
  8
AM_0
 10
1115.694605357651
 20
614.301691744869
 30
0.0
 40
4.9999996800000002
 50
45.00000099999999
 51
101.1588399999999
  0
CIRCLE
  5
3148
  8
AM_5
 10
1250.514131357651
 20
495.0385337448688
 30
0.0
 40
6.0
  0
CIRCLE
  5
3149
  8
AM_0
 10
1250.514131357651
 20
495.0385337448688
 30
0.0
 40
4.9999996800000002
  0
LINE
  5
314A
  8
AM_0
 10
1260.514133357651
 20
534.53853174486881
 30
0.0
 11
1240.5141293576521
 21
534.53853174486881
 31
0.0
  0
LINE
  5
314B
  8
AM_0
 10
1240.5141293576521
 20
522.53853174486869
 30
0.0
 11
1260.514133357651
 21
522.53853174486869
 31
0.0
  0
LINE
  5
314C
  8
AM_0
 10
1240.5141293576521
 20
534.53853174486881
 30
0.0
 11
1240.5141293576521
 21
522.53853174486869
 31
0.0
  0
LINE
  5
314D
  8
AM_0
 10
1260.514133357651
 20
522.53853174486869
 30
0.0
 11
1260.514133357651
 21
534.53853174486881
 31
0.0
  0
LINE
  5
314E
  8
AM_0
 10
1195.1581133576519
 20
558.87984174486905
 30
0.0
 11
1127.7154793576519
 21
626.32245174486889
 31
0.0
  0
ARC
  5
314F
  8
AM_0
 10
1183.137299357652
 20
546.85902774486885
 30
0.0
 40
4.9999996800000002
 50
358.28215999999992
 51
45.00000099999999
  0
ARC
  5
3150
  8
AM_0
 10
1198.6936313576521
 20
562.41536574486895
 30
0.0
 40
4.9999996800000002
 50
225.0
 51
271.7178399999998
  0
ARC
  5
3151
  8
AM_0
 10
1131.250973357651
 20
629.8580117448688
 30
0.0
 40
4.9999996800000002
 50
168.84116
 51
225.0
  0
ARC
  5
3152
  8
AM_0
 10
1250.514131357651
 20
485.03853174486881
 30
0.0
 40
143.999988
 50
343.50454999999999
 51
45.028278
  0
LINE
  5
3153
  8
AM_0
 10
1480.51413535765
 20
595.03853574486902
 30
0.0
 11
1480.51413535765
 21
395.03852574486888
 31
0.0
  0
LINE
  5
3154
  8
AM_0
 10
1317.041537357652
 20
539.46943974486885
 30
0.0
 11
1392.989309357652
 21
425.750989744869
 31
0.0
  0
LINE
  5
3155
  8
AM_0
 10
1455.3286793576519
 20
269.03852574486888
 30
0.0
 11
1350.5141333576521
 21
265.03852374486883
 31
0.0
  0
CIRCLE
  5
3156
  8
AM_0
 10
1441.432961357651
 20
304.11967374486881
 30
0.0
 40
12.0000006
  0
ARC
  5
3157
  8
AM_0
 10
1333.076603357651
 20
255.03853974486901
 30
0.0
 40
8.0000003999999976
 50
0.0
 51
38.17012600000001
  0
ARC
  5
3158
  8
AM_0
 10
1301.514131357651
 20
364.6585517448687
 30
0.0
 40
128.43754799999999
 50
309.31119000000001
 51
310.03600999999992
  0
ARC
  5
3159
  8
AM_0
 10
1387.951697357651
 20
259.0945217448687
 30
0.0
 40
8.0000003999999976
 50
129.3111899999999
 51
180.00001
  0
LINE
  5
315A
  8
AM_0
 10
1379.951681357652
 20
255.03853974486901
 30
0.0
 11
1379.951681357652
 21
259.0945217448687
 31
0.0
  0
ARC
  5
315B
  8
AM_0
 10
1301.514131357651
 20
364.6585517448687
 30
0.0
 40
110.000004
 50
19.265640999999999
 51
33.737305999999997
  0
ARC
  5
315C
  8
AM_0
 10
1384.752065357651
 20
445.28706774486892
 30
0.0
 40
4.00000014
 50
269.32735000000002
 51
343.50454999999999
  0
ARC
  5
315D
  8
AM_0
 10
1395.914039357652
 20
397.65336774486877
 30
0.0
 40
9.9999996000000007
 50
347.78888000000001
 51
19.265640999999999
  0
LINE
  5
315E
  8
AM_0
 10
1480.514123357651
 20
395.03852574486888
 30
0.0
 11
1476.514121357651
 21
290.22397974486893
 31
0.0
  0
ARC
  5
315F
  8
AM_0
 10
1250.514131357651
 20
495.0385337448688
 30
0.0
 40
304.99997999999999
 50
312.18473
 51
317.81527
  0
LINE
  5
3160
  8
AM_0
 10
1314.3554093576511
 20
550.39455174486886
 30
0.0
 11
1381.7980973576521
 21
617.83719174486885
 31
0.0
  0
LINE
  5
3161
  8
AM_0
 10
1305.8701493576521
 20
558.87984174486905
 30
0.0
 11
1373.312837357651
 21
626.32251174486896
 31
0.0
  0
ARC
  5
3162
  8
AM_0
 10
1317.89096335765
 20
546.85902774486885
 30
0.0
 40
4.9999996800000002
 50
135.0
 51
181.71783999999991
  0
ARC
  5
3163
  8
AM_0
 10
1302.334595357652
 20
562.41536574486895
 30
0.0
 40
4.9999996800000002
 50
268.28215999999998
 51
315.0
  0
ARC
  5
3164
  8
AM_0
 10
1385.333651357651
 20
614.301691744869
 30
0.0
 40
4.9999996800000002
 50
78.841154000000003
 51
135.0
  0
ARC
  5
3165
  8
AM_0
 10
1369.7772893576521
 20
629.8580117448688
 30
0.0
 40
4.9999996800000002
 50
315.0
 51
11.158847
  0
LINE
  5
3166
  8
AM_0
 10
1150.514129357651
 20
725.03853174486881
 30
0.0
 11
1350.5141333576521
 21
725.03853174486881
 31
0.0
  0
LINE
  5
3167
  8
AM_0
 10
1045.6995473576519
 20
721.03851174486863
 30
0.0
 11
1150.514129357651
 21
725.03853174486881
 31
0.0
  0
ARC
  5
3168
  8
AM_0
 10
1250.514131357651
 20
495.0385337448688
 30
0.0
 40
304.99997999999999
 50
132.1847299999998
 51
137.81527
  0
CIRCLE
  5
3169
  8
AM_0
 10
1059.59530135765
 20
685.95729174486905
 30
0.0
 40
12.0000006
  0
LINE
  5
316A
  8
AM_0
 10
1350.5141333576521
 20
725.03847174486862
 30
0.0
 11
1455.3286673576511
 21
721.03845174486867
 31
0.0
  0
ARC
  5
316B
  8
ﾁｭｳｼﾝｾﾝ1
 10
1250.514131357651
 20
495.0385337448688
 30
0.0
 40
270.00000599999998
 50
40.330162999999978
 51
49.669835999999982
  0
CIRCLE
  5
316C
  8
AM_0
 10
1441.432961357651
 20
685.95729174486905
 30
0.0
 40
12.0000006
  0
LINE
  5
316D
  8
ﾁｭｳｼﾝｾﾝ1
 10
1425.8766233576521
 20
670.40103174486876
 30
0.0
 11
1456.989311357652
 21
701.51367174486893
 31
0.0
  0
ARC
  5
316E
  8
AM_0
 10
1250.514131357651
 20
495.0385337448688
 30
0.0
 40
304.99997999999999
 50
42.184730000000002
 51
47.815272
  0
LINE
  5
316F
  8
AM_0
 10
252.02031111863519
 20
1145.2267143316369
 30
0.0
 11
297.02031111863539
 21
1145.2267143316369
 31
0.0
  0
LINE
  5
3170
  8
AM_0
 10
310.02031111863528
 20
1157.726714331636
 30
0.0
 11
252.02031111863519
 21
1157.726714331636
 31
0.0
  0
LINE
  5
3171
  8
AM_0
 10
252.02031111863519
 20
1122.7267143316369
 30
0.0
 11
310.02031111863528
 21
1122.7267143316369
 31
0.0
  0
LINE
  5
3172
  8
AM_0
 10
252.02031111863519
 20
1135.2267143316369
 30
0.0
 11
297.02031111863539
 21
1135.2267143316369
 31
0.0
  0
LINE
  5
3173
  8
AM_0
 10
252.02031111863519
 20
1157.726714331636
 30
0.0
 11
252.02031111863519
 21
1122.7267143316369
 31
0.0
  0
LINE
  5
3174
  8
AM_0
 10
432.52031111863511
 20
1040.1446933316361
 30
0.0
 11
432.52031111863511
 21
1055.7010423316351
 31
0.0
  0
LINE
  5
3175
  8
AM_0
 10
406.52031111863522
 20
1055.7010423316351
 30
0.0
 11
406.52031111863522
 21
1044.9549933316359
 31
0.0
  0
LINE
  5
3176
  8
AM_0
 10
406.0567571186354
 20
1043.615104331637
 30
0.0
 11
404.44016911863542
 21
1055.7177423316359
 31
0.0
  0
LINE
  5
3177
  8
AM_0
 10
412.7342491186352
 20
1029.7253983316371
 30
0.0
 11
353.60370711863538
 21
1079.341814331636
 31
0.0
  0
ARC
  5
3178
  8
AM_0
 10
409.52031111863539
 20
1025.895176331637
 30
0.0
 40
5.0
 50
0.0
 51
49.999999999999922
  0
LINE
  5
3179
  8
AM_0
 10
432.52031111863511
 20
1040.1446933316361
 30
0.0
 11
410.0215441186354
 21
1040.1446933316361
 31
0.0
  0
ARC
  5
317A
  8
AM_0
 10
410.0215441186354
 20
1044.1446933316361
 30
0.0
 40
4.0
 50
187.60814800001029
 51
270.0
  0
LINE
  5
317B
  8
AM_0
 10
414.52031111863522
 20
1024.2267143316351
 30
0.0
 11
414.52031111863522
 21
1040.1446943316371
 31
0.0
  0
LINE
  5
317C
  8
AM_0
 10
418.52031111863528
 20
1020.226714331637
 30
0.0
 11
432.52031111863511
 21
1020.226714331637
 31
0.0
  0
ARC
  5
317D
  8
AM_0
 10
418.52031111863528
 20
1024.2267143316351
 30
0.0
 40
4.0
 50
180.0
 51
270.0
  0
LINE
  5
317E
  8
AM_0
 10
432.52031111863511
 20
1020.226714331637
 30
0.0
 11
434.52031111863539
 21
1022.226714331637
 31
0.0
  0
LINE
  5
317F
  8
AM_0
 10
432.52031111863511
 20
1040.1446933316361
 30
0.0
 11
434.52031111863539
 21
1042.1446933316361
 31
0.0
  0
ARC
  5
3180
  8
AM_0
 10
401.46657911863542
 20
1225.1328783316369
 30
0.0
 40
3.0
 50
291.64230899999973
 51
352.39185200000247
  0
ARC
  5
3181
  8
AM_0
 10
410.09703211863541
 20
1220.752386331636
 30
0.0
 40
4.0
 50
90.0
 51
173.6049069999992
  0
LINE
  5
3182
  8
AM_0
 10
412.7342491186352
 20
1250.7280303316361
 30
0.0
 11
353.60370711863538
 21
1201.111615331637
 31
0.0
  0
LINE
  5
3183
  8
AM_0
 10
404.09250311863508
 20
1203.0912443316361
 30
0.0
 11
413.97667511863523
 21
1203.0912443316361
 31
0.0
  0
LINE
  5
3184
  8
AM_0
 10
404.09250311863508
 20
1077.3621843316371
 30
0.0
 11
413.97667511863523
 21
1077.3621843316371
 31
0.0
  0
LINE
  5
3185
  8
AM_0
 10
432.52031111863511
 20
1055.7010423316351
 30
0.0
 11
410.09703211863541
 21
1055.7010423316351
 31
0.0
  0
ARC
  5
3186
  8
AM_0
 10
297.02031111863539
 20
1140.226714331636
 30
0.0
 40
5.0
 50
270.0
 51
90.0
  0
LINE
  5
3187
  8
AM_0
 10
297.02031111863539
 20
1145.2267143316369
 30
0.0
 11
297.02031111863539
 21
1135.2267143316369
 31
0.0
  0
LINE
  5
3188
  8
AM_0
 10
310.02031111863528
 20
1160.226714331636
 30
0.0
 11
310.02031111863528
 21
1120.226714331636
 31
0.0
  0
LINE
  5
3189
  8
AM_0
 10
314.02031111863522
 20
1175.2267143316369
 30
0.0
 11
314.02031111863522
 21
1105.226714331636
 31
0.0
  0
LINE
  5
318A
  8
AM_0
 10
350.89100211863541
 20
1195.853956331636
 30
0.0
 11
350.89100211863541
 21
1084.272767331636
 31
0.0
  0
LINE
  5
318B
  8
AM_0
 10
316.02031111863522
 20
1195.278623331636
 30
0.0
 11
316.02031111863522
 21
1085.174806331637
 31
0.0
  0
LINE
  5
318C
  8
AM_0
 10
318.96795411863542
 20
1082.1752633316351
 30
0.0
 11
347.35035511863538
 21
1081.679846331637
 31
0.0
  0
ARC
  5
318D
  8
AM_0
 10
319.02031111863522
 20
1085.174806331637
 30
0.0
 40
3.0
 50
180.0
 51
268.99999999999812
  0
LINE
  5
318E
  8
AM_0
 10
310.02031111863528
 20
1120.226714331636
 30
0.0
 11
314.02031111863522
 21
1120.226714331636
 31
0.0
  0
LINE
  5
318F
  8
AM_0
 10
314.02031111863522
 20
1105.226714331636
 30
0.0
 11
316.02031111863522
 21
1103.226714331636
 31
0.0
  0
ARC
  5
3190
  8
AM_0
 10
347.17583111863541
 20
1071.681369331636
 30
0.0
 40
10.0
 50
49.999999999999922
 51
89.000000000001506
  0
LINE
  5
3191
  8
AM_0
 10
406.12192211863538
 20
1059.255507331636
 30
0.0
 11
404.39129511863541
 21
1074.696336331637
 31
0.0
  0
LINE
  5
3192
  8
AM_0
 10
404.09250311863508
 20
1058.3205503316369
 30
0.0
 11
404.09250311863508
 21
1073.1102193316351
 31
0.0
  0
ARC
  5
3193
  8
AM_0
 10
401.46657911863542
 20
1055.320550331636
 30
0.0
 40
3.0
 50
7.6081479999973398
 51
68.357691000000074
  0
ARC
  5
3194
  8
AM_0
 10
410.09703211863541
 20
1059.701042331636
 30
0.0
 40
4.0
 50
186.39509300000049
 51
270.0
  0
ARC
  5
3195
  8
AM_0
 10
401.40996211863512
 20
1074.3621843316371
 30
0.0
 40
3.0
 50
6.3950930000006609
 51
71.53841099999886
  0
LINE
  5
3196
  8
AM_0
 10
318.96795411863542
 20
1198.2781663316371
 30
0.0
 11
347.35035511863538
 21
1198.773582331637
 31
0.0
  0
LINE
  5
3197
  8
AM_0
 10
314.02031111863522
 20
1160.226714331636
 30
0.0
 11
310.02031111863528
 21
1160.226714331636
 31
0.0
  0
LINE
  5
3198
  8
AM_0
 10
314.02031111863522
 20
1175.2267143316369
 30
0.0
 11
316.02031111863522
 21
1177.2267143316369
 31
0.0
  0
ARC
  5
3199
  8
AM_0
 10
319.02031111863522
 20
1195.278623331636
 30
0.0
 40
3.0
 50
90.999999999998494
 51
180.0
  0
ARC
  5
319A
  8
AM_0
 10
347.17583111863541
 20
1208.7720593316369
 30
0.0
 40
10.0
 50
270.99999999999841
 51
310.0
  0
ARC
  5
319B
  8
AM_0
 10
401.40996211863512
 20
1206.0912443316361
 30
0.0
 40
3.0
 50
288.46158900000108
 51
353.60490699999917
  0
LINE
  5
319C
  8
AM_0
 10
404.09250311863508
 20
1222.132878331636
 30
0.0
 11
404.09250311863508
 21
1207.3432093316369
 31
0.0
  0
LINE
  5
319D
  8
AM_0
 10
406.12192211863538
 20
1221.197921331637
 30
0.0
 11
404.39129511863541
 21
1205.7570923316359
 31
0.0
  0
LINE
  5
319E
  8
AM_0
 10
432.52031111863511
 20
1156.976487602155
 30
0.0
 11
432.52031111863511
 21
1123.476941061117
 31
0.0
  0
LINE
  5
319F
  8
AM_0
 10
414.52031111863522
 20
1212.188915331637
 30
0.0
 11
414.52031111863522
 21
1068.264513331635
 31
0.0
  0
LINE
  5
31A0
  8
AM_0
 10
418.52031111863528
 20
1064.2645133316371
 30
0.0
 11
432.52031111863511
 21
1064.2645133316371
 31
0.0
  0
ARC
  5
31A1
  8
AM_0
 10
418.52031111863528
 20
1068.264513331635
 30
0.0
 40
4.0
 50
180.0
 51
270.0
  0
LINE
  5
31A2
  8
AM_0
 10
432.52031111863511
 20
1055.7010423316351
 30
0.0
 11
434.52031111863539
 21
1057.701042331636
 31
0.0
  0
LINE
  5
31A3
  8
AM_0
 10
432.52031111863511
 20
1123.476941061117
 30
0.0
 11
414.52031111863522
 21
1123.476941061117
 31
0.0
  0
LINE
  5
31A4
  8
AM_0
 10
414.52031111863522
 20
1125.2267143316369
 30
0.0
 11
432.52031111863511
 21
1125.2267143316369
 31
0.0
  0
LINE
  5
31A5
  8
AM_0
 10
414.52031111863522
 20
1155.2267143316369
 30
0.0
 11
432.52031111863511
 21
1155.2267143316369
 31
0.0
  0
LINE
  5
31A6
  8
AM_0
 10
432.52031111863511
 20
1156.976487602155
 30
0.0
 11
414.52031111863522
 21
1156.976487602155
 31
0.0
  0
LINE
  5
31A7
  8
AM_0
 10
418.52031111863528
 20
1216.1889153316361
 30
0.0
 11
432.52031111863511
 21
1216.1889153316361
 31
0.0
  0
ARC
  5
31A8
  8
AM_0
 10
418.52031111863528
 20
1212.188915331637
 30
0.0
 40
4.0
 50
90.0
 51
180.0
  0
ARC
  5
31A9
  8
AM_0
 10
409.52031111863539
 20
1254.5582523316359
 30
0.0
 40
5.0
 50
310.0
 51
0.0
  0
LINE
  5
31AA
  8
AM_0
 10
432.52031111863511
 20
1240.3087353316371
 30
0.0
 11
410.0215441186354
 21
1240.3087353316371
 31
0.0
  0
LINE
  5
31AB
  8
AM_0
 10
432.52031111863511
 20
1224.752386331636
 30
0.0
 11
410.09703211863541
 21
1224.752386331636
 31
0.0
  0
ARC
  5
31AC
  8
AM_0
 10
410.0215441186354
 20
1236.3087353316371
 30
0.0
 40
4.0
 50
90.0
 51
172.39185199998951
  0
LINE
  5
31AD
  8
AM_0
 10
406.0567571186354
 20
1236.8383243316359
 30
0.0
 11
404.44016911863542
 21
1224.7356863316361
 31
0.0
  0
LINE
  5
31AE
  8
AM_0
 10
406.52031111863522
 20
1224.752386331636
 30
0.0
 11
406.52031111863522
 21
1235.498435331637
 31
0.0
  0
LINE
  5
31AF
  8
AM_0
 10
414.52031111863522
 20
1256.2267143316369
 30
0.0
 11
414.52031111863522
 21
1240.308734331637
 31
0.0
  0
LINE
  5
31B0
  8
AM_0
 10
432.52031111863511
 20
1240.3087353316371
 30
0.0
 11
434.52031111863539
 21
1238.3087353316371
 31
0.0
  0
LINE
  5
31B1
  8
AM_0
 10
432.52031111863511
 20
1224.752386331636
 30
0.0
 11
434.52031111863539
 21
1222.752386331636
 31
0.0
  0
LINE
  5
31B2
  8
AM_0
 10
432.52031111863511
 20
1240.3087353316371
 30
0.0
 11
432.52031111863511
 21
1224.752386331636
 31
0.0
  0
LINE
  5
31B3
  8
AM_0
 10
418.52031111863528
 20
1260.2267143316369
 30
0.0
 11
432.52031111863511
 21
1260.2267143316369
 31
0.0
  0
ARC
  5
31B4
  8
AM_0
 10
418.52031111863528
 20
1256.2267143316369
 30
0.0
 40
4.0
 50
90.0
 51
180.0
  0
LINE
  5
31B5
  8
AM_0
 10
432.52031111863511
 20
1260.2267143316369
 30
0.0
 11
434.52031111863539
 21
1258.2267143316369
 31
0.0
  0
LINE
  5
31B7
  8
AM_0
 10
771.02032111863423
 20
1130.226714331636
 30
0.0
 11
856.02032111863446
 21
1130.226714331636
 31
0.0
  0
LINE
  5
31B8
  8
AM_0
 10
856.02032111863446
 20
1150.2267143316369
 30
0.0
 11
771.02032111863423
 21
1150.2267143316369
 31
0.0
  0
LINE
  5
31B9
  8
AM_0
 10
856.02032111863446
 20
1105.226714331638
 30
0.0
 11
746.02032111863423
 21
1105.226714331638
 31
0.0
  0
LINE
  5
31BA
  8
AM_0
 10
746.02032111863423
 20
1175.2267143316369
 30
0.0
 11
856.02032111863446
 21
1175.2267143316369
 31
0.0
  0
LINE
  5
31BB
  8
ﾁｭｳｼﾝｾﾝ
 10
860.72760111863408
 20
1140.226714331636
 30
0.0
 11
239.89732236469811
 21
1140.226714331636
 31
0.0
  0
ARC
  5
31BC
  8
AM_0
 10
537.02031111863425
 20
1140.226714331636
 30
0.0
 40
20.0
 50
198.2099599999984
 51
341.79004000000128
  0
ARC
  5
31BD
  8
AM_0
 10
537.02031111863425
 20
1140.226714331636
 30
0.0
 40
15.0
 50
204.6243199999974
 51
335.37568000000249
  0
LINE
  5
31BE
  8
AM_0
 10
702.02032111863446
 20
917.76937433163823
 30
0.0
 11
702.02032111863446
 21
1362.6841143316381
 31
0.0
  0
LINE
  5
31BF
  8
AM_0
 10
702.02032111863446
 20
1362.6841143316381
 30
0.0
 11
702.02032111863446
 21
917.76937433163823
 31
0.0
  0
LINE
  5
31C0
  8
AM_0
 10
740.02032111863423
 20
945.22671433163805
 30
0.0
 11
740.02032111863423
 21
1335.226714331636
 31
0.0
  0
LINE
  5
31C1
  8
AM_0
 10
713.02032111863434
 20
1302.853014331637
 30
0.0
 11
713.02032111863434
 21
977.60031433163817
 31
0.0
  0
LINE
  5
31C2
  8
AM_0
 10
734.02032111863423
 20
1370.2267143316369
 30
0.0
 11
734.02032111863423
 21
910.22671433163816
 31
0.0
  0
LINE
  5
31C3
  8
AM_0
 10
746.02032111863423
 20
1177.7267143316369
 30
0.0
 11
746.02032111863423
 21
1102.726714331638
 31
0.0
  0
LINE
  5
31C4
  8
AM_0
 10
492.52031111863448
 20
1256.9808143316379
 30
0.0
 11
492.52031111863448
 21
1026.0412843316381
 31
0.0
  0
LINE
  5
31C5
  8
AM_0
 10
434.52031111863539
 20
1023.226714331638
 30
0.0
 11
434.52031111863539
 21
1140.226714331636
 31
0.0
  0
LINE
  5
31C6
  8
AM_0
 10
447.52031111863528
 20
1023.226714331638
 30
0.0
 11
447.52031111863528
 21
1140.226714331636
 31
0.0
  0
LINE
  5
31C7
  8
AM_0
 10
559.02032111863446
 20
951.22671433163816
 30
0.0
 11
559.02032111863446
 21
1133.976714331636
 31
0.0
  0
LINE
  5
31C8
  8
AM_0
 10
492.52031111863448
 20
1265.226714331636
 30
0.0
 11
492.52031111863448
 21
1015.226714331638
 31
0.0
  0
LINE
  5
31C9
  8
AM_0
 10
559.02032111863446
 20
973.22671433163805
 30
0.0
 11
694.2227811186342
 21
970.86679433163806
 31
0.0
  0
LINE
  5
31CA
  8
AM_0
 10
545.96801111863431
 20
951.45455433163818
 30
0.0
 11
690.22980111863433
 21
948.93649433163807
 31
0.0
  0
LINE
  5
31CB
  8
AM_0
 10
559.02032111863446
 20
1083.538784331638
 30
0.0
 11
690.22973111863439
 21
1085.8290743316379
 31
0.0
  0
LINE
  5
31CC
  8
AM_0
 10
559.02032111863446
 20
1054.7491743316371
 30
0.0
 11
690.22973111863439
 21
1052.458894331638
 31
0.0
  0
LINE
  5
31CD
  8
AM_0
 10
559.02032111863446
 20
987.79598433163824
 30
0.0
 11
677.29754111863451
 21
984.69876433163813
 31
0.0
  0
LINE
  5
31CE
  8
AM_0
 10
545.9417111186342
 20
964.33193433163763
 30
0.0
 11
697.15118111863433
 21
960.37240433163834
 31
0.0
  0
ARC
  5
31CF
  8
AM_0
 10
488.52031111863448
 20
1019.510464331637
 30
0.0
 40
4.0
 50
0.0
 51
89.000001000002214
  0
ARC
  5
31D0
  8
AM_0
 10
502.52031111863431
 20
1015.226714331638
 30
0.0
 40
10.0
 50
179.9999899999988
 51
270.0
  0
LINE
  5
31D1
  8
AM_0
 10
435.52031111863522
 20
1022.226714331638
 30
0.0
 11
446.52031111863448
 21
1022.226714331638
 31
0.0
  0
LINE
  5
31D2
  8
AM_0
 10
434.52031111863539
 20
1023.226774331638
 30
0.0
 11
435.52031111863522
 21
1022.226774331637
 31
0.0
  0
LINE
  5
31D3
  8
AM_0
 10
448.02911111863432
 20
1024.2178643316381
 30
0.0
 11
488.59011111863452
 21
1023.5098543316381
 31
0.0
  0
ARC
  5
31D4
  8
AM_0
 10
448.02031111863522
 20
1023.717924331638
 30
0.0
 40
0.5
 50
89.000001000002214
 51
180.00001000000091
  0
ARC
  5
31D5
  8
AM_0
 10
446.52031111863448
 20
1023.226714331638
 30
0.0
 40
1.0
 50
270.0
 51
0.0
  0
LINE
  5
31D6
  8
AM_0
 10
435.49921111863421
 20
1065.789764331638
 30
0.0
 11
446.52811111863429
 21
1065.789764331638
 31
0.0
  0
LINE
  5
31D7
  8
AM_0
 10
434.52031111863539
 20
1056.0558743316381
 30
0.0
 11
445.52031111863539
 21
1056.0558743316381
 31
0.0
  0
LINE
  5
31D8
  8
AM_0
 10
434.52031111863539
 20
1040.499544331637
 30
0.0
 11
445.52031111863539
 21
1040.499544331637
 31
0.0
  0
LINE
  5
31D9
  8
AM_0
 10
447.52031111863528
 20
1068.394314331638
 30
0.0
 11
492.52031111863448
 21
1068.394314331638
 31
0.0
  0
LINE
  5
31DA
  8
AM_0
 10
447.52031111863528
 20
1049.1437643316381
 30
0.0
 11
492.52031111863448
 21
1049.1437643316381
 31
0.0
  0
ARC
  5
31DB
  8
AM_0
 10
445.52031111863539
 20
1042.4995443316379
 30
0.0
 40
2.0
 50
270.0
 51
0.0
  0
ARC
  5
31DC
  8
AM_0
 10
445.52031111863539
 20
1058.0558743316381
 30
0.0
 40
2.0
 50
270.0
 51
0.0
  0
LINE
  5
31DD
  8
AM_0
 10
543.02031111863425
 20
1112.298214331636
 30
0.0
 11
543.02031111863425
 21
954.45407433163825
 31
0.0
  0
LINE
  5
31DE
  8
AM_0
 10
546.02031111863425
 20
973.22671433163805
 30
0.0
 11
559.02032111863446
 21
973.22671433163805
 31
0.0
  0
LINE
  5
31DF
  8
AM_0
 10
546.02031111863425
 20
987.79598433163824
 30
0.0
 11
559.02032111863446
 21
987.79598433163824
 31
0.0
  0
ARC
  5
31E0
  8
AM_0
 10
546.02031111863425
 20
954.45407433163825
 30
0.0
 40
3.0
 50
179.9999899999988
 51
269.0000099999981
  0
ARC
  5
31E1
  8
AM_0
 10
546.02031111863425
 20
967.33096433163814
 30
0.0
 40
3.0
 50
179.9999899999988
 51
268.50000999999878
  0
ARC
  5
31E2
  8
AM_0
 10
546.02031111863425
 20
976.22671433163816
 30
0.0
 40
3.0
 50
179.9999899999988
 51
270.0
  0
LINE
  5
31E3
  8
AM_0
 10
502.52031111863431
 20
1005.226714331638
 30
0.0
 11
539.02031111863437
 21
1005.226714331638
 31
0.0
  0
ARC
  5
31E4
  8
AM_0
 10
539.02031111863437
 20
1001.226714331638
 30
0.0
 40
4.0
 50
0.0
 51
90.00000299999769
  0
ARC
  5
31E5
  8
AM_0
 10
546.02031111863425
 20
990.79598433163744
 30
0.0
 40
3.0
 50
179.9999899999988
 51
270.0
  0
LINE
  5
31E6
  8
AM_0
 10
543.02031111863425
 20
1055.226714331638
 30
0.0
 11
559.02032111863446
 21
1055.226714331638
 31
0.0
  0
LINE
  5
31E7
  8
AM_0
 10
559.02032111863446
 20
1083.5388443316381
 30
0.0
 11
543.02031111863425
 21
1083.5388443316381
 31
0.0
  0
ARC
  5
31E8
  8
AM_0
 10
535.02031111863437
 20
1112.298214331636
 30
0.0
 40
8.0
 50
0.0
 51
85.903958999999659
  0
LINE
  5
31E9
  8
AM_0
 10
734.02032111863423
 20
910.22671433163816
 30
0.0
 11
714.02032111863434
 21
910.22671433163816
 31
0.0
  0
ARC
  5
31EA
  8
AM_0
 10
707.02032111863434
 20
917.76937433163823
 30
0.0
 40
5.0
 50
179.9999899999988
 51
270.0
  0
ARC
  5
31EB
  8
AM_0
 10
714.02032111863434
 20
911.22671433163805
 30
0.0
 40
1.0
 50
179.9999899999988
 51
270.0
  0
ARC
  5
31EC
  8
AM_0
 10
712.02032111863446
 20
911.76937433163812
 30
0.0
 40
1.0
 50
0.0
 51
90.00000299999769
  0
LINE
  5
31ED
  8
AM_0
 10
713.02032111863434
 20
911.22671433163805
 30
0.0
 11
713.02032111863434
 21
911.76937433163812
 31
0.0
  0
LINE
  5
31EE
  8
AM_0
 10
712.02032111863446
 20
912.76937433163789
 30
0.0
 11
707.02032111863434
 21
912.76937433163789
 31
0.0
  0
LINE
  5
31EF
  8
AM_0
 10
660.23443111863435
 20
1009.287934331638
 30
0.0
 11
694.28644111863434
 21
1009.287934331638
 31
0.0
  0
LINE
  5
31F0
  8
AM_0
 10
656.57489111863447
 20
1001.634184331636
 30
0.0
 11
702.02032111863446
 21
964.49435433163808
 31
0.0
  0
LINE
  5
31F1
  8
AM_0
 10
656.57489111863447
 20
1009.287934331638
 30
0.0
 11
702.02032111863446
 21
971.49435433163808
 31
0.0
  0
ARC
  5
31F2
  8
AM_0
 10
690.02032111863434
 20
936.93826433163815
 30
0.0
 40
12.0
 50
0.0
 51
89.000001000002214
  0
LINE
  5
31F3
  8
AM_0
 10
702.02032111863446
 20
973.60031433163806
 30
0.0
 11
709.02032111863446
 21
973.60031433163806
 31
0.0
  0
ARC
  5
31F4
  8
AM_0
 10
697.02032111863434
 20
955.37411433163766
 30
0.0
 40
5.0
 50
0.0
 51
88.499997000000647
  0
ARC
  5
31F5
  8
AM_0
 10
709.02032111863446
 20
977.60031433163817
 30
0.0
 40
4.0
 50
270.0
 51
0.0
  0
ARC
  5
31F6
  8
AM_0
 10
697.02032111863434
 20
1004.287934331637
 30
0.0
 40
5.0
 50
0.0
 51
90.00000299999769
  0
ARC
  5
31F7
  8
AM_0
 10
690.02032111863434
 20
1040.460724331637
 30
0.0
 40
12.0
 50
0.0
 51
89.000001000002214
  0
LINE
  5
31F8
  8
AM_0
 10
702.02032111863446
 20
1035.0028943316379
 30
0.0
 11
709.02032111863446
 21
1035.0028943316379
 31
0.0
  0
ARC
  5
31F9
  8
AM_0
 10
690.02032111863434
 20
1097.8272143316381
 30
0.0
 40
12.0
 50
271.00000000000171
 51
0.0
  0
LINE
  5
31FA
  8
AM_0
 10
734.02032111863423
 20
945.22671433163805
 30
0.0
 11
740.02032111863423
 21
945.22671433163805
 31
0.0
  0
LINE
  5
31FB
  8
AM_0
 10
740.02032111863423
 20
1102.726714331638
 30
0.0
 11
746.02032111863423
 21
1102.726714331638
 31
0.0
  0
LINE
  5
31FC
  8
AM_0
 10
559.02032111863446
 20
1225.704214331638
 30
0.0
 11
690.22973111863439
 21
1227.994514331637
 31
0.0
  0
LINE
  5
31FD
  8
AM_0
 10
559.02032111863446
 20
1196.9146143316359
 30
0.0
 11
690.22980111863433
 21
1194.624314331636
 31
0.0
  0
LINE
  5
31FE
  8
AM_0
 10
545.94181111863429
 20
1316.1214143316381
 30
0.0
 11
697.15118111863433
 21
1320.080914331638
 31
0.0
  0
LINE
  5
31FF
  8
AM_0
 10
559.02032111863446
 20
1292.657514331637
 30
0.0
 11
677.29754111863451
 21
1295.7547143316381
 31
0.0
  0
LINE
  5
3200
  8
AM_0
 10
545.96791111863536
 20
1328.9989143316379
 30
0.0
 11
690.22973111863439
 21
1331.517014331637
 31
0.0
  0
LINE
  5
3201
  8
AM_0
 10
559.02032111863446
 20
1307.226714331638
 30
0.0
 11
694.22284111863451
 21
1309.586614331638
 31
0.0
  0
ARC
  5
3202
  8
AM_0
 10
487.52031111863539
 20
1261.9257143316379
 30
0.0
 40
5.0
 50
271.00000000000171
 51
0.0
  0
ARC
  5
3203
  8
AM_0
 10
502.52031111863431
 20
1265.226714331636
 30
0.0
 40
10.0
 50
90.00000299999769
 51
180.00001000000091
  0
LINE
  5
3204
  8
AM_0
 10
434.52031111863539
 20
1257.226714331636
 30
0.0
 11
434.52031111863539
 21
1140.226714331636
 31
0.0
  0
LINE
  5
3205
  8
AM_0
 10
447.52031111863528
 20
1257.226714331636
 30
0.0
 11
447.52031111863528
 21
1140.226714331636
 31
0.0
  0
LINE
  5
3206
  8
AM_0
 10
434.52031111863539
 20
1224.397614331637
 30
0.0
 11
445.52031111863539
 21
1224.397614331637
 31
0.0
  0
LINE
  5
3207
  8
AM_0
 10
435.49921111863421
 20
1214.6637143316379
 30
0.0
 11
446.52811111863429
 21
1214.6637143316379
 31
0.0
  0
LINE
  5
3208
  8
AM_0
 10
447.52031111863528
 20
1212.0591143316369
 30
0.0
 11
492.52031111863448
 21
1212.0591143316369
 31
0.0
  0
ARC
  5
3209
  8
AM_0
 10
445.52031111863539
 20
1222.397614331637
 30
0.0
 40
2.0
 50
0.0
 51
90.00000299999769
  0
LINE
  5
320A
  8
AM_0
 10
435.52031111863522
 20
1258.2267143316369
 30
0.0
 11
446.52031111863448
 21
1258.2267143316369
 31
0.0
  0
LINE
  5
320B
  8
AM_0
 10
434.52031111863539
 20
1239.9540143316381
 30
0.0
 11
445.52031111863539
 21
1239.9540143316381
 31
0.0
  0
LINE
  5
320C
  8
AM_0
 10
434.52031111863539
 20
1257.226714331636
 30
0.0
 11
435.52031111863522
 21
1258.2267143316369
 31
0.0
  0
LINE
  5
320D
  8
AM_0
 10
448.02911111863432
 20
1256.235614331637
 30
0.0
 11
487.60761111863428
 21
1256.9264143316379
 31
0.0
  0
LINE
  5
320E
  8
AM_0
 10
447.52031111863528
 20
1231.3097143316361
 30
0.0
 11
492.52031111863448
 21
1231.3097143316361
 31
0.0
  0
ARC
  5
320F
  8
AM_0
 10
445.52031111863539
 20
1237.954014331636
 30
0.0
 40
2.0
 50
0.0
 51
90.00000299999769
  0
ARC
  5
3210
  8
AM_0
 10
446.52031111863448
 20
1257.226714331636
 30
0.0
 40
1.0
 50
0.0
 51
90.00000299999769
  0
ARC
  5
3211
  8
AM_0
 10
448.02031111863522
 20
1256.7355143316361
 30
0.0
 40
0.5
 50
179.9999899999988
 51
271.00000000000171
  0
LINE
  5
3212
  8
AM_0
 10
543.02031111863425
 20
1325.999314331636
 30
0.0
 11
543.02031111863425
 21
1168.155214331636
 31
0.0
  0
LINE
  5
3213
  8
AM_0
 10
559.02032111863446
 20
1329.226714331636
 30
0.0
 11
559.02032111863446
 21
1146.4767143316369
 31
0.0
  0
ARC
  5
3214
  8
AM_0
 10
537.02031111863425
 20
1140.226714331636
 30
0.0
 40
15.0
 50
24.624318000003381
 51
155.3756800000024
  0
ARC
  5
3215
  8
AM_0
 10
537.02031111863425
 20
1140.226714331636
 30
0.0
 40
20.0
 50
18.209957000000301
 51
161.7900400000014
  0
LINE
  5
3216
  8
AM_0
 10
559.02032111863446
 20
1196.9147143316361
 30
0.0
 11
543.02031111863425
 21
1196.9147143316361
 31
0.0
  0
LINE
  5
3217
  8
AM_0
 10
543.02031111863425
 20
1225.2267143316369
 30
0.0
 11
559.02032111863446
 21
1225.2267143316369
 31
0.0
  0
LINE
  5
3218
  8
AM_0
 10
513.27031111863505
 20
1146.4767143316369
 30
0.0
 11
560.77032111863446
 21
1146.4767143316369
 31
0.0
  0
LINE
  5
3219
  8
AM_0
 10
513.27031111863505
 20
1133.976714331636
 30
0.0
 11
560.77032111863446
 21
1133.976714331636
 31
0.0
  0
ARC
  5
321A
  8
AM_0
 10
513.27031111863505
 20
1140.226714331636
 30
0.0
 40
6.25
 50
90.00000299999769
 51
270.0
  0
ARC
  5
321B
  8
AM_0
 10
535.02031111863437
 20
1168.155214331636
 30
0.0
 40
8.0
 50
274.09603999999791
 51
0.0
  0
ARC
  5
321C
  8
AM_0
 10
560.77032111863446
 20
1140.226714331636
 30
0.0
 40
6.25
 50
270.0
 51
90.00000299999769
  0
CIRCLE
  5
321D
  8
AM_0
 10
589.02032111863446
 20
1140.226714331636
 30
0.0
 40
10.0
  0
LINE
  5
321E
  8
AM_0
 10
594.79382111863436
 20
1140.226714331636
 30
0.0
 11
591.90710111863439
 21
1145.2267143316369
 31
0.0
  0
LINE
  5
321F
  8
AM_0
 10
591.90704111863431
 20
1135.2267143316369
 30
0.0
 11
594.79382111863436
 21
1140.226714331636
 31
0.0
  0
LINE
  5
3220
  8
AM_0
 10
591.90710111863439
 20
1145.2267143316369
 30
0.0
 11
586.1335411186343
 21
1145.2267143316369
 31
0.0
  0
LINE
  5
3221
  8
AM_0
 10
586.1335411186343
 20
1135.2267143316369
 30
0.0
 11
591.90710111863439
 21
1135.2267143316369
 31
0.0
  0
LINE
  5
3222
  8
AM_0
 10
583.24682111863433
 20
1140.226714331636
 30
0.0
 11
586.1335411186343
 21
1135.2267143316369
 31
0.0
  0
LINE
  5
3223
  8
AM_0
 10
586.1335411186343
 20
1145.2267143316369
 30
0.0
 11
583.24682111863433
 21
1140.226714331636
 31
0.0
  0
LINE
  5
3224
  8
AM_0
 10
546.02031111863425
 20
1307.226714331638
 30
0.0
 11
559.02032111863446
 21
1307.226714331638
 31
0.0
  0
LINE
  5
3225
  8
AM_0
 10
546.02031111863425
 20
1292.657514331637
 30
0.0
 11
559.02032111863446
 21
1292.657514331637
 31
0.0
  0
LINE
  5
3226
  8
AM_0
 10
539.02031111863437
 20
1275.2267143316369
 30
0.0
 11
502.52031111863431
 21
1275.2267143316369
 31
0.0
  0
ARC
  5
3227
  8
AM_0
 10
539.02031111863437
 20
1279.226714331636
 30
0.0
 40
4.0
 50
270.0
 51
0.0
  0
ARC
  5
3228
  8
AM_0
 10
546.02031111863425
 20
1304.2267143316369
 30
0.0
 40
3.0
 50
90.00000299999769
 51
180.00001000000091
  0
ARC
  5
3229
  8
AM_0
 10
546.02031111863425
 20
1289.657514331637
 30
0.0
 40
3.0
 50
90.00000299999769
 51
180.00001000000091
  0
ARC
  5
322A
  8
AM_0
 10
546.02031111863425
 20
1325.999314331636
 30
0.0
 40
3.0
 50
90.999997000003077
 51
180.00001000000091
  0
ARC
  5
322B
  8
AM_0
 10
546.02031111863425
 20
1313.1225143316381
 30
0.0
 40
3.0
 50
91.500001000001546
 51
180.00001000000091
  0
ARC
  5
322C
  8
AM_0
 10
690.02032111863434
 20
1343.5152143316379
 30
0.0
 40
12.0
 50
271.00000000000171
 51
0.0
  0
ARC
  5
322D
  8
AM_0
 10
690.02032111863434
 20
1239.992714331637
 30
0.0
 40
12.0
 50
271.00000000000171
 51
0.0
  0
LINE
  5
322E
  8
AM_0
 10
659.57489111863435
 20
1147.2267143316369
 30
0.0
 11
702.02032111863446
 21
1147.2267143316369
 31
0.0
  0
LINE
  5
322F
  8
AM_0
 10
659.57489111863435
 20
1133.2267143316369
 30
0.0
 11
702.02032111863446
 21
1133.2267143316369
 31
0.0
  0
ARC
  5
3230
  8
AM_0
 10
659.57489111863435
 20
1150.2267143316369
 30
0.0
 40
3.0
 50
179.9999899999988
 51
270.0
  0
ARC
  5
3231
  8
AM_0
 10
659.57489111863435
 20
1130.226714331636
 30
0.0
 40
3.0
 50
90.00000299999769
 51
180.00001000000091
  0
ARC
  5
3232
  8
AM_0
 10
690.02032111863434
 20
1182.6261143316381
 30
0.0
 40
12.0
 50
0.0
 51
89.000001000002214
  0
LINE
  5
3233
  8
AM_0
 10
656.57483111863439
 20
1271.1655143316359
 30
0.0
 11
702.02026111863427
 21
1308.9591143316379
 31
0.0
  0
LINE
  5
3234
  8
AM_0
 10
656.57489111863447
 20
1278.819214331638
 30
0.0
 11
702.02032111863446
 21
1315.9591143316379
 31
0.0
  0
LINE
  5
3235
  8
AM_0
 10
660.23443111863435
 20
1271.1655143316359
 30
0.0
 11
694.28644111863434
 21
1271.1655143316359
 31
0.0
  0
LINE
  5
3236
  8
AM_0
 10
702.02032111863446
 20
1245.4506143316371
 30
0.0
 11
709.02032111863446
 21
1245.4506143316371
 31
0.0
  0
ARC
  5
3237
  8
AM_0
 10
697.02032111863434
 20
1276.165514331638
 30
0.0
 40
5.0
 50
270.0
 51
0.0
  0
ARC
  5
3238
  8
AM_0
 10
709.02032111863446
 20
1302.853014331637
 30
0.0
 40
4.0
 50
0.0
 51
90.00000299999769
  0
LINE
  5
3239
  8
AM_0
 10
702.02032111863446
 20
1306.853014331638
 30
0.0
 11
709.02032111863446
 21
1306.853014331638
 31
0.0
  0
LINE
  5
323A
  8
AM_0
 10
702.02032111863446
 20
1306.853014331638
 30
0.0
 11
709.02032111863446
 21
1306.853014331638
 31
0.0
  0
ARC
  5
323B
  8
AM_0
 10
697.02032111863434
 20
1325.079214331638
 30
0.0
 40
5.0
 50
271.50000000000261
 51
0.0
  0
LINE
  5
323C
  8
AM_0
 10
740.02032111863423
 20
1177.7267143316369
 30
0.0
 11
746.02032111863423
 21
1177.7267143316369
 31
0.0
  0
ARC
  5
323D
  8
AM_0
 10
771.02032111863423
 20
1140.226714331636
 30
0.0
 40
10.0
 50
90.00000299999769
 51
270.0
  0
LINE
  5
323E
  8
AM_0
 10
771.02032111863423
 20
1150.2267143316369
 30
0.0
 11
771.02032111863423
 21
1130.226714331636
 31
0.0
  0
LINE
  5
323F
  8
AM_0
 10
734.02032111863423
 20
1370.2267143316369
 30
0.0
 11
714.02032111863434
 21
1370.2267143316369
 31
0.0
  0
ARC
  5
3240
  8
AM_0
 10
707.02032111863434
 20
1362.6841143316381
 30
0.0
 40
5.0
 50
90.00000299999769
 51
180.00001000000091
  0
ARC
  5
3241
  8
AM_0
 10
707.02032111863434
 20
1362.6841143316381
 30
0.0
 40
5.0
 50
90.00000299999769
 51
180.00001000000091
  0
ARC
  5
3242
  8
AM_0
 10
712.02032111863446
 20
1368.6841143316369
 30
0.0
 40
1.0
 50
270.0
 51
0.0
  0
ARC
  5
3243
  8
AM_0
 10
714.02032111863434
 20
1369.2267143316369
 30
0.0
 40
1.0
 50
90.00000299999769
 51
180.00001000000091
  0
LINE
  5
3244
  8
AM_0
 10
712.02032111863446
 20
1367.6841143316369
 30
0.0
 11
707.02032111863434
 21
1367.6841143316369
 31
0.0
  0
LINE
  5
3245
  8
AM_0
 10
713.02032111863434
 20
1369.2267143316369
 30
0.0
 11
713.02032111863434
 21
1368.6841143316369
 31
0.0
  0
LINE
  5
3246
  8
AM_0
 10
740.02032111863423
 20
1335.226714331636
 30
0.0
 11
734.02032111863423
 21
1335.226714331636
 31
0.0
  0
LINE
  5
3247
  8
AM_0
 10
856.02032111863446
 20
1175.2267143316369
 30
0.0
 11
856.02032111863446
 21
1105.226714331638
 31
0.0
  0
ARC
  5
3248
  8
ﾁｭｳｼﾝｾﾝ1
 10
1250.514131357651
 20
495.0385337448688
 30
0.0
 40
270.00000599999998
 50
130.33016399999991
 51
139.6698369999998
  0
LINE
  5
3249
  8
ﾁｭｳｼﾝｾﾝ1
 10
1075.151639357651
 20
670.40103174486876
 30
0.0
 11
1044.0389513576511
 21
701.51367174486893
 31
0.0
  0
ARC
  5
324A
  8
ﾁｭｳｼﾝｾﾝ1
 10
1250.514131357651
 20
495.0385337448688
 30
0.0
 40
270.00000599999998
 50
310.33015999999992
 51
319.66984000000002
  0
LINE
  5
324B
  8
ﾁｭｳｼﾝｾﾝ1
 10
1425.8766233576521
 20
319.67607174486892
 30
0.0
 11
1456.98929935765
 21
288.5633657448688
 31
0.0
  0
TEXT
  5
342B
  8
AM_0
 10
1047.7562999221491
 20
1155.374205537983
 30
0.0
 40
20.0
  1
VX75-040GF~VX75-080GF
  0
ENDSEC
  0
EOF
